  0
SECTION
  2
HEADER
  9
$EXTMIN
 10
1.158960
 20
3.850880
  9
$EXTMAX
 10
2.219360
 20
5.959800
  9
$LTSCALE
 40
0.044000
  9
$PDMODE
 70
    35
  9
$PDSIZE
 40
0.035200
  0
ENDSEC
  0
SECTION
  2
TABLES
  0
TABLE
  2
LTYPE
 70
     9
  0
LTYPE
  2
CONTINUOUS
 70
    64
  3
Solid line
 72
    65
 73
     0
 40
0.000000
  0
LTYPE
  2
DASHED
 70
    64
  3
__ __ __ __ __ __ __ __ __ __ __ __ __ __ __
 72
    65
 73
     2
 40
0.000330
 49
0.000220
 49
-0.000110
  0
LTYPE
  2
HIDDEN
 70
    64
  3
 _ _ _ _ _ _ _ _ _ _ _ _ _ _ _ _ _ _ _ _ _ _
 72
    65
 73
     2
 40
0.000165
 49
0.000110
 49
-0.000055
  0
LTYPE
  2
CENTER
 70
    64
  3
____ _ ____ _ ____ _ ____ _ ____ _ ____ _ ____
 72
    65
 73
     4
 40
0.000880
 49
0.000550
 49
-0.000110
 49
0.000110
 49
-0.000110
  0
LTYPE
  2
PHANTOM
 70
    64
  3
_____ _ _ _____ _ _ _____ _ _ _____ _ _ ____
 72
    65
 73
     6
 40
0.001100
 49
0.000550
 49
-0.000110
 49
0.000110
 49
-0.000110
 49
0.000110
 49
-0.000110
  0
LTYPE
  2
DOT
 70
    64
  3
...............................................
 72
    65
 73
     2
 40
0.000110
 49
0.000000
 49
-0.000110
  0
LTYPE
  2
DASHDOT
 70
    64
  3
__ . __ . __ . __ . __ . __ . __ . __ . __ . __
 72
    65
 73
     4
 40
0.000440
 49
0.000220
 49
-0.000110
 49
0.000000
 49
-0.000110
  0
LTYPE
  2
BORDER
 70
    64
  3
__ __ . __ __ . __ __ . __ __ . __ __ . __ __
 72
    65
 73
     6
 40
0.000770
 49
0.000220
 49
-0.000110
 49
0.000220
 49
-0.000110
 49
0.000000
 49
-0.000110
  0
LTYPE
  2
DIVIDE
 70
    64
  3
__ . . __ . . __ . . __ . . __ . . __ . . __
 72
    65
 73
     6
 40
0.000550
 49
0.000220
 49
-0.000110
 49
0.000000
 49
-0.000110
 49
0.000000
 49
-0.000110
  0
LTYPE
  2
DOTDOT
 70
    64
  3
 . .  . .  . .  . .  . .  . . 
 72
    65
 73
     5
 40
0.000242
 49
-0.000110
 49
0.000000
 49
-0.000110
 49
0.000000
 49
-0.000110
  0
ENDTAB
  0
TABLE
  2
STYLE
 70
     0
  0
ENDTAB
  0
TABLE
  2
LAYER
 70
     3
  0
LAYER
  2
FOREGROUND
 70
    64
 62
     7
  6
CONTINUOUS
  0
LAYER
  2
BACKGROUND
 70
    65
 62
    -7
  6
CONTINUOUS
  0
LAYER
  2
0
 70
    64
 62
     7
  6
CONTINUOUS
  0
ENDTAB
  0
ENDSEC
  0
SECTION
  2
ENTITIES
  0
POLYLINE
  8
0
 62
     0
  6
CONTINUOUS
 66
     1
 40
0.010560
 41
0.010560
  0
VERTEX
  8
0
 62
     0
  6
CONTINUOUS
 10
1.220560
 20
3.858360
  0
VERTEX
  8
0
 62
     0
  6
CONTINUOUS
 10
2.156880
 20
3.858360
  0
SEQEND
  8
0
  0
POLYLINE
  8
0
 62
     0
  6
CONTINUOUS
 66
     1
 40
0.010560
 41
0.010560
  0
VERTEX
  8
0
 62
     0
  6
CONTINUOUS
 10
1.166000
 20
3.903680
  0
VERTEX
  8
0
 62
     0
  6
CONTINUOUS
 10
1.164680
 20
3.914240
  0
SEQEND
  8
0
  0
POLYLINE
  8
0
 62
     0
  6
CONTINUOUS
 66
     1
 40
0.010560
 41
0.010560
  0
VERTEX
  8
0
 62
     0
  6
CONTINUOUS
 10
1.164680
 20
3.914240
  0
VERTEX
  8
0
 62
     0
  6
CONTINUOUS
 10
1.164680
 20
5.898640
  0
SEQEND
  8
0
  0
POLYLINE
  8
0
 62
     0
  6
CONTINUOUS
 66
     1
 40
0.010560
 41
0.010560
  0
VERTEX
  8
0
 62
     0
  6
CONTINUOUS
 10
1.164680
 20
5.898640
  0
VERTEX
  8
0
 62
     0
  6
CONTINUOUS
 10
1.166000
 20
5.909640
  0
SEQEND
  8
0
  0
POLYLINE
  8
0
 62
     0
  6
CONTINUOUS
 66
     1
 40
0.010560
 41
0.010560
  0
VERTEX
  8
0
 62
     0
  6
CONTINUOUS
 10
1.166000
 20
5.909640
  0
VERTEX
  8
0
 62
     0
  6
CONTINUOUS
 10
1.168640
 20
5.921080
  0
SEQEND
  8
0
  0
POLYLINE
  8
0
 62
     0
  6
CONTINUOUS
 66
     1
 40
0.010560
 41
0.010560
  0
VERTEX
  8
0
 62
     0
  6
CONTINUOUS
 10
1.168640
 20
5.921080
  0
VERTEX
  8
0
 62
     0
  6
CONTINUOUS
 10
1.174360
 20
5.929880
  0
SEQEND
  8
0
  0
POLYLINE
  8
0
 62
     0
  6
CONTINUOUS
 66
     1
 40
0.010560
 41
0.010560
  0
VERTEX
  8
0
 62
     0
  6
CONTINUOUS
 10
1.174360
 20
5.929880
  0
VERTEX
  8
0
 62
     0
  6
CONTINUOUS
 10
1.180960
 20
5.938680
  0
SEQEND
  8
0
  0
POLYLINE
  8
0
 62
     0
  6
CONTINUOUS
 66
     1
 40
0.010560
 41
0.010560
  0
VERTEX
  8
0
 62
     0
  6
CONTINUOUS
 10
1.180960
 20
5.938680
  0
VERTEX
  8
0
 62
     0
  6
CONTINUOUS
 10
1.189320
 20
5.945720
  0
SEQEND
  8
0
  0
POLYLINE
  8
0
 62
     0
  6
CONTINUOUS
 66
     1
 40
0.010560
 41
0.010560
  0
VERTEX
  8
0
 62
     0
  6
CONTINUOUS
 10
1.189320
 20
5.945720
  0
VERTEX
  8
0
 62
     0
  6
CONTINUOUS
 10
1.199440
 20
5.950560
  0
SEQEND
  8
0
  0
POLYLINE
  8
0
 62
     0
  6
CONTINUOUS
 66
     1
 40
0.010560
 41
0.010560
  0
VERTEX
  8
0
 62
     0
  6
CONTINUOUS
 10
1.199440
 20
5.950560
  0
VERTEX
  8
0
 62
     0
  6
CONTINUOUS
 10
1.209560
 20
5.954520
  0
SEQEND
  8
0
  0
POLYLINE
  8
0
 62
     0
  6
CONTINUOUS
 66
     1
 40
0.010560
 41
0.010560
  0
VERTEX
  8
0
 62
     0
  6
CONTINUOUS
 10
1.209560
 20
5.954520
  0
VERTEX
  8
0
 62
     0
  6
CONTINUOUS
 10
1.220560
 20
5.955400
  0
SEQEND
  8
0
  0
POLYLINE
  8
0
 62
     0
  6
CONTINUOUS
 66
     1
 40
0.010560
 41
0.010560
  0
VERTEX
  8
0
 62
     0
  6
CONTINUOUS
 10
1.220560
 20
5.955400
  0
VERTEX
  8
0
 62
     0
  6
CONTINUOUS
 10
2.156880
 20
5.955400
  0
SEQEND
  8
0
  0
POLYLINE
  8
0
 62
     0
  6
CONTINUOUS
 66
     1
 40
0.010560
 41
0.010560
  0
VERTEX
  8
0
 62
     0
  6
CONTINUOUS
 10
2.156880
 20
5.955400
  0
VERTEX
  8
0
 62
     0
  6
CONTINUOUS
 10
2.167880
 20
5.954520
  0
SEQEND
  8
0
  0
POLYLINE
  8
0
 62
     0
  6
CONTINUOUS
 66
     1
 40
0.010560
 41
0.010560
  0
VERTEX
  8
0
 62
     0
  6
CONTINUOUS
 10
2.167880
 20
5.954520
  0
VERTEX
  8
0
 62
     0
  6
CONTINUOUS
 10
2.178440
 20
5.950560
  0
SEQEND
  8
0
  0
POLYLINE
  8
0
 62
     0
  6
CONTINUOUS
 66
     1
 40
0.010560
 41
0.010560
  0
VERTEX
  8
0
 62
     0
  6
CONTINUOUS
 10
2.178440
 20
5.950560
  0
VERTEX
  8
0
 62
     0
  6
CONTINUOUS
 10
2.188120
 20
5.945720
  0
SEQEND
  8
0
  0
POLYLINE
  8
0
 62
     0
  6
CONTINUOUS
 66
     1
 40
0.010560
 41
0.010560
  0
VERTEX
  8
0
 62
     0
  6
CONTINUOUS
 10
2.188120
 20
5.945720
  0
VERTEX
  8
0
 62
     0
  6
CONTINUOUS
 10
2.196480
 20
5.938680
  0
SEQEND
  8
0
  0
POLYLINE
  8
0
 62
     0
  6
CONTINUOUS
 66
     1
 40
0.010560
 41
0.010560
  0
VERTEX
  8
0
 62
     0
  6
CONTINUOUS
 10
2.196480
 20
5.938680
  0
VERTEX
  8
0
 62
     0
  6
CONTINUOUS
 10
2.203520
 20
5.929880
  0
SEQEND
  8
0
  0
POLYLINE
  8
0
 62
     0
  6
CONTINUOUS
 66
     1
 40
0.010560
 41
0.010560
  0
VERTEX
  8
0
 62
     0
  6
CONTINUOUS
 10
2.203520
 20
5.929880
  0
VERTEX
  8
0
 62
     0
  6
CONTINUOUS
 10
2.209240
 20
5.921080
  0
SEQEND
  8
0
  0
POLYLINE
  8
0
 62
     0
  6
CONTINUOUS
 66
     1
 40
0.010560
 41
0.010560
  0
VERTEX
  8
0
 62
     0
  6
CONTINUOUS
 10
2.209240
 20
5.921080
  0
VERTEX
  8
0
 62
     0
  6
CONTINUOUS
 10
2.211880
 20
5.909640
  0
SEQEND
  8
0
  0
POLYLINE
  8
0
 62
     0
  6
CONTINUOUS
 66
     1
 40
0.010560
 41
0.010560
  0
VERTEX
  8
0
 62
     0
  6
CONTINUOUS
 10
2.211880
 20
5.909640
  0
VERTEX
  8
0
 62
     0
  6
CONTINUOUS
 10
2.213200
 20
5.898640
  0
SEQEND
  8
0
  0
POLYLINE
  8
0
 62
     0
  6
CONTINUOUS
 66
     1
 40
0.010560
 41
0.010560
  0
VERTEX
  8
0
 62
     0
  6
CONTINUOUS
 10
2.213200
 20
5.898640
  0
VERTEX
  8
0
 62
     0
  6
CONTINUOUS
 10
2.213200
 20
3.914240
  0
SEQEND
  8
0
  0
POLYLINE
  8
0
 62
     0
  6
CONTINUOUS
 66
     1
 40
0.010560
 41
0.010560
  0
VERTEX
  8
0
 62
     0
  6
CONTINUOUS
 10
2.213200
 20
3.914240
  0
VERTEX
  8
0
 62
     0
  6
CONTINUOUS
 10
2.211880
 20
3.903680
  0
SEQEND
  8
0
  0
POLYLINE
  8
0
 62
     0
  6
CONTINUOUS
 66
     1
 40
0.010560
 41
0.010560
  0
VERTEX
  8
0
 62
     0
  6
CONTINUOUS
 10
2.211880
 20
3.903680
  0
VERTEX
  8
0
 62
     0
  6
CONTINUOUS
 10
2.209240
 20
3.893120
  0
SEQEND
  8
0
  0
POLYLINE
  8
0
 62
     0
  6
CONTINUOUS
 66
     1
 40
0.010560
 41
0.010560
  0
VERTEX
  8
0
 62
     0
  6
CONTINUOUS
 10
2.209240
 20
3.893120
  0
VERTEX
  8
0
 62
     0
  6
CONTINUOUS
 10
2.203520
 20
3.883000
  0
SEQEND
  8
0
  0
POLYLINE
  8
0
 62
     0
  6
CONTINUOUS
 66
     1
 40
0.010560
 41
0.010560
  0
VERTEX
  8
0
 62
     0
  6
CONTINUOUS
 10
2.203520
 20
3.883000
  0
VERTEX
  8
0
 62
     0
  6
CONTINUOUS
 10
2.196480
 20
3.874640
  0
SEQEND
  8
0
  0
POLYLINE
  8
0
 62
     0
  6
CONTINUOUS
 66
     1
 40
0.010560
 41
0.010560
  0
VERTEX
  8
0
 62
     0
  6
CONTINUOUS
 10
2.196480
 20
3.874640
  0
VERTEX
  8
0
 62
     0
  6
CONTINUOUS
 10
2.188120
 20
3.868040
  0
SEQEND
  8
0
  0
POLYLINE
  8
0
 62
     0
  6
CONTINUOUS
 66
     1
 40
0.010560
 41
0.010560
  0
VERTEX
  8
0
 62
     0
  6
CONTINUOUS
 10
2.188120
 20
3.868040
  0
VERTEX
  8
0
 62
     0
  6
CONTINUOUS
 10
2.178440
 20
3.862760
  0
SEQEND
  8
0
  0
POLYLINE
  8
0
 62
     0
  6
CONTINUOUS
 66
     1
 40
0.010560
 41
0.010560
  0
VERTEX
  8
0
 62
     0
  6
CONTINUOUS
 10
2.178440
 20
3.862760
  0
VERTEX
  8
0
 62
     0
  6
CONTINUOUS
 10
2.167880
 20
3.859680
  0
SEQEND
  8
0
  0
POLYLINE
  8
0
 62
     0
  6
CONTINUOUS
 66
     1
 40
0.010560
 41
0.010560
  0
VERTEX
  8
0
 62
     0
  6
CONTINUOUS
 10
2.167880
 20
3.859680
  0
VERTEX
  8
0
 62
     0
  6
CONTINUOUS
 10
2.156880
 20
3.858360
  0
SEQEND
  8
0
  0
POLYLINE
  8
0
 62
     0
  6
CONTINUOUS
 66
     1
 40
0.010560
 41
0.010560
  0
VERTEX
  8
0
 62
     0
  6
CONTINUOUS
 10
2.119480
 20
5.655320
  0
VERTEX
  8
0
 62
     0
  6
CONTINUOUS
 10
2.119480
 20
4.158000
  0
SEQEND
  8
0
  0
POLYLINE
  8
0
 62
     0
  6
CONTINUOUS
 66
     1
 40
0.010560
 41
0.010560
  0
VERTEX
  8
0
 62
     0
  6
CONTINUOUS
 10
2.119480
 20
4.158000
  0
VERTEX
  8
0
 62
     0
  6
CONTINUOUS
 10
1.257960
 20
4.158000
  0
SEQEND
  8
0
  0
POLYLINE
  8
0
 62
     0
  6
CONTINUOUS
 66
     1
 40
0.010560
 41
0.010560
  0
VERTEX
  8
0
 62
     0
  6
CONTINUOUS
 10
1.257960
 20
4.158000
  0
VERTEX
  8
0
 62
     0
  6
CONTINUOUS
 10
1.257960
 20
5.655320
  0
SEQEND
  8
0
  0
POLYLINE
  8
0
 62
     0
  6
CONTINUOUS
 66
     1
 40
0.010560
 41
0.010560
  0
VERTEX
  8
0
 62
     0
  6
CONTINUOUS
 10
1.257960
 20
5.655320
  0
VERTEX
  8
0
 62
     0
  6
CONTINUOUS
 10
2.119480
 20
5.655320
  0
SEQEND
  8
0
  0
POLYLINE
  8
0
 62
     0
  6
CONTINUOUS
 66
     1
 40
0.010560
 41
0.010560
  0
VERTEX
  8
0
 62
     0
  6
CONTINUOUS
 10
1.220560
 20
3.858360
  0
VERTEX
  8
0
 62
     0
  6
CONTINUOUS
 10
1.209560
 20
3.859680
  0
SEQEND
  8
0
  0
POLYLINE
  8
0
 62
     0
  6
CONTINUOUS
 66
     1
 40
0.010560
 41
0.010560
  0
VERTEX
  8
0
 62
     0
  6
CONTINUOUS
 10
1.209560
 20
3.859680
  0
VERTEX
  8
0
 62
     0
  6
CONTINUOUS
 10
1.199440
 20
3.862760
  0
SEQEND
  8
0
  0
POLYLINE
  8
0
 62
     0
  6
CONTINUOUS
 66
     1
 40
0.010560
 41
0.010560
  0
VERTEX
  8
0
 62
     0
  6
CONTINUOUS
 10
1.199440
 20
3.862760
  0
VERTEX
  8
0
 62
     0
  6
CONTINUOUS
 10
1.189320
 20
3.868040
  0
SEQEND
  8
0
  0
POLYLINE
  8
0
 62
     0
  6
CONTINUOUS
 66
     1
 40
0.010560
 41
0.010560
  0
VERTEX
  8
0
 62
     0
  6
CONTINUOUS
 10
1.189320
 20
3.868040
  0
VERTEX
  8
0
 62
     0
  6
CONTINUOUS
 10
1.180960
 20
3.874640
  0
SEQEND
  8
0
  0
POLYLINE
  8
0
 62
     0
  6
CONTINUOUS
 66
     1
 40
0.010560
 41
0.010560
  0
VERTEX
  8
0
 62
     0
  6
CONTINUOUS
 10
1.180960
 20
3.874640
  0
VERTEX
  8
0
 62
     0
  6
CONTINUOUS
 10
1.174360
 20
3.883000
  0
SEQEND
  8
0
  0
POLYLINE
  8
0
 62
     0
  6
CONTINUOUS
 66
     1
 40
0.010560
 41
0.010560
  0
VERTEX
  8
0
 62
     0
  6
CONTINUOUS
 10
1.174360
 20
3.883000
  0
VERTEX
  8
0
 62
     0
  6
CONTINUOUS
 10
1.168640
 20
3.893120
  0
SEQEND
  8
0
  0
POLYLINE
  8
0
 62
     0
  6
CONTINUOUS
 66
     1
 40
0.010560
 41
0.010560
  0
VERTEX
  8
0
 62
     0
  6
CONTINUOUS
 10
1.168640
 20
3.893120
  0
VERTEX
  8
0
 62
     0
  6
CONTINUOUS
 10
1.166000
 20
3.903680
  0
SEQEND
  8
0
  0
POLYLINE
  8
0
 62
     0
  6
CONTINUOUS
 66
     1
 40
0.010560
 41
0.010560
  0
VERTEX
  8
0
 62
     0
  6
CONTINUOUS
 10
1.715560
 20
4.044040
  0
VERTEX
  8
0
 62
     0
  6
CONTINUOUS
 10
1.707640
 20
4.050200
  0
SEQEND
  8
0
  0
POLYLINE
  8
0
 62
     0
  6
CONTINUOUS
 66
     1
 40
0.010560
 41
0.010560
  0
VERTEX
  8
0
 62
     0
  6
CONTINUOUS
 10
1.707640
 20
4.050200
  0
VERTEX
  8
0
 62
     0
  6
CONTINUOUS
 10
1.698400
 20
4.053720
  0
SEQEND
  8
0
  0
POLYLINE
  8
0
 62
     0
  6
CONTINUOUS
 66
     1
 40
0.010560
 41
0.010560
  0
VERTEX
  8
0
 62
     0
  6
CONTINUOUS
 10
1.698400
 20
4.053720
  0
VERTEX
  8
0
 62
     0
  6
CONTINUOUS
 10
1.689160
 20
4.055040
  0
SEQEND
  8
0
  0
POLYLINE
  8
0
 62
     0
  6
CONTINUOUS
 66
     1
 40
0.010560
 41
0.010560
  0
VERTEX
  8
0
 62
     0
  6
CONTINUOUS
 10
1.689160
 20
4.055040
  0
VERTEX
  8
0
 62
     0
  6
CONTINUOUS
 10
1.679480
 20
4.053720
  0
SEQEND
  8
0
  0
POLYLINE
  8
0
 62
     0
  6
CONTINUOUS
 66
     1
 40
0.010560
 41
0.010560
  0
VERTEX
  8
0
 62
     0
  6
CONTINUOUS
 10
1.679480
 20
4.053720
  0
VERTEX
  8
0
 62
     0
  6
CONTINUOUS
 10
1.670240
 20
4.050200
  0
SEQEND
  8
0
  0
POLYLINE
  8
0
 62
     0
  6
CONTINUOUS
 66
     1
 40
0.010560
 41
0.010560
  0
VERTEX
  8
0
 62
     0
  6
CONTINUOUS
 10
1.670240
 20
4.050200
  0
VERTEX
  8
0
 62
     0
  6
CONTINUOUS
 10
1.662320
 20
4.044040
  0
SEQEND
  8
0
  0
POLYLINE
  8
0
 62
     0
  6
CONTINUOUS
 66
     1
 40
0.010560
 41
0.010560
  0
VERTEX
  8
0
 62
     0
  6
CONTINUOUS
 10
1.662320
 20
4.044040
  0
VERTEX
  8
0
 62
     0
  6
CONTINUOUS
 10
1.656600
 20
4.036120
  0
SEQEND
  8
0
  0
POLYLINE
  8
0
 62
     0
  6
CONTINUOUS
 66
     1
 40
0.010560
 41
0.010560
  0
VERTEX
  8
0
 62
     0
  6
CONTINUOUS
 10
1.656600
 20
4.036120
  0
VERTEX
  8
0
 62
     0
  6
CONTINUOUS
 10
1.652200
 20
4.026880
  0
SEQEND
  8
0
  0
POLYLINE
  8
0
 62
     0
  6
CONTINUOUS
 66
     1
 40
0.010560
 41
0.010560
  0
VERTEX
  8
0
 62
     0
  6
CONTINUOUS
 10
1.652200
 20
4.026880
  0
VERTEX
  8
0
 62
     0
  6
CONTINUOUS
 10
1.651320
 20
4.017200
  0
SEQEND
  8
0
  0
POLYLINE
  8
0
 62
     0
  6
CONTINUOUS
 66
     1
 40
0.010560
 41
0.010560
  0
VERTEX
  8
0
 62
     0
  6
CONTINUOUS
 10
1.651320
 20
4.017200
  0
VERTEX
  8
0
 62
     0
  6
CONTINUOUS
 10
1.652200
 20
4.007960
  0
SEQEND
  8
0
  0
POLYLINE
  8
0
 62
     0
  6
CONTINUOUS
 66
     1
 40
0.010560
 41
0.010560
  0
VERTEX
  8
0
 62
     0
  6
CONTINUOUS
 10
1.652200
 20
4.007960
  0
VERTEX
  8
0
 62
     0
  6
CONTINUOUS
 10
1.656600
 20
3.999160
  0
SEQEND
  8
0
  0
POLYLINE
  8
0
 62
     0
  6
CONTINUOUS
 66
     1
 40
0.010560
 41
0.010560
  0
VERTEX
  8
0
 62
     0
  6
CONTINUOUS
 10
1.656600
 20
3.999160
  0
VERTEX
  8
0
 62
     0
  6
CONTINUOUS
 10
1.662320
 20
3.990800
  0
SEQEND
  8
0
  0
POLYLINE
  8
0
 62
     0
  6
CONTINUOUS
 66
     1
 40
0.010560
 41
0.010560
  0
VERTEX
  8
0
 62
     0
  6
CONTINUOUS
 10
1.662320
 20
3.990800
  0
VERTEX
  8
0
 62
     0
  6
CONTINUOUS
 10
1.670240
 20
3.984640
  0
SEQEND
  8
0
  0
POLYLINE
  8
0
 62
     0
  6
CONTINUOUS
 66
     1
 40
0.010560
 41
0.010560
  0
VERTEX
  8
0
 62
     0
  6
CONTINUOUS
 10
1.670240
 20
3.984640
  0
VERTEX
  8
0
 62
     0
  6
CONTINUOUS
 10
1.679480
 20
3.981120
  0
SEQEND
  8
0
  0
POLYLINE
  8
0
 62
     0
  6
CONTINUOUS
 66
     1
 40
0.010560
 41
0.010560
  0
VERTEX
  8
0
 62
     0
  6
CONTINUOUS
 10
1.679480
 20
3.981120
  0
VERTEX
  8
0
 62
     0
  6
CONTINUOUS
 10
1.689160
 20
3.979800
  0
SEQEND
  8
0
  0
POLYLINE
  8
0
 62
     0
  6
CONTINUOUS
 66
     1
 40
0.010560
 41
0.010560
  0
VERTEX
  8
0
 62
     0
  6
CONTINUOUS
 10
1.689160
 20
3.979800
  0
VERTEX
  8
0
 62
     0
  6
CONTINUOUS
 10
1.698400
 20
3.981120
  0
SEQEND
  8
0
  0
POLYLINE
  8
0
 62
     0
  6
CONTINUOUS
 66
     1
 40
0.010560
 41
0.010560
  0
VERTEX
  8
0
 62
     0
  6
CONTINUOUS
 10
1.698400
 20
3.981120
  0
VERTEX
  8
0
 62
     0
  6
CONTINUOUS
 10
1.707640
 20
3.984640
  0
SEQEND
  8
0
  0
POLYLINE
  8
0
 62
     0
  6
CONTINUOUS
 66
     1
 40
0.010560
 41
0.010560
  0
VERTEX
  8
0
 62
     0
  6
CONTINUOUS
 10
1.707640
 20
3.984640
  0
VERTEX
  8
0
 62
     0
  6
CONTINUOUS
 10
1.715560
 20
3.990800
  0
SEQEND
  8
0
  0
POLYLINE
  8
0
 62
     0
  6
CONTINUOUS
 66
     1
 40
0.010560
 41
0.010560
  0
VERTEX
  8
0
 62
     0
  6
CONTINUOUS
 10
1.715560
 20
3.990800
  0
VERTEX
  8
0
 62
     0
  6
CONTINUOUS
 10
1.721720
 20
3.999160
  0
SEQEND
  8
0
  0
POLYLINE
  8
0
 62
     0
  6
CONTINUOUS
 66
     1
 40
0.010560
 41
0.010560
  0
VERTEX
  8
0
 62
     0
  6
CONTINUOUS
 10
1.721720
 20
3.999160
  0
VERTEX
  8
0
 62
     0
  6
CONTINUOUS
 10
1.725240
 20
4.007960
  0
SEQEND
  8
0
  0
POLYLINE
  8
0
 62
     0
  6
CONTINUOUS
 66
     1
 40
0.010560
 41
0.010560
  0
VERTEX
  8
0
 62
     0
  6
CONTINUOUS
 10
1.725240
 20
4.007960
  0
VERTEX
  8
0
 62
     0
  6
CONTINUOUS
 10
1.726560
 20
4.017200
  0
SEQEND
  8
0
  0
POLYLINE
  8
0
 62
     0
  6
CONTINUOUS
 66
     1
 40
0.010560
 41
0.010560
  0
VERTEX
  8
0
 62
     0
  6
CONTINUOUS
 10
1.726560
 20
4.017200
  0
VERTEX
  8
0
 62
     0
  6
CONTINUOUS
 10
1.725240
 20
4.026880
  0
SEQEND
  8
0
  0
POLYLINE
  8
0
 62
     0
  6
CONTINUOUS
 66
     1
 40
0.010560
 41
0.010560
  0
VERTEX
  8
0
 62
     0
  6
CONTINUOUS
 10
1.725240
 20
4.026880
  0
VERTEX
  8
0
 62
     0
  6
CONTINUOUS
 10
1.721720
 20
4.036120
  0
SEQEND
  8
0
  0
POLYLINE
  8
0
 62
     0
  6
CONTINUOUS
 66
     1
 40
0.010560
 41
0.010560
  0
VERTEX
  8
0
 62
     0
  6
CONTINUOUS
 10
1.721720
 20
4.036120
  0
VERTEX
  8
0
 62
     0
  6
CONTINUOUS
 10
1.715560
 20
4.044040
  0
SEQEND
  8
0
  0
POLYLINE
  8
0
 62
     0
  6
CONTINUOUS
 66
     1
 40
0.010560
 41
0.010560
  0
VERTEX
  8
0
 62
     0
  6
CONTINUOUS
 10
1.708960
 20
4.037440
  0
VERTEX
  8
0
 62
     0
  6
CONTINUOUS
 10
1.703240
 20
4.041840
  0
SEQEND
  8
0
  0
POLYLINE
  8
0
 62
     0
  6
CONTINUOUS
 66
     1
 40
0.010560
 41
0.010560
  0
VERTEX
  8
0
 62
     0
  6
CONTINUOUS
 10
1.703240
 20
4.041840
  0
VERTEX
  8
0
 62
     0
  6
CONTINUOUS
 10
1.695760
 20
4.044920
  0
SEQEND
  8
0
  0
POLYLINE
  8
0
 62
     0
  6
CONTINUOUS
 66
     1
 40
0.010560
 41
0.010560
  0
VERTEX
  8
0
 62
     0
  6
CONTINUOUS
 10
1.695760
 20
4.044920
  0
VERTEX
  8
0
 62
     0
  6
CONTINUOUS
 10
1.689160
 20
4.045360
  0
SEQEND
  8
0
  0
POLYLINE
  8
0
 62
     0
  6
CONTINUOUS
 66
     1
 40
0.010560
 41
0.010560
  0
VERTEX
  8
0
 62
     0
  6
CONTINUOUS
 10
1.689160
 20
4.045360
  0
VERTEX
  8
0
 62
     0
  6
CONTINUOUS
 10
1.681680
 20
4.044920
  0
SEQEND
  8
0
  0
POLYLINE
  8
0
 62
     0
  6
CONTINUOUS
 66
     1
 40
0.010560
 41
0.010560
  0
VERTEX
  8
0
 62
     0
  6
CONTINUOUS
 10
1.681680
 20
4.044920
  0
VERTEX
  8
0
 62
     0
  6
CONTINUOUS
 10
1.675080
 20
4.041840
  0
SEQEND
  8
0
  0
POLYLINE
  8
0
 62
     0
  6
CONTINUOUS
 66
     1
 40
0.010560
 41
0.010560
  0
VERTEX
  8
0
 62
     0
  6
CONTINUOUS
 10
1.675080
 20
4.041840
  0
VERTEX
  8
0
 62
     0
  6
CONTINUOUS
 10
1.668920
 20
4.037440
  0
SEQEND
  8
0
  0
POLYLINE
  8
0
 62
     0
  6
CONTINUOUS
 66
     1
 40
0.010560
 41
0.010560
  0
VERTEX
  8
0
 62
     0
  6
CONTINUOUS
 10
1.668920
 20
4.037440
  0
VERTEX
  8
0
 62
     0
  6
CONTINUOUS
 10
1.664960
 20
4.031280
  0
SEQEND
  8
0
  0
POLYLINE
  8
0
 62
     0
  6
CONTINUOUS
 66
     1
 40
0.010560
 41
0.010560
  0
VERTEX
  8
0
 62
     0
  6
CONTINUOUS
 10
1.664960
 20
4.031280
  0
VERTEX
  8
0
 62
     0
  6
CONTINUOUS
 10
1.661880
 20
4.024240
  0
SEQEND
  8
0
  0
POLYLINE
  8
0
 62
     0
  6
CONTINUOUS
 66
     1
 40
0.010560
 41
0.010560
  0
VERTEX
  8
0
 62
     0
  6
CONTINUOUS
 10
1.661880
 20
4.024240
  0
VERTEX
  8
0
 62
     0
  6
CONTINUOUS
 10
1.661000
 20
4.017200
  0
SEQEND
  8
0
  0
POLYLINE
  8
0
 62
     0
  6
CONTINUOUS
 66
     1
 40
0.010560
 41
0.010560
  0
VERTEX
  8
0
 62
     0
  6
CONTINUOUS
 10
1.661000
 20
4.017200
  0
VERTEX
  8
0
 62
     0
  6
CONTINUOUS
 10
1.661880
 20
4.010600
  0
SEQEND
  8
0
  0
POLYLINE
  8
0
 62
     0
  6
CONTINUOUS
 66
     1
 40
0.010560
 41
0.010560
  0
VERTEX
  8
0
 62
     0
  6
CONTINUOUS
 10
1.661880
 20
4.010600
  0
VERTEX
  8
0
 62
     0
  6
CONTINUOUS
 10
1.664960
 20
4.004000
  0
SEQEND
  8
0
  0
POLYLINE
  8
0
 62
     0
  6
CONTINUOUS
 66
     1
 40
0.010560
 41
0.010560
  0
VERTEX
  8
0
 62
     0
  6
CONTINUOUS
 10
1.664960
 20
4.004000
  0
VERTEX
  8
0
 62
     0
  6
CONTINUOUS
 10
1.668920
 20
3.997840
  0
SEQEND
  8
0
  0
POLYLINE
  8
0
 62
     0
  6
CONTINUOUS
 66
     1
 40
0.010560
 41
0.010560
  0
VERTEX
  8
0
 62
     0
  6
CONTINUOUS
 10
1.668920
 20
3.997840
  0
VERTEX
  8
0
 62
     0
  6
CONTINUOUS
 10
1.675080
 20
3.993440
  0
SEQEND
  8
0
  0
POLYLINE
  8
0
 62
     0
  6
CONTINUOUS
 66
     1
 40
0.010560
 41
0.010560
  0
VERTEX
  8
0
 62
     0
  6
CONTINUOUS
 10
1.675080
 20
3.993440
  0
VERTEX
  8
0
 62
     0
  6
CONTINUOUS
 10
1.681680
 20
3.990360
  0
SEQEND
  8
0
  0
POLYLINE
  8
0
 62
     0
  6
CONTINUOUS
 66
     1
 40
0.010560
 41
0.010560
  0
VERTEX
  8
0
 62
     0
  6
CONTINUOUS
 10
1.681680
 20
3.990360
  0
VERTEX
  8
0
 62
     0
  6
CONTINUOUS
 10
1.689160
 20
3.989480
  0
SEQEND
  8
0
  0
POLYLINE
  8
0
 62
     0
  6
CONTINUOUS
 66
     1
 40
0.010560
 41
0.010560
  0
VERTEX
  8
0
 62
     0
  6
CONTINUOUS
 10
1.689160
 20
3.989480
  0
VERTEX
  8
0
 62
     0
  6
CONTINUOUS
 10
1.695760
 20
3.990360
  0
SEQEND
  8
0
  0
POLYLINE
  8
0
 62
     0
  6
CONTINUOUS
 66
     1
 40
0.010560
 41
0.010560
  0
VERTEX
  8
0
 62
     0
  6
CONTINUOUS
 10
1.695760
 20
3.990360
  0
VERTEX
  8
0
 62
     0
  6
CONTINUOUS
 10
1.703240
 20
3.993440
  0
SEQEND
  8
0
  0
POLYLINE
  8
0
 62
     0
  6
CONTINUOUS
 66
     1
 40
0.010560
 41
0.010560
  0
VERTEX
  8
0
 62
     0
  6
CONTINUOUS
 10
1.703240
 20
3.993440
  0
VERTEX
  8
0
 62
     0
  6
CONTINUOUS
 10
1.708960
 20
3.997840
  0
SEQEND
  8
0
  0
POLYLINE
  8
0
 62
     0
  6
CONTINUOUS
 66
     1
 40
0.010560
 41
0.010560
  0
VERTEX
  8
0
 62
     0
  6
CONTINUOUS
 10
1.708960
 20
3.997840
  0
VERTEX
  8
0
 62
     0
  6
CONTINUOUS
 10
1.712920
 20
4.004000
  0
SEQEND
  8
0
  0
POLYLINE
  8
0
 62
     0
  6
CONTINUOUS
 66
     1
 40
0.010560
 41
0.010560
  0
VERTEX
  8
0
 62
     0
  6
CONTINUOUS
 10
1.712920
 20
4.004000
  0
VERTEX
  8
0
 62
     0
  6
CONTINUOUS
 10
1.716000
 20
4.010600
  0
SEQEND
  8
0
  0
POLYLINE
  8
0
 62
     0
  6
CONTINUOUS
 66
     1
 40
0.010560
 41
0.010560
  0
VERTEX
  8
0
 62
     0
  6
CONTINUOUS
 10
1.716000
 20
4.010600
  0
VERTEX
  8
0
 62
     0
  6
CONTINUOUS
 10
1.716880
 20
4.017200
  0
SEQEND
  8
0
  0
POLYLINE
  8
0
 62
     0
  6
CONTINUOUS
 66
     1
 40
0.010560
 41
0.010560
  0
VERTEX
  8
0
 62
     0
  6
CONTINUOUS
 10
1.716880
 20
4.017200
  0
VERTEX
  8
0
 62
     0
  6
CONTINUOUS
 10
1.716000
 20
4.024240
  0
SEQEND
  8
0
  0
POLYLINE
  8
0
 62
     0
  6
CONTINUOUS
 66
     1
 40
0.010560
 41
0.010560
  0
VERTEX
  8
0
 62
     0
  6
CONTINUOUS
 10
1.716000
 20
4.024240
  0
VERTEX
  8
0
 62
     0
  6
CONTINUOUS
 10
1.712920
 20
4.031280
  0
SEQEND
  8
0
  0
POLYLINE
  8
0
 62
     0
  6
CONTINUOUS
 66
     1
 40
0.010560
 41
0.010560
  0
VERTEX
  8
0
 62
     0
  6
CONTINUOUS
 10
1.712920
 20
4.031280
  0
VERTEX
  8
0
 62
     0
  6
CONTINUOUS
 10
1.708960
 20
4.037440
  0
SEQEND
  8
0
  0
POLYLINE
  8
0
 62
     0
  6
CONTINUOUS
 66
     1
 40
0.010560
 41
0.010560
  0
VERTEX
  8
0
 62
     0
  6
CONTINUOUS
 10
1.707640
 20
5.763560
  0
VERTEX
  8
0
 62
     0
  6
CONTINUOUS
 10
1.715560
 20
5.769720
  0
SEQEND
  8
0
  0
POLYLINE
  8
0
 62
     0
  6
CONTINUOUS
 66
     1
 40
0.010560
 41
0.010560
  0
VERTEX
  8
0
 62
     0
  6
CONTINUOUS
 10
1.715560
 20
5.769720
  0
VERTEX
  8
0
 62
     0
  6
CONTINUOUS
 10
1.721720
 20
5.777200
  0
SEQEND
  8
0
  0
POLYLINE
  8
0
 62
     0
  6
CONTINUOUS
 66
     1
 40
0.010560
 41
0.010560
  0
VERTEX
  8
0
 62
     0
  6
CONTINUOUS
 10
1.721720
 20
5.777200
  0
VERTEX
  8
0
 62
     0
  6
CONTINUOUS
 10
1.725240
 20
5.786440
  0
SEQEND
  8
0
  0
POLYLINE
  8
0
 62
     0
  6
CONTINUOUS
 66
     1
 40
0.010560
 41
0.010560
  0
VERTEX
  8
0
 62
     0
  6
CONTINUOUS
 10
1.725240
 20
5.786440
  0
VERTEX
  8
0
 62
     0
  6
CONTINUOUS
 10
1.726560
 20
5.796120
  0
SEQEND
  8
0
  0
POLYLINE
  8
0
 62
     0
  6
CONTINUOUS
 66
     1
 40
0.010560
 41
0.010560
  0
VERTEX
  8
0
 62
     0
  6
CONTINUOUS
 10
1.726560
 20
5.796120
  0
VERTEX
  8
0
 62
     0
  6
CONTINUOUS
 10
1.725240
 20
5.805800
  0
SEQEND
  8
0
  0
POLYLINE
  8
0
 62
     0
  6
CONTINUOUS
 66
     1
 40
0.010560
 41
0.010560
  0
VERTEX
  8
0
 62
     0
  6
CONTINUOUS
 10
1.725240
 20
5.805800
  0
VERTEX
  8
0
 62
     0
  6
CONTINUOUS
 10
1.721720
 20
5.815040
  0
SEQEND
  8
0
  0
POLYLINE
  8
0
 62
     0
  6
CONTINUOUS
 66
     1
 40
0.010560
 41
0.010560
  0
VERTEX
  8
0
 62
     0
  6
CONTINUOUS
 10
1.721720
 20
5.815040
  0
VERTEX
  8
0
 62
     0
  6
CONTINUOUS
 10
1.715560
 20
5.822520
  0
SEQEND
  8
0
  0
POLYLINE
  8
0
 62
     0
  6
CONTINUOUS
 66
     1
 40
0.010560
 41
0.010560
  0
VERTEX
  8
0
 62
     0
  6
CONTINUOUS
 10
1.715560
 20
5.822520
  0
VERTEX
  8
0
 62
     0
  6
CONTINUOUS
 10
1.707640
 20
5.828240
  0
SEQEND
  8
0
  0
POLYLINE
  8
0
 62
     0
  6
CONTINUOUS
 66
     1
 40
0.010560
 41
0.010560
  0
VERTEX
  8
0
 62
     0
  6
CONTINUOUS
 10
1.707640
 20
5.828240
  0
VERTEX
  8
0
 62
     0
  6
CONTINUOUS
 10
1.698400
 20
5.832200
  0
SEQEND
  8
0
  0
POLYLINE
  8
0
 62
     0
  6
CONTINUOUS
 66
     1
 40
0.010560
 41
0.010560
  0
VERTEX
  8
0
 62
     0
  6
CONTINUOUS
 10
1.698400
 20
5.832200
  0
VERTEX
  8
0
 62
     0
  6
CONTINUOUS
 10
1.689160
 20
5.833520
  0
SEQEND
  8
0
  0
POLYLINE
  8
0
 62
     0
  6
CONTINUOUS
 66
     1
 40
0.010560
 41
0.010560
  0
VERTEX
  8
0
 62
     0
  6
CONTINUOUS
 10
1.689160
 20
5.833520
  0
VERTEX
  8
0
 62
     0
  6
CONTINUOUS
 10
1.679480
 20
5.832200
  0
SEQEND
  8
0
  0
POLYLINE
  8
0
 62
     0
  6
CONTINUOUS
 66
     1
 40
0.010560
 41
0.010560
  0
VERTEX
  8
0
 62
     0
  6
CONTINUOUS
 10
1.679480
 20
5.832200
  0
VERTEX
  8
0
 62
     0
  6
CONTINUOUS
 10
1.670240
 20
5.828240
  0
SEQEND
  8
0
  0
POLYLINE
  8
0
 62
     0
  6
CONTINUOUS
 66
     1
 40
0.010560
 41
0.010560
  0
VERTEX
  8
0
 62
     0
  6
CONTINUOUS
 10
1.670240
 20
5.828240
  0
VERTEX
  8
0
 62
     0
  6
CONTINUOUS
 10
1.662320
 20
5.822520
  0
SEQEND
  8
0
  0
POLYLINE
  8
0
 62
     0
  6
CONTINUOUS
 66
     1
 40
0.010560
 41
0.010560
  0
VERTEX
  8
0
 62
     0
  6
CONTINUOUS
 10
1.662320
 20
5.822520
  0
VERTEX
  8
0
 62
     0
  6
CONTINUOUS
 10
1.656600
 20
5.815040
  0
SEQEND
  8
0
  0
POLYLINE
  8
0
 62
     0
  6
CONTINUOUS
 66
     1
 40
0.010560
 41
0.010560
  0
VERTEX
  8
0
 62
     0
  6
CONTINUOUS
 10
1.656600
 20
5.815040
  0
VERTEX
  8
0
 62
     0
  6
CONTINUOUS
 10
1.652200
 20
5.805800
  0
SEQEND
  8
0
  0
POLYLINE
  8
0
 62
     0
  6
CONTINUOUS
 66
     1
 40
0.010560
 41
0.010560
  0
VERTEX
  8
0
 62
     0
  6
CONTINUOUS
 10
1.652200
 20
5.805800
  0
VERTEX
  8
0
 62
     0
  6
CONTINUOUS
 10
1.651320
 20
5.796120
  0
SEQEND
  8
0
  0
POLYLINE
  8
0
 62
     0
  6
CONTINUOUS
 66
     1
 40
0.010560
 41
0.010560
  0
VERTEX
  8
0
 62
     0
  6
CONTINUOUS
 10
1.651320
 20
5.796120
  0
VERTEX
  8
0
 62
     0
  6
CONTINUOUS
 10
1.652200
 20
5.786440
  0
SEQEND
  8
0
  0
POLYLINE
  8
0
 62
     0
  6
CONTINUOUS
 66
     1
 40
0.010560
 41
0.010560
  0
VERTEX
  8
0
 62
     0
  6
CONTINUOUS
 10
1.652200
 20
5.786440
  0
VERTEX
  8
0
 62
     0
  6
CONTINUOUS
 10
1.656600
 20
5.777200
  0
SEQEND
  8
0
  0
POLYLINE
  8
0
 62
     0
  6
CONTINUOUS
 66
     1
 40
0.010560
 41
0.010560
  0
VERTEX
  8
0
 62
     0
  6
CONTINUOUS
 10
1.656600
 20
5.777200
  0
VERTEX
  8
0
 62
     0
  6
CONTINUOUS
 10
1.662320
 20
5.769720
  0
SEQEND
  8
0
  0
POLYLINE
  8
0
 62
     0
  6
CONTINUOUS
 66
     1
 40
0.010560
 41
0.010560
  0
VERTEX
  8
0
 62
     0
  6
CONTINUOUS
 10
1.662320
 20
5.769720
  0
VERTEX
  8
0
 62
     0
  6
CONTINUOUS
 10
1.670240
 20
5.763560
  0
SEQEND
  8
0
  0
POLYLINE
  8
0
 62
     0
  6
CONTINUOUS
 66
     1
 40
0.010560
 41
0.010560
  0
VERTEX
  8
0
 62
     0
  6
CONTINUOUS
 10
1.670240
 20
5.763560
  0
VERTEX
  8
0
 62
     0
  6
CONTINUOUS
 10
1.679480
 20
5.760040
  0
SEQEND
  8
0
  0
POLYLINE
  8
0
 62
     0
  6
CONTINUOUS
 66
     1
 40
0.010560
 41
0.010560
  0
VERTEX
  8
0
 62
     0
  6
CONTINUOUS
 10
1.679480
 20
5.760040
  0
VERTEX
  8
0
 62
     0
  6
CONTINUOUS
 10
1.689160
 20
5.758720
  0
SEQEND
  8
0
  0
POLYLINE
  8
0
 62
     0
  6
CONTINUOUS
 66
     1
 40
0.010560
 41
0.010560
  0
VERTEX
  8
0
 62
     0
  6
CONTINUOUS
 10
1.689160
 20
5.758720
  0
VERTEX
  8
0
 62
     0
  6
CONTINUOUS
 10
1.698400
 20
5.760040
  0
SEQEND
  8
0
  0
POLYLINE
  8
0
 62
     0
  6
CONTINUOUS
 66
     1
 40
0.010560
 41
0.010560
  0
VERTEX
  8
0
 62
     0
  6
CONTINUOUS
 10
1.698400
 20
5.760040
  0
VERTEX
  8
0
 62
     0
  6
CONTINUOUS
 10
1.707640
 20
5.763560
  0
SEQEND
  8
0
  0
POLYLINE
  8
0
 62
     0
  6
CONTINUOUS
 66
     1
 40
0.010560
 41
0.010560
  0
VERTEX
  8
0
 62
     0
  6
CONTINUOUS
 10
1.703240
 20
5.771920
  0
VERTEX
  8
0
 62
     0
  6
CONTINUOUS
 10
1.708960
 20
5.776760
  0
SEQEND
  8
0
  0
POLYLINE
  8
0
 62
     0
  6
CONTINUOUS
 66
     1
 40
0.010560
 41
0.010560
  0
VERTEX
  8
0
 62
     0
  6
CONTINUOUS
 10
1.708960
 20
5.776760
  0
VERTEX
  8
0
 62
     0
  6
CONTINUOUS
 10
1.712920
 20
5.782040
  0
SEQEND
  8
0
  0
POLYLINE
  8
0
 62
     0
  6
CONTINUOUS
 66
     1
 40
0.010560
 41
0.010560
  0
VERTEX
  8
0
 62
     0
  6
CONTINUOUS
 10
1.712920
 20
5.782040
  0
VERTEX
  8
0
 62
     0
  6
CONTINUOUS
 10
1.716000
 20
5.788640
  0
SEQEND
  8
0
  0
POLYLINE
  8
0
 62
     0
  6
CONTINUOUS
 66
     1
 40
0.010560
 41
0.010560
  0
VERTEX
  8
0
 62
     0
  6
CONTINUOUS
 10
1.716000
 20
5.788640
  0
VERTEX
  8
0
 62
     0
  6
CONTINUOUS
 10
1.716880
 20
5.796120
  0
SEQEND
  8
0
  0
POLYLINE
  8
0
 62
     0
  6
CONTINUOUS
 66
     1
 40
0.010560
 41
0.010560
  0
VERTEX
  8
0
 62
     0
  6
CONTINUOUS
 10
1.716880
 20
5.796120
  0
VERTEX
  8
0
 62
     0
  6
CONTINUOUS
 10
1.716000
 20
5.803160
  0
SEQEND
  8
0
  0
POLYLINE
  8
0
 62
     0
  6
CONTINUOUS
 66
     1
 40
0.010560
 41
0.010560
  0
VERTEX
  8
0
 62
     0
  6
CONTINUOUS
 10
1.716000
 20
5.803160
  0
VERTEX
  8
0
 62
     0
  6
CONTINUOUS
 10
1.712920
 20
5.810200
  0
SEQEND
  8
0
  0
POLYLINE
  8
0
 62
     0
  6
CONTINUOUS
 66
     1
 40
0.010560
 41
0.010560
  0
VERTEX
  8
0
 62
     0
  6
CONTINUOUS
 10
1.712920
 20
5.810200
  0
VERTEX
  8
0
 62
     0
  6
CONTINUOUS
 10
1.708960
 20
5.816360
  0
SEQEND
  8
0
  0
POLYLINE
  8
0
 62
     0
  6
CONTINUOUS
 66
     1
 40
0.010560
 41
0.010560
  0
VERTEX
  8
0
 62
     0
  6
CONTINUOUS
 10
1.708960
 20
5.816360
  0
VERTEX
  8
0
 62
     0
  6
CONTINUOUS
 10
1.703240
 20
5.820760
  0
SEQEND
  8
0
  0
POLYLINE
  8
0
 62
     0
  6
CONTINUOUS
 66
     1
 40
0.010560
 41
0.010560
  0
VERTEX
  8
0
 62
     0
  6
CONTINUOUS
 10
1.703240
 20
5.820760
  0
VERTEX
  8
0
 62
     0
  6
CONTINUOUS
 10
1.695760
 20
5.822960
  0
SEQEND
  8
0
  0
POLYLINE
  8
0
 62
     0
  6
CONTINUOUS
 66
     1
 40
0.010560
 41
0.010560
  0
VERTEX
  8
0
 62
     0
  6
CONTINUOUS
 10
1.695760
 20
5.822960
  0
VERTEX
  8
0
 62
     0
  6
CONTINUOUS
 10
1.689160
 20
5.824280
  0
SEQEND
  8
0
  0
POLYLINE
  8
0
 62
     0
  6
CONTINUOUS
 66
     1
 40
0.010560
 41
0.010560
  0
VERTEX
  8
0
 62
     0
  6
CONTINUOUS
 10
1.689160
 20
5.824280
  0
VERTEX
  8
0
 62
     0
  6
CONTINUOUS
 10
1.681680
 20
5.822960
  0
SEQEND
  8
0
  0
POLYLINE
  8
0
 62
     0
  6
CONTINUOUS
 66
     1
 40
0.010560
 41
0.010560
  0
VERTEX
  8
0
 62
     0
  6
CONTINUOUS
 10
1.681680
 20
5.822960
  0
VERTEX
  8
0
 62
     0
  6
CONTINUOUS
 10
1.675080
 20
5.820760
  0
SEQEND
  8
0
  0
POLYLINE
  8
0
 62
     0
  6
CONTINUOUS
 66
     1
 40
0.010560
 41
0.010560
  0
VERTEX
  8
0
 62
     0
  6
CONTINUOUS
 10
1.675080
 20
5.820760
  0
VERTEX
  8
0
 62
     0
  6
CONTINUOUS
 10
1.668920
 20
5.816360
  0
SEQEND
  8
0
  0
POLYLINE
  8
0
 62
     0
  6
CONTINUOUS
 66
     1
 40
0.010560
 41
0.010560
  0
VERTEX
  8
0
 62
     0
  6
CONTINUOUS
 10
1.668920
 20
5.816360
  0
VERTEX
  8
0
 62
     0
  6
CONTINUOUS
 10
1.664960
 20
5.810200
  0
SEQEND
  8
0
  0
POLYLINE
  8
0
 62
     0
  6
CONTINUOUS
 66
     1
 40
0.010560
 41
0.010560
  0
VERTEX
  8
0
 62
     0
  6
CONTINUOUS
 10
1.664960
 20
5.810200
  0
VERTEX
  8
0
 62
     0
  6
CONTINUOUS
 10
1.661880
 20
5.803160
  0
SEQEND
  8
0
  0
POLYLINE
  8
0
 62
     0
  6
CONTINUOUS
 66
     1
 40
0.010560
 41
0.010560
  0
VERTEX
  8
0
 62
     0
  6
CONTINUOUS
 10
1.661880
 20
5.803160
  0
VERTEX
  8
0
 62
     0
  6
CONTINUOUS
 10
1.661000
 20
5.796120
  0
SEQEND
  8
0
  0
POLYLINE
  8
0
 62
     0
  6
CONTINUOUS
 66
     1
 40
0.010560
 41
0.010560
  0
VERTEX
  8
0
 62
     0
  6
CONTINUOUS
 10
1.661000
 20
5.796120
  0
VERTEX
  8
0
 62
     0
  6
CONTINUOUS
 10
1.661880
 20
5.788640
  0
SEQEND
  8
0
  0
POLYLINE
  8
0
 62
     0
  6
CONTINUOUS
 66
     1
 40
0.010560
 41
0.010560
  0
VERTEX
  8
0
 62
     0
  6
CONTINUOUS
 10
1.661880
 20
5.788640
  0
VERTEX
  8
0
 62
     0
  6
CONTINUOUS
 10
1.664960
 20
5.782040
  0
SEQEND
  8
0
  0
POLYLINE
  8
0
 62
     0
  6
CONTINUOUS
 66
     1
 40
0.010560
 41
0.010560
  0
VERTEX
  8
0
 62
     0
  6
CONTINUOUS
 10
1.664960
 20
5.782040
  0
VERTEX
  8
0
 62
     0
  6
CONTINUOUS
 10
1.668920
 20
5.776760
  0
SEQEND
  8
0
  0
POLYLINE
  8
0
 62
     0
  6
CONTINUOUS
 66
     1
 40
0.010560
 41
0.010560
  0
VERTEX
  8
0
 62
     0
  6
CONTINUOUS
 10
1.668920
 20
5.776760
  0
VERTEX
  8
0
 62
     0
  6
CONTINUOUS
 10
1.675080
 20
5.771920
  0
SEQEND
  8
0
  0
POLYLINE
  8
0
 62
     0
  6
CONTINUOUS
 66
     1
 40
0.010560
 41
0.010560
  0
VERTEX
  8
0
 62
     0
  6
CONTINUOUS
 10
1.675080
 20
5.771920
  0
VERTEX
  8
0
 62
     0
  6
CONTINUOUS
 10
1.681680
 20
5.768840
  0
SEQEND
  8
0
  0
POLYLINE
  8
0
 62
     0
  6
CONTINUOUS
 66
     1
 40
0.010560
 41
0.010560
  0
VERTEX
  8
0
 62
     0
  6
CONTINUOUS
 10
1.681680
 20
5.768840
  0
VERTEX
  8
0
 62
     0
  6
CONTINUOUS
 10
1.689160
 20
5.767960
  0
SEQEND
  8
0
  0
POLYLINE
  8
0
 62
     0
  6
CONTINUOUS
 66
     1
 40
0.010560
 41
0.010560
  0
VERTEX
  8
0
 62
     0
  6
CONTINUOUS
 10
1.689160
 20
5.767960
  0
VERTEX
  8
0
 62
     0
  6
CONTINUOUS
 10
1.695760
 20
5.768840
  0
SEQEND
  8
0
  0
POLYLINE
  8
0
 62
     0
  6
CONTINUOUS
 66
     1
 40
0.010560
 41
0.010560
  0
VERTEX
  8
0
 62
     0
  6
CONTINUOUS
 10
1.695760
 20
5.768840
  0
VERTEX
  8
0
 62
     0
  6
CONTINUOUS
 10
1.703240
 20
5.771920
  0
SEQEND
  8
0
  0
ENDSEC
  0
EOF
