  0
SECTION
  2
HEADER
  9
$ACADVER
  1
AC1009
  9
$INSBASE
 10
0.0
 20
0.0
 30
0.0
  9
$EXTMIN
 10
-0.669103
 20
0.0
 30
0.0
  9
$EXTMAX
 10
0.63188
 20
0.693
 30
0.0
  9
$LIMMIN
 10
15.716026
 20
12.575916
  9
$LIMMAX
 10
17.127159
 20
13.456467
  9
$ORTHOMODE
 70
     1
  9
$REGENMODE
 70
     1
  9
$FILLMODE
 70
     1
  9
$QTEXTMODE
 70
     0
  9
$MIRRTEXT
 70
     1
  9
$DRAGMODE
 70
     2
  9
$LTSCALE
 40
1.0
  9
$OSMODE
 70
     0
  9
$ATTMODE
 70
     2
  9
$TEXTSIZE
 40
0.01502
  9
$TRACEWID
 40
0.05
  9
$TEXTSTYLE
  7
STANDARD
  9
$CLAYER
  8
0
  9
$CELTYPE
  6
BYLAYER
  9
$CECOLOR
 62
   256
  9
$DIMSCALE
 40
1.0
  9
$DIMASZ
 40
1.0
  9
$DIMEXO
 40
0.5
  9
$DIMDLI
 40
0.38
  9
$DIMRND
 40
0.0
  9
$DIMDLE
 40
0.0
  9
$DIMEXE
 40
0.5
  9
$DIMTP
 40
0.0
  9
$DIMTM
 40
0.0
  9
$DIMTXT
 40
0.18
  9
$DIMCEN
 40
0.09
  9
$DIMTSZ
 40
0.0
  9
$DIMTOL
 70
     0
  9
$DIMLIM
 70
     0
  9
$DIMTIH
 70
     1
  9
$DIMTOH
 70
     1
  9
$DIMSE1
 70
     0
  9
$DIMSE2
 70
     0
  9
$DIMTAD
 70
     0
  9
$DIMZIN
 70
     0
  9
$DIMBLK
  1

  9
$DIMASO
 70
     1
  9
$DIMSHO
 70
     1
  9
$DIMPOST
  1
"
  9
$DIMAPOST
  1

  9
$DIMALT
 70
     0
  9
$DIMALTD
 70
     2
  9
$DIMALTF
 40
25.4
  9
$DIMLFAC
 40
1.0
  9
$DIMTOFL
 70
     0
  9
$DIMTVP
 40
0.0
  9
$DIMTIX
 70
     0
  9
$DIMSOXD
 70
     0
  9
$DIMSAH
 70
     0
  9
$DIMBLK1
  1

  9
$DIMBLK2
  1

  9
$DIMSTYLE
  2
*UNNAMED
  9
$DIMCLRD
 70
     0
  9
$DIMCLRE
 70
     0
  9
$DIMCLRT
 70
     0
  9
$DIMTFAC
 40
1.0
  9
$DIMGAP
 40
0.09
  9
$LUNITS
 70
     2
  9
$LUPREC
 70
     3
  9
$SKETCHINC
 40
0.1
  9
$FILLETRAD
 40
0.0
  9
$AUNITS
 70
     0
  9
$AUPREC
 70
     3
  9
$MENU
  1
acad
  9
$ELEVATION
 40
0.0
  9
$PELEVATION
 40
0.0
  9
$THICKNESS
 40
0.0
  9
$LIMCHECK
 70
     0
  9
$BLIPMODE
 70
     0
  9
$CHAMFERA
 40
0.5
  9
$CHAMFERB
 40
0.5
  9
$SKPOLY
 70
     0
  9
$TDCREATE
 40
2450619.789168055
  9
$TDUPDATE
 40
2450619.789168055
  9
$TDINDWG
 40
0.0000000000
  9
$TDUSRTIMER
 40
0.0000000000
  9
$USRTIMER
 70
     1
  9
$ANGBASE
 50
0.0
  9
$ANGDIR
 70
     0
  9
$PDMODE
 70
     2
  9
$PDSIZE
 40
0.0
  9
$PLINEWID
 40
0.0
  9
$COORDS
 70
     1
  9
$SPLFRAME
 70
     0
  9
$SPLINETYPE
 70
     6
  9
$SPLINESEGS
 70
     8
  9
$ATTDIA
 70
     0
  9
$ATTREQ
 70
     1
  9
$HANDLING
 70
     0
  9
$HANDSEED
  5
0
  9
$SURFTAB1
 70
     6
  9
$SURFTAB2
 70
     6
  9
$SURFTYPE
 70
     6
  9
$SURFU
 70
     6
  9
$SURFV
 70
     6
  9
$UCSNAME
  2

  9
$UCSORG
 10
0.0
 20
0.0
 30
0.0
  9
$UCSXDIR
 10
1.0
 20
0.0
 30
0.0
  9
$UCSYDIR
 10
0.0
 20
1.0
 30
0.0
  9
$PUCSNAME
  2

  9
$PUCSORG
 10
0.0
 20
0.0
 30
0.0
  9
$PUCSXDIR
 10
1.0
 20
0.0
 30
0.0
  9
$PUCSYDIR
 10
0.0
 20
1.0
 30
0.0
  9
$USERI1
 70
     0
  9
$USERI2
 70
     0
  9
$USERI3
 70
     0
  9
$USERI4
 70
     0
  9
$USERI5
 70
     0
  9
$USERR1
 40
0.0
  9
$USERR2
 40
0.0
  9
$USERR3
 40
0.0
  9
$USERR4
 40
0.0
  9
$USERR5
 40
0.0
  9
$WORLDVIEW
 70
     1
  9
$SHADEDGE
 70
     3
  9
$SHADEDIF
 70
    70
  9
$TILEMODE
 70
     1
  9
$MAXACTVP
 70
    16
  9
$PINSBASE
 10
14.511468
 20
50.0
 30
15.675883
  9
$PLIMCHECK
 70
     0
  9
$PEXTMIN
 10
1.000000E+20
 20
1.000000E+20
 30
1.000000E+20
  9
$PEXTMAX
 10
-1.000000E+20
 20
-1.000000E+20
 30
-1.000000E+20
  9
$PLIMMIN
 10
0.0
 20
0.0
  9
$PLIMMAX
 10
12.0
 20
9.0
  9
$UNITMODE
 70
     0
  9
$VISRETAIN
 70
     0
  9
$PLINEGEN
 70
     0
  9
$PSLTSCALE
 70
     1
  9
$TREEDEPTH
 70
  3020
  9
$DWGCODEPAGE
  3
ascii
  0
ENDSEC
  0
SECTION
  2
TABLES
  0
TABLE
  2
VPORT
 70
     2
  0
VPORT
  2
*ACTIVE
 70
     0
 10
0.0
 20
0.0
 11
1.0
 21
1.0
 12
8.66571
 22
6.728234
 13
0.0
 23
0.0
 14
1.0
 24
1.0
 15
1.0
 25
1.0
 16
0.0
 26
0.0
 36
1.0
 17
0.0
 27
0.0
 37
0.0
 40
13.456467
 41
1.387409
 42
50.0
 43
0.0
 44
0.0
 50
0.0
 51
0.0
 71
     0
 72
   100
 73
     1
 74
     1
 75
     0
 76
     0
 77
     0
 78
     0
  0
ENDTAB
  0
TABLE
  2
LTYPE
 70
     1
  0
LTYPE
  2
CONTINUOUS
 70
    64
  3
SOLID LINE
 72
    65
 73
     0
 40
0.0
  0
ENDTAB
  0
TABLE
  2
LAYER
 70
     2
  0
LAYER
  2
0
 70
     0
 62
     2
  6
CONTINUOUS
  0
LAYER
  2
1
 70
    64
 62
     4
  6
CONTINUOUS
  0
ENDTAB
  0
TABLE
  2
STYLE
 70
     1
  0
STYLE
  2
STANDARD
 70
     0
 40
0.0
 41
1.0
 50
0.0
 71
     0
 42
0.2
  3
txt
  4

  0
ENDTAB
  0
TABLE
  2
VIEW
 70
     0
  0
ENDTAB
  0
TABLE
  2
UCS
 70
     0
  0
ENDTAB
  0
TABLE
  2
APPID
 70
     1
  0
APPID
  2
ACAD
 70
    64
  0
ENDTAB
  0
TABLE
  2
DIMSTYLE
 70
     0
  0
ENDTAB
  0
ENDSEC
  0
SECTION
  2
BLOCKS
  0
ENDSEC
  0
SECTION
  2
ENTITIES
  0
LINE
  8
1
  6
CONTINUOUS
 62
   250
 10
-0.614416
 20
0.0
 30
0.0
 11
0.614416
 21
0.0
 31
0.0
  0
LINE
  8
1
  6
CONTINUOUS
 62
   250
 10
0.590061
 20
0.03033
 30
0.0
 11
-0.509639
 21
0.03033
 31
0.0
  0
LINE
  8
1
  6
CONTINUOUS
 62
   250
 10
-0.602467
 20
0.018381
 30
0.0
 11
0.596035
 21
0.018381
 31
0.0
  0
LINE
  8
1
  6
CONTINUOUS
 62
   250
 10
-0.029411
 20
0.444383
 30
0.0
 11
-0.009191
 21
0.444383
 31
0.0
  0
LINE
  8
1
  6
CONTINUOUS
 62
   250
 10
-0.009191
 20
0.405781
 30
0.0
 11
-0.029411
 21
0.405781
 31
0.0
  0
LINE
  8
1
  6
CONTINUOUS
 62
   250
 10
0.614416
 20
0.693
 30
0.0
 11
-0.614416
 21
0.693
 31
0.0
  0
LINE
  8
1
  6
CONTINUOUS
 62
   250
 10
0.596035
 20
0.674617
 30
0.0
 11
-0.602467
 21
0.674617
 31
0.0
  0
LINE
  8
1
  6
CONTINUOUS
 62
   250
 10
-0.578112
 20
0.66267
 30
0.0
 11
0.590061
 21
0.66267
 31
0.0
  0
LINE
  8
1
  6
CONTINUOUS
 62
   250
 10
0.171871
 20
0.654857
 30
0.0
 11
-0.140621
 21
0.654857
 31
0.0
  0
LINE
  8
1
  6
CONTINUOUS
 62
   250
 10
-0.140621
 20
0.548242
 30
0.0
 11
0.171871
 21
0.548242
 31
0.0
  0
LINE
  8
1
  6
CONTINUOUS
 62
   250
 10
-0.509639
 20
0.228855
 30
0.0
 11
-0.504583
 21
0.227935
 31
0.0
  0
LINE
  8
1
  6
CONTINUOUS
 62
   250
 10
-0.505503
 20
0.23437
 30
0.0
 11
-0.511937
 21
0.23345
 31
0.0
  0
LINE
  8
1
  6
CONTINUOUS
 62
   250
 10
-0.512396
 20
0.232991
 30
0.0
 11
-0.505962
 21
0.23437
 31
0.0
  0
LINE
  8
1
  6
CONTINUOUS
 62
   250
 10
-0.512396
 20
0.139243
 30
0.0
 11
-0.506423
 21
0.137865
 31
0.0
  0
LINE
  8
1
  6
CONTINUOUS
 62
   250
 10
-0.505962
 20
0.137865
 30
0.0
 11
-0.512396
 21
0.138784
 31
0.0
  0
LINE
  8
1
  6
CONTINUOUS
 62
   250
 10
-0.505044
 20
0.156246
 30
0.0
 11
-0.531697
 21
0.181981
 31
0.0
  0
LINE
  8
1
  6
CONTINUOUS
 62
   250
 10
-0.542268
 20
0.180144
 30
0.0
 11
-0.507341
 21
0.145678
 31
0.0
  0
LINE
  8
1
  6
CONTINUOUS
 62
   250
 10
-0.632797
 20
0.55973
 30
0.0
 11
-0.632797
 21
0.37729
 31
0.0
  0
LINE
  8
1
  6
CONTINUOUS
 62
   250
 10
-0.602467
 20
0.674617
 30
0.0
 11
-0.602467
 21
0.018381
 31
0.0
  0
LINE
  8
1
  6
CONTINUOUS
 62
   250
 10
-0.578112
 20
0.118105
 30
0.0
 11
-0.578112
 21
0.66267
 31
0.0
  0
LINE
  8
1
  6
CONTINUOUS
 62
   250
 10
-0.632797
 20
0.316169
 30
0.0
 11
-0.632797
 21
0.133729
 31
0.0
  0
LINE
  8
1
  6
CONTINUOUS
 62
   250
 10
-0.632797
 20
0.012408
 30
0.0
 11
-0.614416
 21
0.012408
 31
0.0
  0
LINE
  8
1
  6
CONTINUOUS
 62
   250
 10
-0.626365
 20
0.073068
 30
0.0
 11
-0.632797
 21
0.073068
 31
0.0
  0
LINE
  8
1
  6
CONTINUOUS
 62
   250
 10
-0.632797
 20
0.133729
 30
0.0
 11
-0.626365
 21
0.133729
 31
0.0
  0
LINE
  8
1
  6
CONTINUOUS
 62
   250
 10
-0.669103
 20
0.091449
 30
0.0
 11
-0.626365
 21
0.091449
 31
0.0
  0
LINE
  8
1
  6
CONTINUOUS
 62
   250
 10
-0.626365
 20
0.115347
 30
0.0
 11
-0.669103
 21
0.115347
 31
0.0
  0
LINE
  8
1
  6
CONTINUOUS
 62
   250
 10
-0.632797
 20
0.073068
 30
0.0
 11
-0.632797
 21
0.012408
 31
0.0
  0
LINE
  8
1
  6
CONTINUOUS
 62
   250
 10
-0.669103
 20
0.115347
 30
0.0
 11
-0.669103
 21
0.091449
 31
0.0
  0
LINE
  8
1
  6
CONTINUOUS
 62
   250
 10
-0.519748
 20
0.118105
 30
0.0
 11
-0.578112
 21
0.118105
 31
0.0
  0
LINE
  8
1
  6
CONTINUOUS
 62
   250
 10
-0.614416
 20
0.012408
 30
0.0
 11
-0.614416
 21
0.0
 31
0.0
  0
LINE
  8
1
  6
CONTINUOUS
 62
   250
 10
-0.626365
 20
0.091449
 30
0.0
 11
-0.626365
 21
0.073068
 31
0.0
  0
LINE
  8
1
  6
CONTINUOUS
 62
   250
 10
-0.626365
 20
0.133729
 30
0.0
 11
-0.626365
 21
0.115347
 31
0.0
  0
LINE
  8
1
  6
CONTINUOUS
 62
   250
 10
-0.509639
 20
0.03033
 30
0.0
 11
-0.509639
 21
0.108454
 31
0.0
  0
LINE
  8
1
  6
CONTINUOUS
 62
   250
 10
-0.511018
 20
0.113049
 30
0.0
 11
-0.512396
 21
0.115347
 31
0.0
  0
LINE
  8
1
  6
CONTINUOUS
 62
   250
 10
-0.516991
 20
0.117644
 30
0.0
 11
-0.519748
 21
0.118105
 31
0.0
  0
LINE
  8
1
  6
CONTINUOUS
 62
   250
 10
-0.515154
 20
0.116726
 30
0.0
 11
-0.516991
 21
0.117644
 31
0.0
  0
LINE
  8
1
  6
CONTINUOUS
 62
   250
 10
-0.512396
 20
0.115347
 30
0.0
 11
-0.515154
 21
0.116726
 31
0.0
  0
LINE
  8
1
  6
CONTINUOUS
 62
   250
 10
-0.509639
 20
0.108454
 30
0.0
 11
-0.510098
 21
0.11075
 31
0.0
  0
LINE
  8
1
  6
CONTINUOUS
 62
   250
 10
-0.510098
 20
0.11075
 30
0.0
 11
-0.511018
 21
0.113049
 31
0.0
  0
LINE
  8
1
  6
CONTINUOUS
 62
   250
 10
-0.632797
 20
0.37729
 30
0.0
 11
-0.626365
 21
0.37729
 31
0.0
  0
LINE
  8
1
  6
CONTINUOUS
 62
   250
 10
-0.626365
 20
0.316169
 30
0.0
 11
-0.632797
 21
0.316169
 31
0.0
  0
LINE
  8
1
  6
CONTINUOUS
 62
   250
 10
-0.669103
 20
0.334552
 30
0.0
 11
-0.626365
 21
0.334552
 31
0.0
  0
LINE
  8
1
  6
CONTINUOUS
 62
   250
 10
-0.626365
 20
0.358907
 30
0.0
 11
-0.669103
 21
0.358907
 31
0.0
  0
LINE
  8
1
  6
CONTINUOUS
 62
   250
 10
-0.669103
 20
0.358907
 30
0.0
 11
-0.669103
 21
0.334552
 31
0.0
  0
LINE
  8
1
  6
CONTINUOUS
 62
   250
 10
-0.538132
 20
0.208176
 30
0.0
 11
-0.536753
 21
0.213231
 31
0.0
  0
LINE
  8
1
  6
CONTINUOUS
 62
   250
 10
-0.538591
 20
0.216447
 30
0.0
 11
-0.542268
 21
0.210933
 31
0.0
  0
LINE
  8
1
  6
CONTINUOUS
 62
   250
 10
-0.542727
 20
0.210474
 30
0.0
 11
-0.538591
 21
0.215989
 31
0.0
  0
LINE
  8
1
  6
CONTINUOUS
 62
   250
 10
-0.542727
 20
0.162221
 30
0.0
 11
-0.538591
 21
0.156707
 31
0.0
  0
LINE
  8
1
  6
CONTINUOUS
 62
   250
 10
-0.538591
 20
0.156246
 30
0.0
 11
-0.542727
 21
0.16176
 31
0.0
  0
LINE
  8
1
  6
CONTINUOUS
 62
   250
 10
-0.547321
 20
0.173709
 30
0.0
 11
-0.545025
 21
0.167736
 31
0.0
  0
LINE
  8
1
  6
CONTINUOUS
 62
   250
 10
-0.545025
 20
0.167275
 30
0.0
 11
-0.547321
 21
0.173709
 31
0.0
  0
LINE
  8
1
  6
CONTINUOUS
 62
   250
 10
-0.545025
 20
0.167736
 30
0.0
 11
-0.542727
 21
0.162221
 31
0.0
  0
LINE
  8
1
  6
CONTINUOUS
 62
   250
 10
-0.542727
 20
0.16176
 30
0.0
 11
-0.545025
 21
0.167275
 31
0.0
  0
LINE
  8
1
  6
CONTINUOUS
 62
   250
 10
-0.548241
 20
0.19301
 30
0.0
 11
-0.5487
 21
0.186117
 31
0.0
  0
LINE
  8
1
  6
CONTINUOUS
 62
   250
 10
-0.5487
 20
0.186117
 30
0.0
 11
-0.548241
 21
0.192552
 31
0.0
  0
LINE
  8
1
  6
CONTINUOUS
 62
   250
 10
-0.545484
 20
0.18428
 30
0.0
 11
-0.542268
 21
0.180144
 31
0.0
  0
LINE
  8
1
  6
CONTINUOUS
 62
   250
 10
-0.5487
 20
0.189333
 30
0.0
 11
-0.545484
 21
0.18428
 31
0.0
  0
LINE
  8
1
  6
CONTINUOUS
 62
   250
 10
-0.5487
 20
0.186117
 30
0.0
 11
-0.548241
 21
0.180144
 31
0.0
  0
LINE
  8
1
  6
CONTINUOUS
 62
   250
 10
-0.548241
 20
0.179683
 30
0.0
 11
-0.5487
 21
0.186117
 31
0.0
  0
LINE
  8
1
  6
CONTINUOUS
 62
   250
 10
-0.545025
 20
0.205418
 30
0.0
 11
-0.547321
 21
0.198984
 31
0.0
  0
LINE
  8
1
  6
CONTINUOUS
 62
   250
 10
-0.542268
 20
0.210933
 30
0.0
 11
-0.545025
 21
0.205418
 31
0.0
  0
LINE
  8
1
  6
CONTINUOUS
 62
   250
 10
-0.545025
 20
0.204959
 30
0.0
 11
-0.542727
 21
0.210474
 31
0.0
  0
LINE
  8
1
  6
CONTINUOUS
 62
   250
 10
-0.547321
 20
0.198984
 30
0.0
 11
-0.545025
 21
0.204959
 31
0.0
  0
LINE
  8
1
  6
CONTINUOUS
 62
   250
 10
-0.547321
 20
0.198984
 30
0.0
 11
-0.548241
 21
0.19301
 31
0.0
  0
LINE
  8
1
  6
CONTINUOUS
 62
   250
 10
-0.548241
 20
0.192552
 30
0.0
 11
-0.547321
 21
0.198984
 31
0.0
  0
LINE
  8
1
  6
CONTINUOUS
 62
   250
 10
-0.548241
 20
0.180144
 30
0.0
 11
-0.547321
 21
0.173709
 31
0.0
  0
LINE
  8
1
  6
CONTINUOUS
 62
   250
 10
-0.547321
 20
0.173709
 30
0.0
 11
-0.548241
 21
0.179683
 31
0.0
  0
LINE
  8
1
  6
CONTINUOUS
 62
   250
 10
-0.524345
 20
0.143838
 30
0.0
 11
-0.518831
 21
0.141081
 31
0.0
  0
LINE
  8
1
  6
CONTINUOUS
 62
   250
 10
-0.51837
 20
0.141081
 30
0.0
 11
-0.524345
 21
0.143838
 31
0.0
  0
LINE
  8
1
  6
CONTINUOUS
 62
   250
 10
-0.534455
 20
0.151651
 30
0.0
 11
-0.52986
 21
0.147515
 31
0.0
  0
LINE
  8
1
  6
CONTINUOUS
 62
   250
 10
-0.538591
 20
0.156707
 30
0.0
 11
-0.534455
 21
0.151651
 31
0.0
  0
LINE
  8
1
  6
CONTINUOUS
 62
   250
 10
-0.534455
 20
0.151651
 30
0.0
 11
-0.538591
 21
0.156246
 31
0.0
  0
LINE
  8
1
  6
CONTINUOUS
 62
   250
 10
-0.529399
 20
0.147515
 30
0.0
 11
-0.534455
 21
0.151651
 31
0.0
  0
LINE
  8
1
  6
CONTINUOUS
 62
   250
 10
-0.52986
 20
0.147515
 30
0.0
 11
-0.524345
 21
0.143838
 31
0.0
  0
LINE
  8
1
  6
CONTINUOUS
 62
   250
 10
-0.524345
 20
0.143838
 30
0.0
 11
-0.529399
 21
0.147515
 31
0.0
  0
LINE
  8
1
  6
CONTINUOUS
 62
   250
 10
-0.518831
 20
0.141081
 30
0.0
 11
-0.512396
 21
0.139243
 31
0.0
  0
LINE
  8
1
  6
CONTINUOUS
 62
   250
 10
-0.512396
 20
0.138784
 30
0.0
 11
-0.51837
 21
0.141081
 31
0.0
  0
LINE
  8
1
  6
CONTINUOUS
 62
   250
 10
-0.533996
 20
0.185658
 30
0.0
 11
-0.536753
 21
0.189794
 31
0.0
  0
LINE
  8
1
  6
CONTINUOUS
 62
   250
 10
-0.531697
 20
0.181981
 30
0.0
 11
-0.533996
 21
0.185658
 31
0.0
  0
LINE
  8
1
  6
CONTINUOUS
 62
   250
 10
-0.539049
 20
0.20404
 30
0.0
 11
-0.538132
 21
0.208176
 31
0.0
  0
LINE
  8
1
  6
CONTINUOUS
 62
   250
 10
-0.539049
 20
0.198984
 30
0.0
 11
-0.539049
 21
0.20404
 31
0.0
  0
LINE
  8
1
  6
CONTINUOUS
 62
   250
 10
-0.536753
 20
0.189794
 30
0.0
 11
-0.538132
 21
0.194389
 31
0.0
  0
LINE
  8
1
  6
CONTINUOUS
 62
   250
 10
-0.538132
 20
0.194389
 30
0.0
 11
-0.539049
 21
0.198984
 31
0.0
  0
LINE
  8
1
  6
CONTINUOUS
 62
   250
 10
-0.524345
 20
0.228396
 30
0.0
 11
-0.51837
 21
0.231154
 31
0.0
  0
LINE
  8
1
  6
CONTINUOUS
 62
   250
 10
-0.527103
 20
0.223799
 30
0.0
 11
-0.523425
 21
0.226098
 31
0.0
  0
LINE
  8
1
  6
CONTINUOUS
 62
   250
 10
-0.523884
 20
0.228855
 30
0.0
 11
-0.529399
 21
0.224719
 31
0.0
  0
LINE
  8
1
  6
CONTINUOUS
 62
   250
 10
-0.531697
 20
0.221042
 30
0.0
 11
-0.527103
 21
0.223799
 31
0.0
  0
LINE
  8
1
  6
CONTINUOUS
 62
   250
 10
-0.533996
 20
0.217367
 30
0.0
 11
-0.531697
 21
0.221042
 31
0.0
  0
LINE
  8
1
  6
CONTINUOUS
 62
   250
 10
-0.536753
 20
0.213231
 30
0.0
 11
-0.533996
 21
0.217367
 31
0.0
  0
LINE
  8
1
  6
CONTINUOUS
 62
   250
 10
-0.533996
 20
0.221042
 30
0.0
 11
-0.538591
 21
0.216447
 31
0.0
  0
LINE
  8
1
  6
CONTINUOUS
 62
   250
 10
-0.538591
 20
0.215989
 30
0.0
 11
-0.534455
 21
0.221042
 31
0.0
  0
LINE
  8
1
  6
CONTINUOUS
 62
   250
 10
-0.529399
 20
0.224719
 30
0.0
 11
-0.533996
 21
0.221042
 31
0.0
  0
LINE
  8
1
  6
CONTINUOUS
 62
   250
 10
-0.534455
 20
0.221042
 30
0.0
 11
-0.529399
 21
0.224719
 31
0.0
  0
LINE
  8
1
  6
CONTINUOUS
 62
   250
 10
-0.529399
 20
0.224719
 30
0.0
 11
-0.524345
 21
0.228396
 31
0.0
  0
LINE
  8
1
  6
CONTINUOUS
 62
   250
 10
-0.518831
 20
0.227935
 30
0.0
 11
-0.514695
 21
0.228855
 31
0.0
  0
LINE
  8
1
  6
CONTINUOUS
 62
   250
 10
-0.523425
 20
0.226098
 30
0.0
 11
-0.518831
 21
0.227935
 31
0.0
  0
LINE
  8
1
  6
CONTINUOUS
 62
   250
 10
-0.517911
 20
0.231612
 30
0.0
 11
-0.523884
 21
0.228855
 31
0.0
  0
LINE
  8
1
  6
CONTINUOUS
 62
   250
 10
-0.514695
 20
0.228855
 30
0.0
 11
-0.509639
 21
0.228855
 31
0.0
  0
LINE
  8
1
  6
CONTINUOUS
 62
   250
 10
-0.511937
 20
0.23345
 30
0.0
 11
-0.517911
 21
0.231612
 31
0.0
  0
LINE
  8
1
  6
CONTINUOUS
 62
   250
 10
-0.51837
 20
0.231154
 30
0.0
 11
-0.512396
 21
0.232991
 31
0.0
  0
LINE
  8
1
  6
CONTINUOUS
 62
   250
 10
-0.626365
 20
0.37729
 30
0.0
 11
-0.626365
 21
0.358907
 31
0.0
  0
LINE
  8
1
  6
CONTINUOUS
 62
   250
 10
-0.626365
 20
0.334552
 30
0.0
 11
-0.626365
 21
0.316169
 31
0.0
  0
LINE
  8
1
  6
CONTINUOUS
 62
   250
 10
-0.540428
 20
0.312953
 30
0.0
 11
-0.537212
 21
0.311115
 31
0.0
  0
LINE
  8
1
  6
CONTINUOUS
 62
   250
 10
-0.537212
 20
0.343742
 30
0.0
 11
-0.540428
 21
0.341445
 31
0.0
  0
LINE
  8
1
  6
CONTINUOUS
 62
   250
 10
-0.541807
 20
0.328577
 30
0.0
 11
-0.516991
 21
0.328577
 31
0.0
  0
LINE
  8
1
  6
CONTINUOUS
 62
   250
 10
-0.516991
 20
0.32628
 30
0.0
 11
-0.541807
 21
0.32628
 31
0.0
  0
LINE
  8
1
  6
CONTINUOUS
 62
   250
 10
-0.541807
 20
0.32628
 30
0.0
 11
-0.516991
 21
0.32628
 31
0.0
  0
LINE
  8
1
  6
CONTINUOUS
 62
   250
 10
-0.516991
 20
0.328118
 30
0.0
 11
-0.541807
 21
0.328118
 31
0.0
  0
LINE
  8
1
  6
CONTINUOUS
 62
   250
 10
-0.545484
 20
0.335011
 30
0.0
 11
-0.547321
 21
0.331334
 31
0.0
  0
LINE
  8
1
  6
CONTINUOUS
 62
   250
 10
-0.541807
 20
0.32628
 30
0.0
 11
-0.541807
 21
0.328577
 31
0.0
  0
LINE
  8
1
  6
CONTINUOUS
 62
   250
 10
-0.541807
 20
0.328118
 30
0.0
 11
-0.541807
 21
0.32628
 31
0.0
  0
LINE
  8
1
  6
CONTINUOUS
 62
   250
 10
-0.547782
 20
0.327198
 30
0.0
 11
-0.547321
 21
0.323523
 31
0.0
  0
LINE
  8
1
  6
CONTINUOUS
 62
   250
 10
-0.547321
 20
0.331334
 30
0.0
 11
-0.547782
 21
0.327198
 31
0.0
  0
LINE
  8
1
  6
CONTINUOUS
 62
   250
 10
-0.543185
 20
0.31571
 30
0.0
 11
-0.540428
 21
0.312953
 31
0.0
  0
LINE
  8
1
  6
CONTINUOUS
 62
   250
 10
-0.545484
 20
0.319387
 30
0.0
 11
-0.543185
 21
0.31571
 31
0.0
  0
LINE
  8
1
  6
CONTINUOUS
 62
   250
 10
-0.547321
 20
0.323523
 30
0.0
 11
-0.545484
 21
0.319387
 31
0.0
  0
LINE
  8
1
  6
CONTINUOUS
 62
   250
 10
-0.540428
 20
0.341445
 30
0.0
 11
-0.543185
 21
0.338688
 31
0.0
  0
LINE
  8
1
  6
CONTINUOUS
 62
   250
 10
-0.543185
 20
0.338688
 30
0.0
 11
-0.545484
 21
0.335011
 31
0.0
  0
LINE
  8
1
  6
CONTINUOUS
 62
   250
 10
-0.511476
 20
0.331334
 30
0.0
 11
-0.512855
 21
0.335011
 31
0.0
  0
LINE
  8
1
  6
CONTINUOUS
 62
   250
 10
-0.52986
 20
0.315251
 30
0.0
 11
-0.52986
 21
0.339606
 31
0.0
  0
LINE
  8
1
  6
CONTINUOUS
 62
   250
 10
-0.52802
 20
0.339606
 30
0.0
 11
-0.52802
 21
0.315251
 31
0.0
  0
LINE
  8
1
  6
CONTINUOUS
 62
   250
 10
-0.530778
 20
0.315251
 30
0.0
 11
-0.530778
 21
0.339606
 31
0.0
  0
LINE
  8
1
  6
CONTINUOUS
 62
   250
 10
-0.525724
 20
0.309275
 30
0.0
 11
-0.521127
 21
0.311115
 31
0.0
  0
LINE
  8
1
  6
CONTINUOUS
 62
   250
 10
-0.52894
 20
0.32628
 30
0.0
 11
-0.528481
 21
0.326739
 31
0.0
  0
LINE
  8
1
  6
CONTINUOUS
 62
   250
 10
-0.52802
 20
0.323982
 30
0.0
 11
-0.52894
 21
0.32628
 31
0.0
  0
LINE
  8
1
  6
CONTINUOUS
 62
   250
 10
-0.530778
 20
0.323982
 30
0.0
 11
-0.52802
 21
0.323982
 31
0.0
  0
LINE
  8
1
  6
CONTINUOUS
 62
   250
 10
-0.529399
 20
0.32628
 30
0.0
 11
-0.530778
 21
0.323982
 31
0.0
  0
LINE
  8
1
  6
CONTINUOUS
 62
   250
 10
-0.530778
 20
0.326739
 30
0.0
 11
-0.529399
 21
0.32628
 31
0.0
  0
LINE
  8
1
  6
CONTINUOUS
 62
   250
 10
-0.531697
 20
0.324902
 30
0.0
 11
-0.530778
 21
0.326739
 31
0.0
  0
LINE
  8
1
  6
CONTINUOUS
 62
   250
 10
-0.530778
 20
0.327198
 30
0.0
 11
-0.532617
 21
0.32628
 31
0.0
  0
LINE
  8
1
  6
CONTINUOUS
 62
   250
 10
-0.530778
 20
0.327659
 30
0.0
 11
-0.530778
 21
0.327198
 31
0.0
  0
LINE
  8
1
  6
CONTINUOUS
 62
   250
 10
-0.532617
 20
0.328118
 30
0.0
 11
-0.530778
 21
0.327659
 31
0.0
  0
LINE
  8
1
  6
CONTINUOUS
 62
   250
 10
-0.530778
 20
0.328118
 30
0.0
 11
-0.531697
 21
0.329496
 31
0.0
  0
LINE
  8
1
  6
CONTINUOUS
 62
   250
 10
-0.529399
 20
0.328577
 30
0.0
 11
-0.530778
 21
0.328118
 31
0.0
  0
LINE
  8
1
  6
CONTINUOUS
 62
   250
 10
-0.530778
 20
0.330875
 30
0.0
 11
-0.529399
 21
0.328577
 31
0.0
  0
LINE
  8
1
  6
CONTINUOUS
 62
   250
 10
-0.52802
 20
0.330875
 30
0.0
 11
-0.530778
 21
0.330875
 31
0.0
  0
LINE
  8
1
  6
CONTINUOUS
 62
   250
 10
-0.52894
 20
0.328577
 30
0.0
 11
-0.52802
 21
0.330875
 31
0.0
  0
LINE
  8
1
  6
CONTINUOUS
 62
   250
 10
-0.528481
 20
0.328118
 30
0.0
 11
-0.52894
 21
0.328577
 31
0.0
  0
LINE
  8
1
  6
CONTINUOUS
 62
   250
 10
-0.52802
 20
0.327198
 30
0.0
 11
-0.52802
 21
0.327659
 31
0.0
  0
LINE
  8
1
  6
CONTINUOUS
 62
   250
 10
-0.52802
 20
0.315251
 30
0.0
 11
-0.52986
 21
0.315251
 31
0.0
  0
LINE
  8
1
  6
CONTINUOUS
 62
   250
 10
-0.52802
 20
0.315251
 30
0.0
 11
-0.530778
 21
0.315251
 31
0.0
  0
LINE
  8
1
  6
CONTINUOUS
 62
   250
 10
-0.533076
 20
0.309275
 30
0.0
 11
-0.529399
 21
0.308817
 31
0.0
  0
LINE
  8
1
  6
CONTINUOUS
 62
   250
 10
-0.537212
 20
0.311115
 30
0.0
 11
-0.533076
 21
0.309275
 31
0.0
  0
LINE
  8
1
  6
CONTINUOUS
 62
   250
 10
-0.528481
 20
0.326739
 30
0.0
 11
-0.526642
 21
0.324902
 31
0.0
  0
LINE
  8
1
  6
CONTINUOUS
 62
   250
 10
-0.526642
 20
0.329496
 30
0.0
 11
-0.528481
 21
0.328118
 31
0.0
  0
LINE
  8
1
  6
CONTINUOUS
 62
   250
 10
-0.52802
 20
0.327659
 30
0.0
 11
-0.526183
 21
0.328118
 31
0.0
  0
LINE
  8
1
  6
CONTINUOUS
 62
   250
 10
-0.526183
 20
0.32628
 30
0.0
 11
-0.52802
 21
0.327198
 31
0.0
  0
LINE
  8
1
  6
CONTINUOUS
 62
   250
 10
-0.529399
 20
0.308817
 30
0.0
 11
-0.525724
 21
0.309275
 31
0.0
  0
LINE
  8
1
  6
CONTINUOUS
 62
   250
 10
-0.511476
 20
0.323523
 30
0.0
 11
-0.511018
 21
0.327198
 31
0.0
  0
LINE
  8
1
  6
CONTINUOUS
 62
   250
 10
-0.511018
 20
0.327198
 30
0.0
 11
-0.511476
 21
0.331334
 31
0.0
  0
LINE
  8
1
  6
CONTINUOUS
 62
   250
 10
-0.512855
 20
0.319387
 30
0.0
 11
-0.511476
 21
0.323523
 31
0.0
  0
LINE
  8
1
  6
CONTINUOUS
 62
   250
 10
-0.516991
 20
0.328577
 30
0.0
 11
-0.516991
 21
0.32628
 31
0.0
  0
LINE
  8
1
  6
CONTINUOUS
 62
   250
 10
-0.517911
 20
0.312953
 30
0.0
 11
-0.515154
 21
0.31571
 31
0.0
  0
LINE
  8
1
  6
CONTINUOUS
 62
   250
 10
-0.521127
 20
0.311115
 30
0.0
 11
-0.517911
 21
0.312953
 31
0.0
  0
LINE
  8
1
  6
CONTINUOUS
 62
   250
 10
-0.515154
 20
0.31571
 30
0.0
 11
-0.512855
 21
0.319387
 31
0.0
  0
LINE
  8
1
  6
CONTINUOUS
 62
   250
 10
-0.521127
 20
0.343742
 30
0.0
 11
-0.525724
 21
0.34512
 31
0.0
  0
LINE
  8
1
  6
CONTINUOUS
 62
   250
 10
-0.533076
 20
0.34512
 30
0.0
 11
-0.537212
 21
0.343742
 31
0.0
  0
LINE
  8
1
  6
CONTINUOUS
 62
   250
 10
-0.529399
 20
0.345581
 30
0.0
 11
-0.533076
 21
0.34512
 31
0.0
  0
LINE
  8
1
  6
CONTINUOUS
 62
   250
 10
-0.530778
 20
0.339606
 30
0.0
 11
-0.52802
 21
0.339606
 31
0.0
  0
LINE
  8
1
  6
CONTINUOUS
 62
   250
 10
-0.525724
 20
0.34512
 30
0.0
 11
-0.529399
 21
0.345581
 31
0.0
  0
LINE
  8
1
  6
CONTINUOUS
 62
   250
 10
-0.515154
 20
0.338688
 30
0.0
 11
-0.517911
 21
0.341445
 31
0.0
  0
LINE
  8
1
  6
CONTINUOUS
 62
   250
 10
-0.512855
 20
0.335011
 30
0.0
 11
-0.515154
 21
0.338688
 31
0.0
  0
LINE
  8
1
  6
CONTINUOUS
 62
   250
 10
-0.517911
 20
0.341445
 30
0.0
 11
-0.521127
 21
0.343742
 31
0.0
  0
LINE
  8
1
  6
CONTINUOUS
 62
   250
 10
-0.626365
 20
0.55973
 30
0.0
 11
-0.632797
 21
0.55973
 31
0.0
  0
LINE
  8
1
  6
CONTINUOUS
 62
   250
 10
-0.669103
 20
0.577653
 30
0.0
 11
-0.626365
 21
0.577653
 31
0.0
  0
LINE
  8
1
  6
CONTINUOUS
 62
   250
 10
-0.626365
 20
0.602009
 30
0.0
 11
-0.669103
 21
0.602009
 31
0.0
  0
LINE
  8
1
  6
CONTINUOUS
 62
   250
 10
-0.626365
 20
0.619932
 30
0.0
 11
-0.632797
 21
0.619932
 31
0.0
  0
LINE
  8
1
  6
CONTINUOUS
 62
   250
 10
-0.632797
 20
0.681051
 30
0.0
 11
-0.614416
 21
0.681051
 31
0.0
  0
LINE
  8
1
  6
CONTINUOUS
 62
   250
 10
-0.669103
 20
0.602009
 30
0.0
 11
-0.669103
 21
0.577653
 31
0.0
  0
LINE
  8
1
  6
CONTINUOUS
 62
   250
 10
-0.632797
 20
0.619932
 30
0.0
 11
-0.632797
 21
0.681051
 31
0.0
  0
LINE
  8
1
  6
CONTINUOUS
 62
   250
 10
-0.626365
 20
0.602009
 30
0.0
 11
-0.626365
 21
0.619932
 31
0.0
  0
LINE
  8
1
  6
CONTINUOUS
 62
   250
 10
-0.626365
 20
0.55973
 30
0.0
 11
-0.626365
 21
0.577653
 31
0.0
  0
LINE
  8
1
  6
CONTINUOUS
 62
   250
 10
-0.614416
 20
0.681051
 30
0.0
 11
-0.614416
 21
0.693
 31
0.0
  0
LINE
  8
1
  6
CONTINUOUS
 62
   250
 10
-0.109373
 20
0.450358
 30
0.0
 11
-0.096045
 21
0.445303
 31
0.0
  0
LINE
  8
1
  6
CONTINUOUS
 62
   250
 10
-0.256888
 20
0.093748
 30
0.0
 11
-0.281243
 21
0.093748
 31
0.0
  0
LINE
  8
1
  6
CONTINUOUS
 62
   250
 10
-0.031708
 20
0.039981
 30
0.0
 11
-0.362583
 21
0.039981
 31
0.0
  0
LINE
  8
1
  6
CONTINUOUS
 62
   250
 10
-0.362583
 20
0.088692
 30
0.0
 11
-0.031708
 21
0.088692
 31
0.0
  0
LINE
  8
1
  6
CONTINUOUS
 62
   250
 10
-0.460928
 20
0.130971
 30
0.0
 11
-0.460928
 21
0.155787
 31
0.0
  0
LINE
  8
1
  6
CONTINUOUS
 62
   250
 10
-0.36626
 20
0.093748
 30
0.0
 11
-0.390617
 21
0.093748
 31
0.0
  0
LINE
  8
1
  6
CONTINUOUS
 62
   250
 10
-0.439328
 20
0.093748
 30
0.0
 11
-0.460928
 21
0.093748
 31
0.0
  0
LINE
  8
1
  6
CONTINUOUS
 62
   250
 10
-0.460928
 20
0.093748
 30
0.0
 11
-0.460928
 21
0.119022
 31
0.0
  0
LINE
  8
1
  6
CONTINUOUS
 62
   250
 10
-0.417729
 20
0.053767
 30
0.0
 11
-0.411755
 21
0.053767
 31
0.0
  0
LINE
  8
1
  6
CONTINUOUS
 62
   250
 10
-0.411755
 20
0.046874
 30
0.0
 11
-0.417729
 21
0.046874
 31
0.0
  0
LINE
  8
1
  6
CONTINUOUS
 62
   250
 10
-0.423704
 20
0.041359
 30
0.0
 11
-0.424163
 21
0.040901
 31
0.0
  0
LINE
  8
1
  6
CONTINUOUS
 62
   250
 10
-0.422784
 20
0.043658
 30
0.0
 11
-0.423704
 21
0.041359
 31
0.0
  0
LINE
  8
1
  6
CONTINUOUS
 62
   250
 10
-0.422784
 20
0.053767
 30
0.0
 11
-0.422784
 21
0.043658
 31
0.0
  0
LINE
  8
1
  6
CONTINUOUS
 62
   250
 10
-0.417729
 20
0.039981
 30
0.0
 11
-0.417729
 21
0.053767
 31
0.0
  0
LINE
  8
1
  6
CONTINUOUS
 62
   250
 10
-0.429219
 20
0.043658
 30
0.0
 11
-0.429219
 21
0.044575
 31
0.0
  0
LINE
  8
1
  6
CONTINUOUS
 62
   250
 10
-0.428758
 20
0.041359
 30
0.0
 11
-0.429219
 21
0.043658
 31
0.0
  0
LINE
  8
1
  6
CONTINUOUS
 62
   250
 10
-0.42784
 20
0.040901
 30
0.0
 11
-0.428758
 21
0.041359
 31
0.0
  0
LINE
  8
1
  6
CONTINUOUS
 62
   250
 10
-0.42692
 20
0.039981
 30
0.0
 11
-0.42784
 21
0.040901
 31
0.0
  0
LINE
  8
1
  6
CONTINUOUS
 62
   250
 10
-0.426
 20
0.039981
 30
0.0
 11
-0.42692
 21
0.039981
 31
0.0
  0
LINE
  8
1
  6
CONTINUOUS
 62
   250
 10
-0.424163
 20
0.040901
 30
0.0
 11
-0.426
 21
0.039981
 31
0.0
  0
LINE
  8
1
  6
CONTINUOUS
 62
   250
 10
-0.396131
 20
0.053767
 30
0.0
 11
-0.403942
 21
0.053767
 31
0.0
  0
LINE
  8
1
  6
CONTINUOUS
 62
   250
 10
-0.401185
 20
0.039981
 30
0.0
 11
-0.403942
 21
0.040901
 31
0.0
  0
LINE
  8
1
  6
CONTINUOUS
 62
   250
 10
-0.411755
 20
0.053767
 30
0.0
 11
-0.410377
 21
0.053308
 31
0.0
  0
LINE
  8
1
  6
CONTINUOUS
 62
   250
 10
-0.408539
 20
0.051469
 30
0.0
 11
-0.408539
 21
0.049172
 31
0.0
  0
LINE
  8
1
  6
CONTINUOUS
 62
   250
 10
-0.409457
 20
0.052389
 30
0.0
 11
-0.408539
 21
0.051469
 31
0.0
  0
LINE
  8
1
  6
CONTINUOUS
 62
   250
 10
-0.410377
 20
0.053308
 30
0.0
 11
-0.409457
 21
0.052389
 31
0.0
  0
LINE
  8
1
  6
CONTINUOUS
 62
   250
 10
-0.410377
 20
0.047333
 30
0.0
 11
-0.411755
 21
0.046874
 31
0.0
  0
LINE
  8
1
  6
CONTINUOUS
 62
   250
 10
-0.409457
 20
0.047794
 30
0.0
 11
-0.410377
 21
0.047333
 31
0.0
  0
LINE
  8
1
  6
CONTINUOUS
 62
   250
 10
-0.408539
 20
0.049172
 30
0.0
 11
-0.409457
 21
0.047794
 31
0.0
  0
LINE
  8
1
  6
CONTINUOUS
 62
   250
 10
-0.404403
 20
0.041359
 30
0.0
 11
-0.404862
 21
0.042738
 31
0.0
  0
LINE
  8
1
  6
CONTINUOUS
 62
   250
 10
-0.403942
 20
0.040901
 30
0.0
 11
-0.404403
 21
0.041359
 31
0.0
  0
LINE
  8
1
  6
CONTINUOUS
 62
   250
 10
-0.397049
 20
0.047794
 30
0.0
 11
-0.398428
 21
0.048253
 31
0.0
  0
LINE
  8
1
  6
CONTINUOUS
 62
   250
 10
-0.396131
 20
0.047333
 30
0.0
 11
-0.397049
 21
0.047794
 31
0.0
  0
LINE
  8
1
  6
CONTINUOUS
 62
   250
 10
-0.398428
 20
0.048253
 30
0.0
 11
-0.400267
 21
0.048253
 31
0.0
  0
LINE
  8
1
  6
CONTINUOUS
 62
   250
 10
-0.400267
 20
0.048253
 30
0.0
 11
-0.396131
 21
0.053767
 31
0.0
  0
LINE
  8
1
  6
CONTINUOUS
 62
   250
 10
-0.39567
 20
0.044117
 30
0.0
 11
-0.39567
 21
0.045495
 31
0.0
  0
LINE
  8
1
  6
CONTINUOUS
 62
   250
 10
-0.396131
 20
0.042279
 30
0.0
 11
-0.39567
 21
0.044117
 31
0.0
  0
LINE
  8
1
  6
CONTINUOUS
 62
   250
 10
-0.39751
 20
0.040901
 30
0.0
 11
-0.399347
 21
0.039981
 31
0.0
  0
LINE
  8
1
  6
CONTINUOUS
 62
   250
 10
-0.396131
 20
0.042279
 30
0.0
 11
-0.39751
 21
0.040901
 31
0.0
  0
LINE
  8
1
  6
CONTINUOUS
 62
   250
 10
-0.399347
 20
0.039981
 30
0.0
 11
-0.401185
 21
0.039981
 31
0.0
  0
LINE
  8
1
  6
CONTINUOUS
 62
   250
 10
-0.39567
 20
0.045495
 30
0.0
 11
-0.396131
 21
0.047333
 31
0.0
  0
LINE
  8
1
  6
CONTINUOUS
 62
   250
 10
-0.430597
 20
0.079042
 30
0.0
 11
-0.394292
 21
0.079042
 31
0.0
  0
LINE
  8
1
  6
CONTINUOUS
 62
   250
 10
-0.432435
 20
0.064338
 30
0.0
 11
-0.393374
 21
0.064338
 31
0.0
  0
LINE
  8
1
  6
CONTINUOUS
 62
   250
 10
-0.402563
 20
0.093748
 30
0.0
 11
-0.42692
 21
0.093748
 31
0.0
  0
LINE
  8
1
  6
CONTINUOUS
 62
   250
 10
-0.394292
 20
0.088692
 30
0.0
 11
-0.430597
 21
0.088692
 31
0.0
  0
LINE
  8
1
  6
CONTINUOUS
 62
   250
 10
-0.421406
 20
0.11259
 30
0.0
 11
-0.421406
 21
0.088692
 31
0.0
  0
LINE
  8
1
  6
CONTINUOUS
 62
   250
 10
-0.424163
 20
0.088692
 30
0.0
 11
-0.424163
 21
0.11259
 31
0.0
  0
LINE
  8
1
  6
CONTINUOUS
 62
   250
 10
-0.420486
 20
0.11259
 30
0.0
 11
-0.420486
 21
0.088692
 31
0.0
  0
LINE
  8
1
  6
CONTINUOUS
 62
   250
 10
-0.423704
 20
0.088692
 30
0.0
 11
-0.423704
 21
0.11259
 31
0.0
  0
LINE
  8
1
  6
CONTINUOUS
 62
   250
 10
-0.420486
 20
0.079042
 30
0.0
 11
-0.421406
 21
0.079042
 31
0.0
  0
LINE
  8
1
  6
CONTINUOUS
 62
   250
 10
-0.424163
 20
0.079042
 30
0.0
 11
-0.420486
 21
0.079042
 31
0.0
  0
LINE
  8
1
  6
CONTINUOUS
 62
   250
 10
-0.421406
 20
0.088692
 30
0.0
 11
-0.423704
 21
0.088692
 31
0.0
  0
LINE
  8
1
  6
CONTINUOUS
 62
   250
 10
-0.420486
 20
0.088692
 30
0.0
 11
-0.424163
 21
0.088692
 31
0.0
  0
LINE
  8
1
  6
CONTINUOUS
 62
   250
 10
-0.422326
 20
0.075826
 30
0.0
 11
-0.423243
 21
0.075826
 31
0.0
  0
LINE
  8
1
  6
CONTINUOUS
 62
   250
 10
-0.421406
 20
0.075826
 30
0.0
 11
-0.422326
 21
0.075826
 31
0.0
  0
LINE
  8
1
  6
CONTINUOUS
 62
   250
 10
-0.421406
 20
0.074447
 30
0.0
 11
-0.423704
 21
0.074447
 31
0.0
  0
LINE
  8
1
  6
CONTINUOUS
 62
   250
 10
-0.423704
 20
0.075367
 30
0.0
 11
-0.424163
 21
0.074447
 31
0.0
  0
LINE
  8
1
  6
CONTINUOUS
 62
   250
 10
-0.420947
 20
0.074447
 30
0.0
 11
-0.420947
 21
0.075367
 31
0.0
  0
LINE
  8
1
  6
CONTINUOUS
 62
   250
 10
-0.420947
 20
0.073068
 30
0.0
 11
-0.420947
 21
0.074447
 31
0.0
  0
LINE
  8
1
  6
CONTINUOUS
 62
   250
 10
-0.421406
 20
0.072609
 30
0.0
 11
-0.420947
 21
0.073068
 31
0.0
  0
LINE
  8
1
  6
CONTINUOUS
 62
   250
 10
-0.422326
 20
0.072148
 30
0.0
 11
-0.421406
 21
0.072609
 31
0.0
  0
LINE
  8
1
  6
CONTINUOUS
 62
   250
 10
-0.423243
 20
0.072609
 30
0.0
 11
-0.422326
 21
0.072148
 31
0.0
  0
LINE
  8
1
  6
CONTINUOUS
 62
   250
 10
-0.423704
 20
0.073068
 30
0.0
 11
-0.423243
 21
0.072609
 31
0.0
  0
LINE
  8
1
  6
CONTINUOUS
 62
   250
 10
-0.424163
 20
0.074447
 30
0.0
 11
-0.423704
 21
0.073068
 31
0.0
  0
LINE
  8
1
  6
CONTINUOUS
 62
   250
 10
-0.420486
 20
0.074447
 30
0.0
 11
-0.424163
 21
0.074447
 31
0.0
  0
LINE
  8
1
  6
CONTINUOUS
 62
   250
 10
-0.423243
 20
0.075826
 30
0.0
 11
-0.423704
 21
0.075367
 31
0.0
  0
LINE
  8
1
  6
CONTINUOUS
 62
   250
 10
-0.420947
 20
0.075367
 30
0.0
 11
-0.421406
 21
0.075826
 31
0.0
  0
LINE
  8
1
  6
CONTINUOUS
 62
   250
 10
-0.423704
 20
0.074447
 30
0.0
 11
-0.423704
 21
0.079042
 31
0.0
  0
LINE
  8
1
  6
CONTINUOUS
 62
   250
 10
-0.421406
 20
0.079042
 30
0.0
 11
-0.421406
 21
0.074447
 31
0.0
  0
LINE
  8
1
  6
CONTINUOUS
 62
   250
 10
-0.424163
 20
0.074447
 30
0.0
 11
-0.424163
 21
0.079042
 31
0.0
  0
LINE
  8
1
  6
CONTINUOUS
 62
   250
 10
-0.420486
 20
0.079042
 30
0.0
 11
-0.420486
 21
0.074447
 31
0.0
  0
LINE
  8
1
  6
CONTINUOUS
 62
   250
 10
-0.430597
 20
0.088692
 30
0.0
 11
-0.430597
 21
0.079042
 31
0.0
  0
LINE
  8
1
  6
CONTINUOUS
 62
   250
 10
-0.430597
 20
0.084097
 30
0.0
 11
-0.432435
 21
0.084097
 31
0.0
  0
LINE
  8
1
  6
CONTINUOUS
 62
   250
 10
-0.432435
 20
0.084097
 30
0.0
 11
-0.432435
 21
0.064338
 31
0.0
  0
LINE
  8
1
  6
CONTINUOUS
 62
   250
 10
-0.401646
 20
0.11259
 30
0.0
 11
-0.401646
 21
0.088692
 31
0.0
  0
LINE
  8
1
  6
CONTINUOUS
 62
   250
 10
-0.404403
 20
0.088692
 30
0.0
 11
-0.404403
 21
0.11259
 31
0.0
  0
LINE
  8
1
  6
CONTINUOUS
 62
   250
 10
-0.400726
 20
0.11259
 30
0.0
 11
-0.400726
 21
0.088692
 31
0.0
  0
LINE
  8
1
  6
CONTINUOUS
 62
   250
 10
-0.404862
 20
0.088692
 30
0.0
 11
-0.404862
 21
0.11259
 31
0.0
  0
LINE
  8
1
  6
CONTINUOUS
 62
   250
 10
-0.404862
 20
0.079042
 30
0.0
 11
-0.400726
 21
0.079042
 31
0.0
  0
LINE
  8
1
  6
CONTINUOUS
 62
   250
 10
-0.401646
 20
0.088692
 30
0.0
 11
-0.404403
 21
0.088692
 31
0.0
  0
LINE
  8
1
  6
CONTINUOUS
 62
   250
 10
-0.400726
 20
0.088692
 30
0.0
 11
-0.404862
 21
0.088692
 31
0.0
  0
LINE
  8
1
  6
CONTINUOUS
 62
   250
 10
-0.401646
 20
0.075826
 30
0.0
 11
-0.402563
 21
0.075826
 31
0.0
  0
LINE
  8
1
  6
CONTINUOUS
 62
   250
 10
-0.402563
 20
0.072148
 30
0.0
 11
-0.401646
 21
0.072609
 31
0.0
  0
LINE
  8
1
  6
CONTINUOUS
 62
   250
 10
-0.400726
 20
0.074447
 30
0.0
 11
-0.404862
 21
0.074447
 31
0.0
  0
LINE
  8
1
  6
CONTINUOUS
 62
   250
 10
-0.401646
 20
0.074447
 30
0.0
 11
-0.404403
 21
0.074447
 31
0.0
  0
LINE
  8
1
  6
CONTINUOUS
 62
   250
 10
-0.404403
 20
0.079042
 30
0.0
 11
-0.404862
 21
0.079042
 31
0.0
  0
LINE
  8
1
  6
CONTINUOUS
 62
   250
 10
-0.402563
 20
0.075826
 30
0.0
 11
-0.403942
 21
0.075826
 31
0.0
  0
LINE
  8
1
  6
CONTINUOUS
 62
   250
 10
-0.404862
 20
0.075367
 30
0.0
 11
-0.404862
 21
0.074447
 31
0.0
  0
LINE
  8
1
  6
CONTINUOUS
 62
   250
 10
-0.403942
 20
0.072609
 30
0.0
 11
-0.402563
 21
0.072148
 31
0.0
  0
LINE
  8
1
  6
CONTINUOUS
 62
   250
 10
-0.404862
 20
0.073068
 30
0.0
 11
-0.403942
 21
0.072609
 31
0.0
  0
LINE
  8
1
  6
CONTINUOUS
 62
   250
 10
-0.404862
 20
0.074447
 30
0.0
 11
-0.404862
 21
0.073068
 31
0.0
  0
LINE
  8
1
  6
CONTINUOUS
 62
   250
 10
-0.403942
 20
0.075826
 30
0.0
 11
-0.404862
 21
0.075367
 31
0.0
  0
LINE
  8
1
  6
CONTINUOUS
 62
   250
 10
-0.404862
 20
0.074447
 30
0.0
 11
-0.404862
 21
0.079042
 31
0.0
  0
LINE
  8
1
  6
CONTINUOUS
 62
   250
 10
-0.404403
 20
0.074447
 30
0.0
 11
-0.404403
 21
0.079042
 31
0.0
  0
LINE
  8
1
  6
CONTINUOUS
 62
   250
 10
-0.394292
 20
0.079042
 30
0.0
 11
-0.394292
 21
0.088692
 31
0.0
  0
LINE
  8
1
  6
CONTINUOUS
 62
   250
 10
-0.393374
 20
0.084097
 30
0.0
 11
-0.394292
 21
0.084097
 31
0.0
  0
LINE
  8
1
  6
CONTINUOUS
 62
   250
 10
-0.393374
 20
0.064338
 30
0.0
 11
-0.393374
 21
0.084097
 31
0.0
  0
LINE
  8
1
  6
CONTINUOUS
 62
   250
 10
-0.400726
 20
0.088692
 30
0.0
 11
-0.401646
 21
0.088692
 31
0.0
  0
LINE
  8
1
  6
CONTINUOUS
 62
   250
 10
-0.400726
 20
0.074447
 30
0.0
 11
-0.401185
 21
0.075367
 31
0.0
  0
LINE
  8
1
  6
CONTINUOUS
 62
   250
 10
-0.401185
 20
0.073068
 30
0.0
 11
-0.400726
 21
0.074447
 31
0.0
  0
LINE
  8
1
  6
CONTINUOUS
 62
   250
 10
-0.401646
 20
0.072609
 30
0.0
 11
-0.401185
 21
0.073068
 31
0.0
  0
LINE
  8
1
  6
CONTINUOUS
 62
   250
 10
-0.401185
 20
0.075367
 30
0.0
 11
-0.401646
 21
0.075826
 31
0.0
  0
LINE
  8
1
  6
CONTINUOUS
 62
   250
 10
-0.400726
 20
0.079042
 30
0.0
 11
-0.400726
 21
0.074447
 31
0.0
  0
LINE
  8
1
  6
CONTINUOUS
 62
   250
 10
-0.401646
 20
0.079042
 30
0.0
 11
-0.401646
 21
0.074447
 31
0.0
  0
LINE
  8
1
  6
CONTINUOUS
 62
   250
 10
-0.362583
 20
0.088692
 30
0.0
 11
-0.362583
 21
0.039981
 31
0.0
  0
LINE
  8
1
  6
CONTINUOUS
 62
   250
 10
-0.341444
 20
0.064338
 30
0.0
 11
-0.341903
 21
0.064796
 31
0.0
  0
LINE
  8
1
  6
CONTINUOUS
 62
   250
 10
-0.341903
 20
0.063418
 30
0.0
 11
-0.341444
 21
0.064338
 31
0.0
  0
LINE
  8
1
  6
CONTINUOUS
 62
   250
 10
-0.352015
 20
0.079961
 30
0.0
 11
-0.338687
 21
0.079961
 31
0.0
  0
LINE
  8
1
  6
CONTINUOUS
 62
   250
 10
-0.329956
 20
0.093748
 30
0.0
 11
-0.354311
 21
0.093748
 31
0.0
  0
LINE
  8
1
  6
CONTINUOUS
 62
   250
 10
-0.34558
 20
0.064338
 30
0.0
 11
-0.345121
 21
0.063418
 31
0.0
  0
LINE
  8
1
  6
CONTINUOUS
 62
   250
 10
-0.345121
 20
0.064796
 30
0.0
 11
-0.34558
 21
0.064338
 31
0.0
  0
LINE
  8
1
  6
CONTINUOUS
 62
   250
 10
-0.344202
 20
0.065716
 30
0.0
 11
-0.345121
 21
0.064796
 31
0.0
  0
LINE
  8
1
  6
CONTINUOUS
 62
   250
 10
-0.343743
 20
0.066175
 30
0.0
 11
-0.344202
 21
0.065716
 31
0.0
  0
LINE
  8
1
  6
CONTINUOUS
 62
   250
 10
-0.342364
 20
0.065716
 30
0.0
 11
-0.343743
 21
0.066175
 31
0.0
  0
LINE
  8
1
  6
CONTINUOUS
 62
   250
 10
-0.341903
 20
0.064796
 30
0.0
 11
-0.342364
 21
0.065716
 31
0.0
  0
LINE
  8
1
  6
CONTINUOUS
 62
   250
 10
-0.342364
 20
0.062498
 30
0.0
 11
-0.341903
 21
0.063418
 31
0.0
  0
LINE
  8
1
  6
CONTINUOUS
 62
   250
 10
-0.343743
 20
0.062498
 30
0.0
 11
-0.342364
 21
0.062498
 31
0.0
  0
LINE
  8
1
  6
CONTINUOUS
 62
   250
 10
-0.344202
 20
0.062498
 30
0.0
 11
-0.343743
 21
0.062498
 31
0.0
  0
LINE
  8
1
  6
CONTINUOUS
 62
   250
 10
-0.345121
 20
0.063418
 30
0.0
 11
-0.344202
 21
0.062498
 31
0.0
  0
LINE
  8
1
  6
CONTINUOUS
 62
   250
 10
-0.349716
 20
0.077204
 30
0.0
 11
-0.350175
 21
0.078583
 31
0.0
  0
LINE
  8
1
  6
CONTINUOUS
 62
   250
 10
-0.350175
 20
0.078583
 30
0.0
 11
-0.352015
 21
0.079961
 31
0.0
  0
LINE
  8
1
  6
CONTINUOUS
 62
   250
 10
-0.29365
 20
0.093748
 30
0.0
 11
-0.317548
 21
0.093748
 31
0.0
  0
LINE
  8
1
  6
CONTINUOUS
 62
   250
 10
-0.312034
 20
0.064338
 30
0.0
 11
-0.312493
 21
0.064796
 31
0.0
  0
LINE
  8
1
  6
CONTINUOUS
 62
   250
 10
-0.312493
 20
0.063418
 30
0.0
 11
-0.312034
 21
0.064338
 31
0.0
  0
LINE
  8
1
  6
CONTINUOUS
 62
   250
 10
-0.313413
 20
0.062498
 30
0.0
 11
-0.312493
 21
0.063418
 31
0.0
  0
LINE
  8
1
  6
CONTINUOUS
 62
   250
 10
-0.31433
 20
0.062498
 30
0.0
 11
-0.313413
 21
0.062498
 31
0.0
  0
LINE
  8
1
  6
CONTINUOUS
 62
   250
 10
-0.315709
 20
0.062498
 30
0.0
 11
-0.31433
 21
0.062498
 31
0.0
  0
LINE
  8
1
  6
CONTINUOUS
 62
   250
 10
-0.31617
 20
0.063418
 30
0.0
 11
-0.315709
 21
0.062498
 31
0.0
  0
LINE
  8
1
  6
CONTINUOUS
 62
   250
 10
-0.316629
 20
0.064338
 30
0.0
 11
-0.31617
 21
0.063418
 31
0.0
  0
LINE
  8
1
  6
CONTINUOUS
 62
   250
 10
-0.31617
 20
0.064796
 30
0.0
 11
-0.316629
 21
0.064338
 31
0.0
  0
LINE
  8
1
  6
CONTINUOUS
 62
   250
 10
-0.315709
 20
0.065716
 30
0.0
 11
-0.31617
 21
0.064796
 31
0.0
  0
LINE
  8
1
  6
CONTINUOUS
 62
   250
 10
-0.31433
 20
0.066175
 30
0.0
 11
-0.315709
 21
0.065716
 31
0.0
  0
LINE
  8
1
  6
CONTINUOUS
 62
   250
 10
-0.313413
 20
0.065716
 30
0.0
 11
-0.31433
 21
0.066175
 31
0.0
  0
LINE
  8
1
  6
CONTINUOUS
 62
   250
 10
-0.312493
 20
0.064796
 30
0.0
 11
-0.313413
 21
0.065716
 31
0.0
  0
LINE
  8
1
  6
CONTINUOUS
 62
   250
 10
-0.284
 20
0.065716
 30
0.0
 11
-0.28492
 21
0.066175
 31
0.0
  0
LINE
  8
1
  6
CONTINUOUS
 62
   250
 10
-0.283541
 20
0.064796
 30
0.0
 11
-0.284
 21
0.065716
 31
0.0
  0
LINE
  8
1
  6
CONTINUOUS
 62
   250
 10
-0.283541
 20
0.064338
 30
0.0
 11
-0.283541
 21
0.064796
 31
0.0
  0
LINE
  8
1
  6
CONTINUOUS
 62
   250
 10
-0.283541
 20
0.063418
 30
0.0
 11
-0.283541
 21
0.064338
 31
0.0
  0
LINE
  8
1
  6
CONTINUOUS
 62
   250
 10
-0.284
 20
0.062498
 30
0.0
 11
-0.283541
 21
0.063418
 31
0.0
  0
LINE
  8
1
  6
CONTINUOUS
 62
   250
 10
-0.28492
 20
0.062498
 30
0.0
 11
-0.284
 21
0.062498
 31
0.0
  0
LINE
  8
1
  6
CONTINUOUS
 62
   250
 10
-0.28584
 20
0.065716
 30
0.0
 11
-0.286757
 21
0.064796
 31
0.0
  0
LINE
  8
1
  6
CONTINUOUS
 62
   250
 10
-0.286757
 20
0.063418
 30
0.0
 11
-0.28584
 21
0.062498
 31
0.0
  0
LINE
  8
1
  6
CONTINUOUS
 62
   250
 10
-0.287218
 20
0.064338
 30
0.0
 11
-0.286757
 21
0.063418
 31
0.0
  0
LINE
  8
1
  6
CONTINUOUS
 62
   250
 10
-0.286757
 20
0.064796
 30
0.0
 11
-0.287218
 21
0.064338
 31
0.0
  0
LINE
  8
1
  6
CONTINUOUS
 62
   250
 10
-0.28492
 20
0.066175
 30
0.0
 11
-0.28584
 21
0.065716
 31
0.0
  0
LINE
  8
1
  6
CONTINUOUS
 62
   250
 10
-0.28584
 20
0.062498
 30
0.0
 11
-0.28492
 21
0.062498
 31
0.0
  0
LINE
  8
1
  6
CONTINUOUS
 62
   250
 10
-0.460928
 20
0.277567
 30
0.0
 11
-0.460928
 21
0.301923
 31
0.0
  0
LINE
  8
1
  6
CONTINUOUS
 62
   250
 10
-0.460928
 20
0.204498
 30
0.0
 11
-0.460928
 21
0.228855
 31
0.0
  0
LINE
  8
1
  6
CONTINUOUS
 62
   250
 10
-0.481146
 20
0.209095
 30
0.0
 11
-0.492636
 21
0.221042
 31
0.0
  0
LINE
  8
1
  6
CONTINUOUS
 62
   250
 10
-0.481146
 20
0.221962
 30
0.0
 11
-0.460928
 21
0.199445
 31
0.0
  0
LINE
  8
1
  6
CONTINUOUS
 62
   250
 10
-0.477471
 20
0.149814
 30
0.0
 11
-0.482525
 21
0.148435
 31
0.0
  0
LINE
  8
1
  6
CONTINUOUS
 62
   250
 10
-0.481607
 20
0.141542
 30
0.0
 11
-0.476093
 21
0.144299
 31
0.0
  0
LINE
  8
1
  6
CONTINUOUS
 62
   250
 10
-0.460928
 20
0.187955
 30
0.0
 11
-0.481146
 21
0.209095
 31
0.0
  0
LINE
  8
1
  6
CONTINUOUS
 62
   250
 10
-0.481607
 20
0.141542
 30
0.0
 11
-0.475632
 21
0.144299
 31
0.0
  0
LINE
  8
1
  6
CONTINUOUS
 62
   250
 10
-0.492636
 20
0.149353
 30
0.0
 11
-0.49769
 21
0.150731
 31
0.0
  0
LINE
  8
1
  6
CONTINUOUS
 62
   250
 10
-0.49953
 20
0.137406
 30
0.0
 11
-0.493554
 21
0.137865
 31
0.0
  0
LINE
  8
1
  6
CONTINUOUS
 62
   250
 10
-0.493095
 20
0.137865
 30
0.0
 11
-0.49953
 21
0.137406
 31
0.0
  0
LINE
  8
1
  6
CONTINUOUS
 62
   250
 10
-0.49769
 20
0.150731
 30
0.0
 11
-0.501367
 21
0.15303
 31
0.0
  0
LINE
  8
1
  6
CONTINUOUS
 62
   250
 10
-0.507341
 20
0.145678
 30
0.0
 11
-0.501826
 21
0.141081
 31
0.0
  0
LINE
  8
1
  6
CONTINUOUS
 62
   250
 10
-0.501826
 20
0.141081
 30
0.0
 11
-0.495853
 21
0.137865
 31
0.0
  0
LINE
  8
1
  6
CONTINUOUS
 62
   250
 10
-0.506423
 20
0.137865
 30
0.0
 11
-0.49953
 21
0.137406
 31
0.0
  0
LINE
  8
1
  6
CONTINUOUS
 62
   250
 10
-0.49953
 20
0.137406
 30
0.0
 11
-0.505962
 21
0.137865
 31
0.0
  0
LINE
  8
1
  6
CONTINUOUS
 62
   250
 10
-0.501367
 20
0.15303
 30
0.0
 11
-0.505044
 21
0.156246
 31
0.0
  0
LINE
  8
1
  6
CONTINUOUS
 62
   250
 10
-0.482525
 20
0.148435
 30
0.0
 11
-0.487581
 21
0.148435
 31
0.0
  0
LINE
  8
1
  6
CONTINUOUS
 62
   250
 10
-0.487581
 20
0.148435
 30
0.0
 11
-0.492636
 21
0.149353
 31
0.0
  0
LINE
  8
1
  6
CONTINUOUS
 62
   250
 10
-0.487581
 20
0.139243
 30
0.0
 11
-0.481607
 21
0.141542
 31
0.0
  0
LINE
  8
1
  6
CONTINUOUS
 62
   250
 10
-0.487581
 20
0.139243
 30
0.0
 11
-0.481607
 21
0.141542
 31
0.0
  0
LINE
  8
1
  6
CONTINUOUS
 62
   250
 10
-0.493554
 20
0.137865
 30
0.0
 11
-0.487581
 21
0.139243
 31
0.0
  0
LINE
  8
1
  6
CONTINUOUS
 62
   250
 10
-0.493095
 20
0.137865
 30
0.0
 11
-0.487581
 21
0.139243
 31
0.0
  0
LINE
  8
1
  6
CONTINUOUS
 62
   250
 10
-0.460928
 20
0.167736
 30
0.0
 11
-0.460928
 21
0.191632
 31
0.0
  0
LINE
  8
1
  6
CONTINUOUS
 62
   250
 10
-0.465522
 20
0.158085
 30
0.0
 11
-0.462306
 21
0.16176
 31
0.0
  0
LINE
  8
1
  6
CONTINUOUS
 62
   250
 10
-0.465522
 20
0.15211
 30
0.0
 11
-0.460928
 21
0.157166
 31
0.0
  0
LINE
  8
1
  6
CONTINUOUS
 62
   250
 10
-0.465522
 20
0.15211
 30
0.0
 11
-0.460928
 21
0.157166
 31
0.0
  0
LINE
  8
1
  6
CONTINUOUS
 62
   250
 10
-0.470578
 20
0.147515
 30
0.0
 11
-0.465522
 21
0.15211
 31
0.0
  0
LINE
  8
1
  6
CONTINUOUS
 62
   250
 10
-0.470578
 20
0.147515
 30
0.0
 11
-0.465522
 21
0.15211
 31
0.0
  0
LINE
  8
1
  6
CONTINUOUS
 62
   250
 10
-0.468738
 20
0.154408
 30
0.0
 11
-0.472874
 21
0.151651
 31
0.0
  0
LINE
  8
1
  6
CONTINUOUS
 62
   250
 10
-0.465522
 20
0.158085
 30
0.0
 11
-0.468738
 21
0.154408
 31
0.0
  0
LINE
  8
1
  6
CONTINUOUS
 62
   250
 10
-0.475632
 20
0.144299
 30
0.0
 11
-0.470578
 21
0.147515
 31
0.0
  0
LINE
  8
1
  6
CONTINUOUS
 62
   250
 10
-0.476093
 20
0.144299
 30
0.0
 11
-0.470578
 21
0.147515
 31
0.0
  0
LINE
  8
1
  6
CONTINUOUS
 62
   250
 10
-0.472874
 20
0.151651
 30
0.0
 11
-0.477471
 21
0.149814
 31
0.0
  0
LINE
  8
1
  6
CONTINUOUS
 62
   250
 10
-0.481607
 20
0.231154
 30
0.0
 11
-0.475632
 21
0.228396
 31
0.0
  0
LINE
  8
1
  6
CONTINUOUS
 62
   250
 10
-0.493095
 20
0.23437
 30
0.0
 11
-0.49953
 21
0.234829
 31
0.0
  0
LINE
  8
1
  6
CONTINUOUS
 62
   250
 10
-0.49953
 20
0.234829
 30
0.0
 11
-0.493095
 21
0.23437
 31
0.0
  0
LINE
  8
1
  6
CONTINUOUS
 62
   250
 10
-0.495853
 20
0.223799
 30
0.0
 11
-0.492636
 21
0.221042
 31
0.0
  0
LINE
  8
1
  6
CONTINUOUS
 62
   250
 10
-0.499988
 20
0.226098
 30
0.0
 11
-0.495853
 21
0.223799
 31
0.0
  0
LINE
  8
1
  6
CONTINUOUS
 62
   250
 10
-0.504583
 20
0.227935
 30
0.0
 11
-0.499988
 21
0.226098
 31
0.0
  0
LINE
  8
1
  6
CONTINUOUS
 62
   250
 10
-0.49953
 20
0.234829
 30
0.0
 11
-0.505503
 21
0.23437
 31
0.0
  0
LINE
  8
1
  6
CONTINUOUS
 62
   250
 10
-0.505962
 20
0.23437
 30
0.0
 11
-0.49953
 21
0.234829
 31
0.0
  0
LINE
  8
1
  6
CONTINUOUS
 62
   250
 10
-0.481146
 20
0.230234
 30
0.0
 11
-0.487122
 21
0.232991
 31
0.0
  0
LINE
  8
1
  6
CONTINUOUS
 62
   250
 10
-0.487581
 20
0.232991
 30
0.0
 11
-0.481607
 21
0.231154
 31
0.0
  0
LINE
  8
1
  6
CONTINUOUS
 62
   250
 10
-0.490338
 20
0.231612
 30
0.0
 11
-0.493095
 21
0.23437
 31
0.0
  0
LINE
  8
1
  6
CONTINUOUS
 62
   250
 10
-0.487122
 20
0.232991
 30
0.0
 11
-0.493095
 21
0.23437
 31
0.0
  0
LINE
  8
1
  6
CONTINUOUS
 62
   250
 10
-0.493095
 20
0.23437
 30
0.0
 11
-0.487581
 21
0.232991
 31
0.0
  0
LINE
  8
1
  6
CONTINUOUS
 62
   250
 10
-0.490338
 20
0.231612
 30
0.0
 11
-0.481146
 21
0.221962
 31
0.0
  0
LINE
  8
1
  6
CONTINUOUS
 62
   250
 10
-0.460928
 20
0.240804
 30
0.0
 11
-0.460928
 21
0.265159
 31
0.0
  0
LINE
  8
1
  6
CONTINUOUS
 62
   250
 10
-0.465522
 20
0.220583
 30
0.0
 11
-0.460928
 21
0.215528
 31
0.0
  0
LINE
  8
1
  6
CONTINUOUS
 62
   250
 10
-0.475632
 20
0.228396
 30
0.0
 11
-0.470578
 21
0.224719
 31
0.0
  0
LINE
  8
1
  6
CONTINUOUS
 62
   250
 10
-0.470578
 20
0.224719
 30
0.0
 11
-0.465522
 21
0.220583
 31
0.0
  0
LINE
  8
1
  6
CONTINUOUS
 62
   250
 10
-0.460928
 20
0.350635
 30
0.0
 11
-0.460928
 21
0.374992
 31
0.0
  0
LINE
  8
1
  6
CONTINUOUS
 62
   250
 10
-0.460928
 20
0.313872
 30
0.0
 11
-0.460928
 21
0.338227
 31
0.0
  0
LINE
  8
1
  6
CONTINUOUS
 62
   250
 10
-0.460928
 20
0.386941
 30
0.0
 11
-0.460928
 21
0.411295
 31
0.0
  0
LINE
  8
1
  6
CONTINUOUS
 62
   250
 10
-0.460928
 20
0.423244
 30
0.0
 11
-0.460928
 21
0.447601
 31
0.0
  0
LINE
  8
1
  6
CONTINUOUS
 62
   250
 10
-0.149354
 20
0.155787
 30
0.0
 11
-0.149354
 21
0.130971
 31
0.0
  0
LINE
  8
1
  6
CONTINUOUS
 62
   250
 10
-0.184279
 20
0.093748
 30
0.0
 11
-0.208174
 21
0.093748
 31
0.0
  0
LINE
  8
1
  6
CONTINUOUS
 62
   250
 10
-0.220123
 20
0.093748
 30
0.0
 11
-0.244939
 21
0.093748
 31
0.0
  0
LINE
  8
1
  6
CONTINUOUS
 62
   250
 10
-0.255509
 20
0.065716
 30
0.0
 11
-0.255968
 21
0.066175
 31
0.0
  0
LINE
  8
1
  6
CONTINUOUS
 62
   250
 10
-0.255968
 20
0.062498
 30
0.0
 11
-0.255509
 21
0.062498
 31
0.0
  0
LINE
  8
1
  6
CONTINUOUS
 62
   250
 10
-0.256888
 20
0.065716
 30
0.0
 11
-0.257347
 21
0.064796
 31
0.0
  0
LINE
  8
1
  6
CONTINUOUS
 62
   250
 10
-0.255968
 20
0.066175
 30
0.0
 11
-0.256888
 21
0.065716
 31
0.0
  0
LINE
  8
1
  6
CONTINUOUS
 62
   250
 10
-0.256888
 20
0.062498
 30
0.0
 11
-0.255968
 21
0.062498
 31
0.0
  0
LINE
  8
1
  6
CONTINUOUS
 62
   250
 10
-0.257347
 20
0.063418
 30
0.0
 11
-0.256888
 21
0.062498
 31
0.0
  0
LINE
  8
1
  6
CONTINUOUS
 62
   250
 10
-0.257806
 20
0.064338
 30
0.0
 11
-0.257347
 21
0.063418
 31
0.0
  0
LINE
  8
1
  6
CONTINUOUS
 62
   250
 10
-0.257347
 20
0.064796
 30
0.0
 11
-0.257806
 21
0.064338
 31
0.0
  0
LINE
  8
1
  6
CONTINUOUS
 62
   250
 10
-0.254131
 20
0.064796
 30
0.0
 11
-0.255509
 21
0.065716
 31
0.0
  0
LINE
  8
1
  6
CONTINUOUS
 62
   250
 10
-0.25367
 20
0.064338
 30
0.0
 11
-0.254131
 21
0.064796
 31
0.0
  0
LINE
  8
1
  6
CONTINUOUS
 62
   250
 10
-0.254131
 20
0.063418
 30
0.0
 11
-0.25367
 21
0.064338
 31
0.0
  0
LINE
  8
1
  6
CONTINUOUS
 62
   250
 10
-0.255509
 20
0.062498
 30
0.0
 11
-0.254131
 21
0.063418
 31
0.0
  0
LINE
  8
1
  6
CONTINUOUS
 62
   250
 10
-0.227936
 20
0.065716
 30
0.0
 11
-0.228395
 21
0.064796
 31
0.0
  0
LINE
  8
1
  6
CONTINUOUS
 62
   250
 10
-0.226558
 20
0.066175
 30
0.0
 11
-0.227936
 21
0.065716
 31
0.0
  0
LINE
  8
1
  6
CONTINUOUS
 62
   250
 10
-0.225638
 20
0.065716
 30
0.0
 11
-0.226558
 21
0.066175
 31
0.0
  0
LINE
  8
1
  6
CONTINUOUS
 62
   250
 10
-0.224718
 20
0.064796
 30
0.0
 11
-0.225638
 21
0.065716
 31
0.0
  0
LINE
  8
1
  6
CONTINUOUS
 62
   250
 10
-0.224718
 20
0.064338
 30
0.0
 11
-0.224718
 21
0.064796
 31
0.0
  0
LINE
  8
1
  6
CONTINUOUS
 62
   250
 10
-0.224718
 20
0.063418
 30
0.0
 11
-0.224718
 21
0.064338
 31
0.0
  0
LINE
  8
1
  6
CONTINUOUS
 62
   250
 10
-0.225638
 20
0.062498
 30
0.0
 11
-0.224718
 21
0.063418
 31
0.0
  0
LINE
  8
1
  6
CONTINUOUS
 62
   250
 10
-0.226558
 20
0.062498
 30
0.0
 11
-0.225638
 21
0.062498
 31
0.0
  0
LINE
  8
1
  6
CONTINUOUS
 62
   250
 10
-0.227936
 20
0.062498
 30
0.0
 11
-0.226558
 21
0.062498
 31
0.0
  0
LINE
  8
1
  6
CONTINUOUS
 62
   250
 10
-0.228395
 20
0.063418
 30
0.0
 11
-0.227936
 21
0.062498
 31
0.0
  0
LINE
  8
1
  6
CONTINUOUS
 62
   250
 10
-0.228395
 20
0.064338
 30
0.0
 11
-0.228395
 21
0.063418
 31
0.0
  0
LINE
  8
1
  6
CONTINUOUS
 62
   250
 10
-0.228395
 20
0.064796
 30
0.0
 11
-0.228395
 21
0.064338
 31
0.0
  0
LINE
  8
1
  6
CONTINUOUS
 62
   250
 10
-0.195767
 20
0.064796
 30
0.0
 11
-0.196228
 21
0.065716
 31
0.0
  0
LINE
  8
1
  6
CONTINUOUS
 62
   250
 10
-0.195308
 20
0.064338
 30
0.0
 11
-0.195767
 21
0.064796
 31
0.0
  0
LINE
  8
1
  6
CONTINUOUS
 62
   250
 10
-0.195767
 20
0.063418
 30
0.0
 11
-0.195308
 21
0.064338
 31
0.0
  0
LINE
  8
1
  6
CONTINUOUS
 62
   250
 10
-0.196228
 20
0.062498
 30
0.0
 11
-0.195767
 21
0.063418
 31
0.0
  0
LINE
  8
1
  6
CONTINUOUS
 62
   250
 10
-0.198524
 20
0.065716
 30
0.0
 11
-0.198985
 21
0.064796
 31
0.0
  0
LINE
  8
1
  6
CONTINUOUS
 62
   250
 10
-0.197145
 20
0.066175
 30
0.0
 11
-0.198524
 21
0.065716
 31
0.0
  0
LINE
  8
1
  6
CONTINUOUS
 62
   250
 10
-0.198524
 20
0.062498
 30
0.0
 11
-0.197145
 21
0.062498
 31
0.0
  0
LINE
  8
1
  6
CONTINUOUS
 62
   250
 10
-0.198985
 20
0.063418
 30
0.0
 11
-0.198524
 21
0.062498
 31
0.0
  0
LINE
  8
1
  6
CONTINUOUS
 62
   250
 10
-0.199903
 20
0.064338
 30
0.0
 11
-0.198985
 21
0.063418
 31
0.0
  0
LINE
  8
1
  6
CONTINUOUS
 62
   250
 10
-0.198985
 20
0.064796
 30
0.0
 11
-0.199903
 21
0.064338
 31
0.0
  0
LINE
  8
1
  6
CONTINUOUS
 62
   250
 10
-0.196228
 20
0.065716
 30
0.0
 11
-0.197145
 21
0.066175
 31
0.0
  0
LINE
  8
1
  6
CONTINUOUS
 62
   250
 10
-0.197145
 20
0.062498
 30
0.0
 11
-0.196228
 21
0.062498
 31
0.0
  0
LINE
  8
1
  6
CONTINUOUS
 62
   250
 10
-0.149354
 20
0.119022
 30
0.0
 11
-0.149354
 21
0.093748
 31
0.0
  0
LINE
  8
1
  6
CONTINUOUS
 62
   250
 10
-0.149354
 20
0.093748
 30
0.0
 11
-0.171412
 21
0.093748
 31
0.0
  0
LINE
  8
1
  6
CONTINUOUS
 62
   250
 10
-0.169114
 20
0.065716
 30
0.0
 11
-0.169572
 21
0.064796
 31
0.0
  0
LINE
  8
1
  6
CONTINUOUS
 62
   250
 10
-0.168194
 20
0.066175
 30
0.0
 11
-0.169114
 21
0.065716
 31
0.0
  0
LINE
  8
1
  6
CONTINUOUS
 62
   250
 10
-0.167735
 20
0.065716
 30
0.0
 11
-0.168194
 21
0.066175
 31
0.0
  0
LINE
  8
1
  6
CONTINUOUS
 62
   250
 10
-0.166815
 20
0.064796
 30
0.0
 11
-0.167735
 21
0.065716
 31
0.0
  0
LINE
  8
1
  6
CONTINUOUS
 62
   250
 10
-0.166815
 20
0.064338
 30
0.0
 11
-0.166815
 21
0.064796
 31
0.0
  0
LINE
  8
1
  6
CONTINUOUS
 62
   250
 10
-0.166815
 20
0.063418
 30
0.0
 11
-0.166815
 21
0.064338
 31
0.0
  0
LINE
  8
1
  6
CONTINUOUS
 62
   250
 10
-0.167735
 20
0.062498
 30
0.0
 11
-0.166815
 21
0.063418
 31
0.0
  0
LINE
  8
1
  6
CONTINUOUS
 62
   250
 10
-0.168194
 20
0.062498
 30
0.0
 11
-0.167735
 21
0.062498
 31
0.0
  0
LINE
  8
1
  6
CONTINUOUS
 62
   250
 10
-0.169114
 20
0.062498
 30
0.0
 11
-0.168194
 21
0.062498
 31
0.0
  0
LINE
  8
1
  6
CONTINUOUS
 62
   250
 10
-0.169572
 20
0.063418
 30
0.0
 11
-0.169114
 21
0.062498
 31
0.0
  0
LINE
  8
1
  6
CONTINUOUS
 62
   250
 10
-0.170033
 20
0.064338
 30
0.0
 11
-0.169572
 21
0.063418
 31
0.0
  0
LINE
  8
1
  6
CONTINUOUS
 62
   250
 10
-0.169572
 20
0.064796
 30
0.0
 11
-0.170033
 21
0.064338
 31
0.0
  0
LINE
  8
1
  6
CONTINUOUS
 62
   250
 10
-0.140162
 20
0.065716
 30
0.0
 11
-0.140621
 21
0.064796
 31
0.0
  0
LINE
  8
1
  6
CONTINUOUS
 62
   250
 10
-0.139242
 20
0.066175
 30
0.0
 11
-0.140162
 21
0.065716
 31
0.0
  0
LINE
  8
1
  6
CONTINUOUS
 62
   250
 10
-0.137863
 20
0.065716
 30
0.0
 11
-0.139242
 21
0.066175
 31
0.0
  0
LINE
  8
1
  6
CONTINUOUS
 62
   250
 10
-0.137405
 20
0.064796
 30
0.0
 11
-0.137863
 21
0.065716
 31
0.0
  0
LINE
  8
1
  6
CONTINUOUS
 62
   250
 10
-0.136946
 20
0.064338
 30
0.0
 11
-0.137405
 21
0.064796
 31
0.0
  0
LINE
  8
1
  6
CONTINUOUS
 62
   250
 10
-0.137405
 20
0.063418
 30
0.0
 11
-0.136946
 21
0.064338
 31
0.0
  0
LINE
  8
1
  6
CONTINUOUS
 62
   250
 10
-0.137863
 20
0.062498
 30
0.0
 11
-0.137405
 21
0.063418
 31
0.0
  0
LINE
  8
1
  6
CONTINUOUS
 62
   250
 10
-0.139242
 20
0.062498
 30
0.0
 11
-0.137863
 21
0.062498
 31
0.0
  0
LINE
  8
1
  6
CONTINUOUS
 62
   250
 10
-0.140162
 20
0.062498
 30
0.0
 11
-0.139242
 21
0.062498
 31
0.0
  0
LINE
  8
1
  6
CONTINUOUS
 62
   250
 10
-0.140621
 20
0.063418
 30
0.0
 11
-0.140162
 21
0.062498
 31
0.0
  0
LINE
  8
1
  6
CONTINUOUS
 62
   250
 10
-0.141082
 20
0.064338
 30
0.0
 11
-0.140621
 21
0.063418
 31
0.0
  0
LINE
  8
1
  6
CONTINUOUS
 62
   250
 10
-0.140621
 20
0.064796
 30
0.0
 11
-0.141082
 21
0.064338
 31
0.0
  0
LINE
  8
1
  6
CONTINUOUS
 62
   250
 10
-0.110752
 20
0.065716
 30
0.0
 11
-0.11213
 21
0.064796
 31
0.0
  0
LINE
  8
1
  6
CONTINUOUS
 62
   250
 10
-0.109832
 20
0.066175
 30
0.0
 11
-0.110752
 21
0.065716
 31
0.0
  0
LINE
  8
1
  6
CONTINUOUS
 62
   250
 10
-0.108912
 20
0.065716
 30
0.0
 11
-0.109832
 21
0.066175
 31
0.0
  0
LINE
  8
1
  6
CONTINUOUS
 62
   250
 10
-0.107994
 20
0.064796
 30
0.0
 11
-0.108912
 21
0.065716
 31
0.0
  0
LINE
  8
1
  6
CONTINUOUS
 62
   250
 10
-0.107994
 20
0.064338
 30
0.0
 11
-0.107994
 21
0.064796
 31
0.0
  0
LINE
  8
1
  6
CONTINUOUS
 62
   250
 10
-0.107994
 20
0.063418
 30
0.0
 11
-0.107994
 21
0.064338
 31
0.0
  0
LINE
  8
1
  6
CONTINUOUS
 62
   250
 10
-0.108912
 20
0.062498
 30
0.0
 11
-0.107994
 21
0.063418
 31
0.0
  0
LINE
  8
1
  6
CONTINUOUS
 62
   250
 10
-0.109832
 20
0.062498
 30
0.0
 11
-0.108912
 21
0.062498
 31
0.0
  0
LINE
  8
1
  6
CONTINUOUS
 62
   250
 10
-0.110752
 20
0.062498
 30
0.0
 11
-0.109832
 21
0.062498
 31
0.0
  0
LINE
  8
1
  6
CONTINUOUS
 62
   250
 10
-0.11213
 20
0.063418
 30
0.0
 11
-0.110752
 21
0.062498
 31
0.0
  0
LINE
  8
1
  6
CONTINUOUS
 62
   250
 10
-0.11213
 20
0.064338
 30
0.0
 11
-0.11213
 21
0.063418
 31
0.0
  0
LINE
  8
1
  6
CONTINUOUS
 62
   250
 10
-0.11213
 20
0.064796
 30
0.0
 11
-0.11213
 21
0.064338
 31
0.0
  0
LINE
  8
1
  6
CONTINUOUS
 62
   250
 10
-0.031708
 20
0.088692
 30
0.0
 11
-0.031708
 21
0.039981
 31
0.0
  0
LINE
  8
1
  6
CONTINUOUS
 62
   250
 10
-0.052388
 20
0.065716
 30
0.0
 11
-0.053307
 21
0.064796
 31
0.0
  0
LINE
  8
1
  6
CONTINUOUS
 62
   250
 10
-0.053307
 20
0.063418
 30
0.0
 11
-0.052388
 21
0.062498
 31
0.0
  0
LINE
  8
1
  6
CONTINUOUS
 62
   250
 10
-0.080421
 20
0.066175
 30
0.0
 11
-0.0818
 21
0.065716
 31
0.0
  0
LINE
  8
1
  6
CONTINUOUS
 62
   250
 10
-0.079502
 20
0.065716
 30
0.0
 11
-0.080421
 21
0.066175
 31
0.0
  0
LINE
  8
1
  6
CONTINUOUS
 62
   250
 10
-0.079502
 20
0.064796
 30
0.0
 11
-0.079502
 21
0.065716
 31
0.0
  0
LINE
  8
1
  6
CONTINUOUS
 62
   250
 10
-0.079043
 20
0.064338
 30
0.0
 11
-0.079502
 21
0.064796
 31
0.0
  0
LINE
  8
1
  6
CONTINUOUS
 62
   250
 10
-0.079502
 20
0.063418
 30
0.0
 11
-0.079043
 21
0.064338
 31
0.0
  0
LINE
  8
1
  6
CONTINUOUS
 62
   250
 10
-0.079502
 20
0.062498
 30
0.0
 11
-0.079502
 21
0.063418
 31
0.0
  0
LINE
  8
1
  6
CONTINUOUS
 62
   250
 10
-0.080421
 20
0.062498
 30
0.0
 11
-0.079502
 21
0.062498
 31
0.0
  0
LINE
  8
1
  6
CONTINUOUS
 62
   250
 10
-0.0818
 20
0.062498
 30
0.0
 11
-0.080421
 21
0.062498
 31
0.0
  0
LINE
  8
1
  6
CONTINUOUS
 62
   250
 10
-0.082259
 20
0.064338
 30
0.0
 11
-0.082259
 21
0.063418
 31
0.0
  0
LINE
  8
1
  6
CONTINUOUS
 62
   250
 10
-0.082259
 20
0.064796
 30
0.0
 11
-0.082259
 21
0.064338
 31
0.0
  0
LINE
  8
1
  6
CONTINUOUS
 62
   250
 10
-0.0818
 20
0.065716
 30
0.0
 11
-0.082259
 21
0.064796
 31
0.0
  0
LINE
  8
1
  6
CONTINUOUS
 62
   250
 10
-0.082259
 20
0.063418
 30
0.0
 11
-0.0818
 21
0.062498
 31
0.0
  0
LINE
  8
1
  6
CONTINUOUS
 62
   250
 10
-0.053307
 20
0.064338
 30
0.0
 11
-0.053307
 21
0.063418
 31
0.0
  0
LINE
  8
1
  6
CONTINUOUS
 62
   250
 10
-0.053307
 20
0.064796
 30
0.0
 11
-0.053307
 21
0.064338
 31
0.0
  0
LINE
  8
1
  6
CONTINUOUS
 62
   250
 10
-0.051929
 20
0.066175
 30
0.0
 11
-0.052388
 21
0.065716
 31
0.0
  0
LINE
  8
1
  6
CONTINUOUS
 62
   250
 10
-0.051009
 20
0.065716
 30
0.0
 11
-0.051929
 21
0.066175
 31
0.0
  0
LINE
  8
1
  6
CONTINUOUS
 62
   250
 10
-0.04963
 20
0.064796
 30
0.0
 11
-0.051009
 21
0.065716
 31
0.0
  0
LINE
  8
1
  6
CONTINUOUS
 62
   250
 10
-0.04963
 20
0.064338
 30
0.0
 11
-0.04963
 21
0.064796
 31
0.0
  0
LINE
  8
1
  6
CONTINUOUS
 62
   250
 10
-0.04963
 20
0.063418
 30
0.0
 11
-0.04963
 21
0.064338
 31
0.0
  0
LINE
  8
1
  6
CONTINUOUS
 62
   250
 10
-0.051009
 20
0.062498
 30
0.0
 11
-0.04963
 21
0.063418
 31
0.0
  0
LINE
  8
1
  6
CONTINUOUS
 62
   250
 10
-0.051929
 20
0.062498
 30
0.0
 11
-0.051009
 21
0.062498
 31
0.0
  0
LINE
  8
1
  6
CONTINUOUS
 62
   250
 10
-0.052388
 20
0.062498
 30
0.0
 11
-0.051929
 21
0.062498
 31
0.0
  0
LINE
  8
1
  6
CONTINUOUS
 62
   250
 10
-0.149354
 20
0.301923
 30
0.0
 11
-0.149354
 21
0.277567
 31
0.0
  0
LINE
  8
1
  6
CONTINUOUS
 62
   250
 10
-0.149354
 20
0.228855
 30
0.0
 11
-0.149354
 21
0.204498
 31
0.0
  0
LINE
  8
1
  6
CONTINUOUS
 62
   250
 10
-0.149354
 20
0.191632
 30
0.0
 11
-0.149354
 21
0.167736
 31
0.0
  0
LINE
  8
1
  6
CONTINUOUS
 62
   250
 10
-0.149354
 20
0.265159
 30
0.0
 11
-0.149354
 21
0.240804
 31
0.0
  0
LINE
  8
1
  6
CONTINUOUS
 62
   250
 10
-0.149354
 20
0.374992
 30
0.0
 11
-0.149354
 21
0.350635
 31
0.0
  0
LINE
  8
1
  6
CONTINUOUS
 62
   250
 10
-0.149354
 20
0.338227
 30
0.0
 11
-0.149354
 21
0.313872
 31
0.0
  0
LINE
  8
1
  6
CONTINUOUS
 62
   250
 10
-0.149354
 20
0.411295
 30
0.0
 11
-0.149354
 21
0.386941
 31
0.0
  0
LINE
  8
1
  6
CONTINUOUS
 62
   250
 10
-0.149354
 20
0.447601
 30
0.0
 11
-0.149354
 21
0.423244
 31
0.0
  0
LINE
  8
1
  6
CONTINUOUS
 62
   250
 10
-0.034926
 20
0.395213
 30
0.0
 11
-0.034926
 21
0.24402
 31
0.0
  0
LINE
  8
1
  6
CONTINUOUS
 62
   250
 10
-0.119023
 20
0.24402
 30
0.0
 11
-0.119023
 21
0.395213
 31
0.0
  0
LINE
  8
1
  6
CONTINUOUS
 62
   250
 10
-0.119023
 20
0.24402
 30
0.0
 11
-0.034926
 21
0.24402
 31
0.0
  0
LINE
  8
1
  6
CONTINUOUS
 62
   250
 10
-0.119023
 20
0.395213
 30
0.0
 11
-0.034926
 21
0.395213
 31
0.0
  0
LINE
  8
1
  6
CONTINUOUS
 62
   250
 10
-0.097883
 20
0.436111
 30
0.0
 11
-0.098803
 21
0.436572
 31
0.0
  0
LINE
  8
1
  6
CONTINUOUS
 62
   250
 10
-0.098803
 20
0.42738
 30
0.0
 11
-0.097883
 21
0.4283
 31
0.0
  0
LINE
  8
1
  6
CONTINUOUS
 62
   250
 10
-0.096045
 20
0.445303
 30
0.0
 11
-0.109373
 21
0.439788
 31
0.0
  0
LINE
  8
1
  6
CONTINUOUS
 62
   250
 10
-0.106616
 20
0.436572
 30
0.0
 11
-0.107533
 21
0.436111
 31
0.0
  0
LINE
  8
1
  6
CONTINUOUS
 62
   250
 10
-0.104317
 20
0.43749
 30
0.0
 11
-0.106616
 21
0.436572
 31
0.0
  0
LINE
  8
1
  6
CONTINUOUS
 62
   250
 10
-0.10156
 20
0.43749
 30
0.0
 11
-0.104317
 21
0.43749
 31
0.0
  0
LINE
  8
1
  6
CONTINUOUS
 62
   250
 10
-0.098803
 20
0.436572
 30
0.0
 11
-0.10156
 21
0.43749
 31
0.0
  0
LINE
  8
1
  6
CONTINUOUS
 62
   250
 10
-0.10156
 20
0.426921
 30
0.0
 11
-0.098803
 21
0.42738
 31
0.0
  0
LINE
  8
1
  6
CONTINUOUS
 62
   250
 10
-0.104317
 20
0.426921
 30
0.0
 11
-0.10156
 21
0.426921
 31
0.0
  0
LINE
  8
1
  6
CONTINUOUS
 62
   250
 10
-0.106616
 20
0.42738
 30
0.0
 11
-0.104317
 21
0.426921
 31
0.0
  0
LINE
  8
1
  6
CONTINUOUS
 62
   250
 10
-0.107533
 20
0.4283
 30
0.0
 11
-0.106616
 21
0.42738
 31
0.0
  0
LINE
  8
1
  6
CONTINUOUS
 62
   250
 10
-0.109373
 20
0.430596
 30
0.0
 11
-0.108912
 21
0.429679
 31
0.0
  0
LINE
  8
1
  6
CONTINUOUS
 62
   250
 10
-0.109373
 20
0.433354
 30
0.0
 11
-0.109373
 21
0.430596
 31
0.0
  0
LINE
  8
1
  6
CONTINUOUS
 62
   250
 10
-0.108912
 20
0.434273
 30
0.0
 11
-0.109373
 21
0.433354
 31
0.0
  0
LINE
  8
1
  6
CONTINUOUS
 62
   250
 10
-0.108912
 20
0.429679
 30
0.0
 11
-0.107533
 21
0.4283
 31
0.0
  0
LINE
  8
1
  6
CONTINUOUS
 62
   250
 10
-0.107533
 20
0.436111
 30
0.0
 11
-0.108912
 21
0.434273
 31
0.0
  0
LINE
  8
1
  6
CONTINUOUS
 62
   250
 10
-0.096504
 20
0.434273
 30
0.0
 11
-0.097883
 21
0.436111
 31
0.0
  0
LINE
  8
1
  6
CONTINUOUS
 62
   250
 10
-0.096045
 20
0.433354
 30
0.0
 11
-0.096504
 21
0.434273
 31
0.0
  0
LINE
  8
1
  6
CONTINUOUS
 62
   250
 10
-0.096045
 20
0.430596
 30
0.0
 11
-0.096045
 21
0.433354
 31
0.0
  0
LINE
  8
1
  6
CONTINUOUS
 62
   250
 10
-0.096504
 20
0.429679
 30
0.0
 11
-0.096045
 21
0.430596
 31
0.0
  0
LINE
  8
1
  6
CONTINUOUS
 62
   250
 10
-0.097883
 20
0.4283
 30
0.0
 11
-0.096504
 21
0.429679
 31
0.0
  0
LINE
  8
1
  6
CONTINUOUS
 62
   250
 10
-0.052849
 20
0.439329
 30
0.0
 11
-0.052388
 21
0.440708
 31
0.0
  0
LINE
  8
1
  6
CONTINUOUS
 62
   250
 10
-0.052388
 20
0.436572
 30
0.0
 11
-0.052849
 21
0.437951
 31
0.0
  0
LINE
  8
1
  6
CONTINUOUS
 62
   250
 10
-0.046873
 20
0.410836
 30
0.0
 11
-0.052849
 21
0.417271
 31
0.0
  0
LINE
  8
1
  6
CONTINUOUS
 62
   250
 10
-0.052849
 20
0.430137
 30
0.0
 11
-0.03998
 21
0.430137
 31
0.0
  0
LINE
  8
1
  6
CONTINUOUS
 62
   250
 10
-0.052849
 20
0.417271
 30
0.0
 11
-0.052849
 21
0.408079
 31
0.0
  0
LINE
  8
1
  6
CONTINUOUS
 62
   250
 10
-0.052849
 20
0.437951
 30
0.0
 11
-0.052849
 21
0.439329
 31
0.0
  0
LINE
  8
1
  6
CONTINUOUS
 62
   250
 10
-0.040441
 20
0.410378
 30
0.0
 11
-0.03998
 21
0.411295
 31
0.0
  0
LINE
  8
1
  6
CONTINUOUS
 62
   250
 10
-0.044577
 20
0.409458
 30
0.0
 11
-0.046873
 21
0.410836
 31
0.0
  0
LINE
  8
1
  6
CONTINUOUS
 62
   250
 10
-0.029411
 20
0.405781
 30
0.0
 11
-0.029411
 21
0.444383
 31
0.0
  0
LINE
  8
1
  6
CONTINUOUS
 62
   250
 10
-0.040441
 20
0.410378
 30
0.0
 11
-0.040899
 21
0.409458
 31
0.0
  0
LINE
  8
1
  6
CONTINUOUS
 62
   250
 10
-0.042278
 20
0.408999
 30
0.0
 11
-0.043198
 21
0.408999
 31
0.0
  0
LINE
  8
1
  6
CONTINUOUS
 62
   250
 10
-0.040899
 20
0.409458
 30
0.0
 11
-0.042278
 21
0.408999
 31
0.0
  0
LINE
  8
1
  6
CONTINUOUS
 62
   250
 10
-0.043198
 20
0.408999
 30
0.0
 11
-0.044577
 21
0.409458
 31
0.0
  0
LINE
  8
1
  6
CONTINUOUS
 62
   250
 10
-0.040899
 20
0.421866
 30
0.0
 11
-0.042278
 21
0.420946
 31
0.0
  0
LINE
  8
1
  6
CONTINUOUS
 62
   250
 10
-0.040441
 20
0.422324
 30
0.0
 11
-0.040899
 21
0.421866
 31
0.0
  0
LINE
  8
1
  6
CONTINUOUS
 62
   250
 10
-0.03998
 20
0.424164
 30
0.0
 11
-0.040441
 21
0.422324
 31
0.0
  0
LINE
  8
1
  6
CONTINUOUS
 62
   250
 10
-0.042278
 20
0.41681
 30
0.0
 11
-0.042737
 21
0.41681
 31
0.0
  0
LINE
  8
1
  6
CONTINUOUS
 62
   250
 10
-0.040899
 20
0.415892
 30
0.0
 11
-0.042278
 21
0.41681
 31
0.0
  0
LINE
  8
1
  6
CONTINUOUS
 62
   250
 10
-0.040441
 20
0.415431
 30
0.0
 11
-0.040899
 21
0.415892
 31
0.0
  0
LINE
  8
1
  6
CONTINUOUS
 62
   250
 10
-0.03998
 20
0.411295
 30
0.0
 11
-0.03998
 21
0.414053
 31
0.0
  0
LINE
  8
1
  6
CONTINUOUS
 62
   250
 10
-0.03998
 20
0.414053
 30
0.0
 11
-0.040441
 21
0.415431
 31
0.0
  0
LINE
  8
1
  6
CONTINUOUS
 62
   250
 10
-0.03998
 20
0.430137
 30
0.0
 11
-0.03998
 21
0.424164
 31
0.0
  0
LINE
  8
1
  6
CONTINUOUS
 62
   250
 10
-0.04963
 20
0.441625
 30
0.0
 11
-0.048713
 21
0.441625
 31
0.0
  0
LINE
  8
1
  6
CONTINUOUS
 62
   250
 10
-0.051929
 20
0.441167
 30
0.0
 11
-0.04963
 21
0.441625
 31
0.0
  0
LINE
  8
1
  6
CONTINUOUS
 62
   250
 10
-0.051929
 20
0.436111
 30
0.0
 11
-0.052388
 21
0.436572
 31
0.0
  0
LINE
  8
1
  6
CONTINUOUS
 62
   250
 10
-0.04963
 20
0.435193
 30
0.0
 11
-0.051929
 21
0.436111
 31
0.0
  0
LINE
  8
1
  6
CONTINUOUS
 62
   250
 10
-0.046414
 20
0.422324
 30
0.0
 11
-0.046873
 21
0.424164
 31
0.0
  0
LINE
  8
1
  6
CONTINUOUS
 62
   250
 10
-0.045955
 20
0.421866
 30
0.0
 11
-0.046414
 21
0.422324
 31
0.0
  0
LINE
  8
1
  6
CONTINUOUS
 62
   250
 10
-0.044116
 20
0.420946
 30
0.0
 11
-0.045955
 21
0.421866
 31
0.0
  0
LINE
  8
1
  6
CONTINUOUS
 62
   250
 10
-0.046873
 20
0.424164
 30
0.0
 11
-0.046873
 21
0.430137
 31
0.0
  0
LINE
  8
1
  6
CONTINUOUS
 62
   250
 10
-0.052388
 20
0.440708
 30
0.0
 11
-0.051929
 21
0.441167
 31
0.0
  0
LINE
  8
1
  6
CONTINUOUS
 62
   250
 10
-0.03998
 20
0.435193
 30
0.0
 11
-0.04963
 21
0.435193
 31
0.0
  0
LINE
  8
1
  6
CONTINUOUS
 62
   250
 10
-0.042278
 20
0.420946
 30
0.0
 11
-0.044116
 21
0.420946
 31
0.0
  0
LINE
  8
1
  6
CONTINUOUS
 62
   250
 10
-0.281243
 20
0.522048
 30
0.0
 11
-0.256888
 21
0.522048
 31
0.0
  0
LINE
  8
1
  6
CONTINUOUS
 62
   250
 10
-0.387398
 20
0.650262
 30
0.0
 11
-0.382804
 21
0.643828
 31
0.0
  0
LINE
  8
1
  6
CONTINUOUS
 62
   250
 10
-0.390617
 20
0.522048
 30
0.0
 11
-0.36626
 21
0.522048
 31
0.0
  0
LINE
  8
1
  6
CONTINUOUS
 62
   250
 10
-0.388318
 20
0.546403
 30
0.0
 11
-0.349716
 21
0.546403
 31
0.0
  0
LINE
  8
1
  6
CONTINUOUS
 62
   250
 10
-0.349716
 20
0.604306
 30
0.0
 11
-0.388318
 21
0.604306
 31
0.0
  0
LINE
  8
1
  6
CONTINUOUS
 62
   250
 10
-0.388318
 20
0.565704
 30
0.0
 11
-0.349716
 21
0.565704
 31
0.0
  0
LINE
  8
1
  6
CONTINUOUS
 62
   250
 10
-0.349716
 20
0.584546
 30
0.0
 11
-0.388318
 21
0.584546
 31
0.0
  0
LINE
  8
1
  6
CONTINUOUS
 62
   250
 10
-0.271592
 20
0.630961
 30
0.0
 11
-0.456331
 21
0.630961
 31
0.0
  0
LINE
  8
1
  6
CONTINUOUS
 62
   250
 10
-0.271592
 20
0.654857
 30
0.0
 11
-0.456331
 21
0.654857
 31
0.0
  0
LINE
  8
1
  6
CONTINUOUS
 62
   250
 10
-0.456331
 20
0.604306
 30
0.0
 11
-0.456331
 21
0.654857
 31
0.0
  0
LINE
  8
1
  6
CONTINUOUS
 62
   250
 10
-0.460928
 20
0.522048
 30
0.0
 11
-0.439328
 21
0.522048
 31
0.0
  0
LINE
  8
1
  6
CONTINUOUS
 62
   250
 10
-0.456331
 20
0.604306
 30
0.0
 11
-0.388318
 21
0.604306
 31
0.0
  0
LINE
  8
1
  6
CONTINUOUS
 62
   250
 10
-0.388318
 20
0.546403
 30
0.0
 11
-0.456331
 21
0.546403
 31
0.0
  0
LINE
  8
1
  6
CONTINUOUS
 62
   250
 10
-0.460928
 20
0.460009
 30
0.0
 11
-0.460928
 21
0.483905
 31
0.0
  0
LINE
  8
1
  6
CONTINUOUS
 62
   250
 10
-0.460928
 20
0.496312
 30
0.0
 11
-0.460928
 21
0.522048
 31
0.0
  0
LINE
  8
1
  6
CONTINUOUS
 62
   250
 10
-0.456331
 20
0.604306
 30
0.0
 11
-0.456331
 21
0.546403
 31
0.0
  0
LINE
  8
1
  6
CONTINUOUS
 62
   250
 10
-0.42692
 20
0.522048
 30
0.0
 11
-0.402563
 21
0.522048
 31
0.0
  0
LINE
  8
1
  6
CONTINUOUS
 62
   250
 10
-0.422784
 20
0.595116
 30
0.0
 11
-0.413593
 21
0.595116
 31
0.0
  0
LINE
  8
1
  6
CONTINUOUS
 62
   250
 10
-0.424163
 20
0.562946
 30
0.0
 11
-0.415891
 21
0.562946
 31
0.0
  0
LINE
  8
1
  6
CONTINUOUS
 62
   250
 10
-0.42692
 20
0.575354
 30
0.0
 11
-0.41727
 21
0.575354
 31
0.0
  0
LINE
  8
1
  6
CONTINUOUS
 62
   250
 10
-0.432435
 20
0.549621
 30
0.0
 11
-0.435192
 21
0.549621
 31
0.0
  0
LINE
  8
1
  6
CONTINUOUS
 62
   250
 10
-0.435192
 20
0.562946
 30
0.0
 11
-0.432435
 21
0.562946
 31
0.0
  0
LINE
  8
1
  6
CONTINUOUS
 62
   250
 10
-0.435192
 20
0.549621
 30
0.0
 11
-0.43703
 21
0.55008
 31
0.0
  0
LINE
  8
1
  6
CONTINUOUS
 62
   250
 10
-0.43703
 20
0.562487
 30
0.0
 11
-0.435192
 21
0.562946
 31
0.0
  0
LINE
  8
1
  6
CONTINUOUS
 62
   250
 10
-0.438869
 20
0.554674
 30
0.0
 11
-0.438869
 21
0.557893
 31
0.0
  0
LINE
  8
1
  6
CONTINUOUS
 62
   250
 10
-0.438408
 20
0.552837
 30
0.0
 11
-0.438869
 21
0.554674
 31
0.0
  0
LINE
  8
1
  6
CONTINUOUS
 62
   250
 10
-0.437949
 20
0.551458
 30
0.0
 11
-0.438408
 21
0.552837
 31
0.0
  0
LINE
  8
1
  6
CONTINUOUS
 62
   250
 10
-0.438408
 20
0.55973
 30
0.0
 11
-0.437949
 21
0.561109
 31
0.0
  0
LINE
  8
1
  6
CONTINUOUS
 62
   250
 10
-0.438869
 20
0.557893
 30
0.0
 11
-0.438408
 21
0.55973
 31
0.0
  0
LINE
  8
1
  6
CONTINUOUS
 62
   250
 10
-0.43703
 20
0.55008
 30
0.0
 11
-0.437949
 21
0.551458
 31
0.0
  0
LINE
  8
1
  6
CONTINUOUS
 62
   250
 10
-0.437949
 20
0.561109
 30
0.0
 11
-0.43703
 21
0.562487
 31
0.0
  0
LINE
  8
1
  6
CONTINUOUS
 62
   250
 10
-0.424163
 20
0.549621
 30
0.0
 11
-0.424163
 21
0.562946
 31
0.0
  0
LINE
  8
1
  6
CONTINUOUS
 62
   250
 10
-0.418648
 20
0.556514
 30
0.0
 11
-0.424163
 21
0.556514
 31
0.0
  0
LINE
  8
1
  6
CONTINUOUS
 62
   250
 10
-0.428758
 20
0.557893
 30
0.0
 11
-0.428758
 21
0.554674
 31
0.0
  0
LINE
  8
1
  6
CONTINUOUS
 62
   250
 10
-0.431515
 20
0.55008
 30
0.0
 11
-0.432435
 21
0.549621
 31
0.0
  0
LINE
  8
1
  6
CONTINUOUS
 62
   250
 10
-0.429678
 20
0.551458
 30
0.0
 11
-0.431515
 21
0.55008
 31
0.0
  0
LINE
  8
1
  6
CONTINUOUS
 62
   250
 10
-0.429219
 20
0.552837
 30
0.0
 11
-0.429678
 21
0.551458
 31
0.0
  0
LINE
  8
1
  6
CONTINUOUS
 62
   250
 10
-0.428758
 20
0.554674
 30
0.0
 11
-0.429219
 21
0.552837
 31
0.0
  0
LINE
  8
1
  6
CONTINUOUS
 62
   250
 10
-0.429219
 20
0.55973
 30
0.0
 11
-0.428758
 21
0.557893
 31
0.0
  0
LINE
  8
1
  6
CONTINUOUS
 62
   250
 10
-0.429678
 20
0.561109
 30
0.0
 11
-0.429219
 21
0.55973
 31
0.0
  0
LINE
  8
1
  6
CONTINUOUS
 62
   250
 10
-0.431515
 20
0.562487
 30
0.0
 11
-0.429678
 21
0.561109
 31
0.0
  0
LINE
  8
1
  6
CONTINUOUS
 62
   250
 10
-0.432435
 20
0.562946
 30
0.0
 11
-0.431515
 21
0.562487
 31
0.0
  0
LINE
  8
1
  6
CONTINUOUS
 62
   250
 10
-0.432894
 20
0.601548
 30
0.0
 11
-0.434272
 21
0.60109
 31
0.0
  0
LINE
  8
1
  6
CONTINUOUS
 62
   250
 10
-0.434272
 20
0.588682
 30
0.0
 11
-0.432894
 21
0.587762
 31
0.0
  0
LINE
  8
1
  6
CONTINUOUS
 62
   250
 10
-0.432894
 20
0.58133
 30
0.0
 11
-0.434272
 21
0.582247
 31
0.0
  0
LINE
  8
1
  6
CONTINUOUS
 62
   250
 10
-0.434272
 20
0.568922
 30
0.0
 11
-0.432894
 21
0.569381
 31
0.0
  0
LINE
  8
1
  6
CONTINUOUS
 62
   250
 10
-0.43703
 20
0.598332
 30
0.0
 11
-0.437491
 21
0.596495
 31
0.0
  0
LINE
  8
1
  6
CONTINUOUS
 62
   250
 10
-0.435651
 20
0.599711
 30
0.0
 11
-0.43703
 21
0.598332
 31
0.0
  0
LINE
  8
1
  6
CONTINUOUS
 62
   250
 10
-0.434272
 20
0.60109
 30
0.0
 11
-0.435651
 21
0.599711
 31
0.0
  0
LINE
  8
1
  6
CONTINUOUS
 62
   250
 10
-0.437491
 20
0.593276
 30
0.0
 11
-0.43703
 21
0.59098
 31
0.0
  0
LINE
  8
1
  6
CONTINUOUS
 62
   250
 10
-0.435651
 20
0.59006
 30
0.0
 11
-0.434272
 21
0.588682
 31
0.0
  0
LINE
  8
1
  6
CONTINUOUS
 62
   250
 10
-0.434272
 20
0.582247
 30
0.0
 11
-0.437491
 21
0.582247
 31
0.0
  0
LINE
  8
1
  6
CONTINUOUS
 62
   250
 10
-0.43703
 20
0.59098
 30
0.0
 11
-0.435651
 21
0.59006
 31
0.0
  0
LINE
  8
1
  6
CONTINUOUS
 62
   250
 10
-0.437491
 20
0.596495
 30
0.0
 11
-0.437491
 21
0.593276
 31
0.0
  0
LINE
  8
1
  6
CONTINUOUS
 62
   250
 10
-0.440248
 20
0.579031
 30
0.0
 11
-0.440707
 21
0.576733
 31
0.0
  0
LINE
  8
1
  6
CONTINUOUS
 62
   250
 10
-0.439787
 20
0.579951
 30
0.0
 11
-0.440248
 21
0.579031
 31
0.0
  0
LINE
  8
1
  6
CONTINUOUS
 62
   250
 10
-0.438408
 20
0.58133
 30
0.0
 11
-0.439787
 21
0.579951
 31
0.0
  0
LINE
  8
1
  6
CONTINUOUS
 62
   250
 10
-0.437491
 20
0.582247
 30
0.0
 11
-0.438408
 21
0.58133
 31
0.0
  0
LINE
  8
1
  6
CONTINUOUS
 62
   250
 10
-0.437491
 20
0.568922
 30
0.0
 11
-0.434272
 21
0.568922
 31
0.0
  0
LINE
  8
1
  6
CONTINUOUS
 62
   250
 10
-0.439787
 20
0.570759
 30
0.0
 11
-0.438408
 21
0.569381
 31
0.0
  0
LINE
  8
1
  6
CONTINUOUS
 62
   250
 10
-0.440248
 20
0.572138
 30
0.0
 11
-0.439787
 21
0.570759
 31
0.0
  0
LINE
  8
1
  6
CONTINUOUS
 62
   250
 10
-0.440707
 20
0.573517
 30
0.0
 11
-0.440248
 21
0.572138
 31
0.0
  0
LINE
  8
1
  6
CONTINUOUS
 62
   250
 10
-0.438408
 20
0.569381
 30
0.0
 11
-0.437491
 21
0.568922
 31
0.0
  0
LINE
  8
1
  6
CONTINUOUS
 62
   250
 10
-0.440707
 20
0.576733
 30
0.0
 11
-0.440707
 21
0.573517
 31
0.0
  0
LINE
  8
1
  6
CONTINUOUS
 62
   250
 10
-0.422784
 20
0.587762
 30
0.0
 11
-0.422784
 21
0.601548
 31
0.0
  0
LINE
  8
1
  6
CONTINUOUS
 62
   250
 10
-0.430597
 20
0.601548
 30
0.0
 11
-0.432894
 21
0.601548
 31
0.0
  0
LINE
  8
1
  6
CONTINUOUS
 62
   250
 10
-0.429219
 20
0.60109
 30
0.0
 11
-0.430597
 21
0.601548
 31
0.0
  0
LINE
  8
1
  6
CONTINUOUS
 62
   250
 10
-0.42784
 20
0.599711
 30
0.0
 11
-0.429219
 21
0.60109
 31
0.0
  0
LINE
  8
1
  6
CONTINUOUS
 62
   250
 10
-0.427379
 20
0.598332
 30
0.0
 11
-0.42784
 21
0.599711
 31
0.0
  0
LINE
  8
1
  6
CONTINUOUS
 62
   250
 10
-0.429219
 20
0.588682
 30
0.0
 11
-0.42784
 21
0.59006
 31
0.0
  0
LINE
  8
1
  6
CONTINUOUS
 62
   250
 10
-0.430597
 20
0.587762
 30
0.0
 11
-0.429219
 21
0.588682
 31
0.0
  0
LINE
  8
1
  6
CONTINUOUS
 62
   250
 10
-0.432894
 20
0.587762
 30
0.0
 11
-0.430597
 21
0.587762
 31
0.0
  0
LINE
  8
1
  6
CONTINUOUS
 62
   250
 10
-0.432435
 20
0.579951
 30
0.0
 11
-0.432894
 21
0.58133
 31
0.0
  0
LINE
  8
1
  6
CONTINUOUS
 62
   250
 10
-0.431515
 20
0.579031
 30
0.0
 11
-0.432435
 21
0.579951
 31
0.0
  0
LINE
  8
1
  6
CONTINUOUS
 62
   250
 10
-0.42784
 20
0.59006
 30
0.0
 11
-0.427379
 21
0.59098
 31
0.0
  0
LINE
  8
1
  6
CONTINUOUS
 62
   250
 10
-0.432435
 20
0.570759
 30
0.0
 11
-0.431515
 21
0.572138
 31
0.0
  0
LINE
  8
1
  6
CONTINUOUS
 62
   250
 10
-0.432894
 20
0.569381
 30
0.0
 11
-0.432435
 21
0.570759
 31
0.0
  0
LINE
  8
1
  6
CONTINUOUS
 62
   250
 10
-0.42692
 20
0.568922
 30
0.0
 11
-0.42692
 21
0.582247
 31
0.0
  0
LINE
  8
1
  6
CONTINUOUS
 62
   250
 10
-0.388318
 20
0.584546
 30
0.0
 11
-0.388318
 21
0.565704
 31
0.0
  0
LINE
  8
1
  6
CONTINUOUS
 62
   250
 10
-0.412214
 20
0.562946
 30
0.0
 11
-0.412214
 21
0.549621
 31
0.0
  0
LINE
  8
1
  6
CONTINUOUS
 62
   250
 10
-0.412214
 20
0.556514
 30
0.0
 11
-0.40716
 21
0.556514
 31
0.0
  0
LINE
  8
1
  6
CONTINUOUS
 62
   250
 10
-0.404403
 20
0.562946
 30
0.0
 11
-0.412214
 21
0.562946
 31
0.0
  0
LINE
  8
1
  6
CONTINUOUS
 62
   250
 10
-0.388318
 20
0.565704
 30
0.0
 11
-0.388318
 21
0.546403
 31
0.0
  0
LINE
  8
1
  6
CONTINUOUS
 62
   250
 10
-0.405782
 20
0.599711
 30
0.0
 11
-0.40716
 21
0.598791
 31
0.0
  0
LINE
  8
1
  6
CONTINUOUS
 62
   250
 10
-0.404403
 20
0.601548
 30
0.0
 11
-0.405782
 21
0.599711
 31
0.0
  0
LINE
  8
1
  6
CONTINUOUS
 62
   250
 10
-0.404862
 20
0.578111
 30
0.0
 11
-0.405321
 21
0.576733
 31
0.0
  0
LINE
  8
1
  6
CONTINUOUS
 62
   250
 10
-0.404862
 20
0.57949
 30
0.0
 11
-0.404862
 21
0.578111
 31
0.0
  0
LINE
  8
1
  6
CONTINUOUS
 62
   250
 10
-0.405321
 20
0.580869
 30
0.0
 11
-0.404862
 21
0.57949
 31
0.0
  0
LINE
  8
1
  6
CONTINUOUS
 62
   250
 10
-0.405782
 20
0.58133
 30
0.0
 11
-0.405321
 21
0.580869
 31
0.0
  0
LINE
  8
1
  6
CONTINUOUS
 62
   250
 10
-0.40716
 20
0.582247
 30
0.0
 11
-0.405782
 21
0.58133
 31
0.0
  0
LINE
  8
1
  6
CONTINUOUS
 62
   250
 10
-0.405321
 20
0.576733
 30
0.0
 11
-0.406241
 21
0.574895
 31
0.0
  0
LINE
  8
1
  6
CONTINUOUS
 62
   250
 10
-0.410835
 20
0.58133
 30
0.0
 11
-0.409918
 21
0.582247
 31
0.0
  0
LINE
  8
1
  6
CONTINUOUS
 62
   250
 10
-0.411755
 20
0.580869
 30
0.0
 11
-0.410835
 21
0.58133
 31
0.0
  0
LINE
  8
1
  6
CONTINUOUS
 62
   250
 10
-0.412214
 20
0.57949
 30
0.0
 11
-0.411755
 21
0.580869
 31
0.0
  0
LINE
  8
1
  6
CONTINUOUS
 62
   250
 10
-0.412214
 20
0.579031
 30
0.0
 11
-0.412214
 21
0.57949
 31
0.0
  0
LINE
  8
1
  6
CONTINUOUS
 62
   250
 10
-0.409918
 20
0.582247
 30
0.0
 11
-0.40716
 21
0.582247
 31
0.0
  0
LINE
  8
1
  6
CONTINUOUS
 62
   250
 10
-0.404403
 20
0.587762
 30
0.0
 11
-0.404403
 21
0.601548
 31
0.0
  0
LINE
  8
1
  6
CONTINUOUS
 62
   250
 10
-0.413593
 20
0.601548
 30
0.0
 11
-0.413593
 21
0.587762
 31
0.0
  0
LINE
  8
1
  6
CONTINUOUS
 62
   250
 10
-0.413134
 20
0.568922
 30
0.0
 11
-0.404403
 21
0.568922
 31
0.0
  0
LINE
  8
1
  6
CONTINUOUS
 62
   250
 10
-0.41727
 20
0.582247
 30
0.0
 11
-0.41727
 21
0.568922
 31
0.0
  0
LINE
  8
1
  6
CONTINUOUS
 62
   250
 10
-0.406241
 20
0.574895
 30
0.0
 11
-0.413134
 21
0.568922
 31
0.0
  0
LINE
  8
1
  6
CONTINUOUS
 62
   250
 10
-0.388318
 20
0.604306
 30
0.0
 11
-0.388318
 21
0.584546
 31
0.0
  0
LINE
  8
1
  6
CONTINUOUS
 62
   250
 10
-0.44852
 20
0.610281
 30
0.0
 11
-0.44852
 21
0.623607
 31
0.0
  0
LINE
  8
1
  6
CONTINUOUS
 62
   250
 10
-0.413134
 20
0.650262
 30
0.0
 11
-0.41819
 21
0.650262
 31
0.0
  0
LINE
  8
1
  6
CONTINUOUS
 62
   250
 10
-0.41819
 20
0.642908
 30
0.0
 11
-0.413134
 21
0.642908
 31
0.0
  0
LINE
  8
1
  6
CONTINUOUS
 62
   250
 10
-0.416811
 20
0.61074
 30
0.0
 11
-0.417729
 21
0.612119
 31
0.0
  0
LINE
  8
1
  6
CONTINUOUS
 62
   250
 10
-0.41819
 20
0.650262
 30
0.0
 11
-0.41819
 21
0.636476
 31
0.0
  0
LINE
  8
1
  6
CONTINUOUS
 62
   250
 10
-0.430136
 20
0.647044
 30
0.0
 11
-0.430136
 21
0.648422
 31
0.0
  0
LINE
  8
1
  6
CONTINUOUS
 62
   250
 10
-0.439328
 20
0.647044
 30
0.0
 11
-0.439787
 21
0.648422
 31
0.0
  0
LINE
  8
1
  6
CONTINUOUS
 62
   250
 10
-0.44668
 20
0.650262
 30
0.0
 11
-0.44668
 21
0.636476
 31
0.0
  0
LINE
  8
1
  6
CONTINUOUS
 62
   250
 10
-0.434272
 20
0.650262
 30
0.0
 11
-0.434272
 21
0.636476
 31
0.0
  0
LINE
  8
1
  6
CONTINUOUS
 62
   250
 10
-0.438408
 20
0.64199
 30
0.0
 11
-0.438408
 21
0.645206
 31
0.0
  0
LINE
  8
1
  6
CONTINUOUS
 62
   250
 10
-0.438408
 20
0.645206
 30
0.0
 11
-0.439328
 21
0.647044
 31
0.0
  0
LINE
  8
1
  6
CONTINUOUS
 62
   250
 10
-0.435192
 20
0.623607
 30
0.0
 11
-0.435192
 21
0.610281
 31
0.0
  0
LINE
  8
1
  6
CONTINUOUS
 62
   250
 10
-0.44668
 20
0.636476
 30
0.0
 11
-0.443005
 21
0.636476
 31
0.0
  0
LINE
  8
1
  6
CONTINUOUS
 62
   250
 10
-0.439787
 20
0.638313
 30
0.0
 11
-0.439328
 21
0.639692
 31
0.0
  0
LINE
  8
1
  6
CONTINUOUS
 62
   250
 10
-0.440707
 20
0.637393
 30
0.0
 11
-0.439787
 21
0.638313
 31
0.0
  0
LINE
  8
1
  6
CONTINUOUS
 62
   250
 10
-0.443005
 20
0.636476
 30
0.0
 11
-0.440707
 21
0.637393
 31
0.0
  0
LINE
  8
1
  6
CONTINUOUS
 62
   250
 10
-0.443464
 20
0.623607
 30
0.0
 11
-0.443464
 21
0.610281
 31
0.0
  0
LINE
  8
1
  6
CONTINUOUS
 62
   250
 10
-0.435192
 20
0.610281
 30
0.0
 11
-0.443464
 21
0.623607
 31
0.0
  0
LINE
  8
1
  6
CONTINUOUS
 62
   250
 10
-0.439328
 20
0.639692
 30
0.0
 11
-0.438408
 21
0.64199
 31
0.0
  0
LINE
  8
1
  6
CONTINUOUS
 62
   250
 10
-0.423243
 20
0.642449
 30
0.0
 11
-0.424622
 21
0.642908
 31
0.0
  0
LINE
  8
1
  6
CONTINUOUS
 62
   250
 10
-0.422784
 20
0.64199
 30
0.0
 11
-0.423243
 21
0.642449
 31
0.0
  0
LINE
  8
1
  6
CONTINUOUS
 62
   250
 10
-0.422326
 20
0.640611
 30
0.0
 11
-0.422784
 21
0.64199
 31
0.0
  0
LINE
  8
1
  6
CONTINUOUS
 62
   250
 10
-0.423243
 20
0.637393
 30
0.0
 11
-0.422326
 21
0.638313
 31
0.0
  0
LINE
  8
1
  6
CONTINUOUS
 62
   250
 10
-0.425083
 20
0.636476
 30
0.0
 11
-0.423243
 21
0.637393
 31
0.0
  0
LINE
  8
1
  6
CONTINUOUS
 62
   250
 10
-0.425083
 20
0.623607
 30
0.0
 11
-0.423704
 21
0.623148
 31
0.0
  0
LINE
  8
1
  6
CONTINUOUS
 62
   250
 10
-0.422326
 20
0.619012
 30
0.0
 11
-0.422784
 21
0.618092
 31
0.0
  0
LINE
  8
1
  6
CONTINUOUS
 62
   250
 10
-0.422326
 20
0.62131
 30
0.0
 11
-0.422326
 21
0.619012
 31
0.0
  0
LINE
  8
1
  6
CONTINUOUS
 62
   250
 10
-0.422784
 20
0.622689
 30
0.0
 11
-0.422326
 21
0.62131
 31
0.0
  0
LINE
  8
1
  6
CONTINUOUS
 62
   250
 10
-0.423704
 20
0.623148
 30
0.0
 11
-0.422784
 21
0.622689
 31
0.0
  0
LINE
  8
1
  6
CONTINUOUS
 62
   250
 10
-0.423704
 20
0.617174
 30
0.0
 11
-0.425083
 21
0.616713
 31
0.0
  0
LINE
  8
1
  6
CONTINUOUS
 62
   250
 10
-0.417729
 20
0.612119
 30
0.0
 11
-0.41819
 21
0.613956
 31
0.0
  0
LINE
  8
1
  6
CONTINUOUS
 62
   250
 10
-0.422784
 20
0.618092
 30
0.0
 11
-0.423704
 21
0.617174
 31
0.0
  0
LINE
  8
1
  6
CONTINUOUS
 62
   250
 10
-0.41819
 20
0.613956
 30
0.0
 11
-0.41819
 21
0.623607
 31
0.0
  0
LINE
  8
1
  6
CONTINUOUS
 62
   250
 10
-0.422326
 20
0.638313
 30
0.0
 11
-0.422326
 21
0.640611
 31
0.0
  0
LINE
  8
1
  6
CONTINUOUS
 62
   250
 10
-0.429219
 20
0.645206
 30
0.0
 11
-0.429678
 21
0.645665
 31
0.0
  0
LINE
  8
1
  6
CONTINUOUS
 62
   250
 10
-0.428299
 20
0.644286
 30
0.0
 11
-0.429219
 21
0.645206
 31
0.0
  0
LINE
  8
1
  6
CONTINUOUS
 62
   250
 10
-0.429678
 20
0.645665
 30
0.0
 11
-0.430136
 21
0.647044
 31
0.0
  0
LINE
  8
1
  6
CONTINUOUS
 62
   250
 10
-0.429219
 20
0.637393
 30
0.0
 11
-0.427379
 21
0.636476
 31
0.0
  0
LINE
  8
1
  6
CONTINUOUS
 62
   250
 10
-0.429219
 20
0.637393
 30
0.0
 11
-0.430136
 21
0.638313
 31
0.0
  0
LINE
  8
1
  6
CONTINUOUS
 62
   250
 10
-0.430597
 20
0.610281
 30
0.0
 11
-0.430597
 21
0.623607
 31
0.0
  0
LINE
  8
1
  6
CONTINUOUS
 62
   250
 10
-0.430597
 20
0.623607
 30
0.0
 11
-0.425083
 21
0.623607
 31
0.0
  0
LINE
  8
1
  6
CONTINUOUS
 62
   250
 10
-0.425083
 20
0.616713
 30
0.0
 11
-0.430597
 21
0.616713
 31
0.0
  0
LINE
  8
1
  6
CONTINUOUS
 62
   250
 10
-0.424622
 20
0.642908
 30
0.0
 11
-0.428299
 21
0.644286
 31
0.0
  0
LINE
  8
1
  6
CONTINUOUS
 62
   250
 10
-0.427379
 20
0.636476
 30
0.0
 11
-0.425083
 21
0.636476
 31
0.0
  0
LINE
  8
1
  6
CONTINUOUS
 62
   250
 10
-0.443005
 20
0.650262
 30
0.0
 11
-0.44668
 21
0.650262
 31
0.0
  0
LINE
  8
1
  6
CONTINUOUS
 62
   250
 10
-0.440707
 20
0.649801
 30
0.0
 11
-0.443005
 21
0.650262
 31
0.0
  0
LINE
  8
1
  6
CONTINUOUS
 62
   250
 10
-0.439787
 20
0.648422
 30
0.0
 11
-0.440707
 21
0.649801
 31
0.0
  0
LINE
  8
1
  6
CONTINUOUS
 62
   250
 10
-0.423243
 20
0.649801
 30
0.0
 11
-0.422326
 21
0.648422
 31
0.0
  0
LINE
  8
1
  6
CONTINUOUS
 62
   250
 10
-0.425083
 20
0.650262
 30
0.0
 11
-0.423243
 21
0.649801
 31
0.0
  0
LINE
  8
1
  6
CONTINUOUS
 62
   250
 10
-0.429219
 20
0.649801
 30
0.0
 11
-0.427379
 21
0.650262
 31
0.0
  0
LINE
  8
1
  6
CONTINUOUS
 62
   250
 10
-0.430136
 20
0.648422
 30
0.0
 11
-0.429219
 21
0.649801
 31
0.0
  0
LINE
  8
1
  6
CONTINUOUS
 62
   250
 10
-0.427379
 20
0.650262
 30
0.0
 11
-0.425083
 21
0.650262
 31
0.0
  0
LINE
  8
1
  6
CONTINUOUS
 62
   250
 10
-0.410377
 20
0.647505
 30
0.0
 11
-0.410377
 21
0.648883
 31
0.0
  0
LINE
  8
1
  6
CONTINUOUS
 62
   250
 10
-0.393374
 20
0.650262
 30
0.0
 11
-0.388318
 21
0.636476
 31
0.0
  0
LINE
  8
1
  6
CONTINUOUS
 62
   250
 10
-0.39751
 20
0.636476
 30
0.0
 11
-0.393374
 21
0.650262
 31
0.0
  0
LINE
  8
1
  6
CONTINUOUS
 62
   250
 10
-0.405782
 20
0.650262
 30
0.0
 11
-0.405782
 21
0.636476
 31
0.0
  0
LINE
  8
1
  6
CONTINUOUS
 62
   250
 10
-0.40716
 20
0.623607
 30
0.0
 11
-0.399347
 21
0.623607
 31
0.0
  0
LINE
  8
1
  6
CONTINUOUS
 62
   250
 10
-0.405782
 20
0.636476
 30
0.0
 11
-0.399347
 21
0.636476
 31
0.0
  0
LINE
  8
1
  6
CONTINUOUS
 62
   250
 10
-0.410377
 20
0.644286
 30
0.0
 11
-0.410377
 21
0.645665
 31
0.0
  0
LINE
  8
1
  6
CONTINUOUS
 62
   250
 10
-0.411296
 20
0.643828
 30
0.0
 11
-0.410377
 21
0.644286
 31
0.0
  0
LINE
  8
1
  6
CONTINUOUS
 62
   250
 10
-0.410377
 20
0.645665
 30
0.0
 11
-0.410377
 21
0.647505
 31
0.0
  0
LINE
  8
1
  6
CONTINUOUS
 62
   250
 10
-0.413134
 20
0.642908
 30
0.0
 11
-0.411296
 21
0.643828
 31
0.0
  0
LINE
  8
1
  6
CONTINUOUS
 62
   250
 10
-0.403024
 20
0.610281
 30
0.0
 11
-0.403024
 21
0.623607
 31
0.0
  0
LINE
  8
1
  6
CONTINUOUS
 62
   250
 10
-0.410835
 20
0.612119
 30
0.0
 11
-0.411755
 21
0.61074
 31
0.0
  0
LINE
  8
1
  6
CONTINUOUS
 62
   250
 10
-0.410377
 20
0.613956
 30
0.0
 11
-0.410835
 21
0.612119
 31
0.0
  0
LINE
  8
1
  6
CONTINUOUS
 62
   250
 10
-0.410377
 20
0.623607
 30
0.0
 11
-0.410377
 21
0.613956
 31
0.0
  0
LINE
  8
1
  6
CONTINUOUS
 62
   250
 10
-0.415432
 20
0.610281
 30
0.0
 11
-0.416811
 21
0.61074
 31
0.0
  0
LINE
  8
1
  6
CONTINUOUS
 62
   250
 10
-0.413593
 20
0.610281
 30
0.0
 11
-0.415432
 21
0.610281
 31
0.0
  0
LINE
  8
1
  6
CONTINUOUS
 62
   250
 10
-0.411755
 20
0.61074
 30
0.0
 11
-0.413593
 21
0.610281
 31
0.0
  0
LINE
  8
1
  6
CONTINUOUS
 62
   250
 10
-0.390156
 20
0.64107
 30
0.0
 11
-0.396131
 21
0.64107
 31
0.0
  0
LINE
  8
1
  6
CONTINUOUS
 62
   250
 10
-0.399347
 20
0.636476
 30
0.0
 11
-0.39751
 21
0.636476
 31
0.0
  0
LINE
  8
1
  6
CONTINUOUS
 62
   250
 10
-0.410377
 20
0.648883
 30
0.0
 11
-0.411296
 21
0.649801
 31
0.0
  0
LINE
  8
1
  6
CONTINUOUS
 62
   250
 10
-0.411296
 20
0.649801
 30
0.0
 11
-0.413134
 21
0.650262
 31
0.0
  0
LINE
  8
1
  6
CONTINUOUS
 62
   250
 10
-0.271592
 20
0.604306
 30
0.0
 11
-0.271592
 21
0.654857
 31
0.0
  0
LINE
  8
1
  6
CONTINUOUS
 62
   250
 10
-0.310655
 20
0.604306
 30
0.0
 11
-0.349716
 21
0.604306
 31
0.0
  0
LINE
  8
1
  6
CONTINUOUS
 62
   250
 10
-0.310655
 20
0.584546
 30
0.0
 11
-0.349716
 21
0.584546
 31
0.0
  0
LINE
  8
1
  6
CONTINUOUS
 62
   250
 10
-0.310655
 20
0.565704
 30
0.0
 11
-0.349716
 21
0.565704
 31
0.0
  0
LINE
  8
1
  6
CONTINUOUS
 62
   250
 10
-0.349716
 20
0.546403
 30
0.0
 11
-0.310655
 21
0.546403
 31
0.0
  0
LINE
  8
1
  6
CONTINUOUS
 62
   250
 10
-0.354311
 20
0.522048
 30
0.0
 11
-0.329956
 21
0.522048
 31
0.0
  0
LINE
  8
1
  6
CONTINUOUS
 62
   250
 10
-0.378209
 20
0.557893
 30
0.0
 11
-0.379126
 21
0.557432
 31
0.0
  0
LINE
  8
1
  6
CONTINUOUS
 62
   250
 10
-0.377289
 20
0.557432
 30
0.0
 11
-0.378209
 21
0.557893
 31
0.0
  0
LINE
  8
1
  6
CONTINUOUS
 62
   250
 10
-0.379126
 20
0.557432
 30
0.0
 11
-0.380046
 21
0.556973
 31
0.0
  0
LINE
  8
1
  6
CONTINUOUS
 62
   250
 10
-0.377289
 20
0.556973
 30
0.0
 11
-0.377289
 21
0.557432
 31
0.0
  0
LINE
  8
1
  6
CONTINUOUS
 62
   250
 10
-0.37683
 20
0.555594
 30
0.0
 11
-0.377289
 21
0.556973
 31
0.0
  0
LINE
  8
1
  6
CONTINUOUS
 62
   250
 10
-0.377289
 20
0.555135
 30
0.0
 11
-0.37683
 21
0.555594
 31
0.0
  0
LINE
  8
1
  6
CONTINUOUS
 62
   250
 10
-0.377289
 20
0.554216
 30
0.0
 11
-0.377289
 21
0.555135
 31
0.0
  0
LINE
  8
1
  6
CONTINUOUS
 62
   250
 10
-0.378209
 20
0.554216
 30
0.0
 11
-0.377289
 21
0.554216
 31
0.0
  0
LINE
  8
1
  6
CONTINUOUS
 62
   250
 10
-0.379126
 20
0.554216
 30
0.0
 11
-0.378209
 21
0.554216
 31
0.0
  0
LINE
  8
1
  6
CONTINUOUS
 62
   250
 10
-0.380046
 20
0.555135
 30
0.0
 11
-0.379126
 21
0.554216
 31
0.0
  0
LINE
  8
1
  6
CONTINUOUS
 62
   250
 10
-0.380505
 20
0.555594
 30
0.0
 11
-0.380046
 21
0.555135
 31
0.0
  0
LINE
  8
1
  6
CONTINUOUS
 62
   250
 10
-0.380046
 20
0.556973
 30
0.0
 11
-0.380505
 21
0.555594
 31
0.0
  0
LINE
  8
1
  6
CONTINUOUS
 62
   250
 10
-0.357988
 20
0.557432
 30
0.0
 11
-0.358908
 21
0.557893
 31
0.0
  0
LINE
  8
1
  6
CONTINUOUS
 62
   250
 10
-0.358908
 20
0.557893
 30
0.0
 11
-0.360286
 21
0.557432
 31
0.0
  0
LINE
  8
1
  6
CONTINUOUS
 62
   250
 10
-0.357068
 20
0.555594
 30
0.0
 11
-0.357068
 21
0.556973
 31
0.0
  0
LINE
  8
1
  6
CONTINUOUS
 62
   250
 10
-0.357068
 20
0.555135
 30
0.0
 11
-0.357068
 21
0.555594
 31
0.0
  0
LINE
  8
1
  6
CONTINUOUS
 62
   250
 10
-0.357988
 20
0.554216
 30
0.0
 11
-0.357068
 21
0.555135
 31
0.0
  0
LINE
  8
1
  6
CONTINUOUS
 62
   250
 10
-0.358908
 20
0.554216
 30
0.0
 11
-0.357988
 21
0.554216
 31
0.0
  0
LINE
  8
1
  6
CONTINUOUS
 62
   250
 10
-0.357068
 20
0.556973
 30
0.0
 11
-0.357988
 21
0.557432
 31
0.0
  0
LINE
  8
1
  6
CONTINUOUS
 62
   250
 10
-0.360745
 20
0.555135
 30
0.0
 11
-0.360286
 21
0.554216
 31
0.0
  0
LINE
  8
1
  6
CONTINUOUS
 62
   250
 10
-0.360745
 20
0.555594
 30
0.0
 11
-0.360745
 21
0.555135
 31
0.0
  0
LINE
  8
1
  6
CONTINUOUS
 62
   250
 10
-0.360745
 20
0.556973
 30
0.0
 11
-0.360745
 21
0.555594
 31
0.0
  0
LINE
  8
1
  6
CONTINUOUS
 62
   250
 10
-0.360286
 20
0.557432
 30
0.0
 11
-0.360745
 21
0.556973
 31
0.0
  0
LINE
  8
1
  6
CONTINUOUS
 62
   250
 10
-0.360286
 20
0.554216
 30
0.0
 11
-0.358908
 21
0.554216
 31
0.0
  0
LINE
  8
1
  6
CONTINUOUS
 62
   250
 10
-0.380046
 20
0.595116
 30
0.0
 11
-0.380505
 21
0.594655
 31
0.0
  0
LINE
  8
1
  6
CONTINUOUS
 62
   250
 10
-0.379126
 20
0.596034
 30
0.0
 11
-0.380046
 21
0.595116
 31
0.0
  0
LINE
  8
1
  6
CONTINUOUS
 62
   250
 10
-0.378209
 20
0.596495
 30
0.0
 11
-0.379126
 21
0.596034
 31
0.0
  0
LINE
  8
1
  6
CONTINUOUS
 62
   250
 10
-0.377289
 20
0.596034
 30
0.0
 11
-0.378209
 21
0.596495
 31
0.0
  0
LINE
  8
1
  6
CONTINUOUS
 62
   250
 10
-0.377289
 20
0.595116
 30
0.0
 11
-0.377289
 21
0.596034
 31
0.0
  0
LINE
  8
1
  6
CONTINUOUS
 62
   250
 10
-0.37683
 20
0.594655
 30
0.0
 11
-0.377289
 21
0.595116
 31
0.0
  0
LINE
  8
1
  6
CONTINUOUS
 62
   250
 10
-0.377289
 20
0.592818
 30
0.0
 11
-0.377289
 21
0.593738
 31
0.0
  0
LINE
  8
1
  6
CONTINUOUS
 62
   250
 10
-0.378209
 20
0.592359
 30
0.0
 11
-0.377289
 21
0.592818
 31
0.0
  0
LINE
  8
1
  6
CONTINUOUS
 62
   250
 10
-0.379126
 20
0.592818
 30
0.0
 11
-0.378209
 21
0.592359
 31
0.0
  0
LINE
  8
1
  6
CONTINUOUS
 62
   250
 10
-0.380046
 20
0.593738
 30
0.0
 11
-0.379126
 21
0.592818
 31
0.0
  0
LINE
  8
1
  6
CONTINUOUS
 62
   250
 10
-0.378209
 20
0.576733
 30
0.0
 11
-0.379126
 21
0.576733
 31
0.0
  0
LINE
  8
1
  6
CONTINUOUS
 62
   250
 10
-0.377289
 20
0.576733
 30
0.0
 11
-0.378209
 21
0.576733
 31
0.0
  0
LINE
  8
1
  6
CONTINUOUS
 62
   250
 10
-0.380046
 20
0.575815
 30
0.0
 11
-0.380505
 21
0.574895
 31
0.0
  0
LINE
  8
1
  6
CONTINUOUS
 62
   250
 10
-0.37683
 20
0.574895
 30
0.0
 11
-0.377289
 21
0.575815
 31
0.0
  0
LINE
  8
1
  6
CONTINUOUS
 62
   250
 10
-0.379126
 20
0.576733
 30
0.0
 11
-0.380046
 21
0.575815
 31
0.0
  0
LINE
  8
1
  6
CONTINUOUS
 62
   250
 10
-0.377289
 20
0.575815
 30
0.0
 11
-0.377289
 21
0.576733
 31
0.0
  0
LINE
  8
1
  6
CONTINUOUS
 62
   250
 10
-0.380505
 20
0.594655
 30
0.0
 11
-0.380046
 21
0.593738
 31
0.0
  0
LINE
  8
1
  6
CONTINUOUS
 62
   250
 10
-0.377289
 20
0.593738
 30
0.0
 11
-0.37683
 21
0.594655
 31
0.0
  0
LINE
  8
1
  6
CONTINUOUS
 62
   250
 10
-0.377289
 20
0.573517
 30
0.0
 11
-0.377289
 21
0.573975
 31
0.0
  0
LINE
  8
1
  6
CONTINUOUS
 62
   250
 10
-0.378209
 20
0.573058
 30
0.0
 11
-0.377289
 21
0.573517
 31
0.0
  0
LINE
  8
1
  6
CONTINUOUS
 62
   250
 10
-0.379126
 20
0.573517
 30
0.0
 11
-0.378209
 21
0.573058
 31
0.0
  0
LINE
  8
1
  6
CONTINUOUS
 62
   250
 10
-0.380046
 20
0.573975
 30
0.0
 11
-0.379126
 21
0.573517
 31
0.0
  0
LINE
  8
1
  6
CONTINUOUS
 62
   250
 10
-0.380505
 20
0.574895
 30
0.0
 11
-0.380046
 21
0.573975
 31
0.0
  0
LINE
  8
1
  6
CONTINUOUS
 62
   250
 10
-0.377289
 20
0.573975
 30
0.0
 11
-0.37683
 21
0.574895
 31
0.0
  0
LINE
  8
1
  6
CONTINUOUS
 62
   250
 10
-0.357988
 20
0.596034
 30
0.0
 11
-0.358908
 21
0.596495
 31
0.0
  0
LINE
  8
1
  6
CONTINUOUS
 62
   250
 10
-0.357068
 20
0.595116
 30
0.0
 11
-0.357988
 21
0.596034
 31
0.0
  0
LINE
  8
1
  6
CONTINUOUS
 62
   250
 10
-0.357068
 20
0.594655
 30
0.0
 11
-0.357068
 21
0.595116
 31
0.0
  0
LINE
  8
1
  6
CONTINUOUS
 62
   250
 10
-0.360745
 20
0.595116
 30
0.0
 11
-0.360745
 21
0.594655
 31
0.0
  0
LINE
  8
1
  6
CONTINUOUS
 62
   250
 10
-0.360286
 20
0.596034
 30
0.0
 11
-0.360745
 21
0.595116
 31
0.0
  0
LINE
  8
1
  6
CONTINUOUS
 62
   250
 10
-0.358908
 20
0.596495
 30
0.0
 11
-0.360286
 21
0.596034
 31
0.0
  0
LINE
  8
1
  6
CONTINUOUS
 62
   250
 10
-0.357988
 20
0.592818
 30
0.0
 11
-0.357068
 21
0.593738
 31
0.0
  0
LINE
  8
1
  6
CONTINUOUS
 62
   250
 10
-0.358908
 20
0.592359
 30
0.0
 11
-0.357988
 21
0.592818
 31
0.0
  0
LINE
  8
1
  6
CONTINUOUS
 62
   250
 10
-0.357988
 20
0.576733
 30
0.0
 11
-0.358908
 21
0.576733
 31
0.0
  0
LINE
  8
1
  6
CONTINUOUS
 62
   250
 10
-0.357068
 20
0.574895
 30
0.0
 11
-0.357068
 21
0.575815
 31
0.0
  0
LINE
  8
1
  6
CONTINUOUS
 62
   250
 10
-0.357068
 20
0.575815
 30
0.0
 11
-0.357988
 21
0.576733
 31
0.0
  0
LINE
  8
1
  6
CONTINUOUS
 62
   250
 10
-0.360745
 20
0.593738
 30
0.0
 11
-0.360286
 21
0.592818
 31
0.0
  0
LINE
  8
1
  6
CONTINUOUS
 62
   250
 10
-0.360745
 20
0.575815
 30
0.0
 11
-0.360745
 21
0.574895
 31
0.0
  0
LINE
  8
1
  6
CONTINUOUS
 62
   250
 10
-0.360286
 20
0.576733
 30
0.0
 11
-0.360745
 21
0.575815
 31
0.0
  0
LINE
  8
1
  6
CONTINUOUS
 62
   250
 10
-0.360286
 20
0.592818
 30
0.0
 11
-0.358908
 21
0.592359
 31
0.0
  0
LINE
  8
1
  6
CONTINUOUS
 62
   250
 10
-0.358908
 20
0.576733
 30
0.0
 11
-0.360286
 21
0.576733
 31
0.0
  0
LINE
  8
1
  6
CONTINUOUS
 62
   250
 10
-0.360745
 20
0.594655
 30
0.0
 11
-0.360745
 21
0.593738
 31
0.0
  0
LINE
  8
1
  6
CONTINUOUS
 62
   250
 10
-0.357068
 20
0.593738
 30
0.0
 11
-0.357068
 21
0.594655
 31
0.0
  0
LINE
  8
1
  6
CONTINUOUS
 62
   250
 10
-0.357988
 20
0.573517
 30
0.0
 11
-0.357068
 21
0.573975
 31
0.0
  0
LINE
  8
1
  6
CONTINUOUS
 62
   250
 10
-0.358908
 20
0.573058
 30
0.0
 11
-0.357988
 21
0.573517
 31
0.0
  0
LINE
  8
1
  6
CONTINUOUS
 62
   250
 10
-0.360745
 20
0.573975
 30
0.0
 11
-0.360286
 21
0.573517
 31
0.0
  0
LINE
  8
1
  6
CONTINUOUS
 62
   250
 10
-0.360286
 20
0.573517
 30
0.0
 11
-0.358908
 21
0.573058
 31
0.0
  0
LINE
  8
1
  6
CONTINUOUS
 62
   250
 10
-0.357068
 20
0.573975
 30
0.0
 11
-0.357068
 21
0.574895
 31
0.0
  0
LINE
  8
1
  6
CONTINUOUS
 62
   250
 10
-0.360745
 20
0.574895
 30
0.0
 11
-0.360745
 21
0.573975
 31
0.0
  0
LINE
  8
1
  6
CONTINUOUS
 62
   250
 10
-0.349716
 20
0.565704
 30
0.0
 11
-0.349716
 21
0.584546
 31
0.0
  0
LINE
  8
1
  6
CONTINUOUS
 62
   250
 10
-0.349716
 20
0.584546
 30
0.0
 11
-0.349716
 21
0.565704
 31
0.0
  0
LINE
  8
1
  6
CONTINUOUS
 62
   250
 10
-0.349716
 20
0.546403
 30
0.0
 11
-0.349716
 21
0.565704
 31
0.0
  0
LINE
  8
1
  6
CONTINUOUS
 62
   250
 10
-0.349716
 20
0.565704
 30
0.0
 11
-0.349716
 21
0.546403
 31
0.0
  0
LINE
  8
1
  6
CONTINUOUS
 62
   250
 10
-0.339607
 20
0.557893
 30
0.0
 11
-0.340524
 21
0.557432
 31
0.0
  0
LINE
  8
1
  6
CONTINUOUS
 62
   250
 10
-0.339607
 20
0.557893
 30
0.0
 11
-0.338687
 21
0.557432
 31
0.0
  0
LINE
  8
1
  6
CONTINUOUS
 62
   250
 10
-0.338228
 20
0.555135
 30
0.0
 11
-0.338228
 21
0.555594
 31
0.0
  0
LINE
  8
1
  6
CONTINUOUS
 62
   250
 10
-0.338687
 20
0.554216
 30
0.0
 11
-0.338228
 21
0.555135
 31
0.0
  0
LINE
  8
1
  6
CONTINUOUS
 62
   250
 10
-0.339607
 20
0.554216
 30
0.0
 11
-0.338687
 21
0.554216
 31
0.0
  0
LINE
  8
1
  6
CONTINUOUS
 62
   250
 10
-0.340524
 20
0.554216
 30
0.0
 11
-0.339607
 21
0.554216
 31
0.0
  0
LINE
  8
1
  6
CONTINUOUS
 62
   250
 10
-0.340985
 20
0.555135
 30
0.0
 11
-0.340524
 21
0.554216
 31
0.0
  0
LINE
  8
1
  6
CONTINUOUS
 62
   250
 10
-0.341444
 20
0.555594
 30
0.0
 11
-0.340985
 21
0.555135
 31
0.0
  0
LINE
  8
1
  6
CONTINUOUS
 62
   250
 10
-0.340985
 20
0.556973
 30
0.0
 11
-0.341444
 21
0.555594
 31
0.0
  0
LINE
  8
1
  6
CONTINUOUS
 62
   250
 10
-0.340524
 20
0.557432
 30
0.0
 11
-0.340985
 21
0.556973
 31
0.0
  0
LINE
  8
1
  6
CONTINUOUS
 62
   250
 10
-0.338228
 20
0.556973
 30
0.0
 11
-0.338228
 21
0.555594
 31
0.0
  0
LINE
  8
1
  6
CONTINUOUS
 62
   250
 10
-0.338687
 20
0.557432
 30
0.0
 11
-0.338228
 21
0.556973
 31
0.0
  0
LINE
  8
1
  6
CONTINUOUS
 62
   250
 10
-0.349716
 20
0.584546
 30
0.0
 11
-0.349716
 21
0.604306
 31
0.0
  0
LINE
  8
1
  6
CONTINUOUS
 62
   250
 10
-0.349716
 20
0.604306
 30
0.0
 11
-0.349716
 21
0.584546
 31
0.0
  0
LINE
  8
1
  6
CONTINUOUS
 62
   250
 10
-0.340985
 20
0.595116
 30
0.0
 11
-0.341444
 21
0.594655
 31
0.0
  0
LINE
  8
1
  6
CONTINUOUS
 62
   250
 10
-0.340524
 20
0.596034
 30
0.0
 11
-0.340985
 21
0.595116
 31
0.0
  0
LINE
  8
1
  6
CONTINUOUS
 62
   250
 10
-0.339607
 20
0.596495
 30
0.0
 11
-0.340524
 21
0.596034
 31
0.0
  0
LINE
  8
1
  6
CONTINUOUS
 62
   250
 10
-0.338687
 20
0.596034
 30
0.0
 11
-0.339607
 21
0.596495
 31
0.0
  0
LINE
  8
1
  6
CONTINUOUS
 62
   250
 10
-0.338228
 20
0.595116
 30
0.0
 11
-0.338687
 21
0.596034
 31
0.0
  0
LINE
  8
1
  6
CONTINUOUS
 62
   250
 10
-0.338228
 20
0.594655
 30
0.0
 11
-0.338228
 21
0.595116
 31
0.0
  0
LINE
  8
1
  6
CONTINUOUS
 62
   250
 10
-0.340985
 20
0.593738
 30
0.0
 11
-0.340524
 21
0.592818
 31
0.0
  0
LINE
  8
1
  6
CONTINUOUS
 62
   250
 10
-0.338687
 20
0.592818
 30
0.0
 11
-0.338228
 21
0.593738
 31
0.0
  0
LINE
  8
1
  6
CONTINUOUS
 62
   250
 10
-0.339607
 20
0.592359
 30
0.0
 11
-0.338687
 21
0.592818
 31
0.0
  0
LINE
  8
1
  6
CONTINUOUS
 62
   250
 10
-0.340524
 20
0.592818
 30
0.0
 11
-0.339607
 21
0.592359
 31
0.0
  0
LINE
  8
1
  6
CONTINUOUS
 62
   250
 10
-0.339607
 20
0.576733
 30
0.0
 11
-0.340524
 21
0.576733
 31
0.0
  0
LINE
  8
1
  6
CONTINUOUS
 62
   250
 10
-0.338687
 20
0.576733
 30
0.0
 11
-0.339607
 21
0.576733
 31
0.0
  0
LINE
  8
1
  6
CONTINUOUS
 62
   250
 10
-0.338228
 20
0.574895
 30
0.0
 11
-0.338228
 21
0.575815
 31
0.0
  0
LINE
  8
1
  6
CONTINUOUS
 62
   250
 10
-0.340985
 20
0.575815
 30
0.0
 11
-0.341444
 21
0.574895
 31
0.0
  0
LINE
  8
1
  6
CONTINUOUS
 62
   250
 10
-0.338228
 20
0.575815
 30
0.0
 11
-0.338687
 21
0.576733
 31
0.0
  0
LINE
  8
1
  6
CONTINUOUS
 62
   250
 10
-0.340524
 20
0.576733
 30
0.0
 11
-0.340985
 21
0.575815
 31
0.0
  0
LINE
  8
1
  6
CONTINUOUS
 62
   250
 10
-0.341444
 20
0.594655
 30
0.0
 11
-0.340985
 21
0.593738
 31
0.0
  0
LINE
  8
1
  6
CONTINUOUS
 62
   250
 10
-0.338228
 20
0.593738
 30
0.0
 11
-0.338228
 21
0.594655
 31
0.0
  0
LINE
  8
1
  6
CONTINUOUS
 62
   250
 10
-0.338687
 20
0.573517
 30
0.0
 11
-0.338228
 21
0.573975
 31
0.0
  0
LINE
  8
1
  6
CONTINUOUS
 62
   250
 10
-0.339607
 20
0.573058
 30
0.0
 11
-0.338687
 21
0.573517
 31
0.0
  0
LINE
  8
1
  6
CONTINUOUS
 62
   250
 10
-0.340524
 20
0.573517
 30
0.0
 11
-0.339607
 21
0.573058
 31
0.0
  0
LINE
  8
1
  6
CONTINUOUS
 62
   250
 10
-0.340985
 20
0.573975
 30
0.0
 11
-0.340524
 21
0.573517
 31
0.0
  0
LINE
  8
1
  6
CONTINUOUS
 62
   250
 10
-0.338228
 20
0.573975
 30
0.0
 11
-0.338228
 21
0.574895
 31
0.0
  0
LINE
  8
1
  6
CONTINUOUS
 62
   250
 10
-0.341444
 20
0.574895
 30
0.0
 11
-0.340985
 21
0.573975
 31
0.0
  0
LINE
  8
1
  6
CONTINUOUS
 62
   250
 10
-0.317548
 20
0.522048
 30
0.0
 11
-0.29365
 21
0.522048
 31
0.0
  0
LINE
  8
1
  6
CONTINUOUS
 62
   250
 10
-0.310655
 20
0.546403
 30
0.0
 11
-0.271592
 21
0.546403
 31
0.0
  0
LINE
  8
1
  6
CONTINUOUS
 62
   250
 10
-0.271592
 20
0.604306
 30
0.0
 11
-0.310655
 21
0.604306
 31
0.0
  0
LINE
  8
1
  6
CONTINUOUS
 62
   250
 10
-0.271592
 20
0.565704
 30
0.0
 11
-0.310655
 21
0.565704
 31
0.0
  0
LINE
  8
1
  6
CONTINUOUS
 62
   250
 10
-0.310655
 20
0.584546
 30
0.0
 11
-0.271592
 21
0.584546
 31
0.0
  0
LINE
  8
1
  6
CONTINUOUS
 62
   250
 10
-0.310655
 20
0.565704
 30
0.0
 11
-0.310655
 21
0.584546
 31
0.0
  0
LINE
  8
1
  6
CONTINUOUS
 62
   250
 10
-0.310655
 20
0.565704
 30
0.0
 11
-0.310655
 21
0.584546
 31
0.0
  0
LINE
  8
1
  6
CONTINUOUS
 62
   250
 10
-0.318927
 20
0.554216
 30
0.0
 11
-0.318466
 21
0.555135
 31
0.0
  0
LINE
  8
1
  6
CONTINUOUS
 62
   250
 10
-0.318466
 20
0.556973
 30
0.0
 11
-0.318927
 21
0.557432
 31
0.0
  0
LINE
  8
1
  6
CONTINUOUS
 62
   250
 10
-0.319845
 20
0.557893
 30
0.0
 11
-0.321223
 21
0.557432
 31
0.0
  0
LINE
  8
1
  6
CONTINUOUS
 62
   250
 10
-0.318927
 20
0.557432
 30
0.0
 11
-0.319845
 21
0.557893
 31
0.0
  0
LINE
  8
1
  6
CONTINUOUS
 62
   250
 10
-0.319845
 20
0.554216
 30
0.0
 11
-0.318927
 21
0.554216
 31
0.0
  0
LINE
  8
1
  6
CONTINUOUS
 62
   250
 10
-0.321223
 20
0.554216
 30
0.0
 11
-0.319845
 21
0.554216
 31
0.0
  0
LINE
  8
1
  6
CONTINUOUS
 62
   250
 10
-0.322143
 20
0.555135
 30
0.0
 11
-0.321223
 21
0.554216
 31
0.0
  0
LINE
  8
1
  6
CONTINUOUS
 62
   250
 10
-0.322143
 20
0.555594
 30
0.0
 11
-0.322143
 21
0.555135
 31
0.0
  0
LINE
  8
1
  6
CONTINUOUS
 62
   250
 10
-0.322143
 20
0.556973
 30
0.0
 11
-0.322143
 21
0.555594
 31
0.0
  0
LINE
  8
1
  6
CONTINUOUS
 62
   250
 10
-0.321223
 20
0.557432
 30
0.0
 11
-0.322143
 21
0.556973
 31
0.0
  0
LINE
  8
1
  6
CONTINUOUS
 62
   250
 10
-0.318466
 20
0.555135
 30
0.0
 11
-0.318007
 21
0.555594
 31
0.0
  0
LINE
  8
1
  6
CONTINUOUS
 62
   250
 10
-0.318007
 20
0.555594
 30
0.0
 11
-0.318466
 21
0.556973
 31
0.0
  0
LINE
  8
1
  6
CONTINUOUS
 62
   250
 10
-0.300544
 20
0.557893
 30
0.0
 11
-0.301464
 21
0.557432
 31
0.0
  0
LINE
  8
1
  6
CONTINUOUS
 62
   250
 10
-0.300085
 20
0.557432
 30
0.0
 11
-0.300544
 21
0.557893
 31
0.0
  0
LINE
  8
1
  6
CONTINUOUS
 62
   250
 10
-0.310655
 20
0.565704
 30
0.0
 11
-0.310655
 21
0.546403
 31
0.0
  0
LINE
  8
1
  6
CONTINUOUS
 62
   250
 10
-0.310655
 20
0.546403
 30
0.0
 11
-0.310655
 21
0.565704
 31
0.0
  0
LINE
  8
1
  6
CONTINUOUS
 62
   250
 10
-0.302383
 20
0.555594
 30
0.0
 11
-0.302383
 21
0.555135
 31
0.0
  0
LINE
  8
1
  6
CONTINUOUS
 62
   250
 10
-0.302383
 20
0.556973
 30
0.0
 11
-0.302383
 21
0.555594
 31
0.0
  0
LINE
  8
1
  6
CONTINUOUS
 62
   250
 10
-0.301464
 20
0.557432
 30
0.0
 11
-0.302383
 21
0.556973
 31
0.0
  0
LINE
  8
1
  6
CONTINUOUS
 62
   250
 10
-0.299165
 20
0.556973
 30
0.0
 11
-0.300085
 21
0.557432
 31
0.0
  0
LINE
  8
1
  6
CONTINUOUS
 62
   250
 10
-0.299165
 20
0.555594
 30
0.0
 11
-0.299165
 21
0.556973
 31
0.0
  0
LINE
  8
1
  6
CONTINUOUS
 62
   250
 10
-0.299165
 20
0.555135
 30
0.0
 11
-0.299165
 21
0.555594
 31
0.0
  0
LINE
  8
1
  6
CONTINUOUS
 62
   250
 10
-0.300085
 20
0.554216
 30
0.0
 11
-0.299165
 21
0.555135
 31
0.0
  0
LINE
  8
1
  6
CONTINUOUS
 62
   250
 10
-0.300544
 20
0.554216
 30
0.0
 11
-0.300085
 21
0.554216
 31
0.0
  0
LINE
  8
1
  6
CONTINUOUS
 62
   250
 10
-0.301464
 20
0.554216
 30
0.0
 11
-0.300544
 21
0.554216
 31
0.0
  0
LINE
  8
1
  6
CONTINUOUS
 62
   250
 10
-0.302383
 20
0.555135
 30
0.0
 11
-0.301464
 21
0.554216
 31
0.0
  0
LINE
  8
1
  6
CONTINUOUS
 62
   250
 10
-0.318466
 20
0.595116
 30
0.0
 11
-0.318927
 21
0.596034
 31
0.0
  0
LINE
  8
1
  6
CONTINUOUS
 62
   250
 10
-0.318927
 20
0.592818
 30
0.0
 11
-0.318466
 21
0.593738
 31
0.0
  0
LINE
  8
1
  6
CONTINUOUS
 62
   250
 10
-0.318466
 20
0.575815
 30
0.0
 11
-0.318927
 21
0.576733
 31
0.0
  0
LINE
  8
1
  6
CONTINUOUS
 62
   250
 10
-0.322143
 20
0.595116
 30
0.0
 11
-0.322143
 21
0.594655
 31
0.0
  0
LINE
  8
1
  6
CONTINUOUS
 62
   250
 10
-0.321223
 20
0.596034
 30
0.0
 11
-0.322143
 21
0.595116
 31
0.0
  0
LINE
  8
1
  6
CONTINUOUS
 62
   250
 10
-0.319845
 20
0.596495
 30
0.0
 11
-0.321223
 21
0.596034
 31
0.0
  0
LINE
  8
1
  6
CONTINUOUS
 62
   250
 10
-0.318927
 20
0.596034
 30
0.0
 11
-0.319845
 21
0.596495
 31
0.0
  0
LINE
  8
1
  6
CONTINUOUS
 62
   250
 10
-0.319845
 20
0.592359
 30
0.0
 11
-0.318927
 21
0.592818
 31
0.0
  0
LINE
  8
1
  6
CONTINUOUS
 62
   250
 10
-0.321223
 20
0.592818
 30
0.0
 11
-0.319845
 21
0.592359
 31
0.0
  0
LINE
  8
1
  6
CONTINUOUS
 62
   250
 10
-0.322143
 20
0.593738
 30
0.0
 11
-0.321223
 21
0.592818
 31
0.0
  0
LINE
  8
1
  6
CONTINUOUS
 62
   250
 10
-0.319845
 20
0.576733
 30
0.0
 11
-0.321223
 21
0.576733
 31
0.0
  0
LINE
  8
1
  6
CONTINUOUS
 62
   250
 10
-0.318927
 20
0.576733
 30
0.0
 11
-0.319845
 21
0.576733
 31
0.0
  0
LINE
  8
1
  6
CONTINUOUS
 62
   250
 10
-0.322143
 20
0.575815
 30
0.0
 11
-0.322143
 21
0.574895
 31
0.0
  0
LINE
  8
1
  6
CONTINUOUS
 62
   250
 10
-0.321223
 20
0.576733
 30
0.0
 11
-0.322143
 21
0.575815
 31
0.0
  0
LINE
  8
1
  6
CONTINUOUS
 62
   250
 10
-0.322143
 20
0.594655
 30
0.0
 11
-0.322143
 21
0.593738
 31
0.0
  0
LINE
  8
1
  6
CONTINUOUS
 62
   250
 10
-0.318007
 20
0.594655
 30
0.0
 11
-0.318466
 21
0.595116
 31
0.0
  0
LINE
  8
1
  6
CONTINUOUS
 62
   250
 10
-0.318007
 20
0.574895
 30
0.0
 11
-0.318466
 21
0.575815
 31
0.0
  0
LINE
  8
1
  6
CONTINUOUS
 62
   250
 10
-0.318466
 20
0.593738
 30
0.0
 11
-0.318007
 21
0.594655
 31
0.0
  0
LINE
  8
1
  6
CONTINUOUS
 62
   250
 10
-0.318927
 20
0.573517
 30
0.0
 11
-0.318466
 21
0.573975
 31
0.0
  0
LINE
  8
1
  6
CONTINUOUS
 62
   250
 10
-0.319845
 20
0.573058
 30
0.0
 11
-0.318927
 21
0.573517
 31
0.0
  0
LINE
  8
1
  6
CONTINUOUS
 62
   250
 10
-0.321223
 20
0.573517
 30
0.0
 11
-0.319845
 21
0.573058
 31
0.0
  0
LINE
  8
1
  6
CONTINUOUS
 62
   250
 10
-0.322143
 20
0.573975
 30
0.0
 11
-0.321223
 21
0.573517
 31
0.0
  0
LINE
  8
1
  6
CONTINUOUS
 62
   250
 10
-0.322143
 20
0.574895
 30
0.0
 11
-0.322143
 21
0.573975
 31
0.0
  0
LINE
  8
1
  6
CONTINUOUS
 62
   250
 10
-0.318466
 20
0.573975
 30
0.0
 11
-0.318007
 21
0.574895
 31
0.0
  0
LINE
  8
1
  6
CONTINUOUS
 62
   250
 10
-0.302383
 20
0.595116
 30
0.0
 11
-0.302383
 21
0.594655
 31
0.0
  0
LINE
  8
1
  6
CONTINUOUS
 62
   250
 10
-0.301464
 20
0.596034
 30
0.0
 11
-0.302383
 21
0.595116
 31
0.0
  0
LINE
  8
1
  6
CONTINUOUS
 62
   250
 10
-0.300544
 20
0.596495
 30
0.0
 11
-0.301464
 21
0.596034
 31
0.0
  0
LINE
  8
1
  6
CONTINUOUS
 62
   250
 10
-0.300085
 20
0.596034
 30
0.0
 11
-0.300544
 21
0.596495
 31
0.0
  0
LINE
  8
1
  6
CONTINUOUS
 62
   250
 10
-0.299165
 20
0.595116
 30
0.0
 11
-0.300085
 21
0.596034
 31
0.0
  0
LINE
  8
1
  6
CONTINUOUS
 62
   250
 10
-0.299165
 20
0.594655
 30
0.0
 11
-0.299165
 21
0.595116
 31
0.0
  0
LINE
  8
1
  6
CONTINUOUS
 62
   250
 10
-0.300085
 20
0.592818
 30
0.0
 11
-0.299165
 21
0.593738
 31
0.0
  0
LINE
  8
1
  6
CONTINUOUS
 62
   250
 10
-0.300544
 20
0.592359
 30
0.0
 11
-0.300085
 21
0.592818
 31
0.0
  0
LINE
  8
1
  6
CONTINUOUS
 62
   250
 10
-0.301464
 20
0.592818
 30
0.0
 11
-0.300544
 21
0.592359
 31
0.0
  0
LINE
  8
1
  6
CONTINUOUS
 62
   250
 10
-0.302383
 20
0.593738
 30
0.0
 11
-0.301464
 21
0.592818
 31
0.0
  0
LINE
  8
1
  6
CONTINUOUS
 62
   250
 10
-0.300544
 20
0.576733
 30
0.0
 11
-0.301464
 21
0.576733
 31
0.0
  0
LINE
  8
1
  6
CONTINUOUS
 62
   250
 10
-0.300085
 20
0.576733
 30
0.0
 11
-0.300544
 21
0.576733
 31
0.0
  0
LINE
  8
1
  6
CONTINUOUS
 62
   250
 10
-0.302383
 20
0.575815
 30
0.0
 11
-0.302383
 21
0.574895
 31
0.0
  0
LINE
  8
1
  6
CONTINUOUS
 62
   250
 10
-0.299165
 20
0.574895
 30
0.0
 11
-0.299165
 21
0.575815
 31
0.0
  0
LINE
  8
1
  6
CONTINUOUS
 62
   250
 10
-0.301464
 20
0.576733
 30
0.0
 11
-0.302383
 21
0.575815
 31
0.0
  0
LINE
  8
1
  6
CONTINUOUS
 62
   250
 10
-0.299165
 20
0.575815
 30
0.0
 11
-0.300085
 21
0.576733
 31
0.0
  0
LINE
  8
1
  6
CONTINUOUS
 62
   250
 10
-0.299165
 20
0.593738
 30
0.0
 11
-0.299165
 21
0.594655
 31
0.0
  0
LINE
  8
1
  6
CONTINUOUS
 62
   250
 10
-0.302383
 20
0.594655
 30
0.0
 11
-0.302383
 21
0.593738
 31
0.0
  0
LINE
  8
1
  6
CONTINUOUS
 62
   250
 10
-0.310655
 20
0.604306
 30
0.0
 11
-0.310655
 21
0.584546
 31
0.0
  0
LINE
  8
1
  6
CONTINUOUS
 62
   250
 10
-0.310655
 20
0.584546
 30
0.0
 11
-0.310655
 21
0.604306
 31
0.0
  0
LINE
  8
1
  6
CONTINUOUS
 62
   250
 10
-0.300544
 20
0.573058
 30
0.0
 11
-0.300085
 21
0.573517
 31
0.0
  0
LINE
  8
1
  6
CONTINUOUS
 62
   250
 10
-0.301464
 20
0.573517
 30
0.0
 11
-0.300544
 21
0.573058
 31
0.0
  0
LINE
  8
1
  6
CONTINUOUS
 62
   250
 10
-0.302383
 20
0.573975
 30
0.0
 11
-0.301464
 21
0.573517
 31
0.0
  0
LINE
  8
1
  6
CONTINUOUS
 62
   250
 10
-0.300085
 20
0.573517
 30
0.0
 11
-0.299165
 21
0.573975
 31
0.0
  0
LINE
  8
1
  6
CONTINUOUS
 62
   250
 10
-0.302383
 20
0.574895
 30
0.0
 11
-0.302383
 21
0.573975
 31
0.0
  0
LINE
  8
1
  6
CONTINUOUS
 62
   250
 10
-0.299165
 20
0.573975
 30
0.0
 11
-0.299165
 21
0.574895
 31
0.0
  0
LINE
  8
1
  6
CONTINUOUS
 62
   250
 10
-0.271592
 20
0.584546
 30
0.0
 11
-0.271592
 21
0.565704
 31
0.0
  0
LINE
  8
1
  6
CONTINUOUS
 62
   250
 10
-0.279864
 20
0.557432
 30
0.0
 11
-0.281243
 21
0.557893
 31
0.0
  0
LINE
  8
1
  6
CONTINUOUS
 62
   250
 10
-0.281243
 20
0.554216
 30
0.0
 11
-0.279864
 21
0.554216
 31
0.0
  0
LINE
  8
1
  6
CONTINUOUS
 62
   250
 10
-0.281243
 20
0.557893
 30
0.0
 11
-0.282621
 21
0.557432
 31
0.0
  0
LINE
  8
1
  6
CONTINUOUS
 62
   250
 10
-0.282621
 20
0.554216
 30
0.0
 11
-0.281243
 21
0.554216
 31
0.0
  0
LINE
  8
1
  6
CONTINUOUS
 62
   250
 10
-0.283082
 20
0.555135
 30
0.0
 11
-0.282621
 21
0.554216
 31
0.0
  0
LINE
  8
1
  6
CONTINUOUS
 62
   250
 10
-0.283541
 20
0.555594
 30
0.0
 11
-0.283082
 21
0.555135
 31
0.0
  0
LINE
  8
1
  6
CONTINUOUS
 62
   250
 10
-0.283082
 20
0.556973
 30
0.0
 11
-0.283541
 21
0.555594
 31
0.0
  0
LINE
  8
1
  6
CONTINUOUS
 62
   250
 10
-0.282621
 20
0.557432
 30
0.0
 11
-0.283082
 21
0.556973
 31
0.0
  0
LINE
  8
1
  6
CONTINUOUS
 62
   250
 10
-0.271592
 20
0.546403
 30
0.0
 11
-0.271592
 21
0.565704
 31
0.0
  0
LINE
  8
1
  6
CONTINUOUS
 62
   250
 10
-0.279405
 20
0.556973
 30
0.0
 11
-0.279864
 21
0.557432
 31
0.0
  0
LINE
  8
1
  6
CONTINUOUS
 62
   250
 10
-0.278946
 20
0.555594
 30
0.0
 11
-0.279405
 21
0.556973
 31
0.0
  0
LINE
  8
1
  6
CONTINUOUS
 62
   250
 10
-0.279405
 20
0.555135
 30
0.0
 11
-0.278946
 21
0.555594
 31
0.0
  0
LINE
  8
1
  6
CONTINUOUS
 62
   250
 10
-0.279864
 20
0.554216
 30
0.0
 11
-0.279405
 21
0.555135
 31
0.0
  0
LINE
  8
1
  6
CONTINUOUS
 62
   250
 10
-0.281243
 20
0.596495
 30
0.0
 11
-0.279864
 21
0.596034
 31
0.0
  0
LINE
  8
1
  6
CONTINUOUS
 62
   250
 10
-0.279864
 20
0.592818
 30
0.0
 11
-0.281243
 21
0.592359
 31
0.0
  0
LINE
  8
1
  6
CONTINUOUS
 62
   250
 10
-0.279864
 20
0.576733
 30
0.0
 11
-0.281243
 21
0.576733
 31
0.0
  0
LINE
  8
1
  6
CONTINUOUS
 62
   250
 10
-0.281243
 20
0.573058
 30
0.0
 11
-0.279864
 21
0.573517
 31
0.0
  0
LINE
  8
1
  6
CONTINUOUS
 62
   250
 10
-0.282621
 20
0.596034
 30
0.0
 11
-0.281243
 21
0.596495
 31
0.0
  0
LINE
  8
1
  6
CONTINUOUS
 62
   250
 10
-0.283082
 20
0.595116
 30
0.0
 11
-0.282621
 21
0.596034
 31
0.0
  0
LINE
  8
1
  6
CONTINUOUS
 62
   250
 10
-0.283541
 20
0.594655
 30
0.0
 11
-0.283082
 21
0.595116
 31
0.0
  0
LINE
  8
1
  6
CONTINUOUS
 62
   250
 10
-0.282621
 20
0.592818
 30
0.0
 11
-0.283082
 21
0.593738
 31
0.0
  0
LINE
  8
1
  6
CONTINUOUS
 62
   250
 10
-0.281243
 20
0.592359
 30
0.0
 11
-0.282621
 21
0.592818
 31
0.0
  0
LINE
  8
1
  6
CONTINUOUS
 62
   250
 10
-0.281243
 20
0.576733
 30
0.0
 11
-0.282621
 21
0.576733
 31
0.0
  0
LINE
  8
1
  6
CONTINUOUS
 62
   250
 10
-0.283082
 20
0.575815
 30
0.0
 11
-0.283541
 21
0.574895
 31
0.0
  0
LINE
  8
1
  6
CONTINUOUS
 62
   250
 10
-0.282621
 20
0.576733
 30
0.0
 11
-0.283082
 21
0.575815
 31
0.0
  0
LINE
  8
1
  6
CONTINUOUS
 62
   250
 10
-0.283082
 20
0.593738
 30
0.0
 11
-0.283541
 21
0.594655
 31
0.0
  0
LINE
  8
1
  6
CONTINUOUS
 62
   250
 10
-0.282621
 20
0.573517
 30
0.0
 11
-0.281243
 21
0.573058
 31
0.0
  0
LINE
  8
1
  6
CONTINUOUS
 62
   250
 10
-0.283082
 20
0.573975
 30
0.0
 11
-0.282621
 21
0.573517
 31
0.0
  0
LINE
  8
1
  6
CONTINUOUS
 62
   250
 10
-0.283541
 20
0.574895
 30
0.0
 11
-0.283082
 21
0.573975
 31
0.0
  0
LINE
  8
1
  6
CONTINUOUS
 62
   250
 10
-0.271592
 20
0.604306
 30
0.0
 11
-0.271592
 21
0.584546
 31
0.0
  0
LINE
  8
1
  6
CONTINUOUS
 62
   250
 10
-0.279405
 20
0.595116
 30
0.0
 11
-0.278946
 21
0.594655
 31
0.0
  0
LINE
  8
1
  6
CONTINUOUS
 62
   250
 10
-0.279864
 20
0.596034
 30
0.0
 11
-0.279405
 21
0.595116
 31
0.0
  0
LINE
  8
1
  6
CONTINUOUS
 62
   250
 10
-0.279405
 20
0.593738
 30
0.0
 11
-0.279864
 21
0.592818
 31
0.0
  0
LINE
  8
1
  6
CONTINUOUS
 62
   250
 10
-0.278946
 20
0.574895
 30
0.0
 11
-0.279405
 21
0.575815
 31
0.0
  0
LINE
  8
1
  6
CONTINUOUS
 62
   250
 10
-0.279405
 20
0.575815
 30
0.0
 11
-0.279864
 21
0.576733
 31
0.0
  0
LINE
  8
1
  6
CONTINUOUS
 62
   250
 10
-0.278946
 20
0.594655
 30
0.0
 11
-0.279405
 21
0.593738
 31
0.0
  0
LINE
  8
1
  6
CONTINUOUS
 62
   250
 10
-0.279864
 20
0.573517
 30
0.0
 11
-0.279405
 21
0.573975
 31
0.0
  0
LINE
  8
1
  6
CONTINUOUS
 62
   250
 10
-0.279405
 20
0.573975
 30
0.0
 11
-0.278946
 21
0.574895
 31
0.0
  0
LINE
  8
1
  6
CONTINUOUS
 62
   250
 10
-0.326738
 20
0.650262
 30
0.0
 11
-0.318466
 21
0.650262
 31
0.0
  0
LINE
  8
1
  6
CONTINUOUS
 62
   250
 10
-0.356151
 20
0.649801
 30
0.0
 11
-0.357529
 21
0.650262
 31
0.0
  0
LINE
  8
1
  6
CONTINUOUS
 62
   250
 10
-0.357529
 20
0.636476
 30
0.0
 11
-0.356151
 21
0.637393
 31
0.0
  0
LINE
  8
1
  6
CONTINUOUS
 62
   250
 10
-0.362124
 20
0.648422
 30
0.0
 11
-0.362583
 21
0.647044
 31
0.0
  0
LINE
  8
1
  6
CONTINUOUS
 62
   250
 10
-0.382804
 20
0.643828
 30
0.0
 11
-0.377748
 21
0.650262
 31
0.0
  0
LINE
  8
1
  6
CONTINUOUS
 62
   250
 10
-0.382804
 20
0.636476
 30
0.0
 11
-0.382804
 21
0.643828
 31
0.0
  0
LINE
  8
1
  6
CONTINUOUS
 62
   250
 10
-0.363044
 20
0.645206
 30
0.0
 11
-0.363044
 21
0.64199
 31
0.0
  0
LINE
  8
1
  6
CONTINUOUS
 62
   250
 10
-0.362583
 20
0.647044
 30
0.0
 11
-0.363044
 21
0.645206
 31
0.0
  0
LINE
  8
1
  6
CONTINUOUS
 62
   250
 10
-0.360745
 20
0.637393
 30
0.0
 11
-0.360286
 21
0.636476
 31
0.0
  0
LINE
  8
1
  6
CONTINUOUS
 62
   250
 10
-0.360286
 20
0.636476
 30
0.0
 11
-0.357529
 21
0.636476
 31
0.0
  0
LINE
  8
1
  6
CONTINUOUS
 62
   250
 10
-0.362583
 20
0.639692
 30
0.0
 11
-0.362124
 21
0.638313
 31
0.0
  0
LINE
  8
1
  6
CONTINUOUS
 62
   250
 10
-0.369937
 20
0.621769
 30
0.0
 11
-0.371774
 21
0.62131
 31
0.0
  0
LINE
  8
1
  6
CONTINUOUS
 62
   250
 10
-0.368097
 20
0.623607
 30
0.0
 11
-0.369937
 21
0.621769
 31
0.0
  0
LINE
  8
1
  6
CONTINUOUS
 62
   250
 10
-0.368097
 20
0.610281
 30
0.0
 11
-0.368097
 21
0.623607
 31
0.0
  0
LINE
  8
1
  6
CONTINUOUS
 62
   250
 10
-0.362124
 20
0.638313
 30
0.0
 11
-0.360745
 21
0.637393
 31
0.0
  0
LINE
  8
1
  6
CONTINUOUS
 62
   250
 10
-0.363044
 20
0.64199
 30
0.0
 11
-0.362583
 21
0.639692
 31
0.0
  0
LINE
  8
1
  6
CONTINUOUS
 62
   250
 10
-0.360286
 20
0.650262
 30
0.0
 11
-0.360745
 21
0.649801
 31
0.0
  0
LINE
  8
1
  6
CONTINUOUS
 62
   250
 10
-0.357529
 20
0.650262
 30
0.0
 11
-0.360286
 21
0.650262
 31
0.0
  0
LINE
  8
1
  6
CONTINUOUS
 62
   250
 10
-0.360745
 20
0.649801
 30
0.0
 11
-0.362124
 21
0.648422
 31
0.0
  0
LINE
  8
1
  6
CONTINUOUS
 62
   250
 10
-0.342364
 20
0.647044
 30
0.0
 11
-0.343282
 21
0.648422
 31
0.0
  0
LINE
  8
1
  6
CONTINUOUS
 62
   250
 10
-0.354772
 20
0.647044
 30
0.0
 11
-0.355231
 21
0.648422
 31
0.0
  0
LINE
  8
1
  6
CONTINUOUS
 62
   250
 10
-0.349716
 20
0.648422
 30
0.0
 11
-0.350175
 21
0.647044
 31
0.0
  0
LINE
  8
1
  6
CONTINUOUS
 62
   250
 10
-0.329495
 20
0.636476
 30
0.0
 11
-0.329495
 21
0.650262
 31
0.0
  0
LINE
  8
1
  6
CONTINUOUS
 62
   250
 10
-0.338228
 20
0.650262
 30
0.0
 11
-0.329495
 21
0.636476
 31
0.0
  0
LINE
  8
1
  6
CONTINUOUS
 62
   250
 10
-0.338228
 20
0.636476
 30
0.0
 11
-0.338228
 21
0.650262
 31
0.0
  0
LINE
  8
1
  6
CONTINUOUS
 62
   250
 10
-0.341903
 20
0.64199
 30
0.0
 11
-0.341903
 21
0.645206
 31
0.0
  0
LINE
  8
1
  6
CONTINUOUS
 62
   250
 10
-0.341903
 20
0.645206
 30
0.0
 11
-0.342364
 21
0.647044
 31
0.0
  0
LINE
  8
1
  6
CONTINUOUS
 62
   250
 10
-0.351095
 20
0.645206
 30
0.0
 11
-0.351095
 21
0.64199
 31
0.0
  0
LINE
  8
1
  6
CONTINUOUS
 62
   250
 10
-0.350175
 20
0.647044
 30
0.0
 11
-0.351095
 21
0.645206
 31
0.0
  0
LINE
  8
1
  6
CONTINUOUS
 62
   250
 10
-0.343282
 20
0.638313
 30
0.0
 11
-0.342364
 21
0.639692
 31
0.0
  0
LINE
  8
1
  6
CONTINUOUS
 62
   250
 10
-0.344202
 20
0.637393
 30
0.0
 11
-0.343282
 21
0.638313
 31
0.0
  0
LINE
  8
1
  6
CONTINUOUS
 62
   250
 10
-0.345121
 20
0.636476
 30
0.0
 11
-0.344202
 21
0.637393
 31
0.0
  0
LINE
  8
1
  6
CONTINUOUS
 62
   250
 10
-0.347418
 20
0.636476
 30
0.0
 11
-0.345121
 21
0.636476
 31
0.0
  0
LINE
  8
1
  6
CONTINUOUS
 62
   250
 10
-0.349716
 20
0.638313
 30
0.0
 11
-0.349257
 21
0.637393
 31
0.0
  0
LINE
  8
1
  6
CONTINUOUS
 62
   250
 10
-0.350175
 20
0.639692
 30
0.0
 11
-0.349716
 21
0.638313
 31
0.0
  0
LINE
  8
1
  6
CONTINUOUS
 62
   250
 10
-0.355231
 20
0.638313
 30
0.0
 11
-0.354772
 21
0.639692
 31
0.0
  0
LINE
  8
1
  6
CONTINUOUS
 62
   250
 10
-0.356151
 20
0.637393
 30
0.0
 11
-0.355231
 21
0.638313
 31
0.0
  0
LINE
  8
1
  6
CONTINUOUS
 62
   250
 10
-0.349257
 20
0.637393
 30
0.0
 11
-0.347418
 21
0.636476
 31
0.0
  0
LINE
  8
1
  6
CONTINUOUS
 62
   250
 10
-0.342364
 20
0.639692
 30
0.0
 11
-0.341903
 21
0.64199
 31
0.0
  0
LINE
  8
1
  6
CONTINUOUS
 62
   250
 10
-0.351095
 20
0.64199
 30
0.0
 11
-0.350175
 21
0.639692
 31
0.0
  0
LINE
  8
1
  6
CONTINUOUS
 62
   250
 10
-0.334551
 20
0.62131
 30
0.0
 11
-0.334551
 21
0.620391
 31
0.0
  0
LINE
  8
1
  6
CONTINUOUS
 62
   250
 10
-0.334092
 20
0.622689
 30
0.0
 11
-0.334551
 21
0.62131
 31
0.0
  0
LINE
  8
1
  6
CONTINUOUS
 62
   250
 10
-0.333631
 20
0.623148
 30
0.0
 11
-0.334092
 21
0.622689
 31
0.0
  0
LINE
  8
1
  6
CONTINUOUS
 62
   250
 10
-0.332714
 20
0.623607
 30
0.0
 11
-0.333631
 21
0.623148
 31
0.0
  0
LINE
  8
1
  6
CONTINUOUS
 62
   250
 10
-0.329495
 20
0.623607
 30
0.0
 11
-0.332714
 21
0.623607
 31
0.0
  0
LINE
  8
1
  6
CONTINUOUS
 62
   250
 10
-0.328117
 20
0.623148
 30
0.0
 11
-0.329495
 21
0.623607
 31
0.0
  0
LINE
  8
1
  6
CONTINUOUS
 62
   250
 10
-0.327658
 20
0.622689
 30
0.0
 11
-0.328117
 21
0.623148
 31
0.0
  0
LINE
  8
1
  6
CONTINUOUS
 62
   250
 10
-0.327199
 20
0.62131
 30
0.0
 11
-0.327658
 21
0.622689
 31
0.0
  0
LINE
  8
1
  6
CONTINUOUS
 62
   250
 10
-0.327199
 20
0.619932
 30
0.0
 11
-0.327199
 21
0.62131
 31
0.0
  0
LINE
  8
1
  6
CONTINUOUS
 62
   250
 10
-0.327658
 20
0.618553
 30
0.0
 11
-0.327199
 21
0.619932
 31
0.0
  0
LINE
  8
1
  6
CONTINUOUS
 62
   250
 10
-0.335471
 20
0.610281
 30
0.0
 11
-0.329036
 21
0.616713
 31
0.0
  0
LINE
  8
1
  6
CONTINUOUS
 62
   250
 10
-0.326738
 20
0.610281
 30
0.0
 11
-0.335471
 21
0.610281
 31
0.0
  0
LINE
  8
1
  6
CONTINUOUS
 62
   250
 10
-0.329036
 20
0.616713
 30
0.0
 11
-0.327658
 21
0.618553
 31
0.0
  0
LINE
  8
1
  6
CONTINUOUS
 62
   250
 10
-0.345121
 20
0.650262
 30
0.0
 11
-0.347418
 21
0.650262
 31
0.0
  0
LINE
  8
1
  6
CONTINUOUS
 62
   250
 10
-0.344202
 20
0.649801
 30
0.0
 11
-0.345121
 21
0.650262
 31
0.0
  0
LINE
  8
1
  6
CONTINUOUS
 62
   250
 10
-0.343282
 20
0.648422
 30
0.0
 11
-0.344202
 21
0.649801
 31
0.0
  0
LINE
  8
1
  6
CONTINUOUS
 62
   250
 10
-0.355231
 20
0.648422
 30
0.0
 11
-0.356151
 21
0.649801
 31
0.0
  0
LINE
  8
1
  6
CONTINUOUS
 62
   250
 10
-0.349257
 20
0.649801
 30
0.0
 11
-0.349716
 21
0.648422
 31
0.0
  0
LINE
  8
1
  6
CONTINUOUS
 62
   250
 10
-0.347418
 20
0.650262
 30
0.0
 11
-0.349257
 21
0.649801
 31
0.0
  0
LINE
  8
1
  6
CONTINUOUS
 62
   250
 10
-0.29549
 20
0.648422
 30
0.0
 11
-0.296869
 21
0.649801
 31
0.0
  0
LINE
  8
1
  6
CONTINUOUS
 62
   250
 10
-0.296869
 20
0.637393
 30
0.0
 11
-0.29549
 21
0.638313
 31
0.0
  0
LINE
  8
1
  6
CONTINUOUS
 62
   250
 10
-0.297328
 20
0.623607
 30
0.0
 11
-0.29549
 21
0.623148
 31
0.0
  0
LINE
  8
1
  6
CONTINUOUS
 62
   250
 10
-0.29549
 20
0.615796
 30
0.0
 11
-0.296869
 21
0.616713
 31
0.0
  0
LINE
  8
1
  6
CONTINUOUS
 62
   250
 10
-0.297328
 20
0.610281
 30
0.0
 11
-0.29549
 21
0.61074
 31
0.0
  0
LINE
  8
1
  6
CONTINUOUS
 62
   250
 10
-0.302383
 20
0.648422
 30
0.0
 11
-0.302842
 21
0.647044
 31
0.0
  0
LINE
  8
1
  6
CONTINUOUS
 62
   250
 10
-0.307898
 20
0.648883
 30
0.0
 11
-0.306978
 21
0.647505
 31
0.0
  0
LINE
  8
1
  6
CONTINUOUS
 62
   250
 10
-0.322602
 20
0.636476
 30
0.0
 11
-0.322602
 21
0.650262
 31
0.0
  0
LINE
  8
1
  6
CONTINUOUS
 62
   250
 10
-0.315709
 20
0.650262
 30
0.0
 11
-0.315709
 21
0.636476
 31
0.0
  0
LINE
  8
1
  6
CONTINUOUS
 62
   250
 10
-0.310655
 20
0.643828
 30
0.0
 11
-0.315709
 21
0.643828
 31
0.0
  0
LINE
  8
1
  6
CONTINUOUS
 62
   250
 10
-0.306978
 20
0.647505
 30
0.0
 11
-0.306978
 21
0.646126
 31
0.0
  0
LINE
  8
1
  6
CONTINUOUS
 62
   250
 10
-0.307898
 20
0.645206
 30
0.0
 11
-0.308357
 21
0.644286
 31
0.0
  0
LINE
  8
1
  6
CONTINUOUS
 62
   250
 10
-0.303762
 20
0.645206
 30
0.0
 11
-0.303762
 21
0.64199
 31
0.0
  0
LINE
  8
1
  6
CONTINUOUS
 62
   250
 10
-0.308357
 20
0.644286
 30
0.0
 11
-0.310655
 21
0.643828
 31
0.0
  0
LINE
  8
1
  6
CONTINUOUS
 62
   250
 10
-0.302842
 20
0.647044
 30
0.0
 11
-0.303762
 21
0.645206
 31
0.0
  0
LINE
  8
1
  6
CONTINUOUS
 62
   250
 10
-0.306978
 20
0.646126
 30
0.0
 11
-0.307898
 21
0.645206
 31
0.0
  0
LINE
  8
1
  6
CONTINUOUS
 62
   250
 10
-0.297786
 20
0.636476
 30
0.0
 11
-0.296869
 21
0.637393
 31
0.0
  0
LINE
  8
1
  6
CONTINUOUS
 62
   250
 10
-0.302383
 20
0.638313
 30
0.0
 11
-0.301464
 21
0.637393
 31
0.0
  0
LINE
  8
1
  6
CONTINUOUS
 62
   250
 10
-0.302842
 20
0.639692
 30
0.0
 11
-0.302383
 21
0.638313
 31
0.0
  0
LINE
  8
1
  6
CONTINUOUS
 62
   250
 10
-0.301464
 20
0.637393
 30
0.0
 11
-0.300085
 21
0.636476
 31
0.0
  0
LINE
  8
1
  6
CONTINUOUS
 62
   250
 10
-0.301922
 20
0.623148
 30
0.0
 11
-0.300085
 21
0.623607
 31
0.0
  0
LINE
  8
1
  6
CONTINUOUS
 62
   250
 10
-0.303301
 20
0.621769
 30
0.0
 11
-0.301922
 21
0.623148
 31
0.0
  0
LINE
  8
1
  6
CONTINUOUS
 62
   250
 10
-0.303301
 20
0.620391
 30
0.0
 11
-0.303301
 21
0.621769
 31
0.0
  0
LINE
  8
1
  6
CONTINUOUS
 62
   250
 10
-0.302842
 20
0.619012
 30
0.0
 11
-0.303301
 21
0.620391
 31
0.0
  0
LINE
  8
1
  6
CONTINUOUS
 62
   250
 10
-0.301922
 20
0.618553
 30
0.0
 11
-0.302842
 21
0.619012
 31
0.0
  0
LINE
  8
1
  6
CONTINUOUS
 62
   250
 10
-0.300544
 20
0.618092
 30
0.0
 11
-0.301922
 21
0.618553
 31
0.0
  0
LINE
  8
1
  6
CONTINUOUS
 62
   250
 10
-0.301922
 20
0.61074
 30
0.0
 11
-0.300085
 21
0.610281
 31
0.0
  0
LINE
  8
1
  6
CONTINUOUS
 62
   250
 10
-0.301922
 20
0.61074
 30
0.0
 11
-0.303301
 21
0.612119
 31
0.0
  0
LINE
  8
1
  6
CONTINUOUS
 62
   250
 10
-0.300085
 20
0.623607
 30
0.0
 11
-0.297328
 21
0.623607
 31
0.0
  0
LINE
  8
1
  6
CONTINUOUS
 62
   250
 10
-0.300085
 20
0.636476
 30
0.0
 11
-0.297786
 21
0.636476
 31
0.0
  0
LINE
  8
1
  6
CONTINUOUS
 62
   250
 10
-0.300085
 20
0.610281
 30
0.0
 11
-0.297328
 21
0.610281
 31
0.0
  0
LINE
  8
1
  6
CONTINUOUS
 62
   250
 10
-0.296869
 20
0.616713
 30
0.0
 11
-0.300544
 21
0.618092
 31
0.0
  0
LINE
  8
1
  6
CONTINUOUS
 62
   250
 10
-0.303762
 20
0.64199
 30
0.0
 11
-0.302842
 21
0.639692
 31
0.0
  0
LINE
  8
1
  6
CONTINUOUS
 62
   250
 10
-0.311114
 20
0.643828
 30
0.0
 11
-0.306978
 21
0.636476
 31
0.0
  0
LINE
  8
1
  6
CONTINUOUS
 62
   250
 10
-0.315709
 20
0.650262
 30
0.0
 11
-0.310655
 21
0.650262
 31
0.0
  0
LINE
  8
1
  6
CONTINUOUS
 62
   250
 10
-0.296869
 20
0.649801
 30
0.0
 11
-0.297786
 21
0.650262
 31
0.0
  0
LINE
  8
1
  6
CONTINUOUS
 62
   250
 10
-0.301464
 20
0.649801
 30
0.0
 11
-0.302383
 21
0.648422
 31
0.0
  0
LINE
  8
1
  6
CONTINUOUS
 62
   250
 10
-0.300085
 20
0.650262
 30
0.0
 11
-0.301464
 21
0.649801
 31
0.0
  0
LINE
  8
1
  6
CONTINUOUS
 62
   250
 10
-0.308357
 20
0.649801
 30
0.0
 11
-0.307898
 21
0.648883
 31
0.0
  0
LINE
  8
1
  6
CONTINUOUS
 62
   250
 10
-0.310655
 20
0.650262
 30
0.0
 11
-0.308357
 21
0.649801
 31
0.0
  0
LINE
  8
1
  6
CONTINUOUS
 62
   250
 10
-0.297786
 20
0.650262
 30
0.0
 11
-0.300085
 21
0.650262
 31
0.0
  0
LINE
  8
1
  6
CONTINUOUS
 62
   250
 10
-0.295029
 20
0.647044
 30
0.0
 11
-0.29549
 21
0.648422
 31
0.0
  0
LINE
  8
1
  6
CONTINUOUS
 62
   250
 10
-0.290434
 20
0.636476
 30
0.0
 11
-0.290434
 21
0.650262
 31
0.0
  0
LINE
  8
1
  6
CONTINUOUS
 62
   250
 10
-0.280784
 20
0.62131
 30
0.0
 11
-0.281243
 21
0.622689
 31
0.0
  0
LINE
  8
1
  6
CONTINUOUS
 62
   250
 10
-0.281243
 20
0.618092
 30
0.0
 11
-0.280784
 21
0.619012
 31
0.0
  0
LINE
  8
1
  6
CONTINUOUS
 62
   250
 10
-0.29457
 20
0.64199
 30
0.0
 11
-0.29457
 21
0.645206
 31
0.0
  0
LINE
  8
1
  6
CONTINUOUS
 62
   250
 10
-0.29457
 20
0.645206
 30
0.0
 11
-0.295029
 21
0.647044
 31
0.0
  0
LINE
  8
1
  6
CONTINUOUS
 62
   250
 10
-0.282621
 20
0.623148
 30
0.0
 11
-0.284
 21
0.623607
 31
0.0
  0
LINE
  8
1
  6
CONTINUOUS
 62
   250
 10
-0.281243
 20
0.622689
 30
0.0
 11
-0.282621
 21
0.623148
 31
0.0
  0
LINE
  8
1
  6
CONTINUOUS
 62
   250
 10
-0.284
 20
0.616713
 30
0.0
 11
-0.282621
 21
0.617174
 31
0.0
  0
LINE
  8
1
  6
CONTINUOUS
 62
   250
 10
-0.282621
 20
0.617174
 30
0.0
 11
-0.281243
 21
0.618092
 31
0.0
  0
LINE
  8
1
  6
CONTINUOUS
 62
   250
 10
-0.29549
 20
0.638313
 30
0.0
 11
-0.295029
 21
0.639692
 31
0.0
  0
LINE
  8
1
  6
CONTINUOUS
 62
   250
 10
-0.29549
 20
0.623148
 30
0.0
 11
-0.29457
 21
0.621769
 31
0.0
  0
LINE
  8
1
  6
CONTINUOUS
 62
   250
 10
-0.295029
 20
0.615335
 30
0.0
 11
-0.29549
 21
0.615796
 31
0.0
  0
LINE
  8
1
  6
CONTINUOUS
 62
   250
 10
-0.29457
 20
0.613956
 30
0.0
 11
-0.295029
 21
0.615335
 31
0.0
  0
LINE
  8
1
  6
CONTINUOUS
 62
   250
 10
-0.29457
 20
0.612119
 30
0.0
 11
-0.29457
 21
0.613956
 31
0.0
  0
LINE
  8
1
  6
CONTINUOUS
 62
   250
 10
-0.29549
 20
0.61074
 30
0.0
 11
-0.29457
 21
0.612119
 31
0.0
  0
LINE
  8
1
  6
CONTINUOUS
 62
   250
 10
-0.289976
 20
0.623607
 30
0.0
 11
-0.289976
 21
0.610281
 31
0.0
  0
LINE
  8
1
  6
CONTINUOUS
 62
   250
 10
-0.290434
 20
0.636476
 30
0.0
 11
-0.283541
 21
0.636476
 31
0.0
  0
LINE
  8
1
  6
CONTINUOUS
 62
   250
 10
-0.284
 20
0.623607
 30
0.0
 11
-0.289976
 21
0.623607
 31
0.0
  0
LINE
  8
1
  6
CONTINUOUS
 62
   250
 10
-0.289976
 20
0.616713
 30
0.0
 11
-0.284
 21
0.616713
 31
0.0
  0
LINE
  8
1
  6
CONTINUOUS
 62
   250
 10
-0.295029
 20
0.639692
 30
0.0
 11
-0.29457
 21
0.64199
 31
0.0
  0
LINE
  8
1
  6
CONTINUOUS
 62
   250
 10
-0.280784
 20
0.619012
 30
0.0
 11
-0.280784
 21
0.62131
 31
0.0
  0
LINE
  8
1
  6
CONTINUOUS
 62
   250
 10
-0.208174
 20
0.522048
 30
0.0
 11
-0.184279
 21
0.522048
 31
0.0
  0
LINE
  8
1
  6
CONTINUOUS
 62
   250
 10
-0.244939
 20
0.522048
 30
0.0
 11
-0.220123
 21
0.522048
 31
0.0
  0
LINE
  8
1
  6
CONTINUOUS
 62
   250
 10
-0.149354
 20
0.483905
 30
0.0
 11
-0.149354
 21
0.460009
 31
0.0
  0
LINE
  8
1
  6
CONTINUOUS
 62
   250
 10
-0.171412
 20
0.522048
 30
0.0
 11
-0.149354
 21
0.522048
 31
0.0
  0
LINE
  8
1
  6
CONTINUOUS
 62
   250
 10
-0.149354
 20
0.522048
 30
0.0
 11
-0.149354
 21
0.496312
 31
0.0
  0
LINE
  8
1
  6
CONTINUOUS
 62
   250
 10
-0.039062
 20
0.608903
 30
0.0
 11
-0.038601
 21
0.607063
 31
0.0
  0
LINE
  8
1
  6
CONTINUOUS
 62
   250
 10
-0.052388
 20
0.607063
 30
0.0
 11
-0.051929
 21
0.608903
 31
0.0
  0
LINE
  8
1
  6
CONTINUOUS
 62
   250
 10
-0.140621
 20
0.548242
 30
0.0
 11
-0.140621
 21
0.654857
 31
0.0
  0
LINE
  8
1
  6
CONTINUOUS
 62
   250
 10
-0.062958
 20
0.654857
 30
0.0
 11
-0.062958
 21
0.548242
 31
0.0
  0
LINE
  8
1
  6
CONTINUOUS
 62
   250
 10
-0.085016
 20
0.548242
 30
0.0
 11
-0.07996
 21
0.548242
 31
0.0
  0
LINE
  8
1
  6
CONTINUOUS
 62
   250
 10
-0.085016
 20
0.532157
 30
0.0
 11
-0.07996
 21
0.527101
 31
0.0
  0
LINE
  8
1
  6
CONTINUOUS
 62
   250
 10
-0.07996
 20
0.527101
 30
0.0
 11
-0.085016
 21
0.532157
 31
0.0
  0
LINE
  8
1
  6
CONTINUOUS
 62
   250
 10
-0.123159
 20
0.528021
 30
0.0
 11
-0.08088
 21
0.528021
 31
0.0
  0
LINE
  8
1
  6
CONTINUOUS
 62
   250
 10
-0.082718
 20
0.53032
 30
0.0
 11
-0.120861
 21
0.53032
 31
0.0
  0
LINE
  8
1
  6
CONTINUOUS
 62
   250
 10
-0.07996
 20
0.527101
 30
0.0
 11
-0.123618
 21
0.527101
 31
0.0
  0
LINE
  8
1
  6
CONTINUOUS
 62
   250
 10
-0.120861
 20
0.53032
 30
0.0
 11
-0.123159
 21
0.528021
 31
0.0
  0
LINE
  8
1
  6
CONTINUOUS
 62
   250
 10
-0.121781
 20
0.528941
 30
0.0
 11
-0.121781
 21
0.548242
 31
0.0
  0
LINE
  8
1
  6
CONTINUOUS
 62
   250
 10
-0.123618
 20
0.527101
 30
0.0
 11
-0.123618
 21
0.548242
 31
0.0
  0
LINE
  8
1
  6
CONTINUOUS
 62
   250
 10
-0.119482
 20
0.531237
 30
0.0
 11
-0.121781
 21
0.528941
 31
0.0
  0
LINE
  8
1
  6
CONTINUOUS
 62
   250
 10
-0.118562
 20
0.532157
 30
0.0
 11
-0.123618
 21
0.527101
 31
0.0
  0
LINE
  8
1
  6
CONTINUOUS
 62
   250
 10
-0.123618
 20
0.527101
 30
0.0
 11
-0.118562
 21
0.532157
 31
0.0
  0
LINE
  8
1
  6
CONTINUOUS
 62
   250
 10
-0.102939
 20
0.483905
 30
0.0
 11
-0.096045
 21
0.488499
 31
0.0
  0
LINE
  8
1
  6
CONTINUOUS
 62
   250
 10
-0.096045
 20
0.47931
 30
0.0
 11
-0.109373
 21
0.47931
 31
0.0
  0
LINE
  8
1
  6
CONTINUOUS
 62
   250
 10
-0.102939
 20
0.470118
 30
0.0
 11
-0.096045
 21
0.474713
 31
0.0
  0
LINE
  8
1
  6
CONTINUOUS
 62
   250
 10
-0.109373
 20
0.465523
 30
0.0
 11
-0.096045
 21
0.465523
 31
0.0
  0
LINE
  8
1
  6
CONTINUOUS
 62
   250
 10
-0.096045
 20
0.453574
 30
0.0
 11
-0.109373
 21
0.453574
 31
0.0
  0
LINE
  8
1
  6
CONTINUOUS
 62
   250
 10
-0.103397
 20
0.487121
 30
0.0
 11
-0.102939
 21
0.485283
 31
0.0
  0
LINE
  8
1
  6
CONTINUOUS
 62
   250
 10
-0.104317
 20
0.488041
 30
0.0
 11
-0.103397
 21
0.487121
 31
0.0
  0
LINE
  8
1
  6
CONTINUOUS
 62
   250
 10
-0.106155
 20
0.488499
 30
0.0
 11
-0.104317
 21
0.488041
 31
0.0
  0
LINE
  8
1
  6
CONTINUOUS
 62
   250
 10
-0.107074
 20
0.488499
 30
0.0
 11
-0.106155
 21
0.488499
 31
0.0
  0
LINE
  8
1
  6
CONTINUOUS
 62
   250
 10
-0.102939
 20
0.485283
 30
0.0
 11
-0.102939
 21
0.47931
 31
0.0
  0
LINE
  8
1
  6
CONTINUOUS
 62
   250
 10
-0.108912
 20
0.487121
 30
0.0
 11
-0.107994
 21
0.488041
 31
0.0
  0
LINE
  8
1
  6
CONTINUOUS
 62
   250
 10
-0.109373
 20
0.485283
 30
0.0
 11
-0.108912
 21
0.487121
 31
0.0
  0
LINE
  8
1
  6
CONTINUOUS
 62
   250
 10
-0.109373
 20
0.47931
 30
0.0
 11
-0.109373
 21
0.485283
 31
0.0
  0
LINE
  8
1
  6
CONTINUOUS
 62
   250
 10
-0.107994
 20
0.488041
 30
0.0
 11
-0.107074
 21
0.488499
 31
0.0
  0
LINE
  8
1
  6
CONTINUOUS
 62
   250
 10
-0.103397
 20
0.472875
 30
0.0
 11
-0.102939
 21
0.471497
 31
0.0
  0
LINE
  8
1
  6
CONTINUOUS
 62
   250
 10
-0.104317
 20
0.474254
 30
0.0
 11
-0.103397
 21
0.472875
 31
0.0
  0
LINE
  8
1
  6
CONTINUOUS
 62
   250
 10
-0.106155
 20
0.474713
 30
0.0
 11
-0.104317
 21
0.474254
 31
0.0
  0
LINE
  8
1
  6
CONTINUOUS
 62
   250
 10
-0.107074
 20
0.474713
 30
0.0
 11
-0.106155
 21
0.474713
 31
0.0
  0
LINE
  8
1
  6
CONTINUOUS
 62
   250
 10
-0.102939
 20
0.471497
 30
0.0
 11
-0.102939
 21
0.465523
 31
0.0
  0
LINE
  8
1
  6
CONTINUOUS
 62
   250
 10
-0.102939
 20
0.45863
 30
0.0
 11
-0.102939
 21
0.453574
 31
0.0
  0
LINE
  8
1
  6
CONTINUOUS
 62
   250
 10
-0.108912
 20
0.472875
 30
0.0
 11
-0.109373
 21
0.471497
 31
0.0
  0
LINE
  8
1
  6
CONTINUOUS
 62
   250
 10
-0.108912
 20
0.472875
 30
0.0
 11
-0.107994
 21
0.474254
 31
0.0
  0
LINE
  8
1
  6
CONTINUOUS
 62
   250
 10
-0.109373
 20
0.471497
 30
0.0
 11
-0.109373
 21
0.465523
 31
0.0
  0
LINE
  8
1
  6
CONTINUOUS
 62
   250
 10
-0.109373
 20
0.453574
 30
0.0
 11
-0.109373
 21
0.461846
 31
0.0
  0
LINE
  8
1
  6
CONTINUOUS
 62
   250
 10
-0.107994
 20
0.474254
 30
0.0
 11
-0.107074
 21
0.474713
 31
0.0
  0
LINE
  8
1
  6
CONTINUOUS
 62
   250
 10
-0.096045
 20
0.461846
 30
0.0
 11
-0.096045
 21
0.453574
 31
0.0
  0
LINE
  8
1
  6
CONTINUOUS
 62
   250
 10
-0.096045
 20
0.511478
 30
0.0
 11
-0.109373
 21
0.511478
 31
0.0
  0
LINE
  8
1
  6
CONTINUOUS
 62
   250
 10
-0.098803
 20
0.506883
 30
0.0
 11
-0.097883
 21
0.505963
 31
0.0
  0
LINE
  8
1
  6
CONTINUOUS
 62
   250
 10
-0.109373
 20
0.49815
 30
0.0
 11
-0.096045
 21
0.49815
 31
0.0
  0
LINE
  8
1
  6
CONTINUOUS
 62
   250
 10
-0.096045
 20
0.493096
 30
0.0
 11
-0.109373
 21
0.493096
 31
0.0
  0
LINE
  8
1
  6
CONTINUOUS
 62
   250
 10
-0.102939
 20
0.516992
 30
0.0
 11
-0.102939
 21
0.511478
 31
0.0
  0
LINE
  8
1
  6
CONTINUOUS
 62
   250
 10
-0.109373
 20
0.511478
 30
0.0
 11
-0.109373
 21
0.520208
 31
0.0
  0
LINE
  8
1
  6
CONTINUOUS
 62
   250
 10
-0.10156
 20
0.507342
 30
0.0
 11
-0.098803
 21
0.506883
 31
0.0
  0
LINE
  8
1
  6
CONTINUOUS
 62
   250
 10
-0.104317
 20
0.507342
 30
0.0
 11
-0.10156
 21
0.507342
 31
0.0
  0
LINE
  8
1
  6
CONTINUOUS
 62
   250
 10
-0.106616
 20
0.506883
 30
0.0
 11
-0.104317
 21
0.507342
 31
0.0
  0
LINE
  8
1
  6
CONTINUOUS
 62
   250
 10
-0.107533
 20
0.505963
 30
0.0
 11
-0.106616
 21
0.506883
 31
0.0
  0
LINE
  8
1
  6
CONTINUOUS
 62
   250
 10
-0.109373
 20
0.502747
 30
0.0
 11
-0.108912
 21
0.505043
 31
0.0
  0
LINE
  8
1
  6
CONTINUOUS
 62
   250
 10
-0.109373
 20
0.49815
 30
0.0
 11
-0.109373
 21
0.502747
 31
0.0
  0
LINE
  8
1
  6
CONTINUOUS
 62
   250
 10
-0.108912
 20
0.505043
 30
0.0
 11
-0.107533
 21
0.505963
 31
0.0
  0
LINE
  8
1
  6
CONTINUOUS
 62
   250
 10
-0.096045
 20
0.511478
 30
0.0
 11
-0.096045
 21
0.520208
 31
0.0
  0
LINE
  8
1
  6
CONTINUOUS
 62
   250
 10
-0.096504
 20
0.505043
 30
0.0
 11
-0.096045
 21
0.502747
 31
0.0
  0
LINE
  8
1
  6
CONTINUOUS
 62
   250
 10
-0.096045
 20
0.502747
 30
0.0
 11
-0.096045
 21
0.49815
 31
0.0
  0
LINE
  8
1
  6
CONTINUOUS
 62
   250
 10
-0.097883
 20
0.505963
 30
0.0
 11
-0.096504
 21
0.505043
 31
0.0
  0
LINE
  8
1
  6
CONTINUOUS
 62
   250
 10
-0.118562
 20
0.532157
 30
0.0
 11
-0.085016
 21
0.532157
 31
0.0
  0
LINE
  8
1
  6
CONTINUOUS
 62
   250
 10
-0.119482
 20
0.548242
 30
0.0
 11
-0.119482
 21
0.531237
 31
0.0
  0
LINE
  8
1
  6
CONTINUOUS
 62
   250
 10
-0.118562
 20
0.548242
 30
0.0
 11
-0.118562
 21
0.532157
 31
0.0
  0
LINE
  8
1
  6
CONTINUOUS
 62
   250
 10
-0.121781
 20
0.548242
 30
0.0
 11
-0.119482
 21
0.548242
 31
0.0
  0
LINE
  8
1
  6
CONTINUOUS
 62
   250
 10
-0.123618
 20
0.548242
 30
0.0
 11
-0.118562
 21
0.548242
 31
0.0
  0
LINE
  8
1
  6
CONTINUOUS
 62
   250
 10
-0.085016
 20
0.532157
 30
0.0
 11
-0.085016
 21
0.548242
 31
0.0
  0
LINE
  8
1
  6
CONTINUOUS
 62
   250
 10
-0.041819
 20
0.532616
 30
0.0
 11
-0.041819
 21
0.519291
 31
0.0
  0
LINE
  8
1
  6
CONTINUOUS
 62
   250
 10
-0.080421
 20
0.528021
 30
0.0
 11
-0.082718
 21
0.53032
 31
0.0
  0
LINE
  8
1
  6
CONTINUOUS
 62
   250
 10
-0.080421
 20
0.548242
 30
0.0
 11
-0.080421
 21
0.528021
 31
0.0
  0
LINE
  8
1
  6
CONTINUOUS
 62
   250
 10
-0.07996
 20
0.548242
 30
0.0
 11
-0.07996
 21
0.527101
 31
0.0
  0
LINE
  8
1
  6
CONTINUOUS
 62
   250
 10
-0.07996
 20
0.548242
 30
0.0
 11
-0.080421
 21
0.548242
 31
0.0
  0
LINE
  8
1
  6
CONTINUOUS
 62
   250
 10
-0.082718
 20
0.53032
 30
0.0
 11
-0.082718
 21
0.548242
 31
0.0
  0
LINE
  8
1
  6
CONTINUOUS
 62
   250
 10
-0.043657
 20
0.530779
 30
0.0
 11
-0.041819
 21
0.532616
 31
0.0
  0
LINE
  8
1
  6
CONTINUOUS
 62
   250
 10
-0.044577
 20
0.565245
 30
0.0
 11
-0.044577
 21
0.554674
 31
0.0
  0
LINE
  8
1
  6
CONTINUOUS
 62
   250
 10
-0.043657
 20
0.530779
 30
0.0
 11
-0.045494
 21
0.53032
 31
0.0
  0
LINE
  8
1
  6
CONTINUOUS
 62
   250
 10
-0.038601
 20
0.560189
 30
0.0
 11
-0.051009
 21
0.560189
 31
0.0
  0
LINE
  8
1
  6
CONTINUOUS
 62
   250
 10
-0.038601
 20
0.607063
 30
0.0
 11
-0.038601
 21
0.602927
 31
0.0
  0
LINE
  8
1
  6
CONTINUOUS
 62
   250
 10
-0.043198
 20
0.58041
 30
0.0
 11
-0.043198
 21
0.589141
 31
0.0
  0
LINE
  8
1
  6
CONTINUOUS
 62
   250
 10
-0.052388
 20
0.602927
 30
0.0
 11
-0.052388
 21
0.607063
 31
0.0
  0
LINE
  8
1
  6
CONTINUOUS
 62
   250
 10
-0.046873
 20
0.575815
 30
0.0
 11
-0.045494
 21
0.574436
 31
0.0
  0
LINE
  8
1
  6
CONTINUOUS
 62
   250
 10
-0.048251
 20
0.576274
 30
0.0
 11
-0.046873
 21
0.575815
 31
0.0
  0
LINE
  8
1
  6
CONTINUOUS
 62
   250
 10
-0.04963
 20
0.576274
 30
0.0
 11
-0.048251
 21
0.576274
 31
0.0
  0
LINE
  8
1
  6
CONTINUOUS
 62
   250
 10
-0.05147
 20
0.575815
 30
0.0
 11
-0.04963
 21
0.576274
 31
0.0
  0
LINE
  8
1
  6
CONTINUOUS
 62
   250
 10
-0.051929
 20
0.575354
 30
0.0
 11
-0.05147
 21
0.575815
 31
0.0
  0
LINE
  8
1
  6
CONTINUOUS
 62
   250
 10
-0.038601
 20
0.602927
 30
0.0
 11
-0.052388
 21
0.602927
 31
0.0
  0
LINE
  8
1
  6
CONTINUOUS
 62
   250
 10
-0.052388
 20
0.60017
 30
0.0
 11
-0.038601
 21
0.595575
 31
0.0
  0
LINE
  8
1
  6
CONTINUOUS
 62
   250
 10
-0.052388
 20
0.586383
 30
0.0
 11
-0.043198
 21
0.58041
 31
0.0
  0
LINE
  8
1
  6
CONTINUOUS
 62
   250
 10
-0.038601
 20
0.586383
 30
0.0
 11
-0.052388
 21
0.586383
 31
0.0
  0
LINE
  8
1
  6
CONTINUOUS
 62
   250
 10
-0.038601
 20
0.595575
 30
0.0
 11
-0.052388
 21
0.59098
 31
0.0
  0
LINE
  8
1
  6
CONTINUOUS
 62
   250
 10
-0.049171
 20
0.56984
 30
0.0
 11
-0.04963
 21
0.56984
 31
0.0
  0
LINE
  8
1
  6
CONTINUOUS
 62
   250
 10
-0.052388
 20
0.572138
 30
0.0
 11
-0.052388
 21
0.573975
 31
0.0
  0
LINE
  8
1
  6
CONTINUOUS
 62
   250
 10
-0.051929
 20
0.571218
 30
0.0
 11
-0.052388
 21
0.572138
 31
0.0
  0
LINE
  8
1
  6
CONTINUOUS
 62
   250
 10
-0.05147
 20
0.570301
 30
0.0
 11
-0.051929
 21
0.571218
 31
0.0
  0
LINE
  8
1
  6
CONTINUOUS
 62
   250
 10
-0.04963
 20
0.56984
 30
0.0
 11
-0.05147
 21
0.570301
 31
0.0
  0
LINE
  8
1
  6
CONTINUOUS
 62
   250
 10
-0.038601
 20
0.569381
 30
0.0
 11
-0.038601
 21
0.576733
 31
0.0
  0
LINE
  8
1
  6
CONTINUOUS
 62
   250
 10
-0.052388
 20
0.573975
 30
0.0
 11
-0.051929
 21
0.575354
 31
0.0
  0
LINE
  8
1
  6
CONTINUOUS
 62
   250
 10
-0.045494
 20
0.574436
 30
0.0
 11
-0.038601
 21
0.569381
 31
0.0
  0
LINE
  8
1
  6
CONTINUOUS
 62
   250
 10
-0.082259
 20
0.650262
 30
0.0
 11
-0.085016
 21
0.649801
 31
0.0
  0
LINE
  8
1
  6
CONTINUOUS
 62
   250
 10
-0.085016
 20
0.630961
 30
0.0
 11
-0.082259
 21
0.6305
 31
0.0
  0
LINE
  8
1
  6
CONTINUOUS
 62
   250
 10
-0.113048
 20
0.645206
 30
0.0
 11
-0.114426
 21
0.647044
 31
0.0
  0
LINE
  8
1
  6
CONTINUOUS
 62
   250
 10
-0.114426
 20
0.633718
 30
0.0
 11
-0.113048
 21
0.635556
 31
0.0
  0
LINE
  8
1
  6
CONTINUOUS
 62
   250
 10
-0.114426
 20
0.647044
 30
0.0
 11
-0.116266
 21
0.648883
 31
0.0
  0
LINE
  8
1
  6
CONTINUOUS
 62
   250
 10
-0.125917
 20
0.648883
 30
0.0
 11
-0.128674
 21
0.647044
 31
0.0
  0
LINE
  8
1
  6
CONTINUOUS
 62
   250
 10
-0.128674
 20
0.647044
 30
0.0
 11
-0.129592
 21
0.645206
 31
0.0
  0
LINE
  8
1
  6
CONTINUOUS
 62
   250
 10
-0.129592
 20
0.635556
 30
0.0
 11
-0.128674
 21
0.633718
 31
0.0
  0
LINE
  8
1
  6
CONTINUOUS
 62
   250
 10
-0.129592
 20
0.645206
 30
0.0
 11
-0.130511
 21
0.642908
 31
0.0
  0
LINE
  8
1
  6
CONTINUOUS
 62
   250
 10
-0.130511
 20
0.642908
 30
0.0
 11
-0.13097
 21
0.640611
 31
0.0
  0
LINE
  8
1
  6
CONTINUOUS
 62
   250
 10
-0.130511
 20
0.637854
 30
0.0
 11
-0.129592
 21
0.635556
 31
0.0
  0
LINE
  8
1
  6
CONTINUOUS
 62
   250
 10
-0.13097
 20
0.640611
 30
0.0
 11
-0.130511
 21
0.637854
 31
0.0
  0
LINE
  8
1
  6
CONTINUOUS
 62
   250
 10
-0.116266
 20
0.631879
 30
0.0
 11
-0.114426
 21
0.633718
 31
0.0
  0
LINE
  8
1
  6
CONTINUOUS
 62
   250
 10
-0.118562
 20
0.630961
 30
0.0
 11
-0.116266
 21
0.631879
 31
0.0
  0
LINE
  8
1
  6
CONTINUOUS
 62
   250
 10
-0.125917
 20
0.631879
 30
0.0
 11
-0.123618
 21
0.630961
 31
0.0
  0
LINE
  8
1
  6
CONTINUOUS
 62
   250
 10
-0.128674
 20
0.633718
 30
0.0
 11
-0.125917
 21
0.631879
 31
0.0
  0
LINE
  8
1
  6
CONTINUOUS
 62
   250
 10
-0.123618
 20
0.630961
 30
0.0
 11
-0.12132
 21
0.6305
 31
0.0
  0
LINE
  8
1
  6
CONTINUOUS
 62
   250
 10
-0.12132
 20
0.6305
 30
0.0
 11
-0.118562
 21
0.630961
 31
0.0
  0
LINE
  8
1
  6
CONTINUOUS
 62
   250
 10
-0.128674
 20
0.647044
 30
0.0
 11
-0.114426
 21
0.633718
 31
0.0
  0
LINE
  8
1
  6
CONTINUOUS
 62
   250
 10
-0.116266
 20
0.648883
 30
0.0
 11
-0.118562
 21
0.649801
 31
0.0
  0
LINE
  8
1
  6
CONTINUOUS
 62
   250
 10
-0.123618
 20
0.649801
 30
0.0
 11
-0.125917
 21
0.648883
 31
0.0
  0
LINE
  8
1
  6
CONTINUOUS
 62
   250
 10
-0.12132
 20
0.650262
 30
0.0
 11
-0.123618
 21
0.649801
 31
0.0
  0
LINE
  8
1
  6
CONTINUOUS
 62
   250
 10
-0.118562
 20
0.649801
 30
0.0
 11
-0.12132
 21
0.650262
 31
0.0
  0
LINE
  8
1
  6
CONTINUOUS
 62
   250
 10
-0.087315
 20
0.648883
 30
0.0
 11
-0.089611
 21
0.647044
 31
0.0
  0
LINE
  8
1
  6
CONTINUOUS
 62
   250
 10
-0.11213
 20
0.640611
 30
0.0
 11
-0.112589
 21
0.642908
 31
0.0
  0
LINE
  8
1
  6
CONTINUOUS
 62
   250
 10
-0.112589
 20
0.642908
 30
0.0
 11
-0.113048
 21
0.645206
 31
0.0
  0
LINE
  8
1
  6
CONTINUOUS
 62
   250
 10
-0.113048
 20
0.635556
 30
0.0
 11
-0.112589
 21
0.637854
 31
0.0
  0
LINE
  8
1
  6
CONTINUOUS
 62
   250
 10
-0.112589
 20
0.637854
 30
0.0
 11
-0.11213
 21
0.640611
 31
0.0
  0
LINE
  8
1
  6
CONTINUOUS
 62
   250
 10
-0.091909
 20
0.642908
 30
0.0
 11
-0.091909
 21
0.640611
 31
0.0
  0
LINE
  8
1
  6
CONTINUOUS
 62
   250
 10
-0.090531
 20
0.645206
 30
0.0
 11
-0.091909
 21
0.642908
 31
0.0
  0
LINE
  8
1
  6
CONTINUOUS
 62
   250
 10
-0.089611
 20
0.647044
 30
0.0
 11
-0.090531
 21
0.645206
 31
0.0
  0
LINE
  8
1
  6
CONTINUOUS
 62
   250
 10
-0.090531
 20
0.635556
 30
0.0
 11
-0.089611
 21
0.633718
 31
0.0
  0
LINE
  8
1
  6
CONTINUOUS
 62
   250
 10
-0.091909
 20
0.637854
 30
0.0
 11
-0.090531
 21
0.635556
 31
0.0
  0
LINE
  8
1
  6
CONTINUOUS
 62
   250
 10
-0.087315
 20
0.631879
 30
0.0
 11
-0.085016
 21
0.630961
 31
0.0
  0
LINE
  8
1
  6
CONTINUOUS
 62
   250
 10
-0.089611
 20
0.633718
 30
0.0
 11
-0.087315
 21
0.631879
 31
0.0
  0
LINE
  8
1
  6
CONTINUOUS
 62
   250
 10
-0.091909
 20
0.640611
 30
0.0
 11
-0.091909
 21
0.637854
 31
0.0
  0
LINE
  8
1
  6
CONTINUOUS
 62
   250
 10
-0.085016
 20
0.649801
 30
0.0
 11
-0.087315
 21
0.648883
 31
0.0
  0
LINE
  8
1
  6
CONTINUOUS
 62
   250
 10
-0.051929
 20
0.645206
 30
0.0
 11
-0.052849
 21
0.642908
 31
0.0
  0
LINE
  8
1
  6
CONTINUOUS
 62
   250
 10
-0.052849
 20
0.637854
 30
0.0
 11
-0.051929
 21
0.635556
 31
0.0
  0
LINE
  8
1
  6
CONTINUOUS
 62
   250
 10
-0.075366
 20
0.647044
 30
0.0
 11
-0.077664
 21
0.648883
 31
0.0
  0
LINE
  8
1
  6
CONTINUOUS
 62
   250
 10
-0.082259
 20
0.6305
 30
0.0
 11
-0.082259
 21
0.650262
 31
0.0
  0
LINE
  8
1
  6
CONTINUOUS
 62
   250
 10
-0.073067
 20
0.640611
 30
0.0
 11
-0.073528
 21
0.642908
 31
0.0
  0
LINE
  8
1
  6
CONTINUOUS
 62
   250
 10
-0.073528
 20
0.642908
 30
0.0
 11
-0.073987
 21
0.645206
 31
0.0
  0
LINE
  8
1
  6
CONTINUOUS
 62
   250
 10
-0.073987
 20
0.645206
 30
0.0
 11
-0.075366
 21
0.647044
 31
0.0
  0
LINE
  8
1
  6
CONTINUOUS
 62
   250
 10
-0.073987
 20
0.635556
 30
0.0
 11
-0.073528
 21
0.637854
 31
0.0
  0
LINE
  8
1
  6
CONTINUOUS
 62
   250
 10
-0.075366
 20
0.633718
 30
0.0
 11
-0.073987
 21
0.635556
 31
0.0
  0
LINE
  8
1
  6
CONTINUOUS
 62
   250
 10
-0.077664
 20
0.631879
 30
0.0
 11
-0.075366
 21
0.633718
 31
0.0
  0
LINE
  8
1
  6
CONTINUOUS
 62
   250
 10
-0.07996
 20
0.630961
 30
0.0
 11
-0.077664
 21
0.631879
 31
0.0
  0
LINE
  8
1
  6
CONTINUOUS
 62
   250
 10
-0.082259
 20
0.6305
 30
0.0
 11
-0.07996
 21
0.630961
 31
0.0
  0
LINE
  8
1
  6
CONTINUOUS
 62
   250
 10
-0.073528
 20
0.637854
 30
0.0
 11
-0.073067
 21
0.640611
 31
0.0
  0
LINE
  8
1
  6
CONTINUOUS
 62
   250
 10
-0.052849
 20
0.642908
 30
0.0
 11
-0.053307
 21
0.640611
 31
0.0
  0
LINE
  8
1
  6
CONTINUOUS
 62
   250
 10
-0.053307
 20
0.640611
 30
0.0
 11
-0.052849
 21
0.637854
 31
0.0
  0
LINE
  8
1
  6
CONTINUOUS
 62
   250
 10
-0.077664
 20
0.648883
 30
0.0
 11
-0.07996
 21
0.649801
 31
0.0
  0
LINE
  8
1
  6
CONTINUOUS
 62
   250
 10
-0.07996
 20
0.649801
 30
0.0
 11
-0.082259
 21
0.650262
 31
0.0
  0
LINE
  8
1
  6
CONTINUOUS
 62
   250
 10
-0.036764
 20
0.647044
 30
0.0
 11
-0.038601
 21
0.648883
 31
0.0
  0
LINE
  8
1
  6
CONTINUOUS
 62
   250
 10
-0.048251
 20
0.648883
 30
0.0
 11
-0.051009
 21
0.647044
 31
0.0
  0
LINE
  8
1
  6
CONTINUOUS
 62
   250
 10
-0.038601
 20
0.631879
 30
0.0
 11
-0.036764
 21
0.633718
 31
0.0
  0
LINE
  8
1
  6
CONTINUOUS
 62
   250
 10
-0.051009
 20
0.647044
 30
0.0
 11
-0.036764
 21
0.633718
 31
0.0
  0
LINE
  8
1
  6
CONTINUOUS
 62
   250
 10
-0.051009
 20
0.647044
 30
0.0
 11
-0.051929
 21
0.645206
 31
0.0
  0
LINE
  8
1
  6
CONTINUOUS
 62
   250
 10
-0.040899
 20
0.610281
 30
0.0
 11
-0.039062
 21
0.608903
 31
0.0
  0
LINE
  8
1
  6
CONTINUOUS
 62
   250
 10
-0.040899
 20
0.630961
 30
0.0
 11
-0.038601
 21
0.631879
 31
0.0
  0
LINE
  8
1
  6
CONTINUOUS
 62
   250
 10
-0.040899
 20
0.623148
 30
0.0
 11
-0.041819
 21
0.623607
 31
0.0
  0
LINE
  8
1
  6
CONTINUOUS
 62
   250
 10
-0.039062
 20
0.621769
 30
0.0
 11
-0.040899
 21
0.623148
 31
0.0
  0
LINE
  8
1
  6
CONTINUOUS
 62
   250
 10
-0.038601
 20
0.620849
 30
0.0
 11
-0.039062
 21
0.621769
 31
0.0
  0
LINE
  8
1
  6
CONTINUOUS
 62
   250
 10
-0.038601
 20
0.618553
 30
0.0
 11
-0.038601
 21
0.620849
 31
0.0
  0
LINE
  8
1
  6
CONTINUOUS
 62
   250
 10
-0.043198
 20
0.6305
 30
0.0
 11
-0.040899
 21
0.630961
 31
0.0
  0
LINE
  8
1
  6
CONTINUOUS
 62
   250
 10
-0.041819
 20
0.615335
 30
0.0
 11
-0.040899
 21
0.615796
 31
0.0
  0
LINE
  8
1
  6
CONTINUOUS
 62
   250
 10
-0.043657
 20
0.614876
 30
0.0
 11
-0.041819
 21
0.615335
 31
0.0
  0
LINE
  8
1
  6
CONTINUOUS
 62
   250
 10
-0.040899
 20
0.615796
 30
0.0
 11
-0.039062
 21
0.617174
 31
0.0
  0
LINE
  8
1
  6
CONTINUOUS
 62
   250
 10
-0.041819
 20
0.61074
 30
0.0
 11
-0.040899
 21
0.610281
 31
0.0
  0
LINE
  8
1
  6
CONTINUOUS
 62
   250
 10
-0.043657
 20
0.611199
 30
0.0
 11
-0.041819
 21
0.61074
 31
0.0
  0
LINE
  8
1
  6
CONTINUOUS
 62
   250
 10
-0.039062
 20
0.617174
 30
0.0
 11
-0.038601
 21
0.618553
 31
0.0
  0
LINE
  8
1
  6
CONTINUOUS
 62
   250
 10
-0.051929
 20
0.608903
 30
0.0
 11
-0.051009
 21
0.610281
 31
0.0
  0
LINE
  8
1
  6
CONTINUOUS
 62
   250
 10
-0.048251
 20
0.631879
 30
0.0
 11
-0.046414
 21
0.630961
 31
0.0
  0
LINE
  8
1
  6
CONTINUOUS
 62
   250
 10
-0.051009
 20
0.633718
 30
0.0
 11
-0.048251
 21
0.631879
 31
0.0
  0
LINE
  8
1
  6
CONTINUOUS
 62
   250
 10
-0.051929
 20
0.635556
 30
0.0
 11
-0.051009
 21
0.633718
 31
0.0
  0
LINE
  8
1
  6
CONTINUOUS
 62
   250
 10
-0.052388
 20
0.620849
 30
0.0
 11
-0.052388
 21
0.618553
 31
0.0
  0
LINE
  8
1
  6
CONTINUOUS
 62
   250
 10
-0.051929
 20
0.621769
 30
0.0
 11
-0.052388
 21
0.620849
 31
0.0
  0
LINE
  8
1
  6
CONTINUOUS
 62
   250
 10
-0.051009
 20
0.623148
 30
0.0
 11
-0.051929
 21
0.621769
 31
0.0
  0
LINE
  8
1
  6
CONTINUOUS
 62
   250
 10
-0.049171
 20
0.623607
 30
0.0
 11
-0.051009
 21
0.623148
 31
0.0
  0
LINE
  8
1
  6
CONTINUOUS
 62
   250
 10
-0.049171
 20
0.615335
 30
0.0
 11
-0.046873
 21
0.614876
 31
0.0
  0
LINE
  8
1
  6
CONTINUOUS
 62
   250
 10
-0.051009
 20
0.615796
 30
0.0
 11
-0.049171
 21
0.615335
 31
0.0
  0
LINE
  8
1
  6
CONTINUOUS
 62
   250
 10
-0.051929
 20
0.617174
 30
0.0
 11
-0.051009
 21
0.615796
 31
0.0
  0
LINE
  8
1
  6
CONTINUOUS
 62
   250
 10
-0.049171
 20
0.61074
 30
0.0
 11
-0.046873
 21
0.611199
 31
0.0
  0
LINE
  8
1
  6
CONTINUOUS
 62
   250
 10
-0.051009
 20
0.610281
 30
0.0
 11
-0.049171
 21
0.61074
 31
0.0
  0
LINE
  8
1
  6
CONTINUOUS
 62
   250
 10
-0.052388
 20
0.618553
 30
0.0
 11
-0.051929
 21
0.617174
 31
0.0
  0
LINE
  8
1
  6
CONTINUOUS
 62
   250
 10
-0.046414
 20
0.630961
 30
0.0
 11
-0.043198
 21
0.6305
 31
0.0
  0
LINE
  8
1
  6
CONTINUOUS
 62
   250
 10
-0.046873
 20
0.614876
 30
0.0
 11
-0.043657
 21
0.614876
 31
0.0
  0
LINE
  8
1
  6
CONTINUOUS
 62
   250
 10
-0.046873
 20
0.611199
 30
0.0
 11
-0.043657
 21
0.611199
 31
0.0
  0
LINE
  8
1
  6
CONTINUOUS
 62
   250
 10
-0.033547
 20
0.640611
 30
0.0
 11
-0.034465
 21
0.642908
 31
0.0
  0
LINE
  8
1
  6
CONTINUOUS
 62
   250
 10
-0.034465
 20
0.642908
 30
0.0
 11
-0.035385
 21
0.645206
 31
0.0
  0
LINE
  8
1
  6
CONTINUOUS
 62
   250
 10
-0.035385
 20
0.645206
 30
0.0
 11
-0.036764
 21
0.647044
 31
0.0
  0
LINE
  8
1
  6
CONTINUOUS
 62
   250
 10
-0.035385
 20
0.635556
 30
0.0
 11
-0.034465
 21
0.637854
 31
0.0
  0
LINE
  8
1
  6
CONTINUOUS
 62
   250
 10
-0.036764
 20
0.633718
 30
0.0
 11
-0.035385
 21
0.635556
 31
0.0
  0
LINE
  8
1
  6
CONTINUOUS
 62
   250
 10
-0.034465
 20
0.637854
 30
0.0
 11
-0.033547
 21
0.640611
 31
0.0
  0
LINE
  8
1
  6
CONTINUOUS
 62
   250
 10
-0.040899
 20
0.649801
 30
0.0
 11
-0.043198
 21
0.650262
 31
0.0
  0
LINE
  8
1
  6
CONTINUOUS
 62
   250
 10
-0.038601
 20
0.648883
 30
0.0
 11
-0.040899
 21
0.649801
 31
0.0
  0
LINE
  8
1
  6
CONTINUOUS
 62
   250
 10
-0.046414
 20
0.649801
 30
0.0
 11
-0.048251
 21
0.648883
 31
0.0
  0
LINE
  8
1
  6
CONTINUOUS
 62
   250
 10
-0.043198
 20
0.650262
 30
0.0
 11
-0.046414
 21
0.649801
 31
0.0
  0
LINE
  8
1
  6
CONTINUOUS
 62
   250
 10
0.463226
 20
0.188874
 30
0.0
 11
0.465983
 21
0.19301
 31
0.0
  0
LINE
  8
1
  6
CONTINUOUS
 62
   250
 10
0.465522
 20
0.220583
 30
0.0
 11
0.460928
 21
0.215989
 31
0.0
  0
LINE
  8
1
  6
CONTINUOUS
 62
   250
 10
0.471957
 20
0.114428
 30
0.0
 11
0.461847
 21
0.114428
 31
0.0
  0
LINE
  8
1
  6
CONTINUOUS
 62
   250
 10
0.466442
 20
0.157166
 30
0.0
 11
0.463226
 21
0.160843
 31
0.0
  0
LINE
  8
1
  6
CONTINUOUS
 62
   250
 10
0.460928
 20
0.156707
 30
0.0
 11
0.465522
 21
0.151651
 31
0.0
  0
LINE
  8
1
  6
CONTINUOUS
 62
   250
 10
0.460928
 20
0.157166
 30
0.0
 11
0.465522
 21
0.15211
 31
0.0
  0
LINE
  8
1
  6
CONTINUOUS
 62
   250
 10
0.459549
 20
0.193469
 30
0.0
 11
0.493556
 21
0.227935
 31
0.0
  0
LINE
  8
1
  6
CONTINUOUS
 62
   250
 10
0.431517
 20
0.096964
 30
0.0
 11
0.485284
 21
0.043658
 31
0.0
  0
LINE
  8
1
  6
CONTINUOUS
 62
   250
 10
0.465983
 20
0.102479
 30
0.0
 11
0.431517
 21
0.068012
 31
0.0
  0
LINE
  8
1
  6
CONTINUOUS
 62
   250
 10
0.51975
 20
0.043658
 30
0.0
 11
0.460469
 21
0.102479
 31
0.0
  0
LINE
  8
1
  6
CONTINUOUS
 62
   250
 10
0.441627
 20
0.043658
 30
0.0
 11
0.499529
 21
0.102479
 31
0.0
  0
LINE
  8
1
  6
CONTINUOUS
 62
   250
 10
0.547782
 20
0.043658
 30
0.0
 11
0.431517
 21
0.043658
 31
0.0
  0
LINE
  8
1
  6
CONTINUOUS
 62
   250
 10
0.431517
 20
0.102479
 30
0.0
 11
0.547782
 21
0.102479
 31
0.0
  0
LINE
  8
1
  6
CONTINUOUS
 62
   250
 10
0.411296
 20
0.177845
 30
0.0
 11
0.411296
 21
0.465062
 31
0.0
  0
LINE
  8
1
  6
CONTINUOUS
 62
   250
 10
0.012409
 20
0.465062
 30
0.0
 11
0.012409
 21
0.177845
 31
0.0
  0
LINE
  8
1
  6
CONTINUOUS
 62
   250
 10
0.411296
 20
0.177845
 30
0.0
 11
0.012409
 21
0.177845
 31
0.0
  0
LINE
  8
1
  6
CONTINUOUS
 62
   250
 10
0.095128
 20
0.34604
 30
0.0
 11
0.397969
 21
0.34604
 31
0.0
  0
LINE
  8
1
  6
CONTINUOUS
 62
   250
 10
0.397969
 20
0.262402
 30
0.0
 11
0.095128
 21
0.262402
 31
0.0
  0
LINE
  8
1
  6
CONTINUOUS
 62
   250
 10
0.10156
 20
0.16176
 30
0.0
 11
0.077205
 21
0.16176
 31
0.0
  0
LINE
  8
1
  6
CONTINUOUS
 62
   250
 10
0.095128
 20
0.262402
 30
0.0
 11
0.095128
 21
0.34604
 31
0.0
  0
LINE
  8
1
  6
CONTINUOUS
 62
   250
 10
0.002758
 20
0.268836
 30
0.0
 11
0.002758
 21
0.293193
 31
0.0
  0
LINE
  8
1
  6
CONTINUOUS
 62
   250
 10
0.002758
 20
0.195768
 30
0.0
 11
0.002758
 21
0.220125
 31
0.0
  0
LINE
  8
1
  6
CONTINUOUS
 62
   250
 10
0.028033
 20
0.16176
 30
0.0
 11
0.002758
 21
0.16176
 31
0.0
  0
LINE
  8
1
  6
CONTINUOUS
 62
   250
 10
0.002758
 20
0.16176
 30
0.0
 11
0.002758
 21
0.183819
 31
0.0
  0
LINE
  8
1
  6
CONTINUOUS
 62
   250
 10
0.002758
 20
0.232532
 30
0.0
 11
0.002758
 21
0.256887
 31
0.0
  0
LINE
  8
1
  6
CONTINUOUS
 62
   250
 10
0.063878
 20
0.16176
 30
0.0
 11
0.040441
 21
0.16176
 31
0.0
  0
LINE
  8
1
  6
CONTINUOUS
 62
   250
 10
0.014246
 20
0.408079
 30
0.0
 11
0.072608
 21
0.408079
 31
0.0
  0
LINE
  8
1
  6
CONTINUOUS
 62
   250
 10
0.072608
 20
0.44714
 30
0.0
 11
0.014246
 21
0.44714
 31
0.0
  0
LINE
  8
1
  6
CONTINUOUS
 62
   250
 10
0.002758
 20
0.305601
 30
0.0
 11
0.002758
 21
0.329496
 31
0.0
  0
LINE
  8
1
  6
CONTINUOUS
 62
   250
 10
0.002758
 20
0.341904
 30
0.0
 11
0.002758
 21
0.366261
 31
0.0
  0
LINE
  8
1
  6
CONTINUOUS
 62
   250
 10
0.019302
 20
0.432895
 30
0.0
 11
-0.004135
 21
0.432895
 31
0.0
  0
LINE
  8
1
  6
CONTINUOUS
 62
   250
 10
-0.004135
 20
0.436572
 30
0.0
 11
0.019302
 21
0.436572
 31
0.0
  0
LINE
  8
1
  6
CONTINUOUS
 62
   250
 10
0.019302
 20
0.434273
 30
0.0
 11
-0.004135
 21
0.434273
 31
0.0
  0
LINE
  8
1
  6
CONTINUOUS
 62
   250
 10
0.019302
 20
0.417271
 30
0.0
 11
-0.004135
 21
0.417271
 31
0.0
  0
LINE
  8
1
  6
CONTINUOUS
 62
   250
 10
-0.004135
 20
0.417271
 30
0.0
 11
0.019302
 21
0.417271
 31
0.0
  0
LINE
  8
1
  6
CONTINUOUS
 62
   250
 10
0.019302
 20
0.413135
 30
0.0
 11
-0.004135
 21
0.413135
 31
0.0
  0
LINE
  8
1
  6
CONTINUOUS
 62
   250
 10
-0.004135
 20
0.414972
 30
0.0
 11
0.019302
 21
0.414972
 31
0.0
  0
LINE
  8
1
  6
CONTINUOUS
 62
   250
 10
-0.014246
 20
0.443004
 30
0.0
 11
-0.014246
 21
0.4067
 31
0.0
  0
LINE
  8
1
  6
CONTINUOUS
 62
   250
 10
-0.004135
 20
0.4067
 30
0.0
 11
-0.004135
 21
0.443004
 31
0.0
  0
LINE
  8
1
  6
CONTINUOUS
 62
   250
 10
-0.014246
 20
0.4067
 30
0.0
 11
-0.004135
 21
0.4067
 31
0.0
  0
LINE
  8
1
  6
CONTINUOUS
 62
   250
 10
-0.009191
 20
0.4067
 30
0.0
 11
-0.009191
 21
0.405781
 31
0.0
  0
LINE
  8
1
  6
CONTINUOUS
 62
   250
 10
0.002758
 20
0.378669
 30
0.0
 11
0.002758
 21
0.402565
 31
0.0
  0
LINE
  8
1
  6
CONTINUOUS
 62
   250
 10
-0.014246
 20
0.443004
 30
0.0
 11
-0.004135
 21
0.443004
 31
0.0
  0
LINE
  8
1
  6
CONTINUOUS
 62
   250
 10
-0.009191
 20
0.444383
 30
0.0
 11
-0.009191
 21
0.443004
 31
0.0
  0
LINE
  8
1
  6
CONTINUOUS
 62
   250
 10
-0.014246
 20
0.436572
 30
0.0
 11
-0.014246
 21
0.434273
 31
0.0
  0
LINE
  8
1
  6
CONTINUOUS
 62
   250
 10
-0.017922
 20
0.434273
 30
0.0
 11
-0.018383
 21
0.435652
 31
0.0
  0
LINE
  8
1
  6
CONTINUOUS
 62
   250
 10
-0.018383
 20
0.433815
 30
0.0
 11
-0.017922
 21
0.434273
 31
0.0
  0
LINE
  8
1
  6
CONTINUOUS
 62
   250
 10
-0.014246
 20
0.436572
 30
0.0
 11
-0.014246
 21
0.432895
 31
0.0
  0
LINE
  8
1
  6
CONTINUOUS
 62
   250
 10
-0.017922
 20
0.415431
 30
0.0
 11
-0.018383
 21
0.416351
 31
0.0
  0
LINE
  8
1
  6
CONTINUOUS
 62
   250
 10
-0.014246
 20
0.413135
 30
0.0
 11
-0.014246
 21
0.417271
 31
0.0
  0
LINE
  8
1
  6
CONTINUOUS
 62
   250
 10
-0.014246
 20
0.414972
 30
0.0
 11
-0.014246
 21
0.413135
 31
0.0
  0
LINE
  8
1
  6
CONTINUOUS
 62
   250
 10
-0.018383
 20
0.414053
 30
0.0
 11
-0.017922
 21
0.415431
 31
0.0
  0
LINE
  8
1
  6
CONTINUOUS
 62
   250
 10
-0.018841
 20
0.436572
 30
0.0
 11
-0.0193
 21
0.436572
 31
0.0
  0
LINE
  8
1
  6
CONTINUOUS
 62
   250
 10
-0.0193
 20
0.432895
 30
0.0
 11
-0.018841
 21
0.432895
 31
0.0
  0
LINE
  8
1
  6
CONTINUOUS
 62
   250
 10
-0.019761
 20
0.432895
 30
0.0
 11
-0.0193
 21
0.432895
 31
0.0
  0
LINE
  8
1
  6
CONTINUOUS
 62
   250
 10
-0.020679
 20
0.433815
 30
0.0
 11
-0.019761
 21
0.432895
 31
0.0
  0
LINE
  8
1
  6
CONTINUOUS
 62
   250
 10
-0.020679
 20
0.434273
 30
0.0
 11
-0.020679
 21
0.433815
 31
0.0
  0
LINE
  8
1
  6
CONTINUOUS
 62
   250
 10
-0.020679
 20
0.435652
 30
0.0
 11
-0.020679
 21
0.434273
 31
0.0
  0
LINE
  8
1
  6
CONTINUOUS
 62
   250
 10
-0.019761
 20
0.436572
 30
0.0
 11
-0.020679
 21
0.435652
 31
0.0
  0
LINE
  8
1
  6
CONTINUOUS
 62
   250
 10
-0.0193
 20
0.436572
 30
0.0
 11
-0.019761
 21
0.436572
 31
0.0
  0
LINE
  8
1
  6
CONTINUOUS
 62
   250
 10
-0.0193
 20
0.432895
 30
0.0
 11
-0.0193
 21
0.436572
 31
0.0
  0
LINE
  8
1
  6
CONTINUOUS
 62
   250
 10
-0.0193
 20
0.417271
 30
0.0
 11
-0.0193
 21
0.414972
 31
0.0
  0
LINE
  8
1
  6
CONTINUOUS
 62
   250
 10
-0.020679
 20
0.416351
 30
0.0
 11
-0.020679
 21
0.415431
 31
0.0
  0
LINE
  8
1
  6
CONTINUOUS
 62
   250
 10
-0.019761
 20
0.41681
 30
0.0
 11
-0.020679
 21
0.416351
 31
0.0
  0
LINE
  8
1
  6
CONTINUOUS
 62
   250
 10
-0.0193
 20
0.417271
 30
0.0
 11
-0.019761
 21
0.41681
 31
0.0
  0
LINE
  8
1
  6
CONTINUOUS
 62
   250
 10
-0.018841
 20
0.41681
 30
0.0
 11
-0.0193
 21
0.417271
 31
0.0
  0
LINE
  8
1
  6
CONTINUOUS
 62
   250
 10
-0.0193
 20
0.413594
 30
0.0
 11
-0.018841
 21
0.413594
 31
0.0
  0
LINE
  8
1
  6
CONTINUOUS
 62
   250
 10
-0.019761
 20
0.413594
 30
0.0
 11
-0.0193
 21
0.413594
 31
0.0
  0
LINE
  8
1
  6
CONTINUOUS
 62
   250
 10
-0.020679
 20
0.414053
 30
0.0
 11
-0.019761
 21
0.413594
 31
0.0
  0
LINE
  8
1
  6
CONTINUOUS
 62
   250
 10
-0.0193
 20
0.413135
 30
0.0
 11
-0.0193
 21
0.417271
 31
0.0
  0
LINE
  8
1
  6
CONTINUOUS
 62
   250
 10
-0.020679
 20
0.415431
 30
0.0
 11
-0.020679
 21
0.414053
 31
0.0
  0
LINE
  8
1
  6
CONTINUOUS
 62
   250
 10
-0.014246
 20
0.434273
 30
0.0
 11
-0.0193
 21
0.434273
 31
0.0
  0
LINE
  8
1
  6
CONTINUOUS
 62
   250
 10
-0.0193
 20
0.436572
 30
0.0
 11
-0.014246
 21
0.436572
 31
0.0
  0
LINE
  8
1
  6
CONTINUOUS
 62
   250
 10
-0.018383
 20
0.435652
 30
0.0
 11
-0.018841
 21
0.436572
 31
0.0
  0
LINE
  8
1
  6
CONTINUOUS
 62
   250
 10
-0.018841
 20
0.432895
 30
0.0
 11
-0.018383
 21
0.433815
 31
0.0
  0
LINE
  8
1
  6
CONTINUOUS
 62
   250
 10
-0.014246
 20
0.432895
 30
0.0
 11
-0.0193
 21
0.432895
 31
0.0
  0
LINE
  8
1
  6
CONTINUOUS
 62
   250
 10
-0.014246
 20
0.413135
 30
0.0
 11
-0.0193
 21
0.413135
 31
0.0
  0
LINE
  8
1
  6
CONTINUOUS
 62
   250
 10
-0.0193
 20
0.417271
 30
0.0
 11
-0.014246
 21
0.417271
 31
0.0
  0
LINE
  8
1
  6
CONTINUOUS
 62
   250
 10
-0.014246
 20
0.417271
 30
0.0
 11
-0.0193
 21
0.417271
 31
0.0
  0
LINE
  8
1
  6
CONTINUOUS
 62
   250
 10
-0.0193
 20
0.414972
 30
0.0
 11
-0.014246
 21
0.414972
 31
0.0
  0
LINE
  8
1
  6
CONTINUOUS
 62
   250
 10
-0.018841
 20
0.413594
 30
0.0
 11
-0.018383
 21
0.414053
 31
0.0
  0
LINE
  8
1
  6
CONTINUOUS
 62
   250
 10
-0.018383
 20
0.416351
 30
0.0
 11
-0.018841
 21
0.41681
 31
0.0
  0
LINE
  8
1
  6
CONTINUOUS
 62
   250
 10
-0.004135
 20
0.432895
 30
0.0
 11
-0.004135
 21
0.436572
 31
0.0
  0
LINE
  8
1
  6
CONTINUOUS
 62
   250
 10
-0.004135
 20
0.434273
 30
0.0
 11
-0.004135
 21
0.436572
 31
0.0
  0
LINE
  8
1
  6
CONTINUOUS
 62
   250
 10
-0.004135
 20
0.417271
 30
0.0
 11
-0.004135
 21
0.414972
 31
0.0
  0
LINE
  8
1
  6
CONTINUOUS
 62
   250
 10
-0.004135
 20
0.413135
 30
0.0
 11
-0.004135
 21
0.417271
 31
0.0
  0
LINE
  8
1
  6
CONTINUOUS
 62
   250
 10
0.002758
 20
0.414972
 30
0.0
 11
0.002758
 21
0.439329
 31
0.0
  0
LINE
  8
1
  6
CONTINUOUS
 62
   250
 10
0.014246
 20
0.44714
 30
0.0
 11
0.014246
 21
0.408079
 31
0.0
  0
LINE
  8
1
  6
CONTINUOUS
 62
   250
 10
0.019302
 20
0.436572
 30
0.0
 11
0.019302
 21
0.432895
 31
0.0
  0
LINE
  8
1
  6
CONTINUOUS
 62
   250
 10
0.019302
 20
0.417271
 30
0.0
 11
0.019302
 21
0.413135
 31
0.0
  0
LINE
  8
1
  6
CONTINUOUS
 62
   250
 10
0.019302
 20
0.414972
 30
0.0
 11
0.019302
 21
0.413135
 31
0.0
  0
LINE
  8
1
  6
CONTINUOUS
 62
   250
 10
0.083179
 20
0.44806
 30
0.0
 11
0.083179
 21
0.40762
 31
0.0
  0
LINE
  8
1
  6
CONTINUOUS
 62
   250
 10
0.072608
 20
0.408079
 30
0.0
 11
0.072608
 21
0.44714
 31
0.0
  0
LINE
  8
1
  6
CONTINUOUS
 62
   250
 10
0.069392
 20
0.40762
 30
0.0
 11
0.069392
 21
0.408079
 31
0.0
  0
LINE
  8
1
  6
CONTINUOUS
 62
   250
 10
0.083179
 20
0.40762
 30
0.0
 11
0.069392
 21
0.40762
 31
0.0
  0
LINE
  8
1
  6
CONTINUOUS
 62
   250
 10
0.069392
 20
0.44714
 30
0.0
 11
0.069392
 21
0.44806
 31
0.0
  0
LINE
  8
1
  6
CONTINUOUS
 62
   250
 10
0.077205
 20
0.437031
 30
0.0
 11
0.077205
 21
0.438868
 31
0.0
  0
LINE
  8
1
  6
CONTINUOUS
 62
   250
 10
0.074907
 20
0.435652
 30
0.0
 11
0.077205
 21
0.435652
 31
0.0
  0
LINE
  8
1
  6
CONTINUOUS
 62
   250
 10
0.074907
 20
0.436572
 30
0.0
 11
0.074907
 21
0.435652
 31
0.0
  0
LINE
  8
1
  6
CONTINUOUS
 62
   250
 10
0.074907
 20
0.43749
 30
0.0
 11
0.074907
 21
0.436572
 31
0.0
  0
LINE
  8
1
  6
CONTINUOUS
 62
   250
 10
0.074907
 20
0.438409
 30
0.0
 11
0.074907
 21
0.43749
 31
0.0
  0
LINE
  8
1
  6
CONTINUOUS
 62
   250
 10
0.074907
 20
0.438868
 30
0.0
 11
0.074907
 21
0.438409
 31
0.0
  0
LINE
  8
1
  6
CONTINUOUS
 62
   250
 10
0.077205
 20
0.439329
 30
0.0
 11
0.074907
 21
0.438868
 31
0.0
  0
LINE
  8
1
  6
CONTINUOUS
 62
   250
 10
0.078123
 20
0.438868
 30
0.0
 11
0.077205
 21
0.439329
 31
0.0
  0
LINE
  8
1
  6
CONTINUOUS
 62
   250
 10
0.079043
 20
0.438409
 30
0.0
 11
0.078123
 21
0.438868
 31
0.0
  0
LINE
  8
1
  6
CONTINUOUS
 62
   250
 10
0.079043
 20
0.43749
 30
0.0
 11
0.079043
 21
0.438409
 31
0.0
  0
LINE
  8
1
  6
CONTINUOUS
 62
   250
 10
0.079043
 20
0.436572
 30
0.0
 11
0.079043
 21
0.43749
 31
0.0
  0
LINE
  8
1
  6
CONTINUOUS
 62
   250
 10
0.078123
 20
0.435652
 30
0.0
 11
0.079043
 21
0.436572
 31
0.0
  0
LINE
  8
1
  6
CONTINUOUS
 62
   250
 10
0.077205
 20
0.435652
 30
0.0
 11
0.078123
 21
0.435652
 31
0.0
  0
LINE
  8
1
  6
CONTINUOUS
 62
   250
 10
0.077205
 20
0.439329
 30
0.0
 11
0.077205
 21
0.435652
 31
0.0
  0
LINE
  8
1
  6
CONTINUOUS
 62
   250
 10
0.077205
 20
0.417271
 30
0.0
 11
0.077205
 21
0.419567
 31
0.0
  0
LINE
  8
1
  6
CONTINUOUS
 62
   250
 10
0.074907
 20
0.416351
 30
0.0
 11
0.077205
 21
0.415892
 31
0.0
  0
LINE
  8
1
  6
CONTINUOUS
 62
   250
 10
0.074907
 20
0.417271
 30
0.0
 11
0.074907
 21
0.416351
 31
0.0
  0
LINE
  8
1
  6
CONTINUOUS
 62
   250
 10
0.074907
 20
0.41773
 30
0.0
 11
0.074907
 21
0.417271
 31
0.0
  0
LINE
  8
1
  6
CONTINUOUS
 62
   250
 10
0.074907
 20
0.419108
 30
0.0
 11
0.074907
 21
0.41773
 31
0.0
  0
LINE
  8
1
  6
CONTINUOUS
 62
   250
 10
0.074907
 20
0.419567
 30
0.0
 11
0.074907
 21
0.419108
 31
0.0
  0
LINE
  8
1
  6
CONTINUOUS
 62
   250
 10
0.077205
 20
0.420028
 30
0.0
 11
0.074907
 21
0.419567
 31
0.0
  0
LINE
  8
1
  6
CONTINUOUS
 62
   250
 10
0.078123
 20
0.419567
 30
0.0
 11
0.077205
 21
0.420028
 31
0.0
  0
LINE
  8
1
  6
CONTINUOUS
 62
   250
 10
0.079043
 20
0.419108
 30
0.0
 11
0.078123
 21
0.419567
 31
0.0
  0
LINE
  8
1
  6
CONTINUOUS
 62
   250
 10
0.079043
 20
0.41773
 30
0.0
 11
0.079043
 21
0.419108
 31
0.0
  0
LINE
  8
1
  6
CONTINUOUS
 62
   250
 10
0.079043
 20
0.417271
 30
0.0
 11
0.079043
 21
0.41773
 31
0.0
  0
LINE
  8
1
  6
CONTINUOUS
 62
   250
 10
0.078123
 20
0.416351
 30
0.0
 11
0.079043
 21
0.417271
 31
0.0
  0
LINE
  8
1
  6
CONTINUOUS
 62
   250
 10
0.077205
 20
0.415892
 30
0.0
 11
0.078123
 21
0.416351
 31
0.0
  0
LINE
  8
1
  6
CONTINUOUS
 62
   250
 10
0.077205
 20
0.420028
 30
0.0
 11
0.077205
 21
0.415892
 31
0.0
  0
LINE
  8
1
  6
CONTINUOUS
 62
   250
 10
0.072608
 20
0.438868
 30
0.0
 11
0.072608
 21
0.437031
 31
0.0
  0
LINE
  8
1
  6
CONTINUOUS
 62
   250
 10
0.072608
 20
0.435652
 30
0.0
 11
0.072608
 21
0.437031
 31
0.0
  0
LINE
  8
1
  6
CONTINUOUS
 62
   250
 10
0.072608
 20
0.435652
 30
0.0
 11
0.072608
 21
0.439329
 31
0.0
  0
LINE
  8
1
  6
CONTINUOUS
 62
   250
 10
0.072608
 20
0.419567
 30
0.0
 11
0.072608
 21
0.417271
 31
0.0
  0
LINE
  8
1
  6
CONTINUOUS
 62
   250
 10
0.072608
 20
0.415892
 30
0.0
 11
0.072608
 21
0.417271
 31
0.0
  0
LINE
  8
1
  6
CONTINUOUS
 62
   250
 10
0.072608
 20
0.415892
 30
0.0
 11
0.072608
 21
0.420028
 31
0.0
  0
LINE
  8
1
  6
CONTINUOUS
 62
   250
 10
0.077205
 20
0.438868
 30
0.0
 11
0.072608
 21
0.438868
 31
0.0
  0
LINE
  8
1
  6
CONTINUOUS
 62
   250
 10
0.072608
 20
0.437031
 30
0.0
 11
0.077205
 21
0.437031
 31
0.0
  0
LINE
  8
1
  6
CONTINUOUS
 62
   250
 10
0.077205
 20
0.435652
 30
0.0
 11
0.072608
 21
0.435652
 31
0.0
  0
LINE
  8
1
  6
CONTINUOUS
 62
   250
 10
0.072608
 20
0.439329
 30
0.0
 11
0.077205
 21
0.439329
 31
0.0
  0
LINE
  8
1
  6
CONTINUOUS
 62
   250
 10
0.077205
 20
0.419567
 30
0.0
 11
0.072608
 21
0.419567
 31
0.0
  0
LINE
  8
1
  6
CONTINUOUS
 62
   250
 10
0.072608
 20
0.417271
 30
0.0
 11
0.077205
 21
0.417271
 31
0.0
  0
LINE
  8
1
  6
CONTINUOUS
 62
   250
 10
0.077205
 20
0.415892
 30
0.0
 11
0.072608
 21
0.415892
 31
0.0
  0
LINE
  8
1
  6
CONTINUOUS
 62
   250
 10
0.072608
 20
0.420028
 30
0.0
 11
0.077205
 21
0.420028
 31
0.0
  0
LINE
  8
1
  6
CONTINUOUS
 62
   250
 10
0.069392
 20
0.44806
 30
0.0
 11
0.083179
 21
0.44806
 31
0.0
  0
LINE
  8
1
  6
CONTINUOUS
 62
   250
 10
0.174169
 20
0.16176
 30
0.0
 11
0.150273
 21
0.16176
 31
0.0
  0
LINE
  8
1
  6
CONTINUOUS
 62
   250
 10
0.137866
 20
0.16176
 30
0.0
 11
0.113509
 21
0.16176
 31
0.0
  0
LINE
  8
1
  6
CONTINUOUS
 62
   250
 10
0.210934
 20
0.16176
 30
0.0
 11
0.185657
 21
0.16176
 31
0.0
  0
LINE
  8
1
  6
CONTINUOUS
 62
   250
 10
0.431517
 20
0.102479
 30
0.0
 11
0.431517
 21
0.043658
 31
0.0
  0
LINE
  8
1
  6
CONTINUOUS
 62
   250
 10
0.431517
 20
0.062959
 30
0.0
 11
0.449898
 21
0.043658
 31
0.0
  0
LINE
  8
1
  6
CONTINUOUS
 62
   250
 10
0.461847
 20
0.121321
 30
0.0
 11
0.461847
 21
0.107993
 31
0.0
  0
LINE
  8
1
  6
CONTINUOUS
 62
   250
 10
0.387401
 20
0.446681
 30
0.0
 11
0.279405
 21
0.446681
 31
0.0
  0
LINE
  8
1
  6
CONTINUOUS
 62
   250
 10
0.336391
 20
0.251372
 30
0.0
 11
0.386481
 21
0.251372
 31
0.0
  0
LINE
  8
1
  6
CONTINUOUS
 62
   250
 10
0.356151
 20
0.16176
 30
0.0
 11
0.332255
 21
0.16176
 31
0.0
  0
LINE
  8
1
  6
CONTINUOUS
 62
   250
 10
0.336391
 20
0.21369
 30
0.0
 11
0.386481
 21
0.21369
 31
0.0
  0
LINE
  8
1
  6
CONTINUOUS
 62
   250
 10
0.232992
 20
0.282622
 30
0.0
 11
0.365342
 21
0.282622
 31
0.0
  0
LINE
  8
1
  6
CONTINUOUS
 62
   250
 10
0.387401
 20
0.369018
 30
0.0
 11
0.279405
 21
0.369018
 31
0.0
  0
LINE
  8
1
  6
CONTINUOUS
 62
   250
 10
0.365342
 20
0.323523
 30
0.0
 11
0.232992
 21
0.323523
 31
0.0
  0
LINE
  8
1
  6
CONTINUOUS
 62
   250
 10
0.389697
 20
0.186117
 30
0.0
 11
0.332255
 21
0.186117
 31
0.0
  0
LINE
  8
1
  6
CONTINUOUS
 62
   250
 10
0.389697
 20
0.22426
 30
0.0
 11
0.332255
 21
0.22426
 31
0.0
  0
LINE
  8
1
  6
CONTINUOUS
 62
   250
 10
0.232992
 20
0.282622
 30
0.0
 11
0.232992
 21
0.323523
 31
0.0
  0
LINE
  8
1
  6
CONTINUOUS
 62
   250
 10
0.284002
 20
0.16176
 30
0.0
 11
0.259645
 21
0.16176
 31
0.0
  0
LINE
  8
1
  6
CONTINUOUS
 62
   250
 10
0.246318
 20
0.16176
 30
0.0
 11
0.22288
 21
0.16176
 31
0.0
  0
LINE
  8
1
  6
CONTINUOUS
 62
   250
 10
0.332255
 20
0.186117
 30
0.0
 11
0.332255
 21
0.21369
 31
0.0
  0
LINE
  8
1
  6
CONTINUOUS
 62
   250
 10
0.320306
 20
0.16176
 30
0.0
 11
0.29549
 21
0.16176
 31
0.0
  0
LINE
  8
1
  6
CONTINUOUS
 62
   250
 10
0.336391
 20
0.255508
 30
0.0
 11
0.336391
 21
0.251372
 31
0.0
  0
LINE
  8
1
  6
CONTINUOUS
 62
   250
 10
0.332255
 20
0.251372
 30
0.0
 11
0.332255
 21
0.255508
 31
0.0
  0
LINE
  8
1
  6
CONTINUOUS
 62
   250
 10
0.336391
 20
0.21369
 30
0.0
 11
0.336391
 21
0.217826
 31
0.0
  0
LINE
  8
1
  6
CONTINUOUS
 62
   250
 10
0.332255
 20
0.217826
 30
0.0
 11
0.332255
 21
0.21369
 31
0.0
  0
LINE
  8
1
  6
CONTINUOUS
 62
   250
 10
0.336391
 20
0.217826
 30
0.0
 11
0.332255
 21
0.217826
 31
0.0
  0
LINE
  8
1
  6
CONTINUOUS
 62
   250
 10
0.332255
 20
0.22426
 30
0.0
 11
0.332255
 21
0.251372
 31
0.0
  0
LINE
  8
1
  6
CONTINUOUS
 62
   250
 10
0.332255
 20
0.255508
 30
0.0
 11
0.336391
 21
0.255508
 31
0.0
  0
LINE
  8
1
  6
CONTINUOUS
 62
   250
 10
0.279405
 20
0.369018
 30
0.0
 11
0.279405
 21
0.446681
 31
0.0
  0
LINE
  8
1
  6
CONTINUOUS
 62
   250
 10
0.431056
 20
0.293193
 30
0.0
 11
0.431056
 21
0.268836
 31
0.0
  0
LINE
  8
1
  6
CONTINUOUS
 62
   250
 10
0.397969
 20
0.262402
 30
0.0
 11
0.397969
 21
0.34604
 31
0.0
  0
LINE
  8
1
  6
CONTINUOUS
 62
   250
 10
0.365342
 20
0.323523
 30
0.0
 11
0.365342
 21
0.282622
 31
0.0
  0
LINE
  8
1
  6
CONTINUOUS
 62
   250
 10
0.378668
 20
0.34604
 30
0.0
 11
0.378668
 21
0.262402
 31
0.0
  0
LINE
  8
1
  6
CONTINUOUS
 62
   250
 10
0.39843
 20
0.213231
 30
0.0
 11
0.397051
 21
0.21277
 31
0.0
  0
LINE
  8
1
  6
CONTINUOUS
 62
   250
 10
0.400726
 20
0.21277
 30
0.0
 11
0.400267
 21
0.213231
 31
0.0
  0
LINE
  8
1
  6
CONTINUOUS
 62
   250
 10
0.389697
 20
0.21369
 30
0.0
 11
0.389697
 21
0.186117
 31
0.0
  0
LINE
  8
1
  6
CONTINUOUS
 62
   250
 10
0.393374
 20
0.16176
 30
0.0
 11
0.368099
 21
0.16176
 31
0.0
  0
LINE
  8
1
  6
CONTINUOUS
 62
   250
 10
0.388779
 20
0.195768
 30
0.0
 11
0.388318
 21
0.197146
 31
0.0
  0
LINE
  8
1
  6
CONTINUOUS
 62
   250
 10
0.388318
 20
0.193469
 30
0.0
 11
0.388779
 21
0.195768
 31
0.0
  0
LINE
  8
1
  6
CONTINUOUS
 62
   250
 10
0.374993
 20
0.194848
 30
0.0
 11
0.388779
 21
0.194848
 31
0.0
  0
LINE
  8
1
  6
CONTINUOUS
 62
   250
 10
0.388779
 20
0.196227
 30
0.0
 11
0.374993
 21
0.196227
 31
0.0
  0
LINE
  8
1
  6
CONTINUOUS
 62
   250
 10
0.383723
 20
0.189333
 30
0.0
 11
0.386022
 21
0.189794
 31
0.0
  0
LINE
  8
1
  6
CONTINUOUS
 62
   250
 10
0.37775
 20
0.189794
 30
0.0
 11
0.378668
 21
0.189333
 31
0.0
  0
LINE
  8
1
  6
CONTINUOUS
 62
   250
 10
0.381886
 20
0.188874
 30
0.0
 11
0.383723
 21
0.189333
 31
0.0
  0
LINE
  8
1
  6
CONTINUOUS
 62
   250
 10
0.378668
 20
0.189333
 30
0.0
 11
0.381886
 21
0.188874
 31
0.0
  0
LINE
  8
1
  6
CONTINUOUS
 62
   250
 10
0.37775
 20
0.201282
 30
0.0
 11
0.376371
 21
0.199445
 31
0.0
  0
LINE
  8
1
  6
CONTINUOUS
 62
   250
 10
0.378668
 20
0.201741
 30
0.0
 11
0.37775
 21
0.201282
 31
0.0
  0
LINE
  8
1
  6
CONTINUOUS
 62
   250
 10
0.381886
 20
0.202202
 30
0.0
 11
0.378668
 21
0.201741
 31
0.0
  0
LINE
  8
1
  6
CONTINUOUS
 62
   250
 10
0.383723
 20
0.201741
 30
0.0
 11
0.381886
 21
0.202202
 31
0.0
  0
LINE
  8
1
  6
CONTINUOUS
 62
   250
 10
0.386022
 20
0.201282
 30
0.0
 11
0.383723
 21
0.201741
 31
0.0
  0
LINE
  8
1
  6
CONTINUOUS
 62
   250
 10
0.387401
 20
0.199445
 30
0.0
 11
0.386022
 21
0.201282
 31
0.0
  0
LINE
  8
1
  6
CONTINUOUS
 62
   250
 10
0.386022
 20
0.189794
 30
0.0
 11
0.387401
 21
0.191632
 31
0.0
  0
LINE
  8
1
  6
CONTINUOUS
 62
   250
 10
0.376371
 20
0.191632
 30
0.0
 11
0.37775
 21
0.189794
 31
0.0
  0
LINE
  8
1
  6
CONTINUOUS
 62
   250
 10
0.375451
 20
0.193469
 30
0.0
 11
0.376371
 21
0.191632
 31
0.0
  0
LINE
  8
1
  6
CONTINUOUS
 62
   250
 10
0.376371
 20
0.199445
 30
0.0
 11
0.375451
 21
0.197146
 31
0.0
  0
LINE
  8
1
  6
CONTINUOUS
 62
   250
 10
0.374993
 20
0.195768
 30
0.0
 11
0.374993
 21
0.194848
 31
0.0
  0
LINE
  8
1
  6
CONTINUOUS
 62
   250
 10
0.374993
 20
0.196227
 30
0.0
 11
0.374993
 21
0.195768
 31
0.0
  0
LINE
  8
1
  6
CONTINUOUS
 62
   250
 10
0.375451
 20
0.197146
 30
0.0
 11
0.374993
 21
0.195768
 31
0.0
  0
LINE
  8
1
  6
CONTINUOUS
 62
   250
 10
0.374993
 20
0.195768
 30
0.0
 11
0.375451
 21
0.193469
 31
0.0
  0
LINE
  8
1
  6
CONTINUOUS
 62
   250
 10
0.388318
 20
0.197146
 30
0.0
 11
0.387401
 21
0.199445
 31
0.0
  0
LINE
  8
1
  6
CONTINUOUS
 62
   250
 10
0.387401
 20
0.191632
 30
0.0
 11
0.388318
 21
0.193469
 31
0.0
  0
LINE
  8
1
  6
CONTINUOUS
 62
   250
 10
0.401187
 20
0.212311
 30
0.0
 11
0.400726
 21
0.21277
 31
0.0
  0
LINE
  8
1
  6
CONTINUOUS
 62
   250
 10
0.403024
 20
0.211392
 30
0.0
 11
0.401187
 21
0.212311
 31
0.0
  0
LINE
  8
1
  6
CONTINUOUS
 62
   250
 10
0.395211
 20
0.212311
 30
0.0
 11
0.394753
 21
0.211392
 31
0.0
  0
LINE
  8
1
  6
CONTINUOUS
 62
   250
 10
0.397051
 20
0.21277
 30
0.0
 11
0.395211
 21
0.212311
 31
0.0
  0
LINE
  8
1
  6
CONTINUOUS
 62
   250
 10
0.401187
 20
0.207256
 30
0.0
 11
0.400726
 21
0.206797
 31
0.0
  0
LINE
  8
1
  6
CONTINUOUS
 62
   250
 10
0.403024
 20
0.208176
 30
0.0
 11
0.401187
 21
0.207256
 31
0.0
  0
LINE
  8
1
  6
CONTINUOUS
 62
   250
 10
0.403483
 20
0.209095
 30
0.0
 11
0.403024
 21
0.208176
 31
0.0
  0
LINE
  8
1
  6
CONTINUOUS
 62
   250
 10
0.403483
 20
0.209095
 30
0.0
 11
0.403483
 21
0.210474
 31
0.0
  0
LINE
  8
1
  6
CONTINUOUS
 62
   250
 10
0.397969
 20
0.20404
 30
0.0
 11
0.397969
 21
0.199904
 31
0.0
  0
LINE
  8
1
  6
CONTINUOUS
 62
   250
 10
0.39843
 20
0.206797
 30
0.0
 11
0.39843
 21
0.209095
 31
0.0
  0
LINE
  8
1
  6
CONTINUOUS
 62
   250
 10
0.397051
 20
0.206797
 30
0.0
 11
0.39843
 21
0.206797
 31
0.0
  0
LINE
  8
1
  6
CONTINUOUS
 62
   250
 10
0.395211
 20
0.207256
 30
0.0
 11
0.397051
 21
0.206797
 31
0.0
  0
LINE
  8
1
  6
CONTINUOUS
 62
   250
 10
0.394753
 20
0.208176
 30
0.0
 11
0.395211
 21
0.207256
 31
0.0
  0
LINE
  8
1
  6
CONTINUOUS
 62
   250
 10
0.394753
 20
0.209095
 30
0.0
 11
0.394753
 21
0.208176
 31
0.0
  0
LINE
  8
1
  6
CONTINUOUS
 62
   250
 10
0.394753
 20
0.210474
 30
0.0
 11
0.394753
 21
0.209095
 31
0.0
  0
LINE
  8
1
  6
CONTINUOUS
 62
   250
 10
0.403483
 20
0.19301
 30
0.0
 11
0.394753
 21
0.187037
 31
0.0
  0
LINE
  8
1
  6
CONTINUOUS
 62
   250
 10
0.394753
 20
0.187037
 30
0.0
 11
0.403483
 21
0.187037
 31
0.0
  0
LINE
  8
1
  6
CONTINUOUS
 62
   250
 10
0.394753
 20
0.198525
 30
0.0
 11
0.403483
 21
0.201741
 31
0.0
  0
LINE
  8
1
  6
CONTINUOUS
 62
   250
 10
0.403483
 20
0.201741
 30
0.0
 11
0.394753
 21
0.205418
 31
0.0
  0
LINE
  8
1
  6
CONTINUOUS
 62
   250
 10
0.394753
 20
0.19301
 30
0.0
 11
0.403483
 21
0.19301
 31
0.0
  0
LINE
  8
1
  6
CONTINUOUS
 62
   250
 10
0.403483
 20
0.196688
 30
0.0
 11
0.394753
 21
0.196688
 31
0.0
  0
LINE
  8
1
  6
CONTINUOUS
 62
   250
 10
0.403483
 20
0.210474
 30
0.0
 11
0.403024
 21
0.211392
 31
0.0
  0
LINE
  8
1
  6
CONTINUOUS
 62
   250
 10
0.394753
 20
0.211392
 30
0.0
 11
0.394753
 21
0.210474
 31
0.0
  0
LINE
  8
1
  6
CONTINUOUS
 62
   250
 10
0.403483
 20
0.249076
 30
0.0
 11
0.403483
 21
0.255049
 31
0.0
  0
LINE
  8
1
  6
CONTINUOUS
 62
   250
 10
0.394753
 20
0.255049
 30
0.0
 11
0.394753
 21
0.249076
 31
0.0
  0
LINE
  8
1
  6
CONTINUOUS
 62
   250
 10
0.389697
 20
0.255508
 30
0.0
 11
0.389697
 21
0.251372
 31
0.0
  0
LINE
  8
1
  6
CONTINUOUS
 62
   250
 10
0.403483
 20
0.249076
 30
0.0
 11
0.394753
 21
0.255049
 31
0.0
  0
LINE
  8
1
  6
CONTINUOUS
 62
   250
 10
0.386481
 20
0.251372
 30
0.0
 11
0.386481
 21
0.255508
 31
0.0
  0
LINE
  8
1
  6
CONTINUOUS
 62
   250
 10
0.388779
 20
0.232991
 30
0.0
 11
0.388318
 21
0.23529
 31
0.0
  0
LINE
  8
1
  6
CONTINUOUS
 62
   250
 10
0.388318
 20
0.231154
 30
0.0
 11
0.388779
 21
0.232991
 31
0.0
  0
LINE
  8
1
  6
CONTINUOUS
 62
   250
 10
0.389697
 20
0.217826
 30
0.0
 11
0.386481
 21
0.217826
 31
0.0
  0
LINE
  8
1
  6
CONTINUOUS
 62
   250
 10
0.374993
 20
0.232532
 30
0.0
 11
0.388779
 21
0.232532
 31
0.0
  0
LINE
  8
1
  6
CONTINUOUS
 62
   250
 10
0.388779
 20
0.233911
 30
0.0
 11
0.374993
 21
0.233911
 31
0.0
  0
LINE
  8
1
  6
CONTINUOUS
 62
   250
 10
0.378668
 20
0.239884
 30
0.0
 11
0.37775
 21
0.238506
 31
0.0
  0
LINE
  8
1
  6
CONTINUOUS
 62
   250
 10
0.381886
 20
0.239884
 30
0.0
 11
0.378668
 21
0.239884
 31
0.0
  0
LINE
  8
1
  6
CONTINUOUS
 62
   250
 10
0.383723
 20
0.239884
 30
0.0
 11
0.381886
 21
0.239884
 31
0.0
  0
LINE
  8
1
  6
CONTINUOUS
 62
   250
 10
0.386022
 20
0.238506
 30
0.0
 11
0.383723
 21
0.239884
 31
0.0
  0
LINE
  8
1
  6
CONTINUOUS
 62
   250
 10
0.37775
 20
0.238506
 30
0.0
 11
0.376371
 21
0.237127
 31
0.0
  0
LINE
  8
1
  6
CONTINUOUS
 62
   250
 10
0.387401
 20
0.237127
 30
0.0
 11
0.386022
 21
0.238506
 31
0.0
  0
LINE
  8
1
  6
CONTINUOUS
 62
   250
 10
0.386022
 20
0.227477
 30
0.0
 11
0.387401
 21
0.229314
 31
0.0
  0
LINE
  8
1
  6
CONTINUOUS
 62
   250
 10
0.383723
 20
0.226557
 30
0.0
 11
0.386022
 21
0.227477
 31
0.0
  0
LINE
  8
1
  6
CONTINUOUS
 62
   250
 10
0.381886
 20
0.226098
 30
0.0
 11
0.383723
 21
0.226557
 31
0.0
  0
LINE
  8
1
  6
CONTINUOUS
 62
   250
 10
0.378668
 20
0.226557
 30
0.0
 11
0.381886
 21
0.226098
 31
0.0
  0
LINE
  8
1
  6
CONTINUOUS
 62
   250
 10
0.37775
 20
0.227477
 30
0.0
 11
0.378668
 21
0.226557
 31
0.0
  0
LINE
  8
1
  6
CONTINUOUS
 62
   250
 10
0.376371
 20
0.229314
 30
0.0
 11
0.37775
 21
0.227477
 31
0.0
  0
LINE
  8
1
  6
CONTINUOUS
 62
   250
 10
0.375451
 20
0.231154
 30
0.0
 11
0.376371
 21
0.229314
 31
0.0
  0
LINE
  8
1
  6
CONTINUOUS
 62
   250
 10
0.386481
 20
0.217826
 30
0.0
 11
0.386481
 21
0.21369
 31
0.0
  0
LINE
  8
1
  6
CONTINUOUS
 62
   250
 10
0.376371
 20
0.237127
 30
0.0
 11
0.375451
 21
0.23529
 31
0.0
  0
LINE
  8
1
  6
CONTINUOUS
 62
   250
 10
0.374993
 20
0.232991
 30
0.0
 11
0.374993
 21
0.232532
 31
0.0
  0
LINE
  8
1
  6
CONTINUOUS
 62
   250
 10
0.374993
 20
0.233911
 30
0.0
 11
0.374993
 21
0.232991
 31
0.0
  0
LINE
  8
1
  6
CONTINUOUS
 62
   250
 10
0.375451
 20
0.23529
 30
0.0
 11
0.374993
 21
0.232991
 31
0.0
  0
LINE
  8
1
  6
CONTINUOUS
 62
   250
 10
0.374993
 20
0.232991
 30
0.0
 11
0.375451
 21
0.231154
 31
0.0
  0
LINE
  8
1
  6
CONTINUOUS
 62
   250
 10
0.387401
 20
0.229314
 30
0.0
 11
0.388318
 21
0.231154
 31
0.0
  0
LINE
  8
1
  6
CONTINUOUS
 62
   250
 10
0.388318
 20
0.23529
 30
0.0
 11
0.387401
 21
0.237127
 31
0.0
  0
LINE
  8
1
  6
CONTINUOUS
 62
   250
 10
0.403483
 20
0.245858
 30
0.0
 11
0.394753
 21
0.245858
 31
0.0
  0
LINE
  8
1
  6
CONTINUOUS
 62
   250
 10
0.402565
 20
0.232532
 30
0.0
 11
0.401187
 21
0.232071
 31
0.0
  0
LINE
  8
1
  6
CONTINUOUS
 62
   250
 10
0.403024
 20
0.232991
 30
0.0
 11
0.402565
 21
0.232532
 31
0.0
  0
LINE
  8
1
  6
CONTINUOUS
 62
   250
 10
0.403483
 20
0.23437
 30
0.0
 11
0.403024
 21
0.232991
 31
0.0
  0
LINE
  8
1
  6
CONTINUOUS
 62
   250
 10
0.403483
 20
0.224719
 30
0.0
 11
0.403024
 21
0.224719
 31
0.0
  0
LINE
  8
1
  6
CONTINUOUS
 62
   250
 10
0.403483
 20
0.227018
 30
0.0
 11
0.403483
 21
0.224719
 31
0.0
  0
LINE
  8
1
  6
CONTINUOUS
 62
   250
 10
0.403024
 20
0.227935
 30
0.0
 11
0.403483
 21
0.227018
 31
0.0
  0
LINE
  8
1
  6
CONTINUOUS
 62
   250
 10
0.401187
 20
0.228855
 30
0.0
 11
0.403024
 21
0.227935
 31
0.0
  0
LINE
  8
1
  6
CONTINUOUS
 62
   250
 10
0.400726
 20
0.229314
 30
0.0
 11
0.401187
 21
0.228855
 31
0.0
  0
LINE
  8
1
  6
CONTINUOUS
 62
   250
 10
0.401187
 20
0.223799
 30
0.0
 11
0.400726
 21
0.223341
 31
0.0
  0
LINE
  8
1
  6
CONTINUOUS
 62
   250
 10
0.403024
 20
0.224719
 30
0.0
 11
0.401187
 21
0.223799
 31
0.0
  0
LINE
  8
1
  6
CONTINUOUS
 62
   250
 10
0.403483
 20
0.238047
 30
0.0
 11
0.403483
 21
0.23437
 31
0.0
  0
LINE
  8
1
  6
CONTINUOUS
 62
   250
 10
0.399347
 20
0.23529
 30
0.0
 11
0.394753
 21
0.232071
 31
0.0
  0
LINE
  8
1
  6
CONTINUOUS
 62
   250
 10
0.399808
 20
0.232991
 30
0.0
 11
0.399347
 21
0.23437
 31
0.0
  0
LINE
  8
1
  6
CONTINUOUS
 62
   250
 10
0.400267
 20
0.232532
 30
0.0
 11
0.399808
 21
0.232991
 31
0.0
  0
LINE
  8
1
  6
CONTINUOUS
 62
   250
 10
0.400267
 20
0.232071
 30
0.0
 11
0.400267
 21
0.232532
 31
0.0
  0
LINE
  8
1
  6
CONTINUOUS
 62
   250
 10
0.39843
 20
0.229775
 30
0.0
 11
0.400267
 21
0.229775
 31
0.0
  0
LINE
  8
1
  6
CONTINUOUS
 62
   250
 10
0.397051
 20
0.229314
 30
0.0
 11
0.39843
 21
0.229775
 31
0.0
  0
LINE
  8
1
  6
CONTINUOUS
 62
   250
 10
0.395211
 20
0.228855
 30
0.0
 11
0.397051
 21
0.229314
 31
0.0
  0
LINE
  8
1
  6
CONTINUOUS
 62
   250
 10
0.394753
 20
0.227935
 30
0.0
 11
0.395211
 21
0.228855
 31
0.0
  0
LINE
  8
1
  6
CONTINUOUS
 62
   250
 10
0.394753
 20
0.227018
 30
0.0
 11
0.394753
 21
0.227935
 31
0.0
  0
LINE
  8
1
  6
CONTINUOUS
 62
   250
 10
0.394753
 20
0.224719
 30
0.0
 11
0.394753
 21
0.227018
 31
0.0
  0
LINE
  8
1
  6
CONTINUOUS
 62
   250
 10
0.394753
 20
0.224719
 30
0.0
 11
0.394753
 21
0.224719
 31
0.0
  0
LINE
  8
1
  6
CONTINUOUS
 62
   250
 10
0.400267
 20
0.213231
 30
0.0
 11
0.39843
 21
0.213231
 31
0.0
  0
LINE
  8
1
  6
CONTINUOUS
 62
   250
 10
0.397051
 20
0.223341
 30
0.0
 11
0.395211
 21
0.223799
 31
0.0
  0
LINE
  8
1
  6
CONTINUOUS
 62
   250
 10
0.39843
 20
0.222882
 30
0.0
 11
0.397051
 21
0.223341
 31
0.0
  0
LINE
  8
1
  6
CONTINUOUS
 62
   250
 10
0.400267
 20
0.222882
 30
0.0
 11
0.39843
 21
0.222882
 31
0.0
  0
LINE
  8
1
  6
CONTINUOUS
 62
   250
 10
0.389697
 20
0.21369
 30
0.0
 11
0.389697
 21
0.217826
 31
0.0
  0
LINE
  8
1
  6
CONTINUOUS
 62
   250
 10
0.395211
 20
0.223799
 30
0.0
 11
0.394753
 21
0.224719
 31
0.0
  0
LINE
  8
1
  6
CONTINUOUS
 62
   250
 10
0.399347
 20
0.23437
 30
0.0
 11
0.399347
 21
0.238047
 31
0.0
  0
LINE
  8
1
  6
CONTINUOUS
 62
   250
 10
0.394753
 20
0.238047
 30
0.0
 11
0.403483
 21
0.238047
 31
0.0
  0
LINE
  8
1
  6
CONTINUOUS
 62
   250
 10
0.401187
 20
0.232071
 30
0.0
 11
0.400267
 21
0.232071
 31
0.0
  0
LINE
  8
1
  6
CONTINUOUS
 62
   250
 10
0.400267
 20
0.229775
 30
0.0
 11
0.400726
 21
0.229314
 31
0.0
  0
LINE
  8
1
  6
CONTINUOUS
 62
   250
 10
0.400726
 20
0.223341
 30
0.0
 11
0.400267
 21
0.222882
 31
0.0
  0
LINE
  8
1
  6
CONTINUOUS
 62
   250
 10
0.403483
 20
0.240804
 30
0.0
 11
0.403483
 21
0.245858
 31
0.0
  0
LINE
  8
1
  6
CONTINUOUS
 62
   250
 10
0.394753
 20
0.245858
 30
0.0
 11
0.394753
 21
0.240804
 31
0.0
  0
LINE
  8
1
  6
CONTINUOUS
 62
   250
 10
0.389697
 20
0.251372
 30
0.0
 11
0.389697
 21
0.22426
 31
0.0
  0
LINE
  8
1
  6
CONTINUOUS
 62
   250
 10
0.399347
 20
0.242642
 30
0.0
 11
0.399347
 21
0.245858
 31
0.0
  0
LINE
  8
1
  6
CONTINUOUS
 62
   250
 10
0.386481
 20
0.255508
 30
0.0
 11
0.389697
 21
0.255508
 31
0.0
  0
LINE
  8
1
  6
CONTINUOUS
 62
   250
 10
0.460928
 20
0.215989
 30
0.0
 11
0.457711
 21
0.210474
 31
0.0
  0
LINE
  8
1
  6
CONTINUOUS
 62
   250
 10
0.431056
 20
0.220125
 30
0.0
 11
0.431056
 21
0.195768
 31
0.0
  0
LINE
  8
1
  6
CONTINUOUS
 62
   250
 10
0.431056
 20
0.183819
 30
0.0
 11
0.431056
 21
0.16176
 31
0.0
  0
LINE
  8
1
  6
CONTINUOUS
 62
   250
 10
0.431056
 20
0.16176
 30
0.0
 11
0.405323
 21
0.16176
 31
0.0
  0
LINE
  8
1
  6
CONTINUOUS
 62
   250
 10
0.460008
 20
0.169573
 30
0.0
 11
0.459549
 21
0.174629
 31
0.0
  0
LINE
  8
1
  6
CONTINUOUS
 62
   250
 10
0.453115
 20
0.173709
 30
0.0
 11
0.454954
 21
0.167736
 31
0.0
  0
LINE
  8
1
  6
CONTINUOUS
 62
   250
 10
0.460928
 20
0.165437
 30
0.0
 11
0.460008
 21
0.169573
 31
0.0
  0
LINE
  8
1
  6
CONTINUOUS
 62
   250
 10
0.463226
 20
0.160843
 30
0.0
 11
0.460928
 21
0.165437
 31
0.0
  0
LINE
  8
1
  6
CONTINUOUS
 62
   250
 10
0.454954
 20
0.167736
 30
0.0
 11
0.457711
 21
0.16176
 31
0.0
  0
LINE
  8
1
  6
CONTINUOUS
 62
   250
 10
0.457711
 20
0.16176
 30
0.0
 11
0.460928
 21
0.156707
 31
0.0
  0
LINE
  8
1
  6
CONTINUOUS
 62
   250
 10
0.454954
 20
0.187955
 30
0.0
 11
0.459549
 21
0.193469
 31
0.0
  0
LINE
  8
1
  6
CONTINUOUS
 62
   250
 10
0.460008
 20
0.179683
 30
0.0
 11
0.460928
 21
0.18428
 31
0.0
  0
LINE
  8
1
  6
CONTINUOUS
 62
   250
 10
0.460928
 20
0.18428
 30
0.0
 11
0.463226
 21
0.188874
 31
0.0
  0
LINE
  8
1
  6
CONTINUOUS
 62
   250
 10
0.454954
 20
0.204959
 30
0.0
 11
0.453115
 21
0.198525
 31
0.0
  0
LINE
  8
1
  6
CONTINUOUS
 62
   250
 10
0.457711
 20
0.210474
 30
0.0
 11
0.454954
 21
0.204959
 31
0.0
  0
LINE
  8
1
  6
CONTINUOUS
 62
   250
 10
0.450818
 20
0.192552
 30
0.0
 11
0.450357
 21
0.186117
 31
0.0
  0
LINE
  8
1
  6
CONTINUOUS
 62
   250
 10
0.450357
 20
0.186117
 30
0.0
 11
0.450818
 21
0.179683
 31
0.0
  0
LINE
  8
1
  6
CONTINUOUS
 62
   250
 10
0.454954
 20
0.187955
 30
0.0
 11
0.450818
 21
0.181981
 31
0.0
  0
LINE
  8
1
  6
CONTINUOUS
 62
   250
 10
0.453115
 20
0.198525
 30
0.0
 11
0.450818
 21
0.192552
 31
0.0
  0
LINE
  8
1
  6
CONTINUOUS
 62
   250
 10
0.459549
 20
0.174629
 30
0.0
 11
0.460008
 21
0.179683
 31
0.0
  0
LINE
  8
1
  6
CONTINUOUS
 62
   250
 10
0.450818
 20
0.179683
 30
0.0
 11
0.453115
 21
0.173709
 31
0.0
  0
LINE
  8
1
  6
CONTINUOUS
 62
   250
 10
0.431056
 20
0.256887
 30
0.0
 11
0.431056
 21
0.232532
 31
0.0
  0
LINE
  8
1
  6
CONTINUOUS
 62
   250
 10
0.387401
 20
0.446681
 30
0.0
 11
0.387401
 21
0.369018
 31
0.0
  0
LINE
  8
1
  6
CONTINUOUS
 62
   250
 10
0.374993
 20
0.437031
 30
0.0
 11
0.372694
 21
0.437031
 31
0.0
  0
LINE
  8
1
  6
CONTINUOUS
 62
   250
 10
0.372694
 20
0.41773
 30
0.0
 11
0.374993
 21
0.41773
 31
0.0
  0
LINE
  8
1
  6
CONTINUOUS
 62
   250
 10
0.378668
 20
0.434273
 30
0.0
 11
0.365801
 21
0.420487
 31
0.0
  0
LINE
  8
1
  6
CONTINUOUS
 62
   250
 10
0.374993
 20
0.39797
 30
0.0
 11
0.372694
 21
0.398429
 31
0.0
  0
LINE
  8
1
  6
CONTINUOUS
 62
   250
 10
0.372694
 20
0.378669
 30
0.0
 11
0.374993
 21
0.379128
 31
0.0
  0
LINE
  8
1
  6
CONTINUOUS
 62
   250
 10
0.362124
 20
0.388319
 30
0.0
 11
0.382345
 21
0.388319
 31
0.0
  0
LINE
  8
1
  6
CONTINUOUS
 62
   250
 10
0.372694
 20
0.398429
 30
0.0
 11
0.370396
 21
0.39797
 31
0.0
  0
LINE
  8
1
  6
CONTINUOUS
 62
   250
 10
0.370396
 20
0.379128
 30
0.0
 11
0.372694
 21
0.378669
 31
0.0
  0
LINE
  8
1
  6
CONTINUOUS
 62
   250
 10
0.36718
 20
0.39705
 30
0.0
 11
0.365801
 21
0.395213
 31
0.0
  0
LINE
  8
1
  6
CONTINUOUS
 62
   250
 10
0.370396
 20
0.39797
 30
0.0
 11
0.36718
 21
0.39705
 31
0.0
  0
LINE
  8
1
  6
CONTINUOUS
 62
   250
 10
0.365801
 20
0.395213
 30
0.0
 11
0.364422
 21
0.393373
 31
0.0
  0
LINE
  8
1
  6
CONTINUOUS
 62
   250
 10
0.36718
 20
0.380047
 30
0.0
 11
0.370396
 21
0.379128
 31
0.0
  0
LINE
  8
1
  6
CONTINUOUS
 62
   250
 10
0.365801
 20
0.381885
 30
0.0
 11
0.36718
 21
0.380047
 31
0.0
  0
LINE
  8
1
  6
CONTINUOUS
 62
   250
 10
0.364422
 20
0.383722
 30
0.0
 11
0.365801
 21
0.381885
 31
0.0
  0
LINE
  8
1
  6
CONTINUOUS
 62
   250
 10
0.362124
 20
0.388319
 30
0.0
 11
0.362124
 21
0.386021
 31
0.0
  0
LINE
  8
1
  6
CONTINUOUS
 62
   250
 10
0.362124
 20
0.391077
 30
0.0
 11
0.362124
 21
0.388319
 31
0.0
  0
LINE
  8
1
  6
CONTINUOUS
 62
   250
 10
0.364422
 20
0.393373
 30
0.0
 11
0.362124
 21
0.391077
 31
0.0
  0
LINE
  8
1
  6
CONTINUOUS
 62
   250
 10
0.362124
 20
0.386021
 30
0.0
 11
0.364422
 21
0.383722
 31
0.0
  0
LINE
  8
1
  6
CONTINUOUS
 62
   250
 10
0.372694
 20
0.437031
 30
0.0
 11
0.370396
 21
0.437031
 31
0.0
  0
LINE
  8
1
  6
CONTINUOUS
 62
   250
 10
0.370396
 20
0.41773
 30
0.0
 11
0.372694
 21
0.41773
 31
0.0
  0
LINE
  8
1
  6
CONTINUOUS
 62
   250
 10
0.365801
 20
0.434273
 30
0.0
 11
0.364422
 21
0.432436
 31
0.0
  0
LINE
  8
1
  6
CONTINUOUS
 62
   250
 10
0.36718
 20
0.435652
 30
0.0
 11
0.365801
 21
0.434273
 31
0.0
  0
LINE
  8
1
  6
CONTINUOUS
 62
   250
 10
0.370396
 20
0.437031
 30
0.0
 11
0.36718
 21
0.435652
 31
0.0
  0
LINE
  8
1
  6
CONTINUOUS
 62
   250
 10
0.36718
 20
0.419108
 30
0.0
 11
0.370396
 21
0.41773
 31
0.0
  0
LINE
  8
1
  6
CONTINUOUS
 62
   250
 10
0.365801
 20
0.420487
 30
0.0
 11
0.36718
 21
0.419108
 31
0.0
  0
LINE
  8
1
  6
CONTINUOUS
 62
   250
 10
0.364422
 20
0.422324
 30
0.0
 11
0.365801
 21
0.420487
 31
0.0
  0
LINE
  8
1
  6
CONTINUOUS
 62
   250
 10
0.362124
 20
0.42738
 30
0.0
 11
0.362124
 21
0.425082
 31
0.0
  0
LINE
  8
1
  6
CONTINUOUS
 62
   250
 10
0.362124
 20
0.430137
 30
0.0
 11
0.362124
 21
0.42738
 31
0.0
  0
LINE
  8
1
  6
CONTINUOUS
 62
   250
 10
0.364422
 20
0.432436
 30
0.0
 11
0.362124
 21
0.430137
 31
0.0
  0
LINE
  8
1
  6
CONTINUOUS
 62
   250
 10
0.362124
 20
0.425082
 30
0.0
 11
0.364422
 21
0.422324
 31
0.0
  0
LINE
  8
1
  6
CONTINUOUS
 62
   250
 10
0.378668
 20
0.395213
 30
0.0
 11
0.37775
 21
0.39705
 31
0.0
  0
LINE
  8
1
  6
CONTINUOUS
 62
   250
 10
0.380966
 20
0.393373
 30
0.0
 11
0.378668
 21
0.395213
 31
0.0
  0
LINE
  8
1
  6
CONTINUOUS
 62
   250
 10
0.382345
 20
0.391077
 30
0.0
 11
0.380966
 21
0.393373
 31
0.0
  0
LINE
  8
1
  6
CONTINUOUS
 62
   250
 10
0.380966
 20
0.383722
 30
0.0
 11
0.382345
 21
0.386021
 31
0.0
  0
LINE
  8
1
  6
CONTINUOUS
 62
   250
 10
0.378668
 20
0.381885
 30
0.0
 11
0.380966
 21
0.383722
 31
0.0
  0
LINE
  8
1
  6
CONTINUOUS
 62
   250
 10
0.37775
 20
0.380047
 30
0.0
 11
0.378668
 21
0.381885
 31
0.0
  0
LINE
  8
1
  6
CONTINUOUS
 62
   250
 10
0.382345
 20
0.386021
 30
0.0
 11
0.382345
 21
0.388319
 31
0.0
  0
LINE
  8
1
  6
CONTINUOUS
 62
   250
 10
0.382345
 20
0.388319
 30
0.0
 11
0.382345
 21
0.391077
 31
0.0
  0
LINE
  8
1
  6
CONTINUOUS
 62
   250
 10
0.37775
 20
0.39705
 30
0.0
 11
0.374993
 21
0.39797
 31
0.0
  0
LINE
  8
1
  6
CONTINUOUS
 62
   250
 10
0.374993
 20
0.379128
 30
0.0
 11
0.37775
 21
0.380047
 31
0.0
  0
LINE
  8
1
  6
CONTINUOUS
 62
   250
 10
0.380966
 20
0.432436
 30
0.0
 11
0.378668
 21
0.434273
 31
0.0
  0
LINE
  8
1
  6
CONTINUOUS
 62
   250
 10
0.382345
 20
0.430137
 30
0.0
 11
0.380966
 21
0.432436
 31
0.0
  0
LINE
  8
1
  6
CONTINUOUS
 62
   250
 10
0.378668
 20
0.434273
 30
0.0
 11
0.37775
 21
0.435652
 31
0.0
  0
LINE
  8
1
  6
CONTINUOUS
 62
   250
 10
0.382345
 20
0.425082
 30
0.0
 11
0.382345
 21
0.42738
 31
0.0
  0
LINE
  8
1
  6
CONTINUOUS
 62
   250
 10
0.380966
 20
0.422324
 30
0.0
 11
0.382345
 21
0.425082
 31
0.0
  0
LINE
  8
1
  6
CONTINUOUS
 62
   250
 10
0.378668
 20
0.420487
 30
0.0
 11
0.380966
 21
0.422324
 31
0.0
  0
LINE
  8
1
  6
CONTINUOUS
 62
   250
 10
0.37775
 20
0.419108
 30
0.0
 11
0.378668
 21
0.420487
 31
0.0
  0
LINE
  8
1
  6
CONTINUOUS
 62
   250
 10
0.382345
 20
0.42738
 30
0.0
 11
0.382345
 21
0.430137
 31
0.0
  0
LINE
  8
1
  6
CONTINUOUS
 62
   250
 10
0.37775
 20
0.435652
 30
0.0
 11
0.374993
 21
0.437031
 31
0.0
  0
LINE
  8
1
  6
CONTINUOUS
 62
   250
 10
0.374993
 20
0.41773
 30
0.0
 11
0.37775
 21
0.419108
 31
0.0
  0
LINE
  8
1
  6
CONTINUOUS
 62
   250
 10
0.431056
 20
0.329496
 30
0.0
 11
0.431056
 21
0.305601
 31
0.0
  0
LINE
  8
1
  6
CONTINUOUS
 62
   250
 10
0.431056
 20
0.366261
 30
0.0
 11
0.431056
 21
0.341904
 31
0.0
  0
LINE
  8
1
  6
CONTINUOUS
 62
   250
 10
0.431056
 20
0.402565
 30
0.0
 11
0.431056
 21
0.378669
 31
0.0
  0
LINE
  8
1
  6
CONTINUOUS
 62
   250
 10
0.431056
 20
0.439329
 30
0.0
 11
0.431056
 21
0.414972
 31
0.0
  0
LINE
  8
1
  6
CONTINUOUS
 62
   250
 10
0.012409
 20
0.465062
 30
0.0
 11
0.411296
 21
0.465062
 31
0.0
  0
LINE
  8
1
  6
CONTINUOUS
 62
   250
 10
0.100642
 20
0.591439
 30
0.0
 11
0.099263
 21
0.59098
 31
0.0
  0
LINE
  8
1
  6
CONTINUOUS
 62
   250
 10
0.100181
 20
0.579951
 30
0.0
 11
0.097885
 21
0.579031
 31
0.0
  0
LINE
  8
1
  6
CONTINUOUS
 62
   250
 10
0.097424
 20
0.584546
 30
0.0
 11
0.110293
 21
0.584546
 31
0.0
  0
LINE
  8
1
  6
CONTINUOUS
 62
   250
 10
0.100181
 20
0.569381
 30
0.0
 11
0.097885
 21
0.568461
 31
0.0
  0
LINE
  8
1
  6
CONTINUOUS
 62
   250
 10
0.097885
 20
0.564325
 30
0.0
 11
0.100181
 21
0.563407
 31
0.0
  0
LINE
  8
1
  6
CONTINUOUS
 62
   250
 10
0.110293
 20
0.554674
 30
0.0
 11
0.097424
 21
0.554674
 31
0.0
  0
LINE
  8
1
  6
CONTINUOUS
 62
   250
 10
0.097885
 20
0.575354
 30
0.0
 11
0.100181
 21
0.573975
 31
0.0
  0
LINE
  8
1
  6
CONTINUOUS
 62
   250
 10
0.077205
 20
0.472875
 30
0.0
 11
0.10156
 21
0.472875
 31
0.0
  0
LINE
  8
1
  6
CONTINUOUS
 62
   250
 10
0.053768
 20
0.654857
 30
0.0
 11
0.053768
 21
0.548242
 31
0.0
  0
LINE
  8
1
  6
CONTINUOUS
 62
   250
 10
0.039062
 20
0.597412
 30
0.0
 11
0.036305
 21
0.598791
 31
0.0
  0
LINE
  8
1
  6
CONTINUOUS
 62
   250
 10
0.036305
 20
0.598791
 30
0.0
 11
0.048254
 21
0.598791
 31
0.0
  0
LINE
  8
1
  6
CONTINUOUS
 62
   250
 10
0.036305
 20
0.578572
 30
0.0
 11
0.048254
 21
0.578572
 31
0.0
  0
LINE
  8
1
  6
CONTINUOUS
 62
   250
 10
0.036763
 20
0.556514
 30
0.0
 11
0.039062
 21
0.555594
 31
0.0
  0
LINE
  8
1
  6
CONTINUOUS
 62
   250
 10
0.039062
 20
0.561109
 30
0.0
 11
0.036763
 21
0.56065
 31
0.0
  0
LINE
  8
1
  6
CONTINUOUS
 62
   250
 10
0.045496
 20
0.566165
 30
0.0
 11
0.036305
 21
0.566165
 31
0.0
  0
LINE
  8
1
  6
CONTINUOUS
 62
   250
 10
0.036305
 20
0.572597
 30
0.0
 11
0.045496
 21
0.572597
 31
0.0
  0
LINE
  8
1
  6
CONTINUOUS
 62
   250
 10
0.038603
 20
0.523885
 30
0.0
 11
0.037224
 21
0.525723
 31
0.0
  0
LINE
  8
1
  6
CONTINUOUS
 62
   250
 10
0.037224
 20
0.521128
 30
0.0
 11
0.038603
 21
0.522507
 31
0.0
  0
LINE
  8
1
  6
CONTINUOUS
 62
   250
 10
0.03079
 20
0.53032
 30
0.0
 11
0.030331
 21
0.527101
 31
0.0
  0
LINE
  8
1
  6
CONTINUOUS
 62
   250
 10
-0.007812
 20
0.532616
 30
0.0
 11
-0.008271
 21
0.527101
 31
0.0
  0
LINE
  8
1
  6
CONTINUOUS
 62
   250
 10
0.002758
 20
0.472875
 30
0.0
 11
0.028033
 21
0.472875
 31
0.0
  0
LINE
  8
1
  6
CONTINUOUS
 62
   250
 10
0.002758
 20
0.450817
 30
0.0
 11
0.002758
 21
0.472875
 31
0.0
  0
LINE
  8
1
  6
CONTINUOUS
 62
   250
 10
-0.007812
 20
0.527563
 30
0.0
 11
-0.006892
 21
0.528021
 31
0.0
  0
LINE
  8
1
  6
CONTINUOUS
 62
   250
 10
-0.006892
 20
0.519291
 30
0.0
 11
-0.007812
 21
0.519749
 31
0.0
  0
LINE
  8
1
  6
CONTINUOUS
 62
   250
 10
-0.008271
 20
0.527101
 30
0.0
 11
-0.007812
 21
0.527563
 31
0.0
  0
LINE
  8
1
  6
CONTINUOUS
 62
   250
 10
-0.008271
 20
0.520669
 30
0.0
 11
-0.009191
 21
0.521587
 31
0.0
  0
LINE
  8
1
  6
CONTINUOUS
 62
   250
 10
-0.007812
 20
0.519749
 30
0.0
 11
-0.008271
 21
0.520669
 31
0.0
  0
LINE
  8
1
  6
CONTINUOUS
 62
   250
 10
0.000001
 20
0.524344
 30
0.0
 11
0.000001
 21
0.522507
 31
0.0
  0
LINE
  8
1
  6
CONTINUOUS
 62
   250
 10
-0.001378
 20
0.526184
 30
0.0
 11
0.000001
 21
0.524344
 31
0.0
  0
LINE
  8
1
  6
CONTINUOUS
 62
   250
 10
-0.002297
 20
0.527563
 30
0.0
 11
-0.001378
 21
0.526184
 31
0.0
  0
LINE
  8
1
  6
CONTINUOUS
 62
   250
 10
-0.003676
 20
0.528021
 30
0.0
 11
-0.002297
 21
0.527563
 31
0.0
  0
LINE
  8
1
  6
CONTINUOUS
 62
   250
 10
-0.002297
 20
0.519749
 30
0.0
 11
-0.003676
 21
0.519291
 31
0.0
  0
LINE
  8
1
  6
CONTINUOUS
 62
   250
 10
-0.001378
 20
0.521128
 30
0.0
 11
-0.002297
 21
0.519749
 31
0.0
  0
LINE
  8
1
  6
CONTINUOUS
 62
   250
 10
0.000001
 20
0.522507
 30
0.0
 11
-0.001378
 21
0.521128
 31
0.0
  0
LINE
  8
1
  6
CONTINUOUS
 62
   250
 10
-0.006892
 20
0.528021
 30
0.0
 11
-0.003676
 21
0.528021
 31
0.0
  0
LINE
  8
1
  6
CONTINUOUS
 62
   250
 10
-0.003676
 20
0.519291
 30
0.0
 11
-0.006892
 21
0.519291
 31
0.0
  0
LINE
  8
1
  6
CONTINUOUS
 62
   250
 10
0.034926
 20
0.527563
 30
0.0
 11
0.034006
 21
0.527563
 31
0.0
  0
LINE
  8
1
  6
CONTINUOUS
 62
   250
 10
0.036305
 20
0.527101
 30
0.0
 11
0.034926
 21
0.527563
 31
0.0
  0
LINE
  8
1
  6
CONTINUOUS
 62
   250
 10
0.037224
 20
0.525723
 30
0.0
 11
0.036305
 21
0.527101
 31
0.0
  0
LINE
  8
1
  6
CONTINUOUS
 62
   250
 10
0.036305
 20
0.519749
 30
0.0
 11
0.037224
 21
0.521128
 31
0.0
  0
LINE
  8
1
  6
CONTINUOUS
 62
   250
 10
0.034926
 20
0.519291
 30
0.0
 11
0.036305
 21
0.519749
 31
0.0
  0
LINE
  8
1
  6
CONTINUOUS
 62
   250
 10
0.034006
 20
0.519291
 30
0.0
 11
0.034926
 21
0.519291
 31
0.0
  0
LINE
  8
1
  6
CONTINUOUS
 62
   250
 10
0.03079
 20
0.525723
 30
0.0
 11
0.030331
 21
0.523885
 31
0.0
  0
LINE
  8
1
  6
CONTINUOUS
 62
   250
 10
0.031249
 20
0.527101
 30
0.0
 11
0.03079
 21
0.525723
 31
0.0
  0
LINE
  8
1
  6
CONTINUOUS
 62
   250
 10
0.030331
 20
0.527101
 30
0.0
 11
0.030331
 21
0.523885
 31
0.0
  0
LINE
  8
1
  6
CONTINUOUS
 62
   250
 10
0.03079
 20
0.521128
 30
0.0
 11
0.031249
 21
0.519749
 31
0.0
  0
LINE
  8
1
  6
CONTINUOUS
 62
   250
 10
0.030331
 20
0.523885
 30
0.0
 11
0.03079
 21
0.521128
 31
0.0
  0
LINE
  8
1
  6
CONTINUOUS
 62
   250
 10
0.034006
 20
0.527563
 30
0.0
 11
0.031249
 21
0.527101
 31
0.0
  0
LINE
  8
1
  6
CONTINUOUS
 62
   250
 10
0.031249
 20
0.519749
 30
0.0
 11
0.034006
 21
0.519291
 31
0.0
  0
LINE
  8
1
  6
CONTINUOUS
 62
   250
 10
-0.002297
 20
0.583167
 30
0.0
 11
0.00919
 21
0.583167
 31
0.0
  0
LINE
  8
1
  6
CONTINUOUS
 62
   250
 10
-0.002297
 20
0.554674
 30
0.0
 11
0.00919
 21
0.554674
 31
0.0
  0
LINE
  8
1
  6
CONTINUOUS
 62
   250
 10
0.00919
 20
0.565245
 30
0.0
 11
-0.002297
 21
0.565245
 31
0.0
  0
LINE
  8
1
  6
CONTINUOUS
 62
   250
 10
0.00919
 20
0.558352
 30
0.0
 11
-0.002297
 21
0.558352
 31
0.0
  0
LINE
  8
1
  6
CONTINUOUS
 62
   250
 10
-0.002297
 20
0.558352
 30
0.0
 11
0.00919
 21
0.565245
 31
0.0
  0
LINE
  8
1
  6
CONTINUOUS
 62
   250
 10
-0.007812
 20
0.568461
 30
0.0
 11
-0.009191
 21
0.569381
 31
0.0
  0
LINE
  8
1
  6
CONTINUOUS
 62
   250
 10
-0.018383
 20
0.569381
 30
0.0
 11
-0.018841
 21
0.568461
 31
0.0
  0
LINE
  8
1
  6
CONTINUOUS
 62
   250
 10
-0.007812
 20
0.532616
 30
0.0
 11
-0.002297
 21
0.532616
 31
0.0
  0
LINE
  8
1
  6
CONTINUOUS
 62
   250
 10
-0.007812
 20
0.554674
 30
0.0
 11
-0.007812
 21
0.56065
 31
0.0
  0
LINE
  8
1
  6
CONTINUOUS
 62
   250
 10
-0.007812
 20
0.567543
 30
0.0
 11
-0.007812
 21
0.568461
 31
0.0
  0
LINE
  8
1
  6
CONTINUOUS
 62
   250
 10
-0.007812
 20
0.565704
 30
0.0
 11
-0.007812
 21
0.567543
 31
0.0
  0
LINE
  8
1
  6
CONTINUOUS
 62
   250
 10
-0.007812
 20
0.564325
 30
0.0
 11
-0.007812
 21
0.565704
 31
0.0
  0
LINE
  8
1
  6
CONTINUOUS
 62
   250
 10
-0.009191
 20
0.563407
 30
0.0
 11
-0.007812
 21
0.564325
 31
0.0
  0
LINE
  8
1
  6
CONTINUOUS
 62
   250
 10
-0.012868
 20
0.562487
 30
0.0
 11
-0.010111
 21
0.562946
 31
0.0
  0
LINE
  8
1
  6
CONTINUOUS
 62
   250
 10
-0.014705
 20
0.562487
 30
0.0
 11
-0.012868
 21
0.562487
 31
0.0
  0
LINE
  8
1
  6
CONTINUOUS
 62
   250
 10
-0.014705
 20
0.562487
 30
0.0
 11
-0.016084
 21
0.562946
 31
0.0
  0
LINE
  8
1
  6
CONTINUOUS
 62
   250
 10
-0.010111
 20
0.562946
 30
0.0
 11
-0.009191
 21
0.563407
 31
0.0
  0
LINE
  8
1
  6
CONTINUOUS
 62
   250
 10
-0.016084
 20
0.562946
 30
0.0
 11
-0.018383
 21
0.563407
 31
0.0
  0
LINE
  8
1
  6
CONTINUOUS
 62
   250
 10
-0.0193
 20
0.567543
 30
0.0
 11
-0.0193
 21
0.565704
 31
0.0
  0
LINE
  8
1
  6
CONTINUOUS
 62
   250
 10
-0.018841
 20
0.568461
 30
0.0
 11
-0.0193
 21
0.567543
 31
0.0
  0
LINE
  8
1
  6
CONTINUOUS
 62
   250
 10
-0.018841
 20
0.564325
 30
0.0
 11
-0.0193
 21
0.565704
 31
0.0
  0
LINE
  8
1
  6
CONTINUOUS
 62
   250
 10
-0.0193
 20
0.554674
 30
0.0
 11
-0.007812
 21
0.554674
 31
0.0
  0
LINE
  8
1
  6
CONTINUOUS
 62
   250
 10
-0.018383
 20
0.563407
 30
0.0
 11
-0.018841
 21
0.564325
 31
0.0
  0
LINE
  8
1
  6
CONTINUOUS
 62
   250
 10
-0.014246
 20
0.59098
 30
0.0
 11
-0.013327
 21
0.590519
 31
0.0
  0
LINE
  8
1
  6
CONTINUOUS
 62
   250
 10
-0.015164
 20
0.591439
 30
0.0
 11
-0.014246
 21
0.59098
 31
0.0
  0
LINE
  8
1
  6
CONTINUOUS
 62
   250
 10
-0.017922
 20
0.591439
 30
0.0
 11
-0.015164
 21
0.591439
 31
0.0
  0
LINE
  8
1
  6
CONTINUOUS
 62
   250
 10
-0.013327
 20
0.589141
 30
0.0
 11
-0.013327
 21
0.584546
 31
0.0
  0
LINE
  8
1
  6
CONTINUOUS
 62
   250
 10
-0.016084
 20
0.58041
 30
0.0
 11
-0.018383
 21
0.579951
 31
0.0
  0
LINE
  8
1
  6
CONTINUOUS
 62
   250
 10
-0.014705
 20
0.580869
 30
0.0
 11
-0.016084
 21
0.58041
 31
0.0
  0
LINE
  8
1
  6
CONTINUOUS
 62
   250
 10
-0.012868
 20
0.580869
 30
0.0
 11
-0.014705
 21
0.580869
 31
0.0
  0
LINE
  8
1
  6
CONTINUOUS
 62
   250
 10
-0.010111
 20
0.58041
 30
0.0
 11
-0.012868
 21
0.580869
 31
0.0
  0
LINE
  8
1
  6
CONTINUOUS
 62
   250
 10
-0.009191
 20
0.579951
 30
0.0
 11
-0.010111
 21
0.58041
 31
0.0
  0
LINE
  8
1
  6
CONTINUOUS
 62
   250
 10
-0.007812
 20
0.579031
 30
0.0
 11
-0.009191
 21
0.579951
 31
0.0
  0
LINE
  8
1
  6
CONTINUOUS
 62
   250
 10
-0.007812
 20
0.578111
 30
0.0
 11
-0.007812
 21
0.579031
 31
0.0
  0
LINE
  8
1
  6
CONTINUOUS
 62
   250
 10
-0.007812
 20
0.575354
 30
0.0
 11
-0.007812
 21
0.575815
 31
0.0
  0
LINE
  8
1
  6
CONTINUOUS
 62
   250
 10
-0.007812
 20
0.575815
 30
0.0
 11
-0.007812
 21
0.578111
 31
0.0
  0
LINE
  8
1
  6
CONTINUOUS
 62
   250
 10
-0.013327
 20
0.590519
 30
0.0
 11
-0.013327
 21
0.589141
 31
0.0
  0
LINE
  8
1
  6
CONTINUOUS
 62
   250
 10
-0.010111
 20
0.573517
 30
0.0
 11
-0.009191
 21
0.573975
 31
0.0
  0
LINE
  8
1
  6
CONTINUOUS
 62
   250
 10
-0.012868
 20
0.573058
 30
0.0
 11
-0.010111
 21
0.573517
 31
0.0
  0
LINE
  8
1
  6
CONTINUOUS
 62
   250
 10
-0.014705
 20
0.573058
 30
0.0
 11
-0.012868
 21
0.573058
 31
0.0
  0
LINE
  8
1
  6
CONTINUOUS
 62
   250
 10
-0.016084
 20
0.573517
 30
0.0
 11
-0.014705
 21
0.573058
 31
0.0
  0
LINE
  8
1
  6
CONTINUOUS
 62
   250
 10
-0.018383
 20
0.573975
 30
0.0
 11
-0.016084
 21
0.573517
 31
0.0
  0
LINE
  8
1
  6
CONTINUOUS
 62
   250
 10
-0.016084
 20
0.56984
 30
0.0
 11
-0.018383
 21
0.569381
 31
0.0
  0
LINE
  8
1
  6
CONTINUOUS
 62
   250
 10
-0.014705
 20
0.570759
 30
0.0
 11
-0.016084
 21
0.56984
 31
0.0
  0
LINE
  8
1
  6
CONTINUOUS
 62
   250
 10
-0.012868
 20
0.570759
 30
0.0
 11
-0.014705
 21
0.570759
 31
0.0
  0
LINE
  8
1
  6
CONTINUOUS
 62
   250
 10
-0.010111
 20
0.56984
 30
0.0
 11
-0.012868
 21
0.570759
 31
0.0
  0
LINE
  8
1
  6
CONTINUOUS
 62
   250
 10
-0.009191
 20
0.569381
 30
0.0
 11
-0.010111
 21
0.56984
 31
0.0
  0
LINE
  8
1
  6
CONTINUOUS
 62
   250
 10
-0.009191
 20
0.573975
 30
0.0
 11
-0.007812
 21
0.575354
 31
0.0
  0
LINE
  8
1
  6
CONTINUOUS
 62
   250
 10
-0.018841
 20
0.590519
 30
0.0
 11
-0.018841
 21
0.59098
 31
0.0
  0
LINE
  8
1
  6
CONTINUOUS
 62
   250
 10
-0.0193
 20
0.584546
 30
0.0
 11
-0.0193
 21
0.589141
 31
0.0
  0
LINE
  8
1
  6
CONTINUOUS
 62
   250
 10
-0.018841
 20
0.579031
 30
0.0
 11
-0.0193
 21
0.578111
 31
0.0
  0
LINE
  8
1
  6
CONTINUOUS
 62
   250
 10
-0.0193
 20
0.575815
 30
0.0
 11
-0.018841
 21
0.575354
 31
0.0
  0
LINE
  8
1
  6
CONTINUOUS
 62
   250
 10
-0.0193
 20
0.578111
 30
0.0
 11
-0.0193
 21
0.575815
 31
0.0
  0
LINE
  8
1
  6
CONTINUOUS
 62
   250
 10
-0.0193
 20
0.589141
 30
0.0
 11
-0.018841
 21
0.590519
 31
0.0
  0
LINE
  8
1
  6
CONTINUOUS
 62
   250
 10
-0.018841
 20
0.59098
 30
0.0
 11
-0.017922
 21
0.591439
 31
0.0
  0
LINE
  8
1
  6
CONTINUOUS
 62
   250
 10
-0.0193
 20
0.584546
 30
0.0
 11
-0.007812
 21
0.584546
 31
0.0
  0
LINE
  8
1
  6
CONTINUOUS
 62
   250
 10
-0.018383
 20
0.579951
 30
0.0
 11
-0.018841
 21
0.579031
 31
0.0
  0
LINE
  8
1
  6
CONTINUOUS
 62
   250
 10
-0.018841
 20
0.575354
 30
0.0
 11
-0.018383
 21
0.573975
 31
0.0
  0
LINE
  8
1
  6
CONTINUOUS
 62
   250
 10
0.000001
 20
0.58133
 30
0.0
 11
-0.002297
 21
0.583167
 31
0.0
  0
LINE
  8
1
  6
CONTINUOUS
 62
   250
 10
0.00046
 20
0.58041
 30
0.0
 11
0.000001
 21
0.58133
 31
0.0
  0
LINE
  8
1
  6
CONTINUOUS
 62
   250
 10
0.03079
 20
0.568461
 30
0.0
 11
0.030331
 21
0.56984
 31
0.0
  0
LINE
  8
1
  6
CONTINUOUS
 62
   250
 10
0.022059
 20
0.56984
 30
0.0
 11
0.02022
 21
0.568461
 31
0.0
  0
LINE
  8
1
  6
CONTINUOUS
 62
   250
 10
0.031249
 20
0.554674
 30
0.0
 11
0.019761
 21
0.554674
 31
0.0
  0
LINE
  8
1
  6
CONTINUOUS
 62
   250
 10
0.022059
 20
0.563866
 30
0.0
 11
0.023438
 21
0.563407
 31
0.0
  0
LINE
  8
1
  6
CONTINUOUS
 62
   250
 10
0.02022
 20
0.564786
 30
0.0
 11
0.022059
 21
0.563866
 31
0.0
  0
LINE
  8
1
  6
CONTINUOUS
 62
   250
 10
0.019761
 20
0.565704
 30
0.0
 11
0.02022
 21
0.564786
 31
0.0
  0
LINE
  8
1
  6
CONTINUOUS
 62
   250
 10
0.019761
 20
0.567543
 30
0.0
 11
0.019761
 21
0.565704
 31
0.0
  0
LINE
  8
1
  6
CONTINUOUS
 62
   250
 10
0.02022
 20
0.568461
 30
0.0
 11
0.019761
 21
0.567543
 31
0.0
  0
LINE
  8
1
  6
CONTINUOUS
 62
   250
 10
0.036305
 20
0.55973
 30
0.0
 11
0.036305
 21
0.557432
 31
0.0
  0
LINE
  8
1
  6
CONTINUOUS
 62
   250
 10
0.036305
 20
0.557432
 30
0.0
 11
0.036763
 21
0.556514
 31
0.0
  0
LINE
  8
1
  6
CONTINUOUS
 62
   250
 10
0.036763
 20
0.56065
 30
0.0
 11
0.036305
 21
0.55973
 31
0.0
  0
LINE
  8
1
  6
CONTINUOUS
 62
   250
 10
0.036305
 20
0.532157
 30
0.0
 11
0.037224
 21
0.530779
 31
0.0
  0
LINE
  8
1
  6
CONTINUOUS
 62
   250
 10
0.035385
 20
0.532616
 30
0.0
 11
0.036305
 21
0.532157
 31
0.0
  0
LINE
  8
1
  6
CONTINUOUS
 62
   250
 10
0.034006
 20
0.532616
 30
0.0
 11
0.035385
 21
0.532616
 31
0.0
  0
LINE
  8
1
  6
CONTINUOUS
 62
   250
 10
0.031249
 20
0.56065
 30
0.0
 11
0.031249
 21
0.554674
 31
0.0
  0
LINE
  8
1
  6
CONTINUOUS
 62
   250
 10
0.031249
 20
0.567543
 30
0.0
 11
0.03079
 21
0.568461
 31
0.0
  0
LINE
  8
1
  6
CONTINUOUS
 62
   250
 10
0.031249
 20
0.565704
 30
0.0
 11
0.031249
 21
0.567543
 31
0.0
  0
LINE
  8
1
  6
CONTINUOUS
 62
   250
 10
0.03079
 20
0.564786
 30
0.0
 11
0.031249
 21
0.565704
 31
0.0
  0
LINE
  8
1
  6
CONTINUOUS
 62
   250
 10
0.030331
 20
0.563866
 30
0.0
 11
0.03079
 21
0.564786
 31
0.0
  0
LINE
  8
1
  6
CONTINUOUS
 62
   250
 10
0.029411
 20
0.563407
 30
0.0
 11
0.030331
 21
0.563866
 31
0.0
  0
LINE
  8
1
  6
CONTINUOUS
 62
   250
 10
0.028033
 20
0.562487
 30
0.0
 11
0.029411
 21
0.563407
 31
0.0
  0
LINE
  8
1
  6
CONTINUOUS
 62
   250
 10
0.023438
 20
0.563407
 30
0.0
 11
0.024817
 21
0.562487
 31
0.0
  0
LINE
  8
1
  6
CONTINUOUS
 62
   250
 10
0.024817
 20
0.562487
 30
0.0
 11
0.028033
 21
0.562487
 31
0.0
  0
LINE
  8
1
  6
CONTINUOUS
 62
   250
 10
0.031249
 20
0.532157
 30
0.0
 11
0.03079
 21
0.53032
 31
0.0
  0
LINE
  8
1
  6
CONTINUOUS
 62
   250
 10
0.031249
 20
0.532157
 30
0.0
 11
0.034006
 21
0.532616
 31
0.0
  0
LINE
  8
1
  6
CONTINUOUS
 62
   250
 10
0.022977
 20
0.591439
 30
0.0
 11
0.024355
 21
0.591439
 31
0.0
  0
LINE
  8
1
  6
CONTINUOUS
 62
   250
 10
0.023438
 20
0.580869
 30
0.0
 11
0.022059
 21
0.579951
 31
0.0
  0
LINE
  8
1
  6
CONTINUOUS
 62
   250
 10
0.031249
 20
0.584546
 30
0.0
 11
0.019761
 21
0.584546
 31
0.0
  0
LINE
  8
1
  6
CONTINUOUS
 62
   250
 10
0.023438
 20
0.570301
 30
0.0
 11
0.022059
 21
0.56984
 31
0.0
  0
LINE
  8
1
  6
CONTINUOUS
 62
   250
 10
0.022059
 20
0.574436
 30
0.0
 11
0.023438
 21
0.573517
 31
0.0
  0
LINE
  8
1
  6
CONTINUOUS
 62
   250
 10
0.020681
 20
0.59098
 30
0.0
 11
0.022977
 21
0.591439
 31
0.0
  0
LINE
  8
1
  6
CONTINUOUS
 62
   250
 10
0.02022
 20
0.59098
 30
0.0
 11
0.020681
 21
0.59098
 31
0.0
  0
LINE
  8
1
  6
CONTINUOUS
 62
   250
 10
0.019761
 20
0.584546
 30
0.0
 11
0.019761
 21
0.589141
 31
0.0
  0
LINE
  8
1
  6
CONTINUOUS
 62
   250
 10
0.02022
 20
0.579031
 30
0.0
 11
0.019761
 21
0.578111
 31
0.0
  0
LINE
  8
1
  6
CONTINUOUS
 62
   250
 10
0.022059
 20
0.579951
 30
0.0
 11
0.02022
 21
0.579031
 31
0.0
  0
LINE
  8
1
  6
CONTINUOUS
 62
   250
 10
0.02022
 20
0.575354
 30
0.0
 11
0.022059
 21
0.574436
 31
0.0
  0
LINE
  8
1
  6
CONTINUOUS
 62
   250
 10
0.019761
 20
0.576274
 30
0.0
 11
0.02022
 21
0.575354
 31
0.0
  0
LINE
  8
1
  6
CONTINUOUS
 62
   250
 10
0.019761
 20
0.578111
 30
0.0
 11
0.019761
 21
0.576274
 31
0.0
  0
LINE
  8
1
  6
CONTINUOUS
 62
   250
 10
0.019761
 20
0.589141
 30
0.0
 11
0.02022
 21
0.59098
 31
0.0
  0
LINE
  8
1
  6
CONTINUOUS
 62
   250
 10
0.036305
 20
0.582247
 30
0.0
 11
0.036305
 21
0.575354
 31
0.0
  0
LINE
  8
1
  6
CONTINUOUS
 62
   250
 10
0.031249
 20
0.578111
 30
0.0
 11
0.03079
 21
0.579031
 31
0.0
  0
LINE
  8
1
  6
CONTINUOUS
 62
   250
 10
0.029411
 20
0.580869
 30
0.0
 11
0.028033
 21
0.58133
 31
0.0
  0
LINE
  8
1
  6
CONTINUOUS
 62
   250
 10
0.030331
 20
0.579951
 30
0.0
 11
0.029411
 21
0.580869
 31
0.0
  0
LINE
  8
1
  6
CONTINUOUS
 62
   250
 10
0.03079
 20
0.579031
 30
0.0
 11
0.030331
 21
0.579951
 31
0.0
  0
LINE
  8
1
  6
CONTINUOUS
 62
   250
 10
0.03079
 20
0.575354
 30
0.0
 11
0.031249
 21
0.576274
 31
0.0
  0
LINE
  8
1
  6
CONTINUOUS
 62
   250
 10
0.030331
 20
0.574436
 30
0.0
 11
0.03079
 21
0.575354
 31
0.0
  0
LINE
  8
1
  6
CONTINUOUS
 62
   250
 10
0.031249
 20
0.576274
 30
0.0
 11
0.031249
 21
0.578111
 31
0.0
  0
LINE
  8
1
  6
CONTINUOUS
 62
   250
 10
0.025276
 20
0.59098
 30
0.0
 11
0.025276
 21
0.59098
 31
0.0
  0
LINE
  8
1
  6
CONTINUOUS
 62
   250
 10
0.024355
 20
0.591439
 30
0.0
 11
0.025276
 21
0.59098
 31
0.0
  0
LINE
  8
1
  6
CONTINUOUS
 62
   250
 10
0.025734
 20
0.589141
 30
0.0
 11
0.025734
 21
0.584546
 31
0.0
  0
LINE
  8
1
  6
CONTINUOUS
 62
   250
 10
0.024817
 20
0.58133
 30
0.0
 11
0.023438
 21
0.580869
 31
0.0
  0
LINE
  8
1
  6
CONTINUOUS
 62
   250
 10
0.025276
 20
0.59098
 30
0.0
 11
0.025734
 21
0.589141
 31
0.0
  0
LINE
  8
1
  6
CONTINUOUS
 62
   250
 10
0.028033
 20
0.58133
 30
0.0
 11
0.024817
 21
0.58133
 31
0.0
  0
LINE
  8
1
  6
CONTINUOUS
 62
   250
 10
0.029411
 20
0.570301
 30
0.0
 11
0.028033
 21
0.570759
 31
0.0
  0
LINE
  8
1
  6
CONTINUOUS
 62
   250
 10
0.030331
 20
0.56984
 30
0.0
 11
0.029411
 21
0.570301
 31
0.0
  0
LINE
  8
1
  6
CONTINUOUS
 62
   250
 10
0.028033
 20
0.573058
 30
0.0
 11
0.029411
 21
0.573517
 31
0.0
  0
LINE
  8
1
  6
CONTINUOUS
 62
   250
 10
0.024817
 20
0.570759
 30
0.0
 11
0.023438
 21
0.570301
 31
0.0
  0
LINE
  8
1
  6
CONTINUOUS
 62
   250
 10
0.023438
 20
0.573517
 30
0.0
 11
0.024817
 21
0.573058
 31
0.0
  0
LINE
  8
1
  6
CONTINUOUS
 62
   250
 10
0.028033
 20
0.570759
 30
0.0
 11
0.024817
 21
0.570759
 31
0.0
  0
LINE
  8
1
  6
CONTINUOUS
 62
   250
 10
0.024817
 20
0.573058
 30
0.0
 11
0.028033
 21
0.573058
 31
0.0
  0
LINE
  8
1
  6
CONTINUOUS
 62
   250
 10
0.029411
 20
0.573517
 30
0.0
 11
0.030331
 21
0.574436
 31
0.0
  0
LINE
  8
1
  6
CONTINUOUS
 62
   250
 10
0.078584
 20
0.532616
 30
0.0
 11
0.072149
 21
0.519291
 31
0.0
  0
LINE
  8
1
  6
CONTINUOUS
 62
   250
 10
0.040441
 20
0.472875
 30
0.0
 11
0.063878
 21
0.472875
 31
0.0
  0
LINE
  8
1
  6
CONTINUOUS
 62
   250
 10
0.038603
 20
0.522507
 30
0.0
 11
0.038603
 21
0.523885
 31
0.0
  0
LINE
  8
1
  6
CONTINUOUS
 62
   250
 10
0.057904
 20
0.589602
 30
0.0
 11
0.070312
 21
0.589602
 31
0.0
  0
LINE
  8
1
  6
CONTINUOUS
 62
   250
 10
0.069392
 20
0.584546
 30
0.0
 11
0.068014
 21
0.585005
 31
0.0
  0
LINE
  8
1
  6
CONTINUOUS
 62
   250
 10
0.068014
 20
0.576733
 30
0.0
 11
0.069392
 21
0.577653
 31
0.0
  0
LINE
  8
1
  6
CONTINUOUS
 62
   250
 10
0.070312
 20
0.554674
 30
0.0
 11
0.057904
 21
0.554674
 31
0.0
  0
LINE
  8
1
  6
CONTINUOUS
 62
   250
 10
0.068014
 20
0.564325
 30
0.0
 11
0.069392
 21
0.565245
 31
0.0
  0
LINE
  8
1
  6
CONTINUOUS
 62
   250
 10
0.069392
 20
0.572138
 30
0.0
 11
0.068014
 21
0.572138
 31
0.0
  0
LINE
  8
1
  6
CONTINUOUS
 62
   250
 10
0.057904
 20
0.56984
 30
0.0
 11
0.057904
 21
0.567543
 31
0.0
  0
LINE
  8
1
  6
CONTINUOUS
 62
   250
 10
0.048254
 20
0.568922
 30
0.0
 11
0.047334
 21
0.567543
 31
0.0
  0
LINE
  8
1
  6
CONTINUOUS
 62
   250
 10
0.048254
 20
0.557432
 30
0.0
 11
0.048254
 21
0.55973
 31
0.0
  0
LINE
  8
1
  6
CONTINUOUS
 62
   250
 10
0.047334
 20
0.556514
 30
0.0
 11
0.048254
 21
0.557432
 31
0.0
  0
LINE
  8
1
  6
CONTINUOUS
 62
   250
 10
0.047334
 20
0.555594
 30
0.0
 11
0.047334
 21
0.556514
 31
0.0
  0
LINE
  8
1
  6
CONTINUOUS
 62
   250
 10
0.046414
 20
0.555135
 30
0.0
 11
0.047334
 21
0.555594
 31
0.0
  0
LINE
  8
1
  6
CONTINUOUS
 62
   250
 10
0.047334
 20
0.566623
 30
0.0
 11
0.045496
 21
0.566165
 31
0.0
  0
LINE
  8
1
  6
CONTINUOUS
 62
   250
 10
0.047334
 20
0.567543
 30
0.0
 11
0.047334
 21
0.566623
 31
0.0
  0
LINE
  8
1
  6
CONTINUOUS
 62
   250
 10
0.047334
 20
0.561109
 30
0.0
 11
0.046414
 21
0.562029
 31
0.0
  0
LINE
  8
1
  6
CONTINUOUS
 62
   250
 10
0.047334
 20
0.56065
 30
0.0
 11
0.047334
 21
0.561109
 31
0.0
  0
LINE
  8
1
  6
CONTINUOUS
 62
   250
 10
0.048254
 20
0.55973
 30
0.0
 11
0.047334
 21
0.56065
 31
0.0
  0
LINE
  8
1
  6
CONTINUOUS
 62
   250
 10
0.041819
 20
0.554674
 30
0.0
 11
0.044576
 21
0.554674
 31
0.0
  0
LINE
  8
1
  6
CONTINUOUS
 62
   250
 10
0.039982
 20
0.555135
 30
0.0
 11
0.041819
 21
0.554674
 31
0.0
  0
LINE
  8
1
  6
CONTINUOUS
 62
   250
 10
0.039062
 20
0.555594
 30
0.0
 11
0.039982
 21
0.555135
 31
0.0
  0
LINE
  8
1
  6
CONTINUOUS
 62
   250
 10
0.039982
 20
0.562029
 30
0.0
 11
0.039062
 21
0.561109
 31
0.0
  0
LINE
  8
1
  6
CONTINUOUS
 62
   250
 10
0.041819
 20
0.562487
 30
0.0
 11
0.039982
 21
0.562029
 31
0.0
  0
LINE
  8
1
  6
CONTINUOUS
 62
   250
 10
0.044576
 20
0.562487
 30
0.0
 11
0.041819
 21
0.562487
 31
0.0
  0
LINE
  8
1
  6
CONTINUOUS
 62
   250
 10
0.044576
 20
0.554674
 30
0.0
 11
0.046414
 21
0.555135
 31
0.0
  0
LINE
  8
1
  6
CONTINUOUS
 62
   250
 10
0.046414
 20
0.562029
 30
0.0
 11
0.044576
 21
0.562487
 31
0.0
  0
LINE
  8
1
  6
CONTINUOUS
 62
   250
 10
0.057904
 20
0.567543
 30
0.0
 11
0.058363
 21
0.566165
 31
0.0
  0
LINE
  8
1
  6
CONTINUOUS
 62
   250
 10
0.066176
 20
0.563866
 30
0.0
 11
0.068014
 21
0.564325
 31
0.0
  0
LINE
  8
1
  6
CONTINUOUS
 62
   250
 10
0.062958
 20
0.563866
 30
0.0
 11
0.066176
 21
0.563866
 31
0.0
  0
LINE
  8
1
  6
CONTINUOUS
 62
   250
 10
0.06112
 20
0.564325
 30
0.0
 11
0.062958
 21
0.563866
 31
0.0
  0
LINE
  8
1
  6
CONTINUOUS
 62
   250
 10
0.058822
 20
0.565245
 30
0.0
 11
0.06112
 21
0.564325
 31
0.0
  0
LINE
  8
1
  6
CONTINUOUS
 62
   250
 10
0.058363
 20
0.566165
 30
0.0
 11
0.058822
 21
0.565245
 31
0.0
  0
LINE
  8
1
  6
CONTINUOUS
 62
   250
 10
0.039062
 20
0.597412
 30
0.0
 11
0.039521
 21
0.596034
 31
0.0
  0
LINE
  8
1
  6
CONTINUOUS
 62
   250
 10
0.048254
 20
0.570301
 30
0.0
 11
0.048254
 21
0.568922
 31
0.0
  0
LINE
  8
1
  6
CONTINUOUS
 62
   250
 10
0.047334
 20
0.571679
 30
0.0
 11
0.048254
 21
0.570301
 31
0.0
  0
LINE
  8
1
  6
CONTINUOUS
 62
   250
 10
0.047334
 20
0.572138
 30
0.0
 11
0.047334
 21
0.571679
 31
0.0
  0
LINE
  8
1
  6
CONTINUOUS
 62
   250
 10
0.045496
 20
0.572597
 30
0.0
 11
0.047334
 21
0.572138
 31
0.0
  0
LINE
  8
1
  6
CONTINUOUS
 62
   250
 10
0.058363
 20
0.596954
 30
0.0
 11
0.057904
 21
0.595116
 31
0.0
  0
LINE
  8
1
  6
CONTINUOUS
 62
   250
 10
0.057904
 20
0.579951
 30
0.0
 11
0.058363
 21
0.578572
 31
0.0
  0
LINE
  8
1
  6
CONTINUOUS
 62
   250
 10
0.058363
 20
0.583167
 30
0.0
 11
0.057904
 21
0.582247
 31
0.0
  0
LINE
  8
1
  6
CONTINUOUS
 62
   250
 10
0.057904
 20
0.582247
 30
0.0
 11
0.057904
 21
0.579951
 31
0.0
  0
LINE
  8
1
  6
CONTINUOUS
 62
   250
 10
0.057904
 20
0.595116
 30
0.0
 11
0.057904
 21
0.589602
 31
0.0
  0
LINE
  8
1
  6
CONTINUOUS
 62
   250
 10
0.058363
 20
0.597412
 30
0.0
 11
0.058363
 21
0.596954
 31
0.0
  0
LINE
  8
1
  6
CONTINUOUS
 62
   250
 10
0.059283
 20
0.597873
 30
0.0
 11
0.058363
 21
0.597412
 31
0.0
  0
LINE
  8
1
  6
CONTINUOUS
 62
   250
 10
0.062499
 20
0.597873
 30
0.0
 11
0.059283
 21
0.597873
 31
0.0
  0
LINE
  8
1
  6
CONTINUOUS
 62
   250
 10
0.063419
 20
0.597412
 30
0.0
 11
0.062499
 21
0.597873
 31
0.0
  0
LINE
  8
1
  6
CONTINUOUS
 62
   250
 10
0.063878
 20
0.596954
 30
0.0
 11
0.063419
 21
0.597412
 31
0.0
  0
LINE
  8
1
  6
CONTINUOUS
 62
   250
 10
0.063878
 20
0.595116
 30
0.0
 11
0.063878
 21
0.596954
 31
0.0
  0
LINE
  8
1
  6
CONTINUOUS
 62
   250
 10
0.058822
 20
0.584546
 30
0.0
 11
0.058363
 21
0.583167
 31
0.0
  0
LINE
  8
1
  6
CONTINUOUS
 62
   250
 10
0.06112
 20
0.585005
 30
0.0
 11
0.058822
 21
0.584546
 31
0.0
  0
LINE
  8
1
  6
CONTINUOUS
 62
   250
 10
0.062958
 20
0.585924
 30
0.0
 11
0.06112
 21
0.585005
 31
0.0
  0
LINE
  8
1
  6
CONTINUOUS
 62
   250
 10
0.066176
 20
0.585924
 30
0.0
 11
0.062958
 21
0.585924
 31
0.0
  0
LINE
  8
1
  6
CONTINUOUS
 62
   250
 10
0.068014
 20
0.585005
 30
0.0
 11
0.066176
 21
0.585924
 31
0.0
  0
LINE
  8
1
  6
CONTINUOUS
 62
   250
 10
0.058822
 20
0.577653
 30
0.0
 11
0.06112
 21
0.576733
 31
0.0
  0
LINE
  8
1
  6
CONTINUOUS
 62
   250
 10
0.058363
 20
0.578572
 30
0.0
 11
0.058822
 21
0.577653
 31
0.0
  0
LINE
  8
1
  6
CONTINUOUS
 62
   250
 10
0.062958
 20
0.576274
 30
0.0
 11
0.066176
 21
0.576274
 31
0.0
  0
LINE
  8
1
  6
CONTINUOUS
 62
   250
 10
0.066176
 20
0.576274
 30
0.0
 11
0.068014
 21
0.576733
 31
0.0
  0
LINE
  8
1
  6
CONTINUOUS
 62
   250
 10
0.06112
 20
0.576733
 30
0.0
 11
0.062958
 21
0.576274
 31
0.0
  0
LINE
  8
1
  6
CONTINUOUS
 62
   250
 10
0.063878
 20
0.589602
 30
0.0
 11
0.063878
 21
0.595116
 31
0.0
  0
LINE
  8
1
  6
CONTINUOUS
 62
   250
 10
0.058363
 20
0.571218
 30
0.0
 11
0.057904
 21
0.56984
 31
0.0
  0
LINE
  8
1
  6
CONTINUOUS
 62
   250
 10
0.058822
 20
0.572138
 30
0.0
 11
0.058363
 21
0.571218
 31
0.0
  0
LINE
  8
1
  6
CONTINUOUS
 62
   250
 10
0.06112
 20
0.572138
 30
0.0
 11
0.058822
 21
0.572138
 31
0.0
  0
LINE
  8
1
  6
CONTINUOUS
 62
   250
 10
0.062958
 20
0.572597
 30
0.0
 11
0.06112
 21
0.572138
 31
0.0
  0
LINE
  8
1
  6
CONTINUOUS
 62
   250
 10
0.066176
 20
0.572597
 30
0.0
 11
0.062958
 21
0.572597
 31
0.0
  0
LINE
  8
1
  6
CONTINUOUS
 62
   250
 10
0.068014
 20
0.572138
 30
0.0
 11
0.066176
 21
0.572597
 31
0.0
  0
LINE
  8
1
  6
CONTINUOUS
 62
   250
 10
0.070312
 20
0.567543
 30
0.0
 11
0.070312
 21
0.56984
 31
0.0
  0
LINE
  8
1
  6
CONTINUOUS
 62
   250
 10
0.089152
 20
0.554674
 30
0.0
 11
0.074907
 21
0.554674
 31
0.0
  0
LINE
  8
1
  6
CONTINUOUS
 62
   250
 10
0.074907
 20
0.567543
 30
0.0
 11
0.089152
 21
0.567543
 31
0.0
  0
LINE
  8
1
  6
CONTINUOUS
 62
   250
 10
0.074907
 20
0.559271
 30
0.0
 11
0.089152
 21
0.559271
 31
0.0
  0
LINE
  8
1
  6
CONTINUOUS
 62
   250
 10
0.089152
 20
0.567543
 30
0.0
 11
0.074907
 21
0.559271
 31
0.0
  0
LINE
  8
1
  6
CONTINUOUS
 62
   250
 10
0.070312
 20
0.554674
 30
0.0
 11
0.070312
 21
0.561109
 31
0.0
  0
LINE
  8
1
  6
CONTINUOUS
 62
   250
 10
0.069851
 20
0.566165
 30
0.0
 11
0.070312
 21
0.567543
 31
0.0
  0
LINE
  8
1
  6
CONTINUOUS
 62
   250
 10
0.069392
 20
0.565245
 30
0.0
 11
0.069851
 21
0.566165
 31
0.0
  0
LINE
  8
1
  6
CONTINUOUS
 62
   250
 10
0.069392
 20
0.532616
 30
0.0
 11
0.078584
 21
0.532616
 31
0.0
  0
LINE
  8
1
  6
CONTINUOUS
 62
   250
 10
0.097424
 20
0.565704
 30
0.0
 11
0.097885
 21
0.564325
 31
0.0
  0
LINE
  8
1
  6
CONTINUOUS
 62
   250
 10
0.097424
 20
0.567543
 30
0.0
 11
0.097424
 21
0.565704
 31
0.0
  0
LINE
  8
1
  6
CONTINUOUS
 62
   250
 10
0.097885
 20
0.568461
 30
0.0
 11
0.097424
 21
0.567543
 31
0.0
  0
LINE
  8
1
  6
CONTINUOUS
 62
   250
 10
0.08272
 20
0.589141
 30
0.0
 11
0.089152
 21
0.583167
 31
0.0
  0
LINE
  8
1
  6
CONTINUOUS
 62
   250
 10
0.079501
 20
0.59098
 30
0.0
 11
0.080421
 21
0.590519
 31
0.0
  0
LINE
  8
1
  6
CONTINUOUS
 62
   250
 10
0.078123
 20
0.59098
 30
0.0
 11
0.079501
 21
0.59098
 31
0.0
  0
LINE
  8
1
  6
CONTINUOUS
 62
   250
 10
0.075827
 20
0.590519
 30
0.0
 11
0.078123
 21
0.59098
 31
0.0
  0
LINE
  8
1
  6
CONTINUOUS
 62
   250
 10
0.078123
 20
0.584087
 30
0.0
 11
0.079043
 21
0.584087
 31
0.0
  0
LINE
  8
1
  6
CONTINUOUS
 62
   250
 10
0.075827
 20
0.584546
 30
0.0
 11
0.078123
 21
0.584087
 31
0.0
  0
LINE
  8
1
  6
CONTINUOUS
 62
   250
 10
0.075366
 20
0.585005
 30
0.0
 11
0.075827
 21
0.584546
 31
0.0
  0
LINE
  8
1
  6
CONTINUOUS
 62
   250
 10
0.074907
 20
0.586383
 30
0.0
 11
0.075366
 21
0.585005
 31
0.0
  0
LINE
  8
1
  6
CONTINUOUS
 62
   250
 10
0.074907
 20
0.588682
 30
0.0
 11
0.074907
 21
0.586383
 31
0.0
  0
LINE
  8
1
  6
CONTINUOUS
 62
   250
 10
0.075366
 20
0.589602
 30
0.0
 11
0.074907
 21
0.588682
 31
0.0
  0
LINE
  8
1
  6
CONTINUOUS
 62
   250
 10
0.080421
 20
0.590519
 30
0.0
 11
0.08272
 21
0.589141
 31
0.0
  0
LINE
  8
1
  6
CONTINUOUS
 62
   250
 10
0.075366
 20
0.589602
 30
0.0
 11
0.075827
 21
0.590519
 31
0.0
  0
LINE
  8
1
  6
CONTINUOUS
 62
   250
 10
0.069851
 20
0.583167
 30
0.0
 11
0.069392
 21
0.584546
 31
0.0
  0
LINE
  8
1
  6
CONTINUOUS
 62
   250
 10
0.070312
 20
0.582247
 30
0.0
 11
0.069851
 21
0.583167
 31
0.0
  0
LINE
  8
1
  6
CONTINUOUS
 62
   250
 10
0.070312
 20
0.579951
 30
0.0
 11
0.070312
 21
0.582247
 31
0.0
  0
LINE
  8
1
  6
CONTINUOUS
 62
   250
 10
0.069851
 20
0.578572
 30
0.0
 11
0.070312
 21
0.579951
 31
0.0
  0
LINE
  8
1
  6
CONTINUOUS
 62
   250
 10
0.069392
 20
0.577653
 30
0.0
 11
0.069851
 21
0.578572
 31
0.0
  0
LINE
  8
1
  6
CONTINUOUS
 62
   250
 10
0.069851
 20
0.571218
 30
0.0
 11
0.069392
 21
0.572138
 31
0.0
  0
LINE
  8
1
  6
CONTINUOUS
 62
   250
 10
0.070312
 20
0.56984
 30
0.0
 11
0.069851
 21
0.571218
 31
0.0
  0
LINE
  8
1
  6
CONTINUOUS
 62
   250
 10
0.099263
 20
0.59098
 30
0.0
 11
0.097885
 21
0.590519
 31
0.0
  0
LINE
  8
1
  6
CONTINUOUS
 62
   250
 10
0.097424
 20
0.589141
 30
0.0
 11
0.097424
 21
0.584546
 31
0.0
  0
LINE
  8
1
  6
CONTINUOUS
 62
   250
 10
0.097885
 20
0.579031
 30
0.0
 11
0.097424
 21
0.578111
 31
0.0
  0
LINE
  8
1
  6
CONTINUOUS
 62
   250
 10
0.097424
 20
0.575815
 30
0.0
 11
0.097885
 21
0.575354
 31
0.0
  0
LINE
  8
1
  6
CONTINUOUS
 62
   250
 10
0.097424
 20
0.578111
 30
0.0
 11
0.097424
 21
0.575815
 31
0.0
  0
LINE
  8
1
  6
CONTINUOUS
 62
   250
 10
0.097885
 20
0.590519
 30
0.0
 11
0.097424
 21
0.589141
 31
0.0
  0
LINE
  8
1
  6
CONTINUOUS
 62
   250
 10
0.089152
 20
0.583167
 30
0.0
 11
0.089152
 21
0.591439
 31
0.0
  0
LINE
  8
1
  6
CONTINUOUS
 62
   250
 10
0.036305
 20
0.649801
 30
0.0
 11
0.039521
 21
0.648883
 31
0.0
  0
LINE
  8
1
  6
CONTINUOUS
 62
   250
 10
0.044118
 20
0.640611
 30
0.0
 11
0.024817
 21
0.640611
 31
0.0
  0
LINE
  8
1
  6
CONTINUOUS
 62
   250
 10
0.036305
 20
0.630961
 30
0.0
 11
0.039521
 21
0.631879
 31
0.0
  0
LINE
  8
1
  6
CONTINUOUS
 62
   250
 10
0.002297
 20
0.647044
 30
0.0
 11
0.00046
 21
0.648883
 31
0.0
  0
LINE
  8
1
  6
CONTINUOUS
 62
   250
 10
-0.009191
 20
0.648883
 30
0.0
 11
-0.012407
 21
0.647044
 31
0.0
  0
LINE
  8
1
  6
CONTINUOUS
 62
   250
 10
-0.004596
 20
0.6305
 30
0.0
 11
-0.004596
 21
0.650262
 31
0.0
  0
LINE
  8
1
  6
CONTINUOUS
 62
   250
 10
-0.007812
 20
0.630961
 30
0.0
 11
-0.004596
 21
0.6305
 31
0.0
  0
LINE
  8
1
  6
CONTINUOUS
 62
   250
 10
-0.013785
 20
0.642908
 30
0.0
 11
-0.014246
 21
0.640611
 31
0.0
  0
LINE
  8
1
  6
CONTINUOUS
 62
   250
 10
-0.013327
 20
0.645206
 30
0.0
 11
-0.013785
 21
0.642908
 31
0.0
  0
LINE
  8
1
  6
CONTINUOUS
 62
   250
 10
-0.012407
 20
0.647044
 30
0.0
 11
-0.013327
 21
0.645206
 31
0.0
  0
LINE
  8
1
  6
CONTINUOUS
 62
   250
 10
-0.009191
 20
0.631879
 30
0.0
 11
-0.007812
 21
0.630961
 31
0.0
  0
LINE
  8
1
  6
CONTINUOUS
 62
   250
 10
-0.012407
 20
0.633718
 30
0.0
 11
-0.009191
 21
0.631879
 31
0.0
  0
LINE
  8
1
  6
CONTINUOUS
 62
   250
 10
-0.013327
 20
0.635556
 30
0.0
 11
-0.012407
 21
0.633718
 31
0.0
  0
LINE
  8
1
  6
CONTINUOUS
 62
   250
 10
-0.013785
 20
0.637854
 30
0.0
 11
-0.013327
 21
0.635556
 31
0.0
  0
LINE
  8
1
  6
CONTINUOUS
 62
   250
 10
-0.014246
 20
0.640611
 30
0.0
 11
-0.013785
 21
0.637854
 31
0.0
  0
LINE
  8
1
  6
CONTINUOUS
 62
   250
 10
0.004137
 20
0.640611
 30
0.0
 11
0.003676
 21
0.642908
 31
0.0
  0
LINE
  8
1
  6
CONTINUOUS
 62
   250
 10
0.003676
 20
0.642908
 30
0.0
 11
0.003217
 21
0.645206
 31
0.0
  0
LINE
  8
1
  6
CONTINUOUS
 62
   250
 10
0.003217
 20
0.645206
 30
0.0
 11
0.002297
 21
0.647044
 31
0.0
  0
LINE
  8
1
  6
CONTINUOUS
 62
   250
 10
0.003217
 20
0.635556
 30
0.0
 11
0.003676
 21
0.637854
 31
0.0
  0
LINE
  8
1
  6
CONTINUOUS
 62
   250
 10
0.002297
 20
0.633718
 30
0.0
 11
0.003217
 21
0.635556
 31
0.0
  0
LINE
  8
1
  6
CONTINUOUS
 62
   250
 10
0.00046
 20
0.631879
 30
0.0
 11
0.002297
 21
0.633718
 31
0.0
  0
LINE
  8
1
  6
CONTINUOUS
 62
   250
 10
-0.002297
 20
0.630961
 30
0.0
 11
0.00046
 21
0.631879
 31
0.0
  0
LINE
  8
1
  6
CONTINUOUS
 62
   250
 10
-0.004596
 20
0.6305
 30
0.0
 11
-0.002297
 21
0.630961
 31
0.0
  0
LINE
  8
1
  6
CONTINUOUS
 62
   250
 10
0.003676
 20
0.637854
 30
0.0
 11
0.004137
 21
0.640611
 31
0.0
  0
LINE
  8
1
  6
CONTINUOUS
 62
   250
 10
-0.004596
 20
0.650262
 30
0.0
 11
-0.007812
 21
0.649801
 31
0.0
  0
LINE
  8
1
  6
CONTINUOUS
 62
   250
 10
-0.007812
 20
0.649801
 30
0.0
 11
-0.009191
 21
0.648883
 31
0.0
  0
LINE
  8
1
  6
CONTINUOUS
 62
   250
 10
-0.002297
 20
0.649801
 30
0.0
 11
-0.004596
 21
0.650262
 31
0.0
  0
LINE
  8
1
  6
CONTINUOUS
 62
   250
 10
0.00046
 20
0.648883
 30
0.0
 11
-0.002297
 21
0.649801
 31
0.0
  0
LINE
  8
1
  6
CONTINUOUS
 62
   250
 10
0.027574
 20
0.647044
 30
0.0
 11
0.029411
 21
0.648883
 31
0.0
  0
LINE
  8
1
  6
CONTINUOUS
 62
   250
 10
0.024817
 20
0.640611
 30
0.0
 11
0.024817
 21
0.642908
 31
0.0
  0
LINE
  8
1
  6
CONTINUOUS
 62
   250
 10
0.024817
 20
0.642908
 30
0.0
 11
0.025276
 21
0.645206
 31
0.0
  0
LINE
  8
1
  6
CONTINUOUS
 62
   250
 10
0.025276
 20
0.645206
 30
0.0
 11
0.027574
 21
0.647044
 31
0.0
  0
LINE
  8
1
  6
CONTINUOUS
 62
   250
 10
0.034467
 20
0.6305
 30
0.0
 11
0.036305
 21
0.630961
 31
0.0
  0
LINE
  8
1
  6
CONTINUOUS
 62
   250
 10
0.029411
 20
0.631879
 30
0.0
 11
0.031249
 21
0.630961
 31
0.0
  0
LINE
  8
1
  6
CONTINUOUS
 62
   250
 10
0.027574
 20
0.633718
 30
0.0
 11
0.029411
 21
0.631879
 31
0.0
  0
LINE
  8
1
  6
CONTINUOUS
 62
   250
 10
0.024817
 20
0.637854
 30
0.0
 11
0.025276
 21
0.635556
 31
0.0
  0
LINE
  8
1
  6
CONTINUOUS
 62
   250
 10
0.025276
 20
0.635556
 30
0.0
 11
0.027574
 21
0.633718
 31
0.0
  0
LINE
  8
1
  6
CONTINUOUS
 62
   250
 10
0.031249
 20
0.630961
 30
0.0
 11
0.034467
 21
0.6305
 31
0.0
  0
LINE
  8
1
  6
CONTINUOUS
 62
   250
 10
0.024817
 20
0.640611
 30
0.0
 11
0.024817
 21
0.637854
 31
0.0
  0
LINE
  8
1
  6
CONTINUOUS
 62
   250
 10
0.034467
 20
0.650262
 30
0.0
 11
0.036305
 21
0.649801
 31
0.0
  0
LINE
  8
1
  6
CONTINUOUS
 62
   250
 10
0.029411
 20
0.648883
 30
0.0
 11
0.031249
 21
0.649801
 31
0.0
  0
LINE
  8
1
  6
CONTINUOUS
 62
   250
 10
0.031249
 20
0.649801
 30
0.0
 11
0.034467
 21
0.650262
 31
0.0
  0
LINE
  8
1
  6
CONTINUOUS
 62
   250
 10
0.070312
 20
0.649801
 30
0.0
 11
0.068933
 21
0.648883
 31
0.0
  0
LINE
  8
1
  6
CONTINUOUS
 62
   250
 10
0.068933
 20
0.631879
 30
0.0
 11
0.070312
 21
0.630961
 31
0.0
  0
LINE
  8
1
  6
CONTINUOUS
 62
   250
 10
0.067094
 20
0.647044
 30
0.0
 11
0.080421
 21
0.633718
 31
0.0
  0
LINE
  8
1
  6
CONTINUOUS
 62
   250
 10
0.068933
 20
0.648883
 30
0.0
 11
0.067094
 21
0.647044
 31
0.0
  0
LINE
  8
1
  6
CONTINUOUS
 62
   250
 10
0.039521
 20
0.648883
 30
0.0
 11
0.04136
 21
0.647044
 31
0.0
  0
LINE
  8
1
  6
CONTINUOUS
 62
   250
 10
0.042739
 20
0.642908
 30
0.0
 11
0.044118
 21
0.640611
 31
0.0
  0
LINE
  8
1
  6
CONTINUOUS
 62
   250
 10
0.041819
 20
0.645206
 30
0.0
 11
0.042739
 21
0.642908
 31
0.0
  0
LINE
  8
1
  6
CONTINUOUS
 62
   250
 10
0.04136
 20
0.647044
 30
0.0
 11
0.041819
 21
0.645206
 31
0.0
  0
LINE
  8
1
  6
CONTINUOUS
 62
   250
 10
0.041819
 20
0.635556
 30
0.0
 11
0.042739
 21
0.637854
 31
0.0
  0
LINE
  8
1
  6
CONTINUOUS
 62
   250
 10
0.04136
 20
0.633718
 30
0.0
 11
0.041819
 21
0.635556
 31
0.0
  0
LINE
  8
1
  6
CONTINUOUS
 62
   250
 10
0.039521
 20
0.631879
 30
0.0
 11
0.04136
 21
0.633718
 31
0.0
  0
LINE
  8
1
  6
CONTINUOUS
 62
   250
 10
0.042739
 20
0.637854
 30
0.0
 11
0.044118
 21
0.640611
 31
0.0
  0
LINE
  8
1
  6
CONTINUOUS
 62
   250
 10
0.063878
 20
0.642908
 30
0.0
 11
0.063878
 21
0.640611
 31
0.0
  0
LINE
  8
1
  6
CONTINUOUS
 62
   250
 10
0.064797
 20
0.645206
 30
0.0
 11
0.063878
 21
0.642908
 31
0.0
  0
LINE
  8
1
  6
CONTINUOUS
 62
   250
 10
0.067094
 20
0.647044
 30
0.0
 11
0.064797
 21
0.645206
 31
0.0
  0
LINE
  8
1
  6
CONTINUOUS
 62
   250
 10
0.064797
 20
0.635556
 30
0.0
 11
0.067094
 21
0.633718
 31
0.0
  0
LINE
  8
1
  6
CONTINUOUS
 62
   250
 10
0.063878
 20
0.637854
 30
0.0
 11
0.064797
 21
0.635556
 31
0.0
  0
LINE
  8
1
  6
CONTINUOUS
 62
   250
 10
0.067094
 20
0.633718
 30
0.0
 11
0.068933
 21
0.631879
 31
0.0
  0
LINE
  8
1
  6
CONTINUOUS
 62
   250
 10
0.063878
 20
0.640611
 30
0.0
 11
0.063878
 21
0.637854
 31
0.0
  0
LINE
  8
1
  6
CONTINUOUS
 62
   250
 10
0.080421
 20
0.647044
 30
0.0
 11
0.079043
 21
0.648883
 31
0.0
  0
LINE
  8
1
  6
CONTINUOUS
 62
   250
 10
0.083637
 20
0.640611
 30
0.0
 11
0.083179
 21
0.642908
 31
0.0
  0
LINE
  8
1
  6
CONTINUOUS
 62
   250
 10
0.08272
 20
0.645206
 30
0.0
 11
0.080421
 21
0.647044
 31
0.0
  0
LINE
  8
1
  6
CONTINUOUS
 62
   250
 10
0.083179
 20
0.642908
 30
0.0
 11
0.08272
 21
0.645206
 31
0.0
  0
LINE
  8
1
  6
CONTINUOUS
 62
   250
 10
0.080421
 20
0.633718
 30
0.0
 11
0.08272
 21
0.635556
 31
0.0
  0
LINE
  8
1
  6
CONTINUOUS
 62
   250
 10
0.079043
 20
0.631879
 30
0.0
 11
0.080421
 21
0.633718
 31
0.0
  0
LINE
  8
1
  6
CONTINUOUS
 62
   250
 10
0.075366
 20
0.630961
 30
0.0
 11
0.079043
 21
0.631879
 31
0.0
  0
LINE
  8
1
  6
CONTINUOUS
 62
   250
 10
0.073987
 20
0.6305
 30
0.0
 11
0.075366
 21
0.630961
 31
0.0
  0
LINE
  8
1
  6
CONTINUOUS
 62
   250
 10
0.070312
 20
0.630961
 30
0.0
 11
0.073987
 21
0.6305
 31
0.0
  0
LINE
  8
1
  6
CONTINUOUS
 62
   250
 10
0.08272
 20
0.635556
 30
0.0
 11
0.083179
 21
0.637854
 31
0.0
  0
LINE
  8
1
  6
CONTINUOUS
 62
   250
 10
0.083179
 20
0.637854
 30
0.0
 11
0.083637
 21
0.640611
 31
0.0
  0
LINE
  8
1
  6
CONTINUOUS
 62
   250
 10
0.075366
 20
0.649801
 30
0.0
 11
0.073987
 21
0.650262
 31
0.0
  0
LINE
  8
1
  6
CONTINUOUS
 62
   250
 10
0.079043
 20
0.648883
 30
0.0
 11
0.075366
 21
0.649801
 31
0.0
  0
LINE
  8
1
  6
CONTINUOUS
 62
   250
 10
0.073987
 20
0.650262
 30
0.0
 11
0.070312
 21
0.649801
 31
0.0
  0
LINE
  8
1
  6
CONTINUOUS
 62
   250
 10
0.149812
 20
0.614417
 30
0.0
 11
0.137866
 21
0.607063
 31
0.0
  0
LINE
  8
1
  6
CONTINUOUS
 62
   250
 10
0.171871
 20
0.654857
 30
0.0
 11
0.171871
 21
0.548242
 31
0.0
  0
LINE
  8
1
  6
CONTINUOUS
 62
   250
 10
0.160383
 20
0.59098
 30
0.0
 11
0.159924
 21
0.591439
 31
0.0
  0
LINE
  8
1
  6
CONTINUOUS
 62
   250
 10
0.16222
 20
0.606604
 30
0.0
 11
0.158084
 21
0.606604
 31
0.0
  0
LINE
  8
1
  6
CONTINUOUS
 62
   250
 10
0.158084
 20
0.598791
 30
0.0
 11
0.16222
 21
0.598791
 31
0.0
  0
LINE
  8
1
  6
CONTINUOUS
 62
   250
 10
0.154868
 20
0.585005
 30
0.0
 11
0.166356
 21
0.585005
 31
0.0
  0
LINE
  8
1
  6
CONTINUOUS
 62
   250
 10
0.16222
 20
0.581789
 30
0.0
 11
0.158084
 21
0.581789
 31
0.0
  0
LINE
  8
1
  6
CONTINUOUS
 62
   250
 10
0.16314
 20
0.514235
 30
0.0
 11
0.159924
 21
0.514235
 31
0.0
  0
LINE
  8
1
  6
CONTINUOUS
 62
   250
 10
0.166356
 20
0.555135
 30
0.0
 11
0.154868
 21
0.555135
 31
0.0
  0
LINE
  8
1
  6
CONTINUOUS
 62
   250
 10
0.163599
 20
0.51883
 30
0.0
 11
0.154868
 21
0.51883
 31
0.0
  0
LINE
  8
1
  6
CONTINUOUS
 62
   250
 10
0.154868
 20
0.528021
 30
0.0
 11
0.163599
 21
0.528021
 31
0.0
  0
LINE
  8
1
  6
CONTINUOUS
 62
   250
 10
0.168654
 20
0.535834
 30
0.0
 11
0.154868
 21
0.535834
 31
0.0
  0
LINE
  8
1
  6
CONTINUOUS
 62
   250
 10
0.158084
 20
0.573517
 30
0.0
 11
0.16222
 21
0.573517
 31
0.0
  0
LINE
  8
1
  6
CONTINUOUS
 62
   250
 10
0.158084
 20
0.563407
 30
0.0
 11
0.16222
 21
0.563407
 31
0.0
  0
LINE
  8
1
  6
CONTINUOUS
 62
   250
 10
0.16222
 20
0.571218
 30
0.0
 11
0.158084
 21
0.571218
 31
0.0
  0
LINE
  8
1
  6
CONTINUOUS
 62
   250
 10
0.159924
 20
0.504126
 30
0.0
 11
0.16314
 21
0.504126
 31
0.0
  0
LINE
  8
1
  6
CONTINUOUS
 62
   250
 10
0.150273
 20
0.472875
 30
0.0
 11
0.174169
 21
0.472875
 31
0.0
  0
LINE
  8
1
  6
CONTINUOUS
 62
   250
 10
0.137866
 20
0.53032
 30
0.0
 11
0.137866
 21
0.524344
 31
0.0
  0
LINE
  8
1
  6
CONTINUOUS
 62
   250
 10
0.145218
 20
0.524344
 30
0.0
 11
0.145218
 21
0.53032
 31
0.0
  0
LINE
  8
1
  6
CONTINUOUS
 62
   250
 10
0.116266
 20
0.528021
 30
0.0
 11
0.116725
 21
0.5294
 31
0.0
  0
LINE
  8
1
  6
CONTINUOUS
 62
   250
 10
0.107994
 20
0.5294
 30
0.0
 11
0.108914
 21
0.528021
 31
0.0
  0
LINE
  8
1
  6
CONTINUOUS
 62
   250
 10
0.113509
 20
0.472875
 30
0.0
 11
0.137866
 21
0.472875
 31
0.0
  0
LINE
  8
1
  6
CONTINUOUS
 62
   250
 10
0.113967
 20
0.527563
 30
0.0
 11
0.116266
 21
0.528021
 31
0.0
  0
LINE
  8
1
  6
CONTINUOUS
 62
   250
 10
0.114429
 20
0.526184
 30
0.0
 11
0.116725
 21
0.524805
 31
0.0
  0
LINE
  8
1
  6
CONTINUOUS
 62
   250
 10
0.116266
 20
0.519749
 30
0.0
 11
0.113509
 21
0.519291
 31
0.0
  0
LINE
  8
1
  6
CONTINUOUS
 62
   250
 10
0.11213
 20
0.527101
 30
0.0
 11
0.113967
 21
0.527563
 31
0.0
  0
LINE
  8
1
  6
CONTINUOUS
 62
   250
 10
0.110293
 20
0.526184
 30
0.0
 11
0.11213
 21
0.527101
 31
0.0
  0
LINE
  8
1
  6
CONTINUOUS
 62
   250
 10
0.113509
 20
0.527101
 30
0.0
 11
0.114429
 21
0.526184
 31
0.0
  0
LINE
  8
1
  6
CONTINUOUS
 62
   250
 10
0.110752
 20
0.527563
 30
0.0
 11
0.113509
 21
0.527101
 31
0.0
  0
LINE
  8
1
  6
CONTINUOUS
 62
   250
 10
0.108914
 20
0.528021
 30
0.0
 11
0.110752
 21
0.527563
 31
0.0
  0
LINE
  8
1
  6
CONTINUOUS
 62
   250
 10
0.111671
 20
0.519291
 30
0.0
 11
0.108914
 21
0.519749
 31
0.0
  0
LINE
  8
1
  6
CONTINUOUS
 62
   250
 10
0.113509
 20
0.519291
 30
0.0
 11
0.111671
 21
0.519291
 31
0.0
  0
LINE
  8
1
  6
CONTINUOUS
 62
   250
 10
0.107994
 20
0.523885
 30
0.0
 11
0.107994
 21
0.524805
 31
0.0
  0
LINE
  8
1
  6
CONTINUOUS
 62
   250
 10
0.107994
 20
0.520669
 30
0.0
 11
0.107994
 21
0.521587
 31
0.0
  0
LINE
  8
1
  6
CONTINUOUS
 62
   250
 10
0.107994
 20
0.521587
 30
0.0
 11
0.107994
 21
0.523885
 31
0.0
  0
LINE
  8
1
  6
CONTINUOUS
 62
   250
 10
0.107994
 20
0.524805
 30
0.0
 11
0.110293
 21
0.526184
 31
0.0
  0
LINE
  8
1
  6
CONTINUOUS
 62
   250
 10
0.108914
 20
0.519749
 30
0.0
 11
0.107994
 21
0.520669
 31
0.0
  0
LINE
  8
1
  6
CONTINUOUS
 62
   250
 10
0.116725
 20
0.524805
 30
0.0
 11
0.117645
 21
0.523885
 31
0.0
  0
LINE
  8
1
  6
CONTINUOUS
 62
   250
 10
0.116725
 20
0.520669
 30
0.0
 11
0.116266
 21
0.519749
 31
0.0
  0
LINE
  8
1
  6
CONTINUOUS
 62
   250
 10
0.117645
 20
0.521587
 30
0.0
 11
0.116725
 21
0.520669
 31
0.0
  0
LINE
  8
1
  6
CONTINUOUS
 62
   250
 10
0.117645
 20
0.523885
 30
0.0
 11
0.117645
 21
0.521587
 31
0.0
  0
LINE
  8
1
  6
CONTINUOUS
 62
   250
 10
0.145218
 20
0.516992
 30
0.0
 11
0.143839
 21
0.513315
 31
0.0
  0
LINE
  8
1
  6
CONTINUOUS
 62
   250
 10
0.137866
 20
0.524344
 30
0.0
 11
0.151652
 21
0.524344
 31
0.0
  0
LINE
  8
1
  6
CONTINUOUS
 62
   250
 10
0.138324
 20
0.518371
 30
0.0
 11
0.139703
 21
0.519749
 31
0.0
  0
LINE
  8
1
  6
CONTINUOUS
 62
   250
 10
0.137866
 20
0.516533
 30
0.0
 11
0.138324
 21
0.518371
 31
0.0
  0
LINE
  8
1
  6
CONTINUOUS
 62
   250
 10
0.137866
 20
0.513776
 30
0.0
 11
0.137866
 21
0.516533
 31
0.0
  0
LINE
  8
1
  6
CONTINUOUS
 62
   250
 10
0.138324
 20
0.511478
 30
0.0
 11
0.137866
 21
0.513776
 31
0.0
  0
LINE
  8
1
  6
CONTINUOUS
 62
   250
 10
0.139703
 20
0.510558
 30
0.0
 11
0.138324
 21
0.511478
 31
0.0
  0
LINE
  8
1
  6
CONTINUOUS
 62
   250
 10
0.141082
 20
0.510558
 30
0.0
 11
0.139703
 21
0.510558
 31
0.0
  0
LINE
  8
1
  6
CONTINUOUS
 62
   250
 10
0.14154
 20
0.511478
 30
0.0
 11
0.141082
 21
0.510558
 31
0.0
  0
LINE
  8
1
  6
CONTINUOUS
 62
   250
 10
0.142002
 20
0.511478
 30
0.0
 11
0.14154
 21
0.511478
 31
0.0
  0
LINE
  8
1
  6
CONTINUOUS
 62
   250
 10
0.143839
 20
0.513315
 30
0.0
 11
0.142002
 21
0.511478
 31
0.0
  0
LINE
  8
1
  6
CONTINUOUS
 62
   250
 10
0.149812
 20
0.519749
 30
0.0
 11
0.146596
 21
0.519749
 31
0.0
  0
LINE
  8
1
  6
CONTINUOUS
 62
   250
 10
0.150732
 20
0.518371
 30
0.0
 11
0.149812
 21
0.519749
 31
0.0
  0
LINE
  8
1
  6
CONTINUOUS
 62
   250
 10
0.155327
 20
0.511478
 30
0.0
 11
0.154868
 21
0.510558
 31
0.0
  0
LINE
  8
1
  6
CONTINUOUS
 62
   250
 10
0.156706
 20
0.512856
 30
0.0
 11
0.155327
 21
0.511478
 31
0.0
  0
LINE
  8
1
  6
CONTINUOUS
 62
   250
 10
0.157626
 20
0.513776
 30
0.0
 11
0.156706
 21
0.512856
 31
0.0
  0
LINE
  8
1
  6
CONTINUOUS
 62
   250
 10
0.150732
 20
0.511478
 30
0.0
 11
0.149812
 21
0.510558
 31
0.0
  0
LINE
  8
1
  6
CONTINUOUS
 62
   250
 10
0.151652
 20
0.513776
 30
0.0
 11
0.150732
 21
0.511478
 31
0.0
  0
LINE
  8
1
  6
CONTINUOUS
 62
   250
 10
0.151652
 20
0.516533
 30
0.0
 11
0.151652
 21
0.513776
 31
0.0
  0
LINE
  8
1
  6
CONTINUOUS
 62
   250
 10
0.150732
 20
0.518371
 30
0.0
 11
0.151652
 21
0.516533
 31
0.0
  0
LINE
  8
1
  6
CONTINUOUS
 62
   250
 10
0.145677
 20
0.518371
 30
0.0
 11
0.145218
 21
0.516992
 31
0.0
  0
LINE
  8
1
  6
CONTINUOUS
 62
   250
 10
0.146138
 20
0.519291
 30
0.0
 11
0.145677
 21
0.518371
 31
0.0
  0
LINE
  8
1
  6
CONTINUOUS
 62
   250
 10
0.146596
 20
0.519749
 30
0.0
 11
0.146138
 21
0.519291
 31
0.0
  0
LINE
  8
1
  6
CONTINUOUS
 62
   250
 10
0.159924
 20
0.514235
 30
0.0
 11
0.157626
 21
0.513776
 31
0.0
  0
LINE
  8
1
  6
CONTINUOUS
 62
   250
 10
0.156706
 20
0.505043
 30
0.0
 11
0.157626
 21
0.504584
 31
0.0
  0
LINE
  8
1
  6
CONTINUOUS
 62
   250
 10
0.155327
 20
0.505963
 30
0.0
 11
0.156706
 21
0.505043
 31
0.0
  0
LINE
  8
1
  6
CONTINUOUS
 62
   250
 10
0.154868
 20
0.5078
 30
0.0
 11
0.155327
 21
0.505963
 31
0.0
  0
LINE
  8
1
  6
CONTINUOUS
 62
   250
 10
0.157626
 20
0.504584
 30
0.0
 11
0.159924
 21
0.504126
 31
0.0
  0
LINE
  8
1
  6
CONTINUOUS
 62
   250
 10
0.154868
 20
0.510558
 30
0.0
 11
0.154868
 21
0.5078
 31
0.0
  0
LINE
  8
1
  6
CONTINUOUS
 62
   250
 10
0.127295
 20
0.569381
 30
0.0
 11
0.127295
 21
0.568461
 31
0.0
  0
LINE
  8
1
  6
CONTINUOUS
 62
   250
 10
0.108453
 20
0.568461
 30
0.0
 11
0.107994
 21
0.569381
 31
0.0
  0
LINE
  8
1
  6
CONTINUOUS
 62
   250
 10
0.116266
 20
0.532157
 30
0.0
 11
0.113509
 21
0.532616
 31
0.0
  0
LINE
  8
1
  6
CONTINUOUS
 62
   250
 10
0.110293
 20
0.56065
 30
0.0
 11
0.110293
 21
0.554674
 31
0.0
  0
LINE
  8
1
  6
CONTINUOUS
 62
   250
 10
0.110293
 20
0.567543
 30
0.0
 11
0.108453
 21
0.568461
 31
0.0
  0
LINE
  8
1
  6
CONTINUOUS
 62
   250
 10
0.110293
 20
0.565704
 30
0.0
 11
0.110293
 21
0.567543
 31
0.0
  0
LINE
  8
1
  6
CONTINUOUS
 62
   250
 10
0.108453
 20
0.564325
 30
0.0
 11
0.110293
 21
0.565704
 31
0.0
  0
LINE
  8
1
  6
CONTINUOUS
 62
   250
 10
0.111671
 20
0.532616
 30
0.0
 11
0.108914
 21
0.532157
 31
0.0
  0
LINE
  8
1
  6
CONTINUOUS
 62
   250
 10
0.113509
 20
0.532616
 30
0.0
 11
0.111671
 21
0.532616
 31
0.0
  0
LINE
  8
1
  6
CONTINUOUS
 62
   250
 10
0.105696
 20
0.562487
 30
0.0
 11
0.107074
 21
0.562946
 31
0.0
  0
LINE
  8
1
  6
CONTINUOUS
 62
   250
 10
0.10248
 20
0.562487
 30
0.0
 11
0.105696
 21
0.562487
 31
0.0
  0
LINE
  8
1
  6
CONTINUOUS
 62
   250
 10
0.101101
 20
0.562946
 30
0.0
 11
0.10248
 21
0.562487
 31
0.0
  0
LINE
  8
1
  6
CONTINUOUS
 62
   250
 10
0.107074
 20
0.562946
 30
0.0
 11
0.107994
 21
0.563407
 31
0.0
  0
LINE
  8
1
  6
CONTINUOUS
 62
   250
 10
0.100181
 20
0.563407
 30
0.0
 11
0.101101
 21
0.562946
 31
0.0
  0
LINE
  8
1
  6
CONTINUOUS
 62
   250
 10
0.107994
 20
0.530779
 30
0.0
 11
0.107994
 21
0.5294
 31
0.0
  0
LINE
  8
1
  6
CONTINUOUS
 62
   250
 10
0.108914
 20
0.532157
 30
0.0
 11
0.107994
 21
0.530779
 31
0.0
  0
LINE
  8
1
  6
CONTINUOUS
 62
   250
 10
0.107994
 20
0.563407
 30
0.0
 11
0.108453
 21
0.564325
 31
0.0
  0
LINE
  8
1
  6
CONTINUOUS
 62
   250
 10
0.127295
 20
0.556973
 30
0.0
 11
0.127295
 21
0.55881
 31
0.0
  0
LINE
  8
1
  6
CONTINUOUS
 62
   250
 10
0.126836
 20
0.555594
 30
0.0
 11
0.127295
 21
0.556973
 31
0.0
  0
LINE
  8
1
  6
CONTINUOUS
 62
   250
 10
0.124997
 20
0.555135
 30
0.0
 11
0.126836
 21
0.555594
 31
0.0
  0
LINE
  8
1
  6
CONTINUOUS
 62
   250
 10
0.124538
 20
0.554674
 30
0.0
 11
0.124997
 21
0.555135
 31
0.0
  0
LINE
  8
1
  6
CONTINUOUS
 62
   250
 10
0.123159
 20
0.553757
 30
0.0
 11
0.124538
 21
0.554674
 31
0.0
  0
LINE
  8
1
  6
CONTINUOUS
 62
   250
 10
0.124997
 20
0.566165
 30
0.0
 11
0.124079
 21
0.565245
 31
0.0
  0
LINE
  8
1
  6
CONTINUOUS
 62
   250
 10
0.126836
 20
0.566623
 30
0.0
 11
0.124997
 21
0.566165
 31
0.0
  0
LINE
  8
1
  6
CONTINUOUS
 62
   250
 10
0.127295
 20
0.568461
 30
0.0
 11
0.126836
 21
0.566623
 31
0.0
  0
LINE
  8
1
  6
CONTINUOUS
 62
   250
 10
0.124538
 20
0.561109
 30
0.0
 11
0.123159
 21
0.562029
 31
0.0
  0
LINE
  8
1
  6
CONTINUOUS
 62
   250
 10
0.124997
 20
0.561109
 30
0.0
 11
0.124538
 21
0.561109
 31
0.0
  0
LINE
  8
1
  6
CONTINUOUS
 62
   250
 10
0.126836
 20
0.560189
 30
0.0
 11
0.124997
 21
0.561109
 31
0.0
  0
LINE
  8
1
  6
CONTINUOUS
 62
   250
 10
0.127295
 20
0.55881
 30
0.0
 11
0.126836
 21
0.560189
 31
0.0
  0
LINE
  8
1
  6
CONTINUOUS
 62
   250
 10
0.115807
 20
0.55881
 30
0.0
 11
0.115807
 21
0.556973
 31
0.0
  0
LINE
  8
1
  6
CONTINUOUS
 62
   250
 10
0.118565
 20
0.554674
 30
0.0
 11
0.119482
 21
0.553757
 31
0.0
  0
LINE
  8
1
  6
CONTINUOUS
 62
   250
 10
0.117645
 20
0.555135
 30
0.0
 11
0.118565
 21
0.554674
 31
0.0
  0
LINE
  8
1
  6
CONTINUOUS
 62
   250
 10
0.116266
 20
0.555594
 30
0.0
 11
0.117645
 21
0.555135
 31
0.0
  0
LINE
  8
1
  6
CONTINUOUS
 62
   250
 10
0.115807
 20
0.556973
 30
0.0
 11
0.116266
 21
0.555594
 31
0.0
  0
LINE
  8
1
  6
CONTINUOUS
 62
   250
 10
0.118565
 20
0.561109
 30
0.0
 11
0.117645
 21
0.561109
 31
0.0
  0
LINE
  8
1
  6
CONTINUOUS
 62
   250
 10
0.119482
 20
0.562029
 30
0.0
 11
0.118565
 21
0.561109
 31
0.0
  0
LINE
  8
1
  6
CONTINUOUS
 62
   250
 10
0.116266
 20
0.560189
 30
0.0
 11
0.115807
 21
0.55881
 31
0.0
  0
LINE
  8
1
  6
CONTINUOUS
 62
   250
 10
0.117645
 20
0.561109
 30
0.0
 11
0.116266
 21
0.560189
 31
0.0
  0
LINE
  8
1
  6
CONTINUOUS
 62
   250
 10
0.119482
 20
0.553757
 30
0.0
 11
0.123159
 21
0.553757
 31
0.0
  0
LINE
  8
1
  6
CONTINUOUS
 62
   250
 10
0.124079
 20
0.565245
 30
0.0
 11
0.115807
 21
0.565245
 31
0.0
  0
LINE
  8
1
  6
CONTINUOUS
 62
   250
 10
0.123159
 20
0.562029
 30
0.0
 11
0.119482
 21
0.562029
 31
0.0
  0
LINE
  8
1
  6
CONTINUOUS
 62
   250
 10
0.116725
 20
0.530779
 30
0.0
 11
0.116266
 21
0.532157
 31
0.0
  0
LINE
  8
1
  6
CONTINUOUS
 62
   250
 10
0.116725
 20
0.5294
 30
0.0
 11
0.116725
 21
0.530779
 31
0.0
  0
LINE
  8
1
  6
CONTINUOUS
 62
   250
 10
0.110293
 20
0.578111
 30
0.0
 11
0.108453
 21
0.579031
 31
0.0
  0
LINE
  8
1
  6
CONTINUOUS
 62
   250
 10
0.108453
 20
0.575354
 30
0.0
 11
0.110293
 21
0.575815
 31
0.0
  0
LINE
  8
1
  6
CONTINUOUS
 62
   250
 10
0.110293
 20
0.575815
 30
0.0
 11
0.110293
 21
0.578111
 31
0.0
  0
LINE
  8
1
  6
CONTINUOUS
 62
   250
 10
0.10248
 20
0.591439
 30
0.0
 11
0.100642
 21
0.591439
 31
0.0
  0
LINE
  8
1
  6
CONTINUOUS
 62
   250
 10
0.10248
 20
0.59098
 30
0.0
 11
0.10248
 21
0.591439
 31
0.0
  0
LINE
  8
1
  6
CONTINUOUS
 62
   250
 10
0.102939
 20
0.590519
 30
0.0
 11
0.10248
 21
0.59098
 31
0.0
  0
LINE
  8
1
  6
CONTINUOUS
 62
   250
 10
0.1034
 20
0.584546
 30
0.0
 11
0.1034
 21
0.589141
 31
0.0
  0
LINE
  8
1
  6
CONTINUOUS
 62
   250
 10
0.101101
 20
0.58041
 30
0.0
 11
0.100181
 21
0.579951
 31
0.0
  0
LINE
  8
1
  6
CONTINUOUS
 62
   250
 10
0.10248
 20
0.580869
 30
0.0
 11
0.101101
 21
0.58041
 31
0.0
  0
LINE
  8
1
  6
CONTINUOUS
 62
   250
 10
0.105696
 20
0.580869
 30
0.0
 11
0.10248
 21
0.580869
 31
0.0
  0
LINE
  8
1
  6
CONTINUOUS
 62
   250
 10
0.107074
 20
0.58041
 30
0.0
 11
0.105696
 21
0.580869
 31
0.0
  0
LINE
  8
1
  6
CONTINUOUS
 62
   250
 10
0.107994
 20
0.579951
 30
0.0
 11
0.107074
 21
0.58041
 31
0.0
  0
LINE
  8
1
  6
CONTINUOUS
 62
   250
 10
0.1034
 20
0.589141
 30
0.0
 11
0.102939
 21
0.590519
 31
0.0
  0
LINE
  8
1
  6
CONTINUOUS
 62
   250
 10
0.108453
 20
0.579031
 30
0.0
 11
0.107994
 21
0.579951
 31
0.0
  0
LINE
  8
1
  6
CONTINUOUS
 62
   250
 10
0.107074
 20
0.573517
 30
0.0
 11
0.107994
 21
0.573975
 31
0.0
  0
LINE
  8
1
  6
CONTINUOUS
 62
   250
 10
0.105696
 20
0.573058
 30
0.0
 11
0.107074
 21
0.573517
 31
0.0
  0
LINE
  8
1
  6
CONTINUOUS
 62
   250
 10
0.10248
 20
0.573058
 30
0.0
 11
0.105696
 21
0.573058
 31
0.0
  0
LINE
  8
1
  6
CONTINUOUS
 62
   250
 10
0.101101
 20
0.573517
 30
0.0
 11
0.10248
 21
0.573058
 31
0.0
  0
LINE
  8
1
  6
CONTINUOUS
 62
   250
 10
0.100181
 20
0.573975
 30
0.0
 11
0.101101
 21
0.573517
 31
0.0
  0
LINE
  8
1
  6
CONTINUOUS
 62
   250
 10
0.101101
 20
0.56984
 30
0.0
 11
0.100181
 21
0.569381
 31
0.0
  0
LINE
  8
1
  6
CONTINUOUS
 62
   250
 10
0.10248
 20
0.570759
 30
0.0
 11
0.101101
 21
0.56984
 31
0.0
  0
LINE
  8
1
  6
CONTINUOUS
 62
   250
 10
0.105696
 20
0.570759
 30
0.0
 11
0.10248
 21
0.570759
 31
0.0
  0
LINE
  8
1
  6
CONTINUOUS
 62
   250
 10
0.107074
 20
0.56984
 30
0.0
 11
0.105696
 21
0.570759
 31
0.0
  0
LINE
  8
1
  6
CONTINUOUS
 62
   250
 10
0.107994
 20
0.569381
 30
0.0
 11
0.107074
 21
0.56984
 31
0.0
  0
LINE
  8
1
  6
CONTINUOUS
 62
   250
 10
0.107994
 20
0.573975
 30
0.0
 11
0.108453
 21
0.575354
 31
0.0
  0
LINE
  8
1
  6
CONTINUOUS
 62
   250
 10
0.127295
 20
0.594196
 30
0.0
 11
0.12224
 21
0.598791
 31
0.0
  0
LINE
  8
1
  6
CONTINUOUS
 62
   250
 10
0.127295
 20
0.60109
 30
0.0
 11
0.127295
 21
0.594196
 31
0.0
  0
LINE
  8
1
  6
CONTINUOUS
 62
   250
 10
0.118104
 20
0.594655
 30
0.0
 11
0.118565
 21
0.594655
 31
0.0
  0
LINE
  8
1
  6
CONTINUOUS
 62
   250
 10
0.117186
 20
0.595116
 30
0.0
 11
0.118104
 21
0.594655
 31
0.0
  0
LINE
  8
1
  6
CONTINUOUS
 62
   250
 10
0.116266
 20
0.595575
 30
0.0
 11
0.117186
 21
0.595116
 31
0.0
  0
LINE
  8
1
  6
CONTINUOUS
 62
   250
 10
0.115807
 20
0.596495
 30
0.0
 11
0.116266
 21
0.595575
 31
0.0
  0
LINE
  8
1
  6
CONTINUOUS
 62
   250
 10
0.115807
 20
0.598791
 30
0.0
 11
0.115807
 21
0.596495
 31
0.0
  0
LINE
  8
1
  6
CONTINUOUS
 62
   250
 10
0.116266
 20
0.599252
 30
0.0
 11
0.115807
 21
0.598791
 31
0.0
  0
LINE
  8
1
  6
CONTINUOUS
 62
   250
 10
0.117186
 20
0.60017
 30
0.0
 11
0.116266
 21
0.599252
 31
0.0
  0
LINE
  8
1
  6
CONTINUOUS
 62
   250
 10
0.118104
 20
0.600631
 30
0.0
 11
0.117186
 21
0.60017
 31
0.0
  0
LINE
  8
1
  6
CONTINUOUS
 62
   250
 10
0.119023
 20
0.600631
 30
0.0
 11
0.118104
 21
0.600631
 31
0.0
  0
LINE
  8
1
  6
CONTINUOUS
 62
   250
 10
0.119482
 20
0.60017
 30
0.0
 11
0.119023
 21
0.600631
 31
0.0
  0
LINE
  8
1
  6
CONTINUOUS
 62
   250
 10
0.115807
 20
0.58133
 30
0.0
 11
0.115807
 21
0.574436
 31
0.0
  0
LINE
  8
1
  6
CONTINUOUS
 62
   250
 10
0.12224
 20
0.598791
 30
0.0
 11
0.119482
 21
0.60017
 31
0.0
  0
LINE
  8
1
  6
CONTINUOUS
 62
   250
 10
0.115807
 20
0.578111
 30
0.0
 11
0.127295
 21
0.578111
 31
0.0
  0
LINE
  8
1
  6
CONTINUOUS
 62
   250
 10
0.126836
 20
0.571218
 30
0.0
 11
0.127295
 21
0.569381
 31
0.0
  0
LINE
  8
1
  6
CONTINUOUS
 62
   250
 10
0.124997
 20
0.571679
 30
0.0
 11
0.126836
 21
0.571218
 31
0.0
  0
LINE
  8
1
  6
CONTINUOUS
 62
   250
 10
0.124079
 20
0.572138
 30
0.0
 11
0.124997
 21
0.571679
 31
0.0
  0
LINE
  8
1
  6
CONTINUOUS
 62
   250
 10
0.115807
 20
0.572138
 30
0.0
 11
0.124079
 21
0.572138
 31
0.0
  0
LINE
  8
1
  6
CONTINUOUS
 62
   250
 10
0.149812
 20
0.564786
 30
0.0
 11
0.149812
 21
0.571218
 31
0.0
  0
LINE
  8
1
  6
CONTINUOUS
 62
   250
 10
0.155327
 20
0.568922
 30
0.0
 11
0.154868
 21
0.568002
 31
0.0
  0
LINE
  8
1
  6
CONTINUOUS
 62
   250
 10
0.137866
 20
0.571218
 30
0.0
 11
0.137866
 21
0.564786
 31
0.0
  0
LINE
  8
1
  6
CONTINUOUS
 62
   250
 10
0.145218
 20
0.56065
 30
0.0
 11
0.144759
 21
0.560189
 31
0.0
  0
LINE
  8
1
  6
CONTINUOUS
 62
   250
 10
0.137866
 20
0.564786
 30
0.0
 11
0.149812
 21
0.564786
 31
0.0
  0
LINE
  8
1
  6
CONTINUOUS
 62
   250
 10
0.145218
 20
0.53032
 30
0.0
 11
0.144298
 21
0.532157
 31
0.0
  0
LINE
  8
1
  6
CONTINUOUS
 62
   250
 10
0.137866
 20
0.556514
 30
0.0
 11
0.137866
 21
0.55881
 31
0.0
  0
LINE
  8
1
  6
CONTINUOUS
 62
   250
 10
0.144298
 20
0.559271
 30
0.0
 11
0.142002
 21
0.555594
 31
0.0
  0
LINE
  8
1
  6
CONTINUOUS
 62
   250
 10
0.138324
 20
0.555135
 30
0.0
 11
0.137866
 21
0.556514
 31
0.0
  0
LINE
  8
1
  6
CONTINUOUS
 62
   250
 10
0.139703
 20
0.554216
 30
0.0
 11
0.138324
 21
0.555135
 31
0.0
  0
LINE
  8
1
  6
CONTINUOUS
 62
   250
 10
0.140623
 20
0.554216
 30
0.0
 11
0.139703
 21
0.554216
 31
0.0
  0
LINE
  8
1
  6
CONTINUOUS
 62
   250
 10
0.141082
 20
0.554674
 30
0.0
 11
0.140623
 21
0.554216
 31
0.0
  0
LINE
  8
1
  6
CONTINUOUS
 62
   250
 10
0.14154
 20
0.555135
 30
0.0
 11
0.141082
 21
0.554674
 31
0.0
  0
LINE
  8
1
  6
CONTINUOUS
 62
   250
 10
0.142002
 20
0.555594
 30
0.0
 11
0.14154
 21
0.555135
 31
0.0
  0
LINE
  8
1
  6
CONTINUOUS
 62
   250
 10
0.14338
 20
0.564786
 30
0.0
 11
0.14338
 21
0.568461
 31
0.0
  0
LINE
  8
1
  6
CONTINUOUS
 62
   250
 10
0.138324
 20
0.560189
 30
0.0
 11
0.139703
 21
0.561109
 31
0.0
  0
LINE
  8
1
  6
CONTINUOUS
 62
   250
 10
0.137866
 20
0.55881
 30
0.0
 11
0.138324
 21
0.560189
 31
0.0
  0
LINE
  8
1
  6
CONTINUOUS
 62
   250
 10
0.144759
 20
0.560189
 30
0.0
 11
0.144298
 21
0.559271
 31
0.0
  0
LINE
  8
1
  6
CONTINUOUS
 62
   250
 10
0.138324
 20
0.532157
 30
0.0
 11
0.137866
 21
0.53032
 31
0.0
  0
LINE
  8
1
  6
CONTINUOUS
 62
   250
 10
0.139244
 20
0.532616
 30
0.0
 11
0.138324
 21
0.532157
 31
0.0
  0
LINE
  8
1
  6
CONTINUOUS
 62
   250
 10
0.140623
 20
0.533536
 30
0.0
 11
0.139244
 21
0.532616
 31
0.0
  0
LINE
  8
1
  6
CONTINUOUS
 62
   250
 10
0.14154
 20
0.533536
 30
0.0
 11
0.140623
 21
0.533536
 31
0.0
  0
LINE
  8
1
  6
CONTINUOUS
 62
   250
 10
0.143839
 20
0.532616
 30
0.0
 11
0.14154
 21
0.533536
 31
0.0
  0
LINE
  8
1
  6
CONTINUOUS
 62
   250
 10
0.144298
 20
0.532157
 30
0.0
 11
0.143839
 21
0.532616
 31
0.0
  0
LINE
  8
1
  6
CONTINUOUS
 62
   250
 10
0.149812
 20
0.556514
 30
0.0
 11
0.149812
 21
0.55881
 31
0.0
  0
LINE
  8
1
  6
CONTINUOUS
 62
   250
 10
0.149354
 20
0.555135
 30
0.0
 11
0.149812
 21
0.556514
 31
0.0
  0
LINE
  8
1
  6
CONTINUOUS
 62
   250
 10
0.149354
 20
0.555135
 30
0.0
 11
0.147055
 21
0.554216
 31
0.0
  0
LINE
  8
1
  6
CONTINUOUS
 62
   250
 10
0.157626
 20
0.563866
 30
0.0
 11
0.158084
 21
0.563407
 31
0.0
  0
LINE
  8
1
  6
CONTINUOUS
 62
   250
 10
0.156706
 20
0.563866
 30
0.0
 11
0.157626
 21
0.563866
 31
0.0
  0
LINE
  8
1
  6
CONTINUOUS
 62
   250
 10
0.155327
 20
0.565245
 30
0.0
 11
0.156706
 21
0.563866
 31
0.0
  0
LINE
  8
1
  6
CONTINUOUS
 62
   250
 10
0.154868
 20
0.566165
 30
0.0
 11
0.155327
 21
0.565245
 31
0.0
  0
LINE
  8
1
  6
CONTINUOUS
 62
   250
 10
0.154868
 20
0.568002
 30
0.0
 11
0.154868
 21
0.566165
 31
0.0
  0
LINE
  8
1
  6
CONTINUOUS
 62
   250
 10
0.149354
 20
0.560189
 30
0.0
 11
0.147055
 21
0.561109
 31
0.0
  0
LINE
  8
1
  6
CONTINUOUS
 62
   250
 10
0.149812
 20
0.55881
 30
0.0
 11
0.149354
 21
0.560189
 31
0.0
  0
LINE
  8
1
  6
CONTINUOUS
 62
   250
 10
0.146138
 20
0.561109
 30
0.0
 11
0.145218
 21
0.56065
 31
0.0
  0
LINE
  8
1
  6
CONTINUOUS
 62
   250
 10
0.147055
 20
0.561109
 30
0.0
 11
0.146138
 21
0.561109
 31
0.0
  0
LINE
  8
1
  6
CONTINUOUS
 62
   250
 10
0.154868
 20
0.531237
 30
0.0
 11
0.154868
 21
0.540429
 31
0.0
  0
LINE
  8
1
  6
CONTINUOUS
 62
   250
 10
0.145218
 20
0.599711
 30
0.0
 11
0.14154
 21
0.599711
 31
0.0
  0
LINE
  8
1
  6
CONTINUOUS
 62
   250
 10
0.14154
 20
0.591439
 30
0.0
 11
0.145218
 21
0.591439
 31
0.0
  0
LINE
  8
1
  6
CONTINUOUS
 62
   250
 10
0.137866
 20
0.607063
 30
0.0
 11
0.149812
 21
0.607063
 31
0.0
  0
LINE
  8
1
  6
CONTINUOUS
 62
   250
 10
0.149812
 20
0.602927
 30
0.0
 11
0.137866
 21
0.602927
 31
0.0
  0
LINE
  8
1
  6
CONTINUOUS
 62
   250
 10
0.137866
 20
0.581789
 30
0.0
 11
0.149812
 21
0.581789
 31
0.0
  0
LINE
  8
1
  6
CONTINUOUS
 62
   250
 10
0.149812
 20
0.575815
 30
0.0
 11
0.137866
 21
0.575815
 31
0.0
  0
LINE
  8
1
  6
CONTINUOUS
 62
   250
 10
0.137866
 20
0.596495
 30
0.0
 11
0.137866
 21
0.594655
 31
0.0
  0
LINE
  8
1
  6
CONTINUOUS
 62
   250
 10
0.138324
 20
0.597873
 30
0.0
 11
0.137866
 21
0.596495
 31
0.0
  0
LINE
  8
1
  6
CONTINUOUS
 62
   250
 10
0.139703
 20
0.598791
 30
0.0
 11
0.138324
 21
0.597873
 31
0.0
  0
LINE
  8
1
  6
CONTINUOUS
 62
   250
 10
0.140623
 20
0.599252
 30
0.0
 11
0.139703
 21
0.598791
 31
0.0
  0
LINE
  8
1
  6
CONTINUOUS
 62
   250
 10
0.14154
 20
0.599711
 30
0.0
 11
0.140623
 21
0.599252
 31
0.0
  0
LINE
  8
1
  6
CONTINUOUS
 62
   250
 10
0.140623
 20
0.592359
 30
0.0
 11
0.14154
 21
0.591439
 31
0.0
  0
LINE
  8
1
  6
CONTINUOUS
 62
   250
 10
0.139703
 20
0.592818
 30
0.0
 11
0.140623
 21
0.592359
 31
0.0
  0
LINE
  8
1
  6
CONTINUOUS
 62
   250
 10
0.138324
 20
0.593738
 30
0.0
 11
0.139703
 21
0.592818
 31
0.0
  0
LINE
  8
1
  6
CONTINUOUS
 62
   250
 10
0.137866
 20
0.586383
 30
0.0
 11
0.137866
 21
0.581789
 31
0.0
  0
LINE
  8
1
  6
CONTINUOUS
 62
   250
 10
0.138324
 20
0.587762
 30
0.0
 11
0.137866
 21
0.586383
 31
0.0
  0
LINE
  8
1
  6
CONTINUOUS
 62
   250
 10
0.138783
 20
0.588223
 30
0.0
 11
0.138324
 21
0.587762
 31
0.0
  0
LINE
  8
1
  6
CONTINUOUS
 62
   250
 10
0.140162
 20
0.588682
 30
0.0
 11
0.138783
 21
0.588223
 31
0.0
  0
LINE
  8
1
  6
CONTINUOUS
 62
   250
 10
0.141082
 20
0.588682
 30
0.0
 11
0.140162
 21
0.588682
 31
0.0
  0
LINE
  8
1
  6
CONTINUOUS
 62
   250
 10
0.142002
 20
0.588223
 30
0.0
 11
0.141082
 21
0.588682
 31
0.0
  0
LINE
  8
1
  6
CONTINUOUS
 62
   250
 10
0.14338
 20
0.587762
 30
0.0
 11
0.142002
 21
0.588223
 31
0.0
  0
LINE
  8
1
  6
CONTINUOUS
 62
   250
 10
0.144298
 20
0.586383
 30
0.0
 11
0.14338
 21
0.587762
 31
0.0
  0
LINE
  8
1
  6
CONTINUOUS
 62
   250
 10
0.144298
 20
0.581789
 30
0.0
 11
0.144298
 21
0.586383
 31
0.0
  0
LINE
  8
1
  6
CONTINUOUS
 62
   250
 10
0.137866
 20
0.594655
 30
0.0
 11
0.138324
 21
0.593738
 31
0.0
  0
LINE
  8
1
  6
CONTINUOUS
 62
   250
 10
0.137866
 20
0.572138
 30
0.0
 11
0.137866
 21
0.571218
 31
0.0
  0
LINE
  8
1
  6
CONTINUOUS
 62
   250
 10
0.137866
 20
0.579031
 30
0.0
 11
0.137866
 21
0.572138
 31
0.0
  0
LINE
  8
1
  6
CONTINUOUS
 62
   250
 10
0.156706
 20
0.605684
 30
0.0
 11
0.155327
 21
0.604306
 31
0.0
  0
LINE
  8
1
  6
CONTINUOUS
 62
   250
 10
0.157626
 20
0.606145
 30
0.0
 11
0.156706
 21
0.605684
 31
0.0
  0
LINE
  8
1
  6
CONTINUOUS
 62
   250
 10
0.158084
 20
0.606604
 30
0.0
 11
0.157626
 21
0.606145
 31
0.0
  0
LINE
  8
1
  6
CONTINUOUS
 62
   250
 10
0.154868
 20
0.601548
 30
0.0
 11
0.155327
 21
0.600631
 31
0.0
  0
LINE
  8
1
  6
CONTINUOUS
 62
   250
 10
0.154868
 20
0.603388
 30
0.0
 11
0.154868
 21
0.601548
 31
0.0
  0
LINE
  8
1
  6
CONTINUOUS
 62
   250
 10
0.157626
 20
0.598791
 30
0.0
 11
0.158084
 21
0.598791
 31
0.0
  0
LINE
  8
1
  6
CONTINUOUS
 62
   250
 10
0.156706
 20
0.599252
 30
0.0
 11
0.157626
 21
0.598791
 31
0.0
  0
LINE
  8
1
  6
CONTINUOUS
 62
   250
 10
0.155327
 20
0.600631
 30
0.0
 11
0.156706
 21
0.599252
 31
0.0
  0
LINE
  8
1
  6
CONTINUOUS
 62
   250
 10
0.147055
 20
0.598791
 30
0.0
 11
0.146596
 21
0.599252
 31
0.0
  0
LINE
  8
1
  6
CONTINUOUS
 62
   250
 10
0.149354
 20
0.597873
 30
0.0
 11
0.147055
 21
0.598791
 31
0.0
  0
LINE
  8
1
  6
CONTINUOUS
 62
   250
 10
0.149812
 20
0.596495
 30
0.0
 11
0.149354
 21
0.597873
 31
0.0
  0
LINE
  8
1
  6
CONTINUOUS
 62
   250
 10
0.149812
 20
0.594655
 30
0.0
 11
0.149812
 21
0.596495
 31
0.0
  0
LINE
  8
1
  6
CONTINUOUS
 62
   250
 10
0.155327
 20
0.604306
 30
0.0
 11
0.154868
 21
0.603388
 31
0.0
  0
LINE
  8
1
  6
CONTINUOUS
 62
   250
 10
0.147055
 20
0.592818
 30
0.0
 11
0.149354
 21
0.593738
 31
0.0
  0
LINE
  8
1
  6
CONTINUOUS
 62
   250
 10
0.146596
 20
0.592359
 30
0.0
 11
0.147055
 21
0.592818
 31
0.0
  0
LINE
  8
1
  6
CONTINUOUS
 62
   250
 10
0.155788
 20
0.591439
 30
0.0
 11
0.155327
 21
0.59098
 31
0.0
  0
LINE
  8
1
  6
CONTINUOUS
 62
   250
 10
0.157167
 20
0.592359
 30
0.0
 11
0.155788
 21
0.591439
 31
0.0
  0
LINE
  8
1
  6
CONTINUOUS
 62
   250
 10
0.157626
 20
0.592359
 30
0.0
 11
0.157167
 21
0.592359
 31
0.0
  0
LINE
  8
1
  6
CONTINUOUS
 62
   250
 10
0.154868
 20
0.589602
 30
0.0
 11
0.154868
 21
0.585005
 31
0.0
  0
LINE
  8
1
  6
CONTINUOUS
 62
   250
 10
0.156706
 20
0.580869
 30
0.0
 11
0.155327
 21
0.57949
 31
0.0
  0
LINE
  8
1
  6
CONTINUOUS
 62
   250
 10
0.157626
 20
0.58133
 30
0.0
 11
0.156706
 21
0.580869
 31
0.0
  0
LINE
  8
1
  6
CONTINUOUS
 62
   250
 10
0.158084
 20
0.581789
 30
0.0
 11
0.157626
 21
0.58133
 31
0.0
  0
LINE
  8
1
  6
CONTINUOUS
 62
   250
 10
0.154868
 20
0.578572
 30
0.0
 11
0.154868
 21
0.576733
 31
0.0
  0
LINE
  8
1
  6
CONTINUOUS
 62
   250
 10
0.155327
 20
0.57949
 30
0.0
 11
0.154868
 21
0.578572
 31
0.0
  0
LINE
  8
1
  6
CONTINUOUS
 62
   250
 10
0.156706
 20
0.574895
 30
0.0
 11
0.157626
 21
0.574436
 31
0.0
  0
LINE
  8
1
  6
CONTINUOUS
 62
   250
 10
0.155327
 20
0.575815
 30
0.0
 11
0.156706
 21
0.574895
 31
0.0
  0
LINE
  8
1
  6
CONTINUOUS
 62
   250
 10
0.154868
 20
0.576733
 30
0.0
 11
0.155327
 21
0.575815
 31
0.0
  0
LINE
  8
1
  6
CONTINUOUS
 62
   250
 10
0.155327
 20
0.59098
 30
0.0
 11
0.154868
 21
0.589602
 31
0.0
  0
LINE
  8
1
  6
CONTINUOUS
 62
   250
 10
0.149354
 20
0.593738
 30
0.0
 11
0.149812
 21
0.594655
 31
0.0
  0
LINE
  8
1
  6
CONTINUOUS
 62
   250
 10
0.146596
 20
0.599252
 30
0.0
 11
0.145218
 21
0.599711
 31
0.0
  0
LINE
  8
1
  6
CONTINUOUS
 62
   250
 10
0.145218
 20
0.591439
 30
0.0
 11
0.146596
 21
0.592359
 31
0.0
  0
LINE
  8
1
  6
CONTINUOUS
 62
   250
 10
0.159924
 20
0.591439
 30
0.0
 11
0.157626
 21
0.592359
 31
0.0
  0
LINE
  8
1
  6
CONTINUOUS
 62
   250
 10
0.156706
 20
0.570301
 30
0.0
 11
0.155327
 21
0.568922
 31
0.0
  0
LINE
  8
1
  6
CONTINUOUS
 62
   250
 10
0.157626
 20
0.570759
 30
0.0
 11
0.156706
 21
0.570301
 31
0.0
  0
LINE
  8
1
  6
CONTINUOUS
 62
   250
 10
0.158084
 20
0.571218
 30
0.0
 11
0.157626
 21
0.570759
 31
0.0
  0
LINE
  8
1
  6
CONTINUOUS
 62
   250
 10
0.157626
 20
0.574436
 30
0.0
 11
0.158084
 21
0.573517
 31
0.0
  0
LINE
  8
1
  6
CONTINUOUS
 62
   250
 10
0.185657
 20
0.472875
 30
0.0
 11
0.210934
 21
0.472875
 31
0.0
  0
LINE
  8
1
  6
CONTINUOUS
 62
   250
 10
0.168654
 20
0.523885
 30
0.0
 11
0.168654
 21
0.522507
 31
0.0
  0
LINE
  8
1
  6
CONTINUOUS
 62
   250
 10
0.167735
 20
0.525723
 30
0.0
 11
0.168654
 21
0.523885
 31
0.0
  0
LINE
  8
1
  6
CONTINUOUS
 62
   250
 10
0.166356
 20
0.527101
 30
0.0
 11
0.167735
 21
0.525723
 31
0.0
  0
LINE
  8
1
  6
CONTINUOUS
 62
   250
 10
0.163599
 20
0.528021
 30
0.0
 11
0.166356
 21
0.527101
 31
0.0
  0
LINE
  8
1
  6
CONTINUOUS
 62
   250
 10
0.165439
 20
0.513776
 30
0.0
 11
0.16314
 21
0.514235
 31
0.0
  0
LINE
  8
1
  6
CONTINUOUS
 62
   250
 10
0.166356
 20
0.512856
 30
0.0
 11
0.165439
 21
0.513776
 31
0.0
  0
LINE
  8
1
  6
CONTINUOUS
 62
   250
 10
0.167735
 20
0.511478
 30
0.0
 11
0.166356
 21
0.512856
 31
0.0
  0
LINE
  8
1
  6
CONTINUOUS
 62
   250
 10
0.168654
 20
0.510558
 30
0.0
 11
0.167735
 21
0.511478
 31
0.0
  0
LINE
  8
1
  6
CONTINUOUS
 62
   250
 10
0.166356
 20
0.519749
 30
0.0
 11
0.163599
 21
0.51883
 31
0.0
  0
LINE
  8
1
  6
CONTINUOUS
 62
   250
 10
0.167735
 20
0.520669
 30
0.0
 11
0.166356
 21
0.519749
 31
0.0
  0
LINE
  8
1
  6
CONTINUOUS
 62
   250
 10
0.168654
 20
0.522507
 30
0.0
 11
0.167735
 21
0.520669
 31
0.0
  0
LINE
  8
1
  6
CONTINUOUS
 62
   250
 10
0.165439
 20
0.504584
 30
0.0
 11
0.166356
 21
0.505043
 31
0.0
  0
LINE
  8
1
  6
CONTINUOUS
 62
   250
 10
0.16314
 20
0.504126
 30
0.0
 11
0.165439
 21
0.504584
 31
0.0
  0
LINE
  8
1
  6
CONTINUOUS
 62
   250
 10
0.167735
 20
0.505963
 30
0.0
 11
0.168654
 21
0.5078
 31
0.0
  0
LINE
  8
1
  6
CONTINUOUS
 62
   250
 10
0.166356
 20
0.505043
 30
0.0
 11
0.167735
 21
0.505963
 31
0.0
  0
LINE
  8
1
  6
CONTINUOUS
 62
   250
 10
0.168654
 20
0.5078
 30
0.0
 11
0.168654
 21
0.510558
 31
0.0
  0
LINE
  8
1
  6
CONTINUOUS
 62
   250
 10
0.166356
 20
0.568002
 30
0.0
 11
0.165897
 21
0.568922
 31
0.0
  0
LINE
  8
1
  6
CONTINUOUS
 62
   250
 10
0.166356
 20
0.555135
 30
0.0
 11
0.166356
 21
0.561109
 31
0.0
  0
LINE
  8
1
  6
CONTINUOUS
 62
   250
 10
0.16314
 20
0.563866
 30
0.0
 11
0.16406
 21
0.563866
 31
0.0
  0
LINE
  8
1
  6
CONTINUOUS
 62
   250
 10
0.16222
 20
0.563407
 30
0.0
 11
0.16314
 21
0.563866
 31
0.0
  0
LINE
  8
1
  6
CONTINUOUS
 62
   250
 10
0.166356
 20
0.566165
 30
0.0
 11
0.166356
 21
0.568002
 31
0.0
  0
LINE
  8
1
  6
CONTINUOUS
 62
   250
 10
0.165897
 20
0.565245
 30
0.0
 11
0.166356
 21
0.566165
 31
0.0
  0
LINE
  8
1
  6
CONTINUOUS
 62
   250
 10
0.16406
 20
0.563866
 30
0.0
 11
0.165897
 21
0.565245
 31
0.0
  0
LINE
  8
1
  6
CONTINUOUS
 62
   250
 10
0.16314
 20
0.606145
 30
0.0
 11
0.16222
 21
0.606604
 31
0.0
  0
LINE
  8
1
  6
CONTINUOUS
 62
   250
 10
0.16406
 20
0.605684
 30
0.0
 11
0.16314
 21
0.606145
 31
0.0
  0
LINE
  8
1
  6
CONTINUOUS
 62
   250
 10
0.165897
 20
0.604306
 30
0.0
 11
0.16406
 21
0.605684
 31
0.0
  0
LINE
  8
1
  6
CONTINUOUS
 62
   250
 10
0.166356
 20
0.601548
 30
0.0
 11
0.166356
 21
0.603388
 31
0.0
  0
LINE
  8
1
  6
CONTINUOUS
 62
   250
 10
0.165897
 20
0.600631
 30
0.0
 11
0.166356
 21
0.601548
 31
0.0
  0
LINE
  8
1
  6
CONTINUOUS
 62
   250
 10
0.16406
 20
0.599252
 30
0.0
 11
0.165897
 21
0.600631
 31
0.0
  0
LINE
  8
1
  6
CONTINUOUS
 62
   250
 10
0.16314
 20
0.598791
 30
0.0
 11
0.16406
 21
0.599252
 31
0.0
  0
LINE
  8
1
  6
CONTINUOUS
 62
   250
 10
0.16222
 20
0.598791
 30
0.0
 11
0.16314
 21
0.598791
 31
0.0
  0
LINE
  8
1
  6
CONTINUOUS
 62
   250
 10
0.166356
 20
0.603388
 30
0.0
 11
0.165897
 21
0.604306
 31
0.0
  0
LINE
  8
1
  6
CONTINUOUS
 62
   250
 10
0.160841
 20
0.585005
 30
0.0
 11
0.160841
 21
0.589602
 31
0.0
  0
LINE
  8
1
  6
CONTINUOUS
 62
   250
 10
0.16314
 20
0.58133
 30
0.0
 11
0.16222
 21
0.581789
 31
0.0
  0
LINE
  8
1
  6
CONTINUOUS
 62
   250
 10
0.16406
 20
0.580869
 30
0.0
 11
0.16314
 21
0.58133
 31
0.0
  0
LINE
  8
1
  6
CONTINUOUS
 62
   250
 10
0.165897
 20
0.57949
 30
0.0
 11
0.16406
 21
0.580869
 31
0.0
  0
LINE
  8
1
  6
CONTINUOUS
 62
   250
 10
0.166356
 20
0.578572
 30
0.0
 11
0.165897
 21
0.57949
 31
0.0
  0
LINE
  8
1
  6
CONTINUOUS
 62
   250
 10
0.166356
 20
0.576733
 30
0.0
 11
0.166356
 21
0.578572
 31
0.0
  0
LINE
  8
1
  6
CONTINUOUS
 62
   250
 10
0.16406
 20
0.574895
 30
0.0
 11
0.165897
 21
0.575815
 31
0.0
  0
LINE
  8
1
  6
CONTINUOUS
 62
   250
 10
0.16314
 20
0.574436
 30
0.0
 11
0.16406
 21
0.574895
 31
0.0
  0
LINE
  8
1
  6
CONTINUOUS
 62
   250
 10
0.165897
 20
0.575815
 30
0.0
 11
0.166356
 21
0.576733
 31
0.0
  0
LINE
  8
1
  6
CONTINUOUS
 62
   250
 10
0.160841
 20
0.589602
 30
0.0
 11
0.160383
 21
0.59098
 31
0.0
  0
LINE
  8
1
  6
CONTINUOUS
 62
   250
 10
0.16314
 20
0.570759
 30
0.0
 11
0.16222
 21
0.571218
 31
0.0
  0
LINE
  8
1
  6
CONTINUOUS
 62
   250
 10
0.16406
 20
0.570301
 30
0.0
 11
0.16314
 21
0.570759
 31
0.0
  0
LINE
  8
1
  6
CONTINUOUS
 62
   250
 10
0.165897
 20
0.568922
 30
0.0
 11
0.16406
 21
0.570301
 31
0.0
  0
LINE
  8
1
  6
CONTINUOUS
 62
   250
 10
0.16222
 20
0.573517
 30
0.0
 11
0.16314
 21
0.574436
 31
0.0
  0
LINE
  8
1
  6
CONTINUOUS
 62
   250
 10
0.161761
 20
0.640611
 30
0.0
 11
0.14154
 21
0.640611
 31
0.0
  0
LINE
  8
1
  6
CONTINUOUS
 62
   250
 10
0.160383
 20
0.645206
 30
0.0
 11
0.157626
 21
0.647044
 31
0.0
  0
LINE
  8
1
  6
CONTINUOUS
 62
   250
 10
0.154868
 20
0.623148
 30
0.0
 11
0.166356
 21
0.623148
 31
0.0
  0
LINE
  8
1
  6
CONTINUOUS
 62
   250
 10
0.157626
 20
0.633718
 30
0.0
 11
0.160383
 21
0.635556
 31
0.0
  0
LINE
  8
1
  6
CONTINUOUS
 62
   250
 10
0.16314
 20
0.617174
 30
0.0
 11
0.154868
 21
0.617174
 31
0.0
  0
LINE
  8
1
  6
CONTINUOUS
 62
   250
 10
0.154868
 20
0.610281
 30
0.0
 11
0.16314
 21
0.610281
 31
0.0
  0
LINE
  8
1
  6
CONTINUOUS
 62
   250
 10
0.119023
 20
0.647044
 30
0.0
 11
0.118104
 21
0.648883
 31
0.0
  0
LINE
  8
1
  6
CONTINUOUS
 62
   250
 10
0.107994
 20
0.648883
 30
0.0
 11
0.106157
 21
0.647044
 31
0.0
  0
LINE
  8
1
  6
CONTINUOUS
 62
   250
 10
0.11305
 20
0.6305
 30
0.0
 11
0.11305
 21
0.650262
 31
0.0
  0
LINE
  8
1
  6
CONTINUOUS
 62
   250
 10
0.114429
 20
0.630961
 30
0.0
 11
0.118104
 21
0.631879
 31
0.0
  0
LINE
  8
1
  6
CONTINUOUS
 62
   250
 10
0.10248
 20
0.642908
 30
0.0
 11
0.10248
 21
0.640611
 31
0.0
  0
LINE
  8
1
  6
CONTINUOUS
 62
   250
 10
0.1034
 20
0.645206
 30
0.0
 11
0.10248
 21
0.642908
 31
0.0
  0
LINE
  8
1
  6
CONTINUOUS
 62
   250
 10
0.106157
 20
0.647044
 30
0.0
 11
0.1034
 21
0.645206
 31
0.0
  0
LINE
  8
1
  6
CONTINUOUS
 62
   250
 10
0.11305
 20
0.6305
 30
0.0
 11
0.114429
 21
0.630961
 31
0.0
  0
LINE
  8
1
  6
CONTINUOUS
 62
   250
 10
0.110752
 20
0.630961
 30
0.0
 11
0.11305
 21
0.6305
 31
0.0
  0
LINE
  8
1
  6
CONTINUOUS
 62
   250
 10
0.1034
 20
0.635556
 30
0.0
 11
0.106157
 21
0.633718
 31
0.0
  0
LINE
  8
1
  6
CONTINUOUS
 62
   250
 10
0.10248
 20
0.637854
 30
0.0
 11
0.1034
 21
0.635556
 31
0.0
  0
LINE
  8
1
  6
CONTINUOUS
 62
   250
 10
0.106157
 20
0.633718
 30
0.0
 11
0.107994
 21
0.631879
 31
0.0
  0
LINE
  8
1
  6
CONTINUOUS
 62
   250
 10
0.107994
 20
0.631879
 30
0.0
 11
0.110752
 21
0.630961
 31
0.0
  0
LINE
  8
1
  6
CONTINUOUS
 62
   250
 10
0.10248
 20
0.640611
 30
0.0
 11
0.10248
 21
0.637854
 31
0.0
  0
LINE
  8
1
  6
CONTINUOUS
 62
   250
 10
0.122701
 20
0.640611
 30
0.0
 11
0.12224
 21
0.642908
 31
0.0
  0
LINE
  8
1
  6
CONTINUOUS
 62
   250
 10
0.12224
 20
0.642908
 30
0.0
 11
0.121322
 21
0.645206
 31
0.0
  0
LINE
  8
1
  6
CONTINUOUS
 62
   250
 10
0.121322
 20
0.645206
 30
0.0
 11
0.119023
 21
0.647044
 31
0.0
  0
LINE
  8
1
  6
CONTINUOUS
 62
   250
 10
0.121322
 20
0.635556
 30
0.0
 11
0.12224
 21
0.637854
 31
0.0
  0
LINE
  8
1
  6
CONTINUOUS
 62
   250
 10
0.118104
 20
0.631879
 30
0.0
 11
0.119023
 21
0.633718
 31
0.0
  0
LINE
  8
1
  6
CONTINUOUS
 62
   250
 10
0.119023
 20
0.633718
 30
0.0
 11
0.121322
 21
0.635556
 31
0.0
  0
LINE
  8
1
  6
CONTINUOUS
 62
   250
 10
0.12224
 20
0.637854
 30
0.0
 11
0.122701
 21
0.640611
 31
0.0
  0
LINE
  8
1
  6
CONTINUOUS
 62
   250
 10
0.118104
 20
0.648883
 30
0.0
 11
0.114429
 21
0.649801
 31
0.0
  0
LINE
  8
1
  6
CONTINUOUS
 62
   250
 10
0.11305
 20
0.650262
 30
0.0
 11
0.110752
 21
0.649801
 31
0.0
  0
LINE
  8
1
  6
CONTINUOUS
 62
   250
 10
0.114429
 20
0.649801
 30
0.0
 11
0.11305
 21
0.650262
 31
0.0
  0
LINE
  8
1
  6
CONTINUOUS
 62
   250
 10
0.110752
 20
0.649801
 30
0.0
 11
0.107994
 21
0.648883
 31
0.0
  0
LINE
  8
1
  6
CONTINUOUS
 62
   250
 10
0.157626
 20
0.647044
 30
0.0
 11
0.156706
 21
0.648883
 31
0.0
  0
LINE
  8
1
  6
CONTINUOUS
 62
   250
 10
0.146596
 20
0.648883
 30
0.0
 11
0.145218
 21
0.647044
 31
0.0
  0
LINE
  8
1
  6
CONTINUOUS
 62
   250
 10
0.145218
 20
0.647044
 30
0.0
 11
0.14338
 21
0.645206
 31
0.0
  0
LINE
  8
1
  6
CONTINUOUS
 62
   250
 10
0.14338
 20
0.635556
 30
0.0
 11
0.145218
 21
0.633718
 31
0.0
  0
LINE
  8
1
  6
CONTINUOUS
 62
   250
 10
0.149812
 20
0.620391
 30
0.0
 11
0.137866
 21
0.620391
 31
0.0
  0
LINE
  8
1
  6
CONTINUOUS
 62
   250
 10
0.137866
 20
0.614417
 30
0.0
 11
0.149812
 21
0.614417
 31
0.0
  0
LINE
  8
1
  6
CONTINUOUS
 62
   250
 10
0.14154
 20
0.642908
 30
0.0
 11
0.14154
 21
0.640611
 31
0.0
  0
LINE
  8
1
  6
CONTINUOUS
 62
   250
 10
0.14338
 20
0.645206
 30
0.0
 11
0.14154
 21
0.642908
 31
0.0
  0
LINE
  8
1
  6
CONTINUOUS
 62
   250
 10
0.14154
 20
0.637854
 30
0.0
 11
0.14338
 21
0.635556
 31
0.0
  0
LINE
  8
1
  6
CONTINUOUS
 62
   250
 10
0.137866
 20
0.616713
 30
0.0
 11
0.137866
 21
0.623607
 31
0.0
  0
LINE
  8
1
  6
CONTINUOUS
 62
   250
 10
0.14154
 20
0.640611
 30
0.0
 11
0.14154
 21
0.637854
 31
0.0
  0
LINE
  8
1
  6
CONTINUOUS
 62
   250
 10
0.156706
 20
0.631879
 30
0.0
 11
0.157626
 21
0.633718
 31
0.0
  0
LINE
  8
1
  6
CONTINUOUS
 62
   250
 10
0.154409
 20
0.630961
 30
0.0
 11
0.156706
 21
0.631879
 31
0.0
  0
LINE
  8
1
  6
CONTINUOUS
 62
   250
 10
0.146596
 20
0.631879
 30
0.0
 11
0.149354
 21
0.630961
 31
0.0
  0
LINE
  8
1
  6
CONTINUOUS
 62
   250
 10
0.154868
 20
0.619471
 30
0.0
 11
0.154868
 21
0.626364
 31
0.0
  0
LINE
  8
1
  6
CONTINUOUS
 62
   250
 10
0.151652
 20
0.6305
 30
0.0
 11
0.154409
 21
0.630961
 31
0.0
  0
LINE
  8
1
  6
CONTINUOUS
 62
   250
 10
0.149354
 20
0.630961
 30
0.0
 11
0.151652
 21
0.6305
 31
0.0
  0
LINE
  8
1
  6
CONTINUOUS
 62
   250
 10
0.145218
 20
0.633718
 30
0.0
 11
0.146596
 21
0.631879
 31
0.0
  0
LINE
  8
1
  6
CONTINUOUS
 62
   250
 10
0.149354
 20
0.649801
 30
0.0
 11
0.146596
 21
0.648883
 31
0.0
  0
LINE
  8
1
  6
CONTINUOUS
 62
   250
 10
0.151652
 20
0.650262
 30
0.0
 11
0.149354
 21
0.649801
 31
0.0
  0
LINE
  8
1
  6
CONTINUOUS
 62
   250
 10
0.154409
 20
0.649801
 30
0.0
 11
0.151652
 21
0.650262
 31
0.0
  0
LINE
  8
1
  6
CONTINUOUS
 62
   250
 10
0.156706
 20
0.648883
 30
0.0
 11
0.154409
 21
0.649801
 31
0.0
  0
LINE
  8
1
  6
CONTINUOUS
 62
   250
 10
0.161761
 20
0.640611
 30
0.0
 11
0.161302
 21
0.642908
 31
0.0
  0
LINE
  8
1
  6
CONTINUOUS
 62
   250
 10
0.161302
 20
0.642908
 30
0.0
 11
0.160383
 21
0.645206
 31
0.0
  0
LINE
  8
1
  6
CONTINUOUS
 62
   250
 10
0.160383
 20
0.635556
 30
0.0
 11
0.161302
 21
0.637854
 31
0.0
  0
LINE
  8
1
  6
CONTINUOUS
 62
   250
 10
0.16406
 20
0.616713
 30
0.0
 11
0.16314
 21
0.617174
 31
0.0
  0
LINE
  8
1
  6
CONTINUOUS
 62
   250
 10
0.165897
 20
0.615335
 30
0.0
 11
0.16406
 21
0.616713
 31
0.0
  0
LINE
  8
1
  6
CONTINUOUS
 62
   250
 10
0.166356
 20
0.613956
 30
0.0
 11
0.165897
 21
0.615335
 31
0.0
  0
LINE
  8
1
  6
CONTINUOUS
 62
   250
 10
0.166356
 20
0.613039
 30
0.0
 11
0.166356
 21
0.613956
 31
0.0
  0
LINE
  8
1
  6
CONTINUOUS
 62
   250
 10
0.165897
 20
0.61166
 30
0.0
 11
0.166356
 21
0.613039
 31
0.0
  0
LINE
  8
1
  6
CONTINUOUS
 62
   250
 10
0.16406
 20
0.61074
 30
0.0
 11
0.165897
 21
0.61166
 31
0.0
  0
LINE
  8
1
  6
CONTINUOUS
 62
   250
 10
0.16314
 20
0.610281
 30
0.0
 11
0.16406
 21
0.61074
 31
0.0
  0
LINE
  8
1
  6
CONTINUOUS
 62
   250
 10
0.161302
 20
0.637854
 30
0.0
 11
0.161761
 21
0.640611
 31
0.0
  0
LINE
  8
1
  6
CONTINUOUS
 62
   250
 10
0.332255
 20
0.472875
 30
0.0
 11
0.356151
 21
0.472875
 31
0.0
  0
LINE
  8
1
  6
CONTINUOUS
 62
   250
 10
0.259645
 20
0.472875
 30
0.0
 11
0.284002
 21
0.472875
 31
0.0
  0
LINE
  8
1
  6
CONTINUOUS
 62
   250
 10
0.22288
 20
0.472875
 30
0.0
 11
0.246318
 21
0.472875
 31
0.0
  0
LINE
  8
1
  6
CONTINUOUS
 62
   250
 10
0.29549
 20
0.472875
 30
0.0
 11
0.320306
 21
0.472875
 31
0.0
  0
LINE
  8
1
  6
CONTINUOUS
 62
   250
 10
0.368099
 20
0.472875
 30
0.0
 11
0.393374
 21
0.472875
 31
0.0
  0
LINE
  8
1
  6
CONTINUOUS
 62
   250
 10
0.405323
 20
0.472875
 30
0.0
 11
0.431056
 21
0.472875
 31
0.0
  0
LINE
  8
1
  6
CONTINUOUS
 62
   250
 10
0.431056
 20
0.472875
 30
0.0
 11
0.431056
 21
0.450817
 31
0.0
  0
LINE
  8
1
  6
CONTINUOUS
 62
   250
 10
0.614416
 20
0.37729
 30
0.0
 11
0.614416
 21
0.55973
 31
0.0
  0
LINE
  8
1
  6
CONTINUOUS
 62
   250
 10
0.596035
 20
0.674617
 30
0.0
 11
0.596035
 21
0.018381
 31
0.0
  0
LINE
  8
1
  6
CONTINUOUS
 62
   250
 10
0.590061
 20
0.093748
 30
0.0
 11
0.590061
 21
0.66267
 31
0.0
  0
LINE
  8
1
  6
CONTINUOUS
 62
   250
 10
0.614416
 20
0.316169
 30
0.0
 11
0.614416
 21
0.133729
 31
0.0
  0
LINE
  8
1
  6
CONTINUOUS
 62
   250
 10
0.575355
 20
0.093748
 30
0.0
 11
0.590061
 21
0.093748
 31
0.0
  0
LINE
  8
1
  6
CONTINUOUS
 62
   250
 10
0.590061
 20
0.074447
 30
0.0
 11
0.575355
 21
0.074447
 31
0.0
  0
LINE
  8
1
  6
CONTINUOUS
 62
   250
 10
0.494015
 20
0.102479
 30
0.0
 11
0.547782
 21
0.05009
 31
0.0
  0
LINE
  8
1
  6
CONTINUOUS
 62
   250
 10
0.547782
 20
0.080881
 30
0.0
 11
0.5101
 21
0.043658
 31
0.0
  0
LINE
  8
1
  6
CONTINUOUS
 62
   250
 10
0.475634
 20
0.043658
 30
0.0
 11
0.534916
 21
0.102479
 31
0.0
  0
LINE
  8
1
  6
CONTINUOUS
 62
   250
 10
0.501828
 20
0.113969
 30
0.0
 11
0.488959
 21
0.113969
 31
0.0
  0
LINE
  8
1
  6
CONTINUOUS
 62
   250
 10
0.47977
 20
0.121321
 30
0.0
 11
0.477471
 21
0.120862
 31
0.0
  0
LINE
  8
1
  6
CONTINUOUS
 62
   250
 10
0.47793
 20
0.115347
 30
0.0
 11
0.482986
 21
0.114428
 31
0.0
  0
LINE
  8
1
  6
CONTINUOUS
 62
   250
 10
0.47977
 20
0.107993
 30
0.0
 11
0.477471
 21
0.108454
 31
0.0
  0
LINE
  8
1
  6
CONTINUOUS
 62
   250
 10
0.477471
 20
0.116265
 30
0.0
 11
0.47793
 21
0.115347
 31
0.0
  0
LINE
  8
1
  6
CONTINUOUS
 62
   250
 10
0.477013
 20
0.116726
 30
0.0
 11
0.477471
 21
0.116265
 31
0.0
  0
LINE
  8
1
  6
CONTINUOUS
 62
   250
 10
0.476552
 20
0.119483
 30
0.0
 11
0.476552
 21
0.118105
 31
0.0
  0
LINE
  8
1
  6
CONTINUOUS
 62
   250
 10
0.476552
 20
0.118105
 30
0.0
 11
0.477013
 21
0.116726
 31
0.0
  0
LINE
  8
1
  6
CONTINUOUS
 62
   250
 10
0.477471
 20
0.120862
 30
0.0
 11
0.476552
 21
0.119483
 31
0.0
  0
LINE
  8
1
  6
CONTINUOUS
 62
   250
 10
0.477471
 20
0.108454
 30
0.0
 11
0.476552
 21
0.109833
 31
0.0
  0
LINE
  8
1
  6
CONTINUOUS
 62
   250
 10
0.471957
 20
0.107993
 30
0.0
 11
0.471957
 21
0.121321
 31
0.0
  0
LINE
  8
1
  6
CONTINUOUS
 62
   250
 10
0.482066
 20
0.121321
 30
0.0
 11
0.47977
 21
0.121321
 31
0.0
  0
LINE
  8
1
  6
CONTINUOUS
 62
   250
 10
0.483445
 20
0.120862
 30
0.0
 11
0.482066
 21
0.121321
 31
0.0
  0
LINE
  8
1
  6
CONTINUOUS
 62
   250
 10
0.485284
 20
0.119483
 30
0.0
 11
0.483445
 21
0.120862
 31
0.0
  0
LINE
  8
1
  6
CONTINUOUS
 62
   250
 10
0.482986
 20
0.114428
 30
0.0
 11
0.483445
 21
0.113969
 31
0.0
  0
LINE
  8
1
  6
CONTINUOUS
 62
   250
 10
0.483445
 20
0.113969
 30
0.0
 11
0.483906
 21
0.113049
 31
0.0
  0
LINE
  8
1
  6
CONTINUOUS
 62
   250
 10
0.482066
 20
0.107993
 30
0.0
 11
0.47977
 21
0.107993
 31
0.0
  0
LINE
  8
1
  6
CONTINUOUS
 62
   250
 10
0.483445
 20
0.108454
 30
0.0
 11
0.482066
 21
0.107993
 31
0.0
  0
LINE
  8
1
  6
CONTINUOUS
 62
   250
 10
0.485284
 20
0.109833
 30
0.0
 11
0.483445
 21
0.108454
 31
0.0
  0
LINE
  8
1
  6
CONTINUOUS
 62
   250
 10
0.485284
 20
0.11167
 30
0.0
 11
0.485284
 21
0.109833
 31
0.0
  0
LINE
  8
1
  6
CONTINUOUS
 62
   250
 10
0.483906
 20
0.113049
 30
0.0
 11
0.485284
 21
0.11167
 31
0.0
  0
LINE
  8
1
  6
CONTINUOUS
 62
   250
 10
0.509639
 20
0.119483
 30
0.0
 11
0.510559
 21
0.121321
 31
0.0
  0
LINE
  8
1
  6
CONTINUOUS
 62
   250
 10
0.509639
 20
0.119483
 30
0.0
 11
0.50826
 21
0.119022
 31
0.0
  0
LINE
  8
1
  6
CONTINUOUS
 62
   250
 10
0.510559
 20
0.121321
 30
0.0
 11
0.510559
 21
0.107993
 31
0.0
  0
LINE
  8
1
  6
CONTINUOUS
 62
   250
 10
0.547782
 20
0.102479
 30
0.0
 11
0.547782
 21
0.043658
 31
0.0
  0
LINE
  8
1
  6
CONTINUOUS
 62
   250
 10
0.543646
 20
0.043658
 30
0.0
 11
0.547782
 21
0.046415
 31
0.0
  0
LINE
  8
1
  6
CONTINUOUS
 62
   250
 10
0.529401
 20
0.102479
 30
0.0
 11
0.547782
 21
0.084556
 31
0.0
  0
LINE
  8
1
  6
CONTINUOUS
 62
   250
 10
0.575355
 20
0.074447
 30
0.0
 11
0.575355
 21
0.093748
 31
0.0
  0
LINE
  8
1
  6
CONTINUOUS
 62
   250
 10
0.614416
 20
0.0
 30
0.0
 11
0.614416
 21
0.073068
 31
0.0
  0
LINE
  8
1
  6
CONTINUOUS
 62
   250
 10
0.590061
 20
0.03033
 30
0.0
 11
0.590061
 21
0.074447
 31
0.0
  0
LINE
  8
1
  6
CONTINUOUS
 62
   250
 10
0.63188
 20
0.115347
 30
0.0
 11
0.607984
 21
0.115347
 31
0.0
  0
LINE
  8
1
  6
CONTINUOUS
 62
   250
 10
0.607984
 20
0.091449
 30
0.0
 11
0.63188
 21
0.091449
 31
0.0
  0
LINE
  8
1
  6
CONTINUOUS
 62
   250
 10
0.614416
 20
0.073068
 30
0.0
 11
0.607984
 21
0.073068
 31
0.0
  0
LINE
  8
1
  6
CONTINUOUS
 62
   250
 10
0.607984
 20
0.073068
 30
0.0
 11
0.607984
 21
0.091449
 31
0.0
  0
LINE
  8
1
  6
CONTINUOUS
 62
   250
 10
0.614416
 20
0.133729
 30
0.0
 11
0.607984
 21
0.133729
 31
0.0
  0
LINE
  8
1
  6
CONTINUOUS
 62
   250
 10
0.607984
 20
0.115347
 30
0.0
 11
0.607984
 21
0.133729
 31
0.0
  0
LINE
  8
1
  6
CONTINUOUS
 62
   250
 10
0.63188
 20
0.091449
 30
0.0
 11
0.63188
 21
0.115347
 31
0.0
  0
LINE
  8
1
  6
CONTINUOUS
 62
   250
 10
0.523886
 20
0.224719
 30
0.0
 11
0.527102
 21
0.222421
 31
0.0
  0
LINE
  8
1
  6
CONTINUOUS
 62
   250
 10
0.528022
 20
0.224719
 30
0.0
 11
0.523886
 21
0.228855
 31
0.0
  0
LINE
  8
1
  6
CONTINUOUS
 62
   250
 10
0.529401
 20
0.224719
 30
0.0
 11
0.524345
 21
0.228396
 31
0.0
  0
LINE
  8
1
  6
CONTINUOUS
 62
   250
 10
0.524345
 20
0.143838
 30
0.0
 11
0.529401
 21
0.147515
 31
0.0
  0
LINE
  8
1
  6
CONTINUOUS
 62
   250
 10
0.524345
 20
0.143838
 30
0.0
 11
0.529401
 21
0.147515
 31
0.0
  0
LINE
  8
1
  6
CONTINUOUS
 62
   250
 10
0.531697
 20
0.180603
 30
0.0
 11
0.505044
 21
0.154867
 31
0.0
  0
LINE
  8
1
  6
CONTINUOUS
 62
   250
 10
0.507343
 20
0.145678
 30
0.0
 11
0.541809
 21
0.180144
 31
0.0
  0
LINE
  8
1
  6
CONTINUOUS
 62
   250
 10
0.493095
 20
0.219205
 30
0.0
 11
0.481148
 21
0.207717
 31
0.0
  0
LINE
  8
1
  6
CONTINUOUS
 62
   250
 10
0.493095
 20
0.148435
 30
0.0
 11
0.497231
 21
0.150272
 31
0.0
  0
LINE
  8
1
  6
CONTINUOUS
 62
   250
 10
0.494474
 20
0.137865
 30
0.0
 11
0.501828
 21
0.141081
 31
0.0
  0
LINE
  8
1
  6
CONTINUOUS
 62
   250
 10
0.493095
 20
0.137865
 30
0.0
 11
0.499529
 21
0.137406
 31
0.0
  0
LINE
  8
1
  6
CONTINUOUS
 62
   250
 10
0.493556
 20
0.137865
 30
0.0
 11
0.499529
 21
0.137406
 31
0.0
  0
LINE
  8
1
  6
CONTINUOUS
 62
   250
 10
0.477471
 20
0.149353
 30
0.0
 11
0.482986
 21
0.147515
 31
0.0
  0
LINE
  8
1
  6
CONTINUOUS
 62
   250
 10
0.475173
 20
0.144299
 30
0.0
 11
0.481148
 21
0.141542
 31
0.0
  0
LINE
  8
1
  6
CONTINUOUS
 62
   250
 10
0.475634
 20
0.143838
 30
0.0
 11
0.481148
 21
0.141081
 31
0.0
  0
LINE
  8
1
  6
CONTINUOUS
 62
   250
 10
0.465522
 20
0.15211
 30
0.0
 11
0.470119
 21
0.147515
 31
0.0
  0
LINE
  8
1
  6
CONTINUOUS
 62
   250
 10
0.465522
 20
0.151651
 30
0.0
 11
0.470119
 21
0.147515
 31
0.0
  0
LINE
  8
1
  6
CONTINUOUS
 62
   250
 10
0.469658
 20
0.15395
 30
0.0
 11
0.472877
 21
0.151192
 31
0.0
  0
LINE
  8
1
  6
CONTINUOUS
 62
   250
 10
0.466442
 20
0.157166
 30
0.0
 11
0.469658
 21
0.15395
 31
0.0
  0
LINE
  8
1
  6
CONTINUOUS
 62
   250
 10
0.472877
 20
0.151192
 30
0.0
 11
0.477471
 21
0.149353
 31
0.0
  0
LINE
  8
1
  6
CONTINUOUS
 62
   250
 10
0.470119
 20
0.147515
 30
0.0
 11
0.475173
 21
0.144299
 31
0.0
  0
LINE
  8
1
  6
CONTINUOUS
 62
   250
 10
0.470119
 20
0.147515
 30
0.0
 11
0.475634
 21
0.143838
 31
0.0
  0
LINE
  8
1
  6
CONTINUOUS
 62
   250
 10
0.482986
 20
0.147515
 30
0.0
 11
0.488042
 21
0.147515
 31
0.0
  0
LINE
  8
1
  6
CONTINUOUS
 62
   250
 10
0.481148
 20
0.141542
 30
0.0
 11
0.487122
 21
0.139243
 31
0.0
  0
LINE
  8
1
  6
CONTINUOUS
 62
   250
 10
0.481148
 20
0.141081
 30
0.0
 11
0.487581
 21
0.139243
 31
0.0
  0
LINE
  8
1
  6
CONTINUOUS
 62
   250
 10
0.487122
 20
0.139243
 30
0.0
 11
0.493095
 21
0.137865
 31
0.0
  0
LINE
  8
1
  6
CONTINUOUS
 62
   250
 10
0.487581
 20
0.139243
 30
0.0
 11
0.493556
 21
0.137865
 31
0.0
  0
LINE
  8
1
  6
CONTINUOUS
 62
   250
 10
0.488042
 20
0.147515
 30
0.0
 11
0.493095
 21
0.148435
 31
0.0
  0
LINE
  8
1
  6
CONTINUOUS
 62
   250
 10
0.481148
 20
0.207717
 30
0.0
 11
0.472415
 21
0.198984
 31
0.0
  0
LINE
  8
1
  6
CONTINUOUS
 62
   250
 10
0.465983
 20
0.19301
 30
0.0
 11
0.469199
 21
0.196227
 31
0.0
  0
LINE
  8
1
  6
CONTINUOUS
 62
   250
 10
0.469199
 20
0.196227
 30
0.0
 11
0.472415
 21
0.198984
 31
0.0
  0
LINE
  8
1
  6
CONTINUOUS
 62
   250
 10
0.505044
 20
0.137865
 30
0.0
 11
0.511479
 21
0.139243
 31
0.0
  0
LINE
  8
1
  6
CONTINUOUS
 62
   250
 10
0.505503
 20
0.137865
 30
0.0
 11
0.511479
 21
0.139243
 31
0.0
  0
LINE
  8
1
  6
CONTINUOUS
 62
   250
 10
0.497231
 20
0.150272
 30
0.0
 11
0.501828
 21
0.15211
 31
0.0
  0
LINE
  8
1
  6
CONTINUOUS
 62
   250
 10
0.501828
 20
0.15211
 30
0.0
 11
0.505044
 21
0.155328
 31
0.0
  0
LINE
  8
1
  6
CONTINUOUS
 62
   250
 10
0.499529
 20
0.137406
 30
0.0
 11
0.505044
 21
0.137865
 31
0.0
  0
LINE
  8
1
  6
CONTINUOUS
 62
   250
 10
0.499529
 20
0.137406
 30
0.0
 11
0.505503
 21
0.137865
 31
0.0
  0
LINE
  8
1
  6
CONTINUOUS
 62
   250
 10
0.501828
 20
0.141081
 30
0.0
 11
0.507343
 21
0.145678
 31
0.0
  0
LINE
  8
1
  6
CONTINUOUS
 62
   250
 10
0.518372
 20
0.141081
 30
0.0
 11
0.524345
 21
0.143838
 31
0.0
  0
LINE
  8
1
  6
CONTINUOUS
 62
   250
 10
0.518372
 20
0.141081
 30
0.0
 11
0.524345
 21
0.143838
 31
0.0
  0
LINE
  8
1
  6
CONTINUOUS
 62
   250
 10
0.511479
 20
0.139243
 30
0.0
 11
0.518372
 21
0.141081
 31
0.0
  0
LINE
  8
1
  6
CONTINUOUS
 62
   250
 10
0.511479
 20
0.139243
 30
0.0
 11
0.518372
 21
0.141081
 31
0.0
  0
LINE
  8
1
  6
CONTINUOUS
 62
   250
 10
0.493556
 20
0.227935
 30
0.0
 11
0.498151
 21
0.231612
 31
0.0
  0
LINE
  8
1
  6
CONTINUOUS
 62
   250
 10
0.499071
 20
0.234829
 30
0.0
 11
0.493095
 21
0.23437
 31
0.0
  0
LINE
  8
1
  6
CONTINUOUS
 62
   250
 10
0.499529
 20
0.234829
 30
0.0
 11
0.493556
 21
0.23437
 31
0.0
  0
LINE
  8
1
  6
CONTINUOUS
 62
   250
 10
0.493095
 20
0.219205
 30
0.0
 11
0.496772
 21
0.222421
 31
0.0
  0
LINE
  8
1
  6
CONTINUOUS
 62
   250
 10
0.481148
 20
0.231154
 30
0.0
 11
0.475634
 21
0.228396
 31
0.0
  0
LINE
  8
1
  6
CONTINUOUS
 62
   250
 10
0.475634
 20
0.228396
 30
0.0
 11
0.470119
 21
0.224719
 31
0.0
  0
LINE
  8
1
  6
CONTINUOUS
 62
   250
 10
0.470119
 20
0.224719
 30
0.0
 11
0.465522
 21
0.220583
 31
0.0
  0
LINE
  8
1
  6
CONTINUOUS
 62
   250
 10
0.486663
 20
0.232991
 30
0.0
 11
0.480687
 21
0.230234
 31
0.0
  0
LINE
  8
1
  6
CONTINUOUS
 62
   250
 10
0.487581
 20
0.232991
 30
0.0
 11
0.481148
 21
0.231154
 31
0.0
  0
LINE
  8
1
  6
CONTINUOUS
 62
   250
 10
0.493095
 20
0.23437
 30
0.0
 11
0.486663
 21
0.232991
 31
0.0
  0
LINE
  8
1
  6
CONTINUOUS
 62
   250
 10
0.493556
 20
0.23437
 30
0.0
 11
0.487581
 21
0.232991
 31
0.0
  0
LINE
  8
1
  6
CONTINUOUS
 62
   250
 10
0.505044
 20
0.226557
 30
0.0
 11
0.5101
 21
0.227477
 31
0.0
  0
LINE
  8
1
  6
CONTINUOUS
 62
   250
 10
0.511018
 20
0.23345
 30
0.0
 11
0.505044
 21
0.23437
 31
0.0
  0
LINE
  8
1
  6
CONTINUOUS
 62
   250
 10
0.511479
 20
0.232991
 30
0.0
 11
0.505503
 21
0.23437
 31
0.0
  0
LINE
  8
1
  6
CONTINUOUS
 62
   250
 10
0.496772
 20
0.222421
 30
0.0
 11
0.499988
 21
0.224719
 31
0.0
  0
LINE
  8
1
  6
CONTINUOUS
 62
   250
 10
0.498151
 20
0.231612
 30
0.0
 11
0.503207
 21
0.234829
 31
0.0
  0
LINE
  8
1
  6
CONTINUOUS
 62
   250
 10
0.499988
 20
0.224719
 30
0.0
 11
0.505044
 21
0.226557
 31
0.0
  0
LINE
  8
1
  6
CONTINUOUS
 62
   250
 10
0.505044
 20
0.23437
 30
0.0
 11
0.499071
 21
0.234829
 31
0.0
  0
LINE
  8
1
  6
CONTINUOUS
 62
   250
 10
0.505503
 20
0.23437
 30
0.0
 11
0.499529
 21
0.234829
 31
0.0
  0
LINE
  8
1
  6
CONTINUOUS
 62
   250
 10
0.51975
 20
0.226557
 30
0.0
 11
0.523886
 21
0.224719
 31
0.0
  0
LINE
  8
1
  6
CONTINUOUS
 62
   250
 10
0.523886
 20
0.228855
 30
0.0
 11
0.516993
 21
0.231612
 31
0.0
  0
LINE
  8
1
  6
CONTINUOUS
 62
   250
 10
0.524345
 20
0.228396
 30
0.0
 11
0.518372
 21
0.231154
 31
0.0
  0
LINE
  8
1
  6
CONTINUOUS
 62
   250
 10
0.5101
 20
0.227477
 30
0.0
 11
0.514695
 21
0.227477
 31
0.0
  0
LINE
  8
1
  6
CONTINUOUS
 62
   250
 10
0.514695
 20
0.227477
 30
0.0
 11
0.51975
 21
0.226557
 31
0.0
  0
LINE
  8
1
  6
CONTINUOUS
 62
   250
 10
0.516993
 20
0.231612
 30
0.0
 11
0.511018
 21
0.23345
 31
0.0
  0
LINE
  8
1
  6
CONTINUOUS
 62
   250
 10
0.518372
 20
0.231154
 30
0.0
 11
0.511479
 21
0.232991
 31
0.0
  0
LINE
  8
1
  6
CONTINUOUS
 62
   250
 10
0.534916
 20
0.215989
 30
0.0
 11
0.537212
 21
0.211853
 31
0.0
  0
LINE
  8
1
  6
CONTINUOUS
 62
   250
 10
0.541809
 20
0.210933
 30
0.0
 11
0.538132
 21
0.216447
 31
0.0
  0
LINE
  8
1
  6
CONTINUOUS
 62
   250
 10
0.542268
 20
0.210474
 30
0.0
 11
0.538132
 21
0.215989
 31
0.0
  0
LINE
  8
1
  6
CONTINUOUS
 62
   250
 10
0.544105
 20
0.167736
 30
0.0
 11
0.546862
 21
0.173709
 31
0.0
  0
LINE
  8
1
  6
CONTINUOUS
 62
   250
 10
0.544105
 20
0.167736
 30
0.0
 11
0.546862
 21
0.173709
 31
0.0
  0
LINE
  8
1
  6
CONTINUOUS
 62
   250
 10
0.538132
 20
0.156707
 30
0.0
 11
0.542268
 21
0.162221
 31
0.0
  0
LINE
  8
1
  6
CONTINUOUS
 62
   250
 10
0.538132
 20
0.156707
 30
0.0
 11
0.542268
 21
0.16176
 31
0.0
  0
LINE
  8
1
  6
CONTINUOUS
 62
   250
 10
0.533537
 20
0.151651
 30
0.0
 11
0.538132
 21
0.156707
 31
0.0
  0
LINE
  8
1
  6
CONTINUOUS
 62
   250
 10
0.529401
 20
0.147515
 30
0.0
 11
0.533537
 21
0.151651
 31
0.0
  0
LINE
  8
1
  6
CONTINUOUS
 62
   250
 10
0.533537
 20
0.151651
 30
0.0
 11
0.538132
 21
0.156707
 31
0.0
  0
LINE
  8
1
  6
CONTINUOUS
 62
   250
 10
0.529401
 20
0.147515
 30
0.0
 11
0.533537
 21
0.151651
 31
0.0
  0
LINE
  8
1
  6
CONTINUOUS
 62
   250
 10
0.542268
 20
0.162221
 30
0.0
 11
0.544105
 21
0.167736
 31
0.0
  0
LINE
  8
1
  6
CONTINUOUS
 62
   250
 10
0.542268
 20
0.16176
 30
0.0
 11
0.544105
 21
0.167736
 31
0.0
  0
LINE
  8
1
  6
CONTINUOUS
 62
   250
 10
0.538132
 20
0.19301
 30
0.0
 11
0.537212
 21
0.188416
 31
0.0
  0
LINE
  8
1
  6
CONTINUOUS
 62
   250
 10
0.534916
 20
0.18428
 30
0.0
 11
0.531697
 21
0.180603
 31
0.0
  0
LINE
  8
1
  6
CONTINUOUS
 62
   250
 10
0.537212
 20
0.188416
 30
0.0
 11
0.534916
 21
0.18428
 31
0.0
  0
LINE
  8
1
  6
CONTINUOUS
 62
   250
 10
0.538132
 20
0.207256
 30
0.0
 11
0.539052
 21
0.202202
 31
0.0
  0
LINE
  8
1
  6
CONTINUOUS
 62
   250
 10
0.539052
 20
0.197146
 30
0.0
 11
0.538132
 21
0.19301
 31
0.0
  0
LINE
  8
1
  6
CONTINUOUS
 62
   250
 10
0.539052
 20
0.202202
 30
0.0
 11
0.539052
 21
0.197146
 31
0.0
  0
LINE
  8
1
  6
CONTINUOUS
 62
   250
 10
0.537212
 20
0.211853
 30
0.0
 11
0.538132
 21
0.207256
 31
0.0
  0
LINE
  8
1
  6
CONTINUOUS
 62
   250
 10
0.548702
 20
0.186117
 30
0.0
 11
0.548241
 21
0.19301
 31
0.0
  0
LINE
  8
1
  6
CONTINUOUS
 62
   250
 10
0.548702
 20
0.186117
 30
0.0
 11
0.548241
 21
0.192552
 31
0.0
  0
LINE
  8
1
  6
CONTINUOUS
 62
   250
 10
0.541809
 20
0.180144
 30
0.0
 11
0.544566
 21
0.18428
 31
0.0
  0
LINE
  8
1
  6
CONTINUOUS
 62
   250
 10
0.544566
 20
0.18428
 30
0.0
 11
0.548241
 21
0.189333
 31
0.0
  0
LINE
  8
1
  6
CONTINUOUS
 62
   250
 10
0.548241
 20
0.180144
 30
0.0
 11
0.548702
 21
0.186117
 31
0.0
  0
LINE
  8
1
  6
CONTINUOUS
 62
   250
 10
0.548241
 20
0.179683
 30
0.0
 11
0.548702
 21
0.186117
 31
0.0
  0
LINE
  8
1
  6
CONTINUOUS
 62
   250
 10
0.543646
 20
0.205418
 30
0.0
 11
0.541809
 21
0.210933
 31
0.0
  0
LINE
  8
1
  6
CONTINUOUS
 62
   250
 10
0.546862
 20
0.198984
 30
0.0
 11
0.543646
 21
0.205418
 31
0.0
  0
LINE
  8
1
  6
CONTINUOUS
 62
   250
 10
0.544105
 20
0.204959
 30
0.0
 11
0.542268
 21
0.210474
 31
0.0
  0
LINE
  8
1
  6
CONTINUOUS
 62
   250
 10
0.546862
 20
0.198525
 30
0.0
 11
0.544105
 21
0.204959
 31
0.0
  0
LINE
  8
1
  6
CONTINUOUS
 62
   250
 10
0.548241
 20
0.19301
 30
0.0
 11
0.546862
 21
0.198984
 31
0.0
  0
LINE
  8
1
  6
CONTINUOUS
 62
   250
 10
0.548241
 20
0.192552
 30
0.0
 11
0.546862
 21
0.198525
 31
0.0
  0
LINE
  8
1
  6
CONTINUOUS
 62
   250
 10
0.546862
 20
0.173709
 30
0.0
 11
0.548241
 21
0.180144
 31
0.0
  0
LINE
  8
1
  6
CONTINUOUS
 62
   250
 10
0.546862
 20
0.173709
 30
0.0
 11
0.548241
 21
0.179683
 31
0.0
  0
LINE
  8
1
  6
CONTINUOUS
 62
   250
 10
0.531697
 20
0.219205
 30
0.0
 11
0.534916
 21
0.215989
 31
0.0
  0
LINE
  8
1
  6
CONTINUOUS
 62
   250
 10
0.538132
 20
0.216447
 30
0.0
 11
0.533076
 21
0.221042
 31
0.0
  0
LINE
  8
1
  6
CONTINUOUS
 62
   250
 10
0.538132
 20
0.215989
 30
0.0
 11
0.533537
 21
0.220583
 31
0.0
  0
LINE
  8
1
  6
CONTINUOUS
 62
   250
 10
0.533076
 20
0.221042
 30
0.0
 11
0.528022
 21
0.224719
 31
0.0
  0
LINE
  8
1
  6
CONTINUOUS
 62
   250
 10
0.533537
 20
0.220583
 30
0.0
 11
0.529401
 21
0.224719
 31
0.0
  0
LINE
  8
1
  6
CONTINUOUS
 62
   250
 10
0.527102
 20
0.222421
 30
0.0
 11
0.531697
 21
0.219205
 31
0.0
  0
LINE
  8
1
  6
CONTINUOUS
 62
   250
 10
0.607984
 20
0.358907
 30
0.0
 11
0.607984
 21
0.37729
 31
0.0
  0
LINE
  8
1
  6
CONTINUOUS
 62
   250
 10
0.607984
 20
0.334552
 30
0.0
 11
0.63188
 21
0.334552
 31
0.0
  0
LINE
  8
1
  6
CONTINUOUS
 62
   250
 10
0.63188
 20
0.358907
 30
0.0
 11
0.607984
 21
0.358907
 31
0.0
  0
LINE
  8
1
  6
CONTINUOUS
 62
   250
 10
0.607984
 20
0.316169
 30
0.0
 11
0.607984
 21
0.334552
 31
0.0
  0
LINE
  8
1
  6
CONTINUOUS
 62
   250
 10
0.607984
 20
0.316169
 30
0.0
 11
0.614416
 21
0.316169
 31
0.0
  0
LINE
  8
1
  6
CONTINUOUS
 62
   250
 10
0.63188
 20
0.334552
 30
0.0
 11
0.63188
 21
0.358907
 31
0.0
  0
LINE
  8
1
  6
CONTINUOUS
 62
   250
 10
0.607984
 20
0.37729
 30
0.0
 11
0.614416
 21
0.37729
 31
0.0
  0
LINE
  8
1
  6
CONTINUOUS
 62
   250
 10
0.607984
 20
0.602009
 30
0.0
 11
0.607984
 21
0.619932
 31
0.0
  0
LINE
  8
1
  6
CONTINUOUS
 62
   250
 10
0.607984
 20
0.602009
 30
0.0
 11
0.63188
 21
0.602009
 31
0.0
  0
LINE
  8
1
  6
CONTINUOUS
 62
   250
 10
0.63188
 20
0.577653
 30
0.0
 11
0.607984
 21
0.577653
 31
0.0
  0
LINE
  8
1
  6
CONTINUOUS
 62
   250
 10
0.607984
 20
0.577653
 30
0.0
 11
0.607984
 21
0.55973
 31
0.0
  0
LINE
  8
1
  6
CONTINUOUS
 62
   250
 10
0.607984
 20
0.55973
 30
0.0
 11
0.614416
 21
0.55973
 31
0.0
  0
LINE
  8
1
  6
CONTINUOUS
 62
   250
 10
0.63188
 20
0.602009
 30
0.0
 11
0.63188
 21
0.577653
 31
0.0
  0
LINE
  8
1
  6
CONTINUOUS
 62
   250
 10
0.614416
 20
0.619932
 30
0.0
 11
0.614416
 21
0.693
 31
0.0
  0
LINE
  8
1
  6
CONTINUOUS
 62
   250
 10
0.607984
 20
0.619932
 30
0.0
 11
0.614416
 21
0.619932
 31
0.0
  0
ENDSEC
  0
EOF
