  0
SECTION
  2
HEADER
  9
$ACADVER
  1
AC1009
  9
$INSBASE
 10
0.0
 20
0.0
 30
0.0
  9
$EXTMIN
 10
-0.551357
 20
-0.683687
 30
0.0
  9
$EXTMAX
 10
0.551356
 20
0.830256
 30
0.0
  9
$LIMMIN
 10
14.516492
 20
11.643512
  9
$LIMMAX
 10
15.619208
 20
13.157455
  9
$ORTHOMODE
 70
     1
  9
$REGENMODE
 70
     1
  9
$FILLMODE
 70
     1
  9
$QTEXTMODE
 70
     0
  9
$MIRRTEXT
 70
     1
  9
$DRAGMODE
 70
     2
  9
$LTSCALE
 40
1.0
  9
$OSMODE
 70
     0
  9
$ATTMODE
 70
     2
  9
$TEXTSIZE
 40
0.01502
  9
$TRACEWID
 40
0.05
  9
$TEXTSTYLE
  7
STANDARD
  9
$CLAYER
  8
0
  9
$CELTYPE
  6
BYLAYER
  9
$CECOLOR
 62
   256
  9
$DIMSCALE
 40
1.0
  9
$DIMASZ
 40
1.0
  9
$DIMEXO
 40
0.5
  9
$DIMDLI
 40
0.38
  9
$DIMRND
 40
0.0
  9
$DIMDLE
 40
0.0
  9
$DIMEXE
 40
0.5
  9
$DIMTP
 40
0.0
  9
$DIMTM
 40
0.0
  9
$DIMTXT
 40
0.18
  9
$DIMCEN
 40
0.09
  9
$DIMTSZ
 40
0.0
  9
$DIMTOL
 70
     0
  9
$DIMLIM
 70
     0
  9
$DIMTIH
 70
     1
  9
$DIMTOH
 70
     1
  9
$DIMSE1
 70
     0
  9
$DIMSE2
 70
     0
  9
$DIMTAD
 70
     0
  9
$DIMZIN
 70
     0
  9
$DIMBLK
  1

  9
$DIMASO
 70
     1
  9
$DIMSHO
 70
     1
  9
$DIMPOST
  1
"
  9
$DIMAPOST
  1

  9
$DIMALT
 70
     0
  9
$DIMALTD
 70
     2
  9
$DIMALTF
 40
25.4
  9
$DIMLFAC
 40
1.0
  9
$DIMTOFL
 70
     0
  9
$DIMTVP
 40
0.0
  9
$DIMTIX
 70
     0
  9
$DIMSOXD
 70
     0
  9
$DIMSAH
 70
     0
  9
$DIMBLK1
  1

  9
$DIMBLK2
  1

  9
$DIMSTYLE
  2
*UNNAMED
  9
$DIMCLRD
 70
     0
  9
$DIMCLRE
 70
     0
  9
$DIMCLRT
 70
     0
  9
$DIMTFAC
 40
1.0
  9
$DIMGAP
 40
0.09
  9
$LUNITS
 70
     2
  9
$LUPREC
 70
     3
  9
$SKETCHINC
 40
0.1
  9
$FILLETRAD
 40
0.0
  9
$AUNITS
 70
     0
  9
$AUPREC
 70
     3
  9
$MENU
  1
acad
  9
$ELEVATION
 40
0.0
  9
$PELEVATION
 40
0.0
  9
$THICKNESS
 40
0.0
  9
$LIMCHECK
 70
     0
  9
$BLIPMODE
 70
     0
  9
$CHAMFERA
 40
0.5
  9
$CHAMFERB
 40
0.5
  9
$SKPOLY
 70
     0
  9
$TDCREATE
 40
2450086.728778588
  9
$TDUPDATE
 40
2450086.728778588
  9
$TDINDWG
 40
0.0000000000
  9
$TDUSRTIMER
 40
0.0000000000
  9
$USRTIMER
 70
     1
  9
$ANGBASE
 50
0.0
  9
$ANGDIR
 70
     0
  9
$PDMODE
 70
     2
  9
$PDSIZE
 40
0.0
  9
$PLINEWID
 40
0.0
  9
$COORDS
 70
     1
  9
$SPLFRAME
 70
     0
  9
$SPLINETYPE
 70
     6
  9
$SPLINESEGS
 70
     8
  9
$ATTDIA
 70
     0
  9
$ATTREQ
 70
     1
  9
$HANDLING
 70
     0
  9
$HANDSEED
  5
0
  9
$SURFTAB1
 70
     6
  9
$SURFTAB2
 70
     6
  9
$SURFTYPE
 70
     6
  9
$SURFU
 70
     6
  9
$SURFV
 70
     6
  9
$UCSNAME
  2

  9
$UCSORG
 10
0.0
 20
0.0
 30
0.0
  9
$UCSXDIR
 10
1.0
 20
0.0
 30
0.0
  9
$UCSYDIR
 10
0.0
 20
1.0
 30
0.0
  9
$PUCSNAME
  2

  9
$PUCSORG
 10
0.0
 20
0.0
 30
0.0
  9
$PUCSXDIR
 10
1.0
 20
0.0
 30
0.0
  9
$PUCSYDIR
 10
0.0
 20
1.0
 30
0.0
  9
$USERI1
 70
     0
  9
$USERI2
 70
     0
  9
$USERI3
 70
     0
  9
$USERI4
 70
     0
  9
$USERI5
 70
     0
  9
$USERR1
 40
0.0
  9
$USERR2
 40
0.0
  9
$USERR3
 40
0.0
  9
$USERR4
 40
0.0
  9
$USERR5
 40
0.0
  9
$WORLDVIEW
 70
     1
  9
$SHADEDGE
 70
     3
  9
$SHADEDIF
 70
    70
  9
$TILEMODE
 70
     1
  9
$MAXACTVP
 70
    16
  9
$PINSBASE
 10
-0.915697
 20
50.0
 30
-0.318061
  9
$PLIMCHECK
 70
     0
  9
$PEXTMIN
 10
1.000000E+20
 20
1.000000E+20
 30
1.000000E+20
  9
$PEXTMAX
 10
-1.000000E+20
 20
-1.000000E+20
 30
-1.000000E+20
  9
$PLIMMIN
 10
0.0
 20
0.0
  9
$PLIMMAX
 10
12.0
 20
9.0
  9
$UNITMODE
 70
     0
  9
$VISRETAIN
 70
     0
  9
$PLINEGEN
 70
     0
  9
$PSLTSCALE
 70
     1
  9
$TREEDEPTH
 70
  3020
  9
$DWGCODEPAGE
  3
ascii
  0
ENDSEC
  0
SECTION
  2
TABLES
  0
TABLE
  2
VPORT
 70
     1
  0
VPORT
  2
*ACTIVE
 70
     0
 10
0.0
 20
0.0
 11
1.0
 21
1.0
 12
9.050305
 22
6.236884
 13
0.0
 23
0.0
 14
1.0
 24
1.0
 15
1.0
 25
1.0
 16
0.0
 26
0.0
 36
1.0
 17
0.0
 27
0.0
 37
0.0
 40
13.841142
 41
1.387409
 42
50.0
 43
0.0
 44
0.0
 50
0.0
 51
0.0
 71
     0
 72
   100
 73
     1
 74
     1
 75
     0
 76
     0
 77
     0
 78
     0
  0
ENDTAB
  0
TABLE
  2
LTYPE
 70
     1
  0
LTYPE
  2
CONTINUOUS
 70
    64
  3
SOLID LINE
 72
    65
 73
     0
 40
0.0
  0
ENDTAB
  0
TABLE
  2
LAYER
 70
     1
  0
LAYER
  2
0
 70
    64
 62
     4
  6
CONTINUOUS
  0
ENDTAB
  0
TABLE
  2
STYLE
 70
     1
  0
STYLE
  2
STANDARD
 70
     0
 40
0.0
 41
1.0
 50
0.0
 71
     0
 42
0.2
  3
txt
  4

  0
ENDTAB
  0
TABLE
  2
VIEW
 70
     0
  0
ENDTAB
  0
TABLE
  2
UCS
 70
     0
  0
ENDTAB
  0
TABLE
  2
APPID
 70
     1
  0
APPID
  2
ACAD
 70
    64
  0
ENDTAB
  0
TABLE
  2
DIMSTYLE
 70
     0
  0
ENDTAB
  0
ENDSEC
  0
SECTION
  2
BLOCKS
  0
ENDSEC
  0
SECTION
  2
ENTITIES
  0
LINE
  8
0
  6
CONTINUOUS
 62
   250
 10
0.085462
 20
-0.128192
 30
0.0
 11
-0.085461
 21
-0.128192
 31
0.0
  0
LINE
  8
0
  6
CONTINUOUS
 62
   250
 10
0.199343
 20
0.119925
 30
0.0
 11
0.143992
 21
0.119925
 31
0.0
  0
LINE
  8
0
  6
CONTINUOUS
 62
   250
 10
0.199343
 20
0.728781
 30
0.0
 11
0.143992
 21
0.728781
 31
0.0
  0
CIRCLE
  8
0
  6
CONTINUOUS
 62
   250
 10
0.171667
 20
0.728781
 30
0.0
 40
0.027675
  0
CIRCLE
  8
0
  6
CONTINUOUS
 62
   250
 10
0.171667
 20
0.119925
 30
0.0
 40
0.027675
  0
LINE
  8
0
  6
CONTINUOUS
 62
   250
 10
-0.075206
 20
-0.683687
 30
0.0
 11
0.074351
 21
-0.683687
 31
0.0
  0
LINE
  8
0
  6
CONTINUOUS
 62
   250
 10
-0.085461
 20
-0.128192
 30
0.0
 11
-0.085461
 21
0.0
 31
0.0
  0
LINE
  8
0
  6
CONTINUOUS
 62
   250
 10
-0.066232
 20
-0.128192
 30
0.0
 11
-0.066232
 21
0.0
 31
0.0
  0
LINE
  8
0
  6
CONTINUOUS
 62
   250
 10
-0.057686
 20
0.0
 30
0.0
 11
-0.057686
 21
-0.128192
 31
0.0
  0
LINE
  8
0
  6
CONTINUOUS
 62
   250
 10
0.053413
 20
-0.128192
 30
0.0
 11
0.053413
 21
0.0
 31
0.0
  0
LINE
  8
0
  6
CONTINUOUS
 62
   250
 10
0.061959
 20
0.0
 30
0.0
 11
0.061959
 21
-0.128192
 31
0.0
  0
LINE
  8
0
  6
CONTINUOUS
 62
   250
 10
0.085462
 20
0.0
 30
0.0
 11
0.085462
 21
-0.128192
 31
0.0
  0
LINE
  8
0
  6
CONTINUOUS
 62
   250
 10
-0.075206
 20
-0.659955
 30
0.0
 11
-0.020434
 21
-0.659955
 31
0.0
  0
LINE
  8
0
  6
CONTINUOUS
 62
   250
 10
-0.075206
 20
-0.637523
 30
0.0
 11
-0.020434
 21
-0.637523
 31
0.0
  0
LINE
  8
0
  6
CONTINUOUS
 62
   250
 10
-0.075206
 20
-0.623293
 30
0.0
 11
-0.020434
 21
-0.623293
 31
0.0
  0
LINE
  8
0
  6
CONTINUOUS
 62
   250
 10
-0.075206
 20
-0.598182
 30
0.0
 11
-0.020434
 21
-0.598182
 31
0.0
  0
LINE
  8
0
  6
CONTINUOUS
 62
   250
 10
0.019581
 20
-0.659955
 30
0.0
 11
0.019581
 21
-0.637523
 31
0.0
  0
LINE
  8
0
  6
CONTINUOUS
 62
   250
 10
-0.020434
 20
-0.659955
 30
0.0
 11
-0.020434
 21
-0.637523
 31
0.0
  0
LINE
  8
0
  6
CONTINUOUS
 62
   250
 10
0.019581
 20
-0.659955
 30
0.0
 11
0.074351
 21
-0.659955
 31
0.0
  0
LINE
  8
0
  6
CONTINUOUS
 62
   250
 10
0.019581
 20
-0.637523
 30
0.0
 11
0.074351
 21
-0.637523
 31
0.0
  0
LINE
  8
0
  6
CONTINUOUS
 62
   250
 10
0.019581
 20
-0.623293
 30
0.0
 11
0.074351
 21
-0.623293
 31
0.0
  0
LINE
  8
0
  6
CONTINUOUS
 62
   250
 10
0.019581
 20
-0.598182
 30
0.0
 11
0.074351
 21
-0.598182
 31
0.0
  0
LINE
  8
0
  6
CONTINUOUS
 62
   250
 10
-0.020434
 20
-0.623293
 30
0.0
 11
-0.020434
 21
-0.598182
 31
0.0
  0
LINE
  8
0
  6
CONTINUOUS
 62
   250
 10
0.019581
 20
-0.623293
 30
0.0
 11
0.019581
 21
-0.598182
 31
0.0
  0
LINE
  8
0
  6
CONTINUOUS
 62
   250
 10
0.074351
 20
-0.128192
 30
0.0
 11
0.074351
 21
-0.598182
 31
0.0
  0
LINE
  8
0
  6
CONTINUOUS
 62
   250
 10
0.074351
 20
-0.659955
 30
0.0
 11
0.074351
 21
-0.683687
 31
0.0
  0
LINE
  8
0
  6
CONTINUOUS
 62
   250
 10
-0.075206
 20
-0.683687
 30
0.0
 11
-0.075206
 21
-0.659955
 31
0.0
  0
LINE
  8
0
  6
CONTINUOUS
 62
   250
 10
-0.075206
 20
-0.598182
 30
0.0
 11
-0.075206
 21
-0.128192
 31
0.0
  0
LINE
  8
0
  6
CONTINUOUS
 62
   250
 10
-0.075206
 20
-0.637523
 30
0.0
 11
-0.075206
 21
-0.623293
 31
0.0
  0
LINE
  8
0
  6
CONTINUOUS
 62
   250
 10
0.074351
 20
-0.623293
 30
0.0
 11
0.074351
 21
-0.637523
 31
0.0
  0
LINE
  8
0
  6
CONTINUOUS
 62
   250
 10
-0.399144
 20
0.830256
 30
0.0
 11
-0.399144
 21
0.830256
 31
0.0
  0
CIRCLE
  8
0
  6
CONTINUOUS
 62
   250
 10
-0.171667
 20
0.119925
 30
0.0
 40
0.027676
  0
CIRCLE
  8
0
  6
CONTINUOUS
 62
   250
 10
-0.171667
 20
0.728781
 30
0.0
 40
0.027676
  0
LINE
  8
0
  6
CONTINUOUS
 62
   250
 10
-0.199342
 20
0.728781
 30
0.0
 11
-0.143991
 21
0.728781
 31
0.0
  0
LINE
  8
0
  6
CONTINUOUS
 62
   250
 10
-0.199342
 20
0.119925
 30
0.0
 11
-0.143991
 21
0.119925
 31
0.0
  0
LINE
  8
0
  6
CONTINUOUS
 62
   250
 10
0.399144
 20
0.691956
 30
0.0
 11
0.399144
 21
0.655172
 31
0.0
  0
LINE
  8
0
  6
CONTINUOUS
 62
   250
 10
0.399144
 20
0.608926
 30
0.0
 11
0.399144
 21
0.572217
 31
0.0
  0
ARC
  8
0
  6
CONTINUOUS
 62
   250
 10
0.491395
 20
0.198313
 30
0.0
 40
0.059963
 50
269.557587
 51
89.557579
  0
ARC
  8
0
  6
CONTINUOUS
 62
   250
 10
0.491395
 20
0.198313
 30
0.0
 40
0.023063
 50
269.903015
 51
90.127792
  0
LINE
  8
0
  6
CONTINUOUS
 62
   250
 10
0.491274
 20
0.13835
 30
0.0
 11
0.399144
 21
0.138375
 31
0.0
  0
LINE
  8
0
  6
CONTINUOUS
 62
   250
 10
0.491451
 20
0.258276
 30
0.0
 11
0.399145
 21
0.2582
 31
0.0
  0
LINE
  8
0
  6
CONTINUOUS
 62
   250
 10
0.491451
 20
0.258276
 30
0.0
 11
0.399145
 21
0.258276
 31
0.0
  0
LINE
  8
0
  6
CONTINUOUS
 62
   250
 10
0.399145
 20
0.258276
 30
0.0
 11
0.399145
 21
0.221491
 31
0.0
  0
LINE
  8
0
  6
CONTINUOUS
 62
   250
 10
0.491437
 20
0.17525
 30
0.0
 11
0.399145
 21
0.175245
 31
0.0
  0
LINE
  8
0
  6
CONTINUOUS
 62
   250
 10
0.491506
 20
0.221375
 30
0.0
 11
0.399145
 21
0.221491
 31
0.0
  0
LINE
  8
0
  6
CONTINUOUS
 62
   250
 10
0.399145
 20
0.175245
 30
0.0
 11
0.399145
 21
0.138536
 31
0.0
  0
LINE
  8
0
  6
CONTINUOUS
 62
   250
 10
-0.399145
 20
0.175245
 30
0.0
 11
-0.399145
 21
0.138536
 31
0.0
  0
LINE
  8
0
  6
CONTINUOUS
 62
   250
 10
-0.399145
 20
0.258276
 30
0.0
 11
-0.399145
 21
0.221491
 31
0.0
  0
LINE
  8
0
  6
CONTINUOUS
 62
   250
 10
-0.399144
 20
0.608926
 30
0.0
 11
-0.399144
 21
0.572217
 31
0.0
  0
LINE
  8
0
  6
CONTINUOUS
 62
   250
 10
-0.491504
 20
0.655055
 30
0.0
 11
-0.399144
 21
0.655172
 31
0.0
  0
LINE
  8
0
  6
CONTINUOUS
 62
   250
 10
-0.491436
 20
0.608931
 30
0.0
 11
-0.399144
 21
0.608926
 31
0.0
  0
LINE
  8
0
  6
CONTINUOUS
 62
   250
 10
-0.399144
 20
0.691956
 30
0.0
 11
-0.399144
 21
0.655172
 31
0.0
  0
LINE
  8
0
  6
CONTINUOUS
 62
   250
 10
-0.49145
 20
0.691956
 30
0.0
 11
-0.399144
 21
0.691956
 31
0.0
  0
LINE
  8
0
  6
CONTINUOUS
 62
   250
 10
-0.49145
 20
0.691956
 30
0.0
 11
-0.399144
 21
0.69188
 31
0.0
  0
LINE
  8
0
  6
CONTINUOUS
 62
   250
 10
-0.491273
 20
0.57203
 30
0.0
 11
-0.399144
 21
0.572056
 31
0.0
  0
ARC
  8
0
  6
CONTINUOUS
 62
   250
 10
-0.491395
 20
0.631993
 30
0.0
 40
0.023062
 50
89.871017
 51
270.098175
  0
ARC
  8
0
  6
CONTINUOUS
 62
   250
 10
-0.491396
 20
0.631993
 30
0.0
 40
0.059963
 50
90.441483
 51
270.443359
  0
LINE
  8
0
  6
CONTINUOUS
 62
   250
 10
0.057657
 20
0.0
 30
0.0
 11
0.066881
 21
0.0
 31
0.0
  0
LINE
  8
0
  6
CONTINUOUS
 62
   250
 10
-0.071494
 20
0.0
 30
0.0
 11
-0.062269
 21
0.0
 31
0.0
  0
LINE
  8
0
  6
CONTINUOUS
 62
   250
 10
0.399144
 20
0.0
 30
0.0
 11
0.399144
 21
0.830256
 31
0.0
  0
LINE
  8
0
  6
CONTINUOUS
 62
   250
 10
0.371469
 20
0.802582
 30
0.0
 11
0.371469
 21
0.027675
 31
0.0
  0
LINE
  8
0
  6
CONTINUOUS
 62
   250
 10
-0.371469
 20
0.802582
 30
0.0
 11
0.371469
 21
0.802582
 31
0.0
  0
LINE
  8
0
  6
CONTINUOUS
 62
   250
 10
0.399144
 20
0.830256
 30
0.0
 11
-0.399144
 21
0.830256
 31
0.0
  0
LINE
  8
0
  6
CONTINUOUS
 62
   250
 10
0.371469
 20
0.802582
 30
0.0
 11
0.399144
 21
0.830256
 31
0.0
  0
LINE
  8
0
  6
CONTINUOUS
 62
   250
 10
-0.399144
 20
0.830256
 30
0.0
 11
-0.371469
 21
0.802582
 31
0.0
  0
LINE
  8
0
  6
CONTINUOUS
 62
   250
 10
-0.399144
 20
0.830256
 30
0.0
 11
-0.399144
 21
0.0
 31
0.0
  0
LINE
  8
0
  6
CONTINUOUS
 62
   250
 10
-0.371469
 20
0.802582
 30
0.0
 11
-0.371469
 21
0.027675
 31
0.0
  0
LINE
  8
0
  6
CONTINUOUS
 62
   250
 10
0.371469
 20
0.027675
 30
0.0
 11
-0.371469
 21
0.027675
 31
0.0
  0
LINE
  8
0
  6
CONTINUOUS
 62
   250
 10
-0.092251
 20
0.0
 30
0.0
 11
0.092252
 21
0.0
 31
0.0
  0
LINE
  8
0
  6
CONTINUOUS
 62
   250
 10
-0.399144
 20
0.0
 30
0.0
 11
0.399144
 21
0.0
 31
0.0
  0
LINE
  8
0
  6
CONTINUOUS
 62
   250
 10
0.371469
 20
0.027675
 30
0.0
 11
0.399144
 21
0.0
 31
0.0
  0
LINE
  8
0
  6
CONTINUOUS
 62
   250
 10
-0.371469
 20
0.027675
 30
0.0
 11
-0.399144
 21
0.0
 31
0.0
  0
ENDSEC
  0
EOF
