  0
SECTION
  2
HEADER
  9
$ACADVER
  1
AC1009
  9
$INSBASE
 10
0.0
 20
0.0
 30
0.0
  9
$EXTMIN
 10
-0.196865
 20
0.0
 30
0.0
  9
$EXTMAX
 10
0.196865
 20
0.295297
 30
0.0
  9
$LIMMIN
 10
13.669864
 20
11.091115
  9
$LIMMAX
 10
14.063594
 20
11.386412
  9
$ORTHOMODE
 70
     1
  9
$REGENMODE
 70
     1
  9
$FILLMODE
 70
     1
  9
$QTEXTMODE
 70
     0
  9
$MIRRTEXT
 70
     1
  9
$DRAGMODE
 70
     2
  9
$LTSCALE
 40
1.0
  9
$OSMODE
 70
     0
  9
$ATTMODE
 70
     2
  9
$TEXTSIZE
 40
0.01
  9
$TRACEWID
 40
0.05
  9
$TEXTSTYLE
  7
STANDARD
  9
$CLAYER
  8
0
  9
$CELTYPE
  6
BYLAYER
  9
$CECOLOR
 62
   256
  9
$DIMSCALE
 40
1.0
  9
$DIMASZ
 40
1.0
  9
$DIMEXO
 40
0.5
  9
$DIMDLI
 40
0.38
  9
$DIMRND
 40
0.0
  9
$DIMDLE
 40
0.0
  9
$DIMEXE
 40
0.5
  9
$DIMTP
 40
0.0
  9
$DIMTM
 40
0.0
  9
$DIMTXT
 40
0.18
  9
$DIMCEN
 40
0.09
  9
$DIMTSZ
 40
0.0
  9
$DIMTOL
 70
     0
  9
$DIMLIM
 70
     0
  9
$DIMTIH
 70
     1
  9
$DIMTOH
 70
     1
  9
$DIMSE1
 70
     0
  9
$DIMSE2
 70
     0
  9
$DIMTAD
 70
     0
  9
$DIMZIN
 70
     0
  9
$DIMBLK
  1

  9
$DIMASO
 70
     1
  9
$DIMSHO
 70
     1
  9
$DIMPOST
  1
"
  9
$DIMAPOST
  1

  9
$DIMALT
 70
     0
  9
$DIMALTD
 70
     2
  9
$DIMALTF
 40
25.4
  9
$DIMLFAC
 40
1.0
  9
$DIMTOFL
 70
     0
  9
$DIMTVP
 40
0.0
  9
$DIMTIX
 70
     0
  9
$DIMSOXD
 70
     0
  9
$DIMSAH
 70
     0
  9
$DIMBLK1
  1

  9
$DIMBLK2
  1

  9
$DIMSTYLE
  2
*UNNAMED
  9
$DIMCLRD
 70
     0
  9
$DIMCLRE
 70
     0
  9
$DIMCLRT
 70
     0
  9
$DIMTFAC
 40
1.0
  9
$DIMGAP
 40
0.09
  9
$LUNITS
 70
     2
  9
$LUPREC
 70
     3
  9
$SKETCHINC
 40
0.1
  9
$FILLETRAD
 40
0.0
  9
$AUNITS
 70
     0
  9
$AUPREC
 70
     3
  9
$MENU
  1
acad
  9
$ELEVATION
 40
0.0
  9
$PELEVATION
 40
0.0
  9
$THICKNESS
 40
0.0
  9
$LIMCHECK
 70
     0
  9
$BLIPMODE
 70
     0
  9
$CHAMFERA
 40
0.5
  9
$CHAMFERB
 40
0.5
  9
$SKPOLY
 70
     0
  9
$TDCREATE
 40
2450086.722884953
  9
$TDUPDATE
 40
2450087.671279745
  9
$TDINDWG
 40
0.0011856481
  9
$TDUSRTIMER
 40
0.0011856481
  9
$USRTIMER
 70
     1
  9
$ANGBASE
 50
0.0
  9
$ANGDIR
 70
     0
  9
$PDMODE
 70
     2
  9
$PDSIZE
 40
0.0
  9
$PLINEWID
 40
0.0
  9
$COORDS
 70
     1
  9
$SPLFRAME
 70
     0
  9
$SPLINETYPE
 70
     6
  9
$SPLINESEGS
 70
     8
  9
$ATTDIA
 70
     0
  9
$ATTREQ
 70
     1
  9
$HANDLING
 70
     0
  9
$HANDSEED
  5
0
  9
$SURFTAB1
 70
     6
  9
$SURFTAB2
 70
     6
  9
$SURFTYPE
 70
     6
  9
$SURFU
 70
     6
  9
$SURFV
 70
     6
  9
$UCSNAME
  2

  9
$UCSORG
 10
0.0
 20
0.0
 30
0.0
  9
$UCSXDIR
 10
1.0
 20
0.0
 30
0.0
  9
$UCSYDIR
 10
0.0
 20
1.0
 30
0.0
  9
$PUCSNAME
  2

  9
$PUCSORG
 10
0.0
 20
0.0
 30
0.0
  9
$PUCSXDIR
 10
1.0
 20
0.0
 30
0.0
  9
$PUCSYDIR
 10
0.0
 20
1.0
 30
0.0
  9
$USERI1
 70
     0
  9
$USERI2
 70
     0
  9
$USERI3
 70
     0
  9
$USERI4
 70
     0
  9
$USERI5
 70
     0
  9
$USERR1
 40
0.0
  9
$USERR2
 40
0.0
  9
$USERR3
 40
0.0
  9
$USERR4
 40
0.0
  9
$USERR5
 40
0.0
  9
$WORLDVIEW
 70
     1
  9
$SHADEDGE
 70
     3
  9
$SHADEDIF
 70
    70
  9
$TILEMODE
 70
     1
  9
$MAXACTVP
 70
    16
  9
$PINSBASE
 10
10.630068
 20
50.0
 30
0.752643
  9
$PLIMCHECK
 70
     0
  9
$PEXTMIN
 10
1.000000E+20
 20
1.000000E+20
 30
1.000000E+20
  9
$PEXTMAX
 10
-1.000000E+20
 20
-1.000000E+20
 30
-1.000000E+20
  9
$PLIMMIN
 10
0.0
 20
0.0
  9
$PLIMMAX
 10
12.0
 20
9.0
  9
$UNITMODE
 70
     0
  9
$VISRETAIN
 70
     0
  9
$PLINEGEN
 70
     0
  9
$PSLTSCALE
 70
     1
  9
$TREEDEPTH
 70
  3020
  9
$DWGCODEPAGE
  3
ascii
  0
ENDSEC
  0
SECTION
  2
TABLES
  0
TABLE
  2
VPORT
 70
     2
  0
VPORT
  2
*ACTIVE
 70
     0
 10
0.0
 20
0.0
 11
1.0
 21
1.0
 12
7.701941
 22
5.693206
 13
0.0
 23
0.0
 14
1.0
 24
1.0
 15
1.0
 25
1.0
 16
0.0
 26
0.0
 36
1.0
 17
0.0
 27
0.0
 37
0.0
 40
11.386412
 41
1.387409
 42
50.0
 43
0.0
 44
0.0
 50
0.0
 51
0.0
 71
     0
 72
   100
 73
     1
 74
     1
 75
     0
 76
     0
 77
     0
 78
     0
  0
ENDTAB
  0
TABLE
  2
LTYPE
 70
     1
  0
LTYPE
  2
CONTINUOUS
 70
    64
  3
SOLID LINE
 72
    65
 73
     0
 40
0.0
  0
ENDTAB
  0
TABLE
  2
LAYER
 70
     2
  0
LAYER
  2
0
 70
    64
 62
     2
  6
CONTINUOUS
  0
LAYER
  2
1
 70
    64
 62
     4
  6
CONTINUOUS
  0
ENDTAB
  0
TABLE
  2
STYLE
 70
     3
  0
STYLE
  2
STANDARD
 70
     0
 40
0.0
 41
1.0
 50
0.0
 71
     0
 42
0.2
  3
txt
  4

  0
STYLE
  2
TEXT
 70
    64
 40
0.0
 41
1.0
 50
0.0
 71
     0
 42
1.0
  3
ROMANS.SHX
  4

  0
STYLE
  2
SIMPLEX
 70
    64
 40
0.0
 41
1.0
 50
0.0
 71
     0
 42
1.0
  3
ROMANS.SHX
  4

  0
ENDTAB
  0
TABLE
  2
VIEW
 70
     0
  0
ENDTAB
  0
TABLE
  2
UCS
 70
     0
  0
ENDTAB
  0
TABLE
  2
APPID
 70
     1
  0
APPID
  2
ACAD
 70
    64
  0
ENDTAB
  0
TABLE
  2
DIMSTYLE
 70
     0
  0
ENDTAB
  0
ENDSEC
  0
SECTION
  2
BLOCKS
  0
BLOCK
  8
0
  2
STRIP2
 70
    64
 10
0.0
 20
0.0
 30
0.0
  3
STRIP2
  0
LINE
  8
1
  6
CONTINUOUS
 62
   250
 10
0.2
 20
0.0
 30
0.0
 11
0.0
 21
0.0
 31
0.0
  0
LINE
  8
1
  6
CONTINUOUS
 62
   250
 10
0.0
 20
0.0
 30
0.0
 11
0.0
 21
-0.1
 31
0.0
  0
CIRCLE
  8
1
  6
CONTINUOUS
 62
   250
 10
0.15
 20
-0.05
 30
0.0
 40
0.01
  0
CIRCLE
  8
1
  6
CONTINUOUS
 62
   250
 10
0.05
 20
-0.05
 30
0.0
 40
0.01
  0
LINE
  8
1
  6
CONTINUOUS
 62
   250
 10
0.2
 20
-0.1
 30
0.0
 11
0.2
 21
0.0
 31
0.0
  0
ENDBLK
  8
0
  0
ENDSEC
  0
SECTION
  2
ENTITIES
  0
TEXT
  8
0
  6
CONTINUOUS
 62
   250
 10
-0.096438
 20
0.233932
 30
0.0
 40
0.01
  1
100 OHM INPUT
 41
0.9
  7
TEXT
  0
TEXT
  8
0
  6
CONTINUOUS
 62
   250
 10
-0.094737
 20
0.189399
 30
0.0
 40
0.01
  1
SPAN < 100 F
 41
0.9
  7
TEXT
  0
LINE
  8
0
  6
CONTINUOUS
 62
   250
 10
0.196865
 20
0.295297
 30
0.0
 11
-0.196865
 21
0.295297
 31
0.0
  0
LINE
  8
0
  6
CONTINUOUS
 62
   250
 10
-0.196865
 20
0.0
 30
0.0
 11
0.196865
 21
0.0
 31
0.0
  0
TEXT
  8
0
  6
CONTINUOUS
 62
   250
 10
-0.096206
 20
0.213255
 30
0.0
 40
0.01
  1
1000 OHM INPUT
 41
0.9
  7
TEXT
  0
TEXT
  8
0
  6
CONTINUOUS
 62
   250
 10
-0.095433
 20
0.167131
 30
0.0
 40
0.01
  1
SPAN > 100 F
 41
0.9
  7
TEXT
  0
LINE
  8
0
  6
CONTINUOUS
 62
   250
 10
-0.196865
 20
0.0
 30
0.0
 11
-0.196865
 21
0.295297
 31
0.0
  0
LINE
  8
0
  6
CONTINUOUS
 62
   250
 10
-0.047991
 20
0.018642
 30
0.0
 11
-0.13822
 21
0.018642
 31
0.0
  0
LINE
  8
0
  6
CONTINUOUS
 62
   250
 10
-0.13822
 20
0.084264
 30
0.0
 11
-0.047991
 21
0.084264
 31
0.0
  0
LINE
  8
0
  6
CONTINUOUS
 62
   250
 10
-0.13822
 20
0.084264
 30
0.0
 11
-0.13822
 21
0.018642
 31
0.0
  0
LINE
  8
0
  6
CONTINUOUS
 62
   250
 10
-0.047991
 20
0.084264
 30
0.0
 11
-0.047991
 21
0.018642
 31
0.0
  0
LINE
  8
0
  6
CONTINUOUS
 62
   250
 10
-0.119413
 20
0.040849
 30
0.0
 11
-0.107812
 21
0.029247
 31
0.0
  0
CIRCLE
  8
0
  6
CONTINUOUS
 62
   250
 10
-0.113612
 20
0.035048
 30
0.0
 40
0.008203
  0
TEXT
  8
0
  6
CONTINUOUS
 62
   250
 10
-0.07176
 20
0.022108
 30
0.0
 40
0.022968
  1
-
 50
90.0
 41
0.9
  7
SIMPLEX
 72
     1
 11
-0.07176
 21
0.034904
 31
0.0
  0
CIRCLE
  8
0
  6
CONTINUOUS
 62
   250
 10
-0.113612
 20
0.067859
 30
0.0
 40
0.008203
  0
LINE
  8
0
  6
CONTINUOUS
 62
   250
 10
-0.113612
 20
0.059655
 30
0.0
 11
-0.113612
 21
0.076061
 31
0.0
  0
TEXT
  8
0
  6
CONTINUOUS
 62
   250
 10
-0.072363
 20
0.052786
 30
0.0
 40
0.022968
  1
+
 50
90.0
 41
0.9
  7
SIMPLEX
 72
     1
 11
-0.072363
 21
0.065582
 31
0.0
  0
TEXT
  8
0
  6
CONTINUOUS
 62
   250
 10
-0.128471
 20
0.16625
 30
0.0
 40
0.011484
  1
4
 41
0.9
  7
SIMPLEX
 72
     1
 11
-0.123303
 21
0.16625
 31
0.0
  0
TEXT
  8
0
  6
CONTINUOUS
 62
   250
 10
-0.128324
 20
0.188091
 30
0.0
 40
0.011484
  1
3
 41
0.9
  7
SIMPLEX
 72
     1
 11
-0.123402
 21
0.188091
 31
0.0
  0
TEXT
  8
0
  6
CONTINUOUS
 62
   250
 10
-0.127856
 20
0.210511
 30
0.0
 40
0.011484
  1
2
 41
0.9
  7
SIMPLEX
 72
     1
 11
-0.122934
 21
0.210511
 31
0.0
  0
TEXT
  8
0
  6
CONTINUOUS
 62
   250
 10
-0.128188
 20
0.23409
 30
0.0
 40
0.011484
  1
1
 41
0.9
  7
SIMPLEX
 72
     1
 11
-0.124005
 21
0.23409
 31
0.0
  0
INSERT
  8
0
 62
   250
  2
STRIP2
 10
-0.176912
 20
0.250409
 30
0.0
 41
0.225997
 42
0.225997
  0
INSERT
  8
0
 62
   250
  2
STRIP2
 10
-0.176912
 20
0.205211
 30
0.0
 41
0.225997
 42
0.225997
  0
LINE
  8
0
  6
CONTINUOUS
 62
   250
 10
-0.131715
 20
0.16001
 30
0.0
 11
-0.176912
 21
0.16001
 31
0.0
  0
LINE
  8
0
  6
CONTINUOUS
 62
   250
 10
-0.131715
 20
0.18261
 30
0.0
 11
-0.176912
 21
0.18261
 31
0.0
  0
LINE
  8
0
  6
CONTINUOUS
 62
   250
 10
-0.176912
 20
0.18261
 30
0.0
 11
-0.176912
 21
0.16001
 31
0.0
  0
CIRCLE
  8
0
  6
CONTINUOUS
 62
   250
 10
-0.165613
 20
0.171309
 30
0.0
 40
0.00226
  0
LINE
  8
0
  6
CONTINUOUS
 62
   250
 10
-0.131715
 20
0.16001
 30
0.0
 11
-0.131715
 21
0.18261
 31
0.0
  0
CIRCLE
  8
0
  6
CONTINUOUS
 62
   250
 10
-0.143014
 20
0.171309
 30
0.0
 40
0.00226
  0
INSERT
  8
0
 62
   250
  2
STRIP2
 10
-0.176912
 20
0.22781
 30
0.0
 41
0.225997
 42
0.225997
  0
TEXT
  8
0
  6
CONTINUOUS
 62
   250
 10
0.09442
 20
0.162914
 30
0.0
 40
0.011484
  1
RD
 50
270.0
 41
0.9
  7
SIMPLEX
 72
     1
 11
0.09442
 21
0.152332
 31
0.0
  0
LINE
  8
0
  6
CONTINUOUS
 62
   250
 10
0.185078
 20
0.112256
 30
0.0
 11
0.185078
 21
0.178819
 31
0.0
  0
LINE
  8
0
  6
CONTINUOUS
 62
   250
 10
0.124499
 20
0.162353
 30
0.0
 11
0.124499
 21
0.145947
 31
0.0
  0
LINE
  8
0
  6
CONTINUOUS
 62
   250
 10
0.150295
 20
0.170555
 30
0.0
 11
0.150295
 21
0.06392
 31
0.0
  0
CIRCLE
  8
0
  6
CONTINUOUS
 62
   250
 10
0.124499
 20
0.154149
 30
0.0
 40
0.008203
  0
LINE
  8
0
  6
CONTINUOUS
 62
   250
 10
0.060066
 20
0.170555
 30
0.0
 11
0.060066
 21
0.06392
 31
0.0
  0
CIRCLE
  8
0
  6
CONTINUOUS
 62
   250
 10
0.124499
 20
0.080325
 30
0.0
 40
0.008203
  0
LINE
  8
0
  6
CONTINUOUS
 62
   250
 10
0.118699
 20
0.086126
 30
0.0
 11
0.130301
 21
0.074525
 31
0.0
  0
LINE
  8
0
  6
CONTINUOUS
 62
   250
 10
0.118699
 20
0.123038
 30
0.0
 11
0.130301
 21
0.111437
 31
0.0
  0
LINE
  8
0
  6
CONTINUOUS
 62
   250
 10
0.150295
 20
0.06392
 30
0.0
 11
0.060066
 21
0.06392
 31
0.0
  0
CIRCLE
  8
0
  6
CONTINUOUS
 62
   250
 10
0.124499
 20
0.117237
 30
0.0
 40
0.008203
  0
LINE
  8
0
  6
CONTINUOUS
 62
   250
 10
0.160347
 20
0.017529
 30
0.0
 11
0.115148
 21
0.017529
 31
0.0
  0
INSERT
  8
0
 62
   250
  2
STRIP2
 10
0.115148
 20
0.040129
 30
0.0
 41
0.225997
 42
0.225997
  0
TEXT
  8
0
  6
CONTINUOUS
 62
   250
 10
0.090098
 20
0.022772
 30
0.0
 40
0.011484
  1
J2
 41
0.9
  7
SIMPLEX
 72
     1
 11
0.098711
 21
0.022772
 31
0.0
  0
TEXT
  8
0
  6
CONTINUOUS
 62
   250
 10
0.094582
 20
0.097999
 30
0.0
 40
0.011484
  1
BLK
 50
270.0
 41
0.9
  7
SIMPLEX
 72
     1
 11
0.094582
 21
0.083233
 31
0.0
  0
TEXT
  8
0
  6
CONTINUOUS
 62
   250
 10
0.0955
 20
0.127782
 30
0.0
 40
0.011484
  1
WT
 50
270.0
 41
0.9
  7
SIMPLEX
 72
     1
 11
0.0955
 21
0.117692
 31
0.0
  0
LINE
  8
0
  6
CONTINUOUS
 62
   250
 10
0.196865
 20
0.105956
 30
0.0
 11
0.196865
 21
0.0
 31
0.0
  0
ARC
  8
0
  6
CONTINUOUS
 62
   250
 10
0.188228
 20
0.112256
 30
0.0
 40
0.00315
 50
180.004471
 51
269.978302
  0
LINE
  8
0
  6
CONTINUOUS
 62
   250
 10
0.188227
 20
0.109106
 30
0.0
 11
0.193715
 21
0.109106
 31
0.0
  0
ARC
  8
0
  6
CONTINUOUS
 62
   250
 10
0.193713
 20
0.105954
 30
0.0
 40
0.003152
 50
0.03386
 51
89.966141
  0
LINE
  8
0
  6
CONTINUOUS
 62
   250
 10
0.121893
 20
0.254768
 30
0.0
 11
0.180952
 21
0.254768
 31
0.0
  0
LINE
  8
0
  6
CONTINUOUS
 62
   250
 10
0.180952
 20
0.284298
 30
0.0
 11
0.121893
 21
0.284298
 31
0.0
  0
LINE
  8
0
  6
CONTINUOUS
 62
   250
 10
0.121893
 20
0.216225
 30
0.0
 11
0.180952
 21
0.216225
 31
0.0
  0
LINE
  8
0
  6
CONTINUOUS
 62
   250
 10
0.180952
 20
0.245754
 30
0.0
 11
0.121893
 21
0.245754
 31
0.0
  0
LINE
  8
0
  6
CONTINUOUS
 62
   250
 10
0.060066
 20
0.170555
 30
0.0
 11
0.150295
 21
0.170555
 31
0.0
  0
LINE
  8
0
  6
CONTINUOUS
 62
   250
 10
0.121893
 20
0.245754
 30
0.0
 11
0.121893
 21
0.216225
 31
0.0
  0
TEXT
  8
0
  6
CONTINUOUS
 62
   250
 10
0.07426
 20
0.226799
 30
0.0
 40
0.011484
  1
ZERO
 41
0.9
  7
SIMPLEX
 72
     1
 11
0.094439
 21
0.226799
 31
0.0
  0
TEXT
  8
0
  6
CONTINUOUS
 62
   250
 10
0.080497
 20
0.261984
 30
0.0
 40
0.011484
  1
GAIN
 41
0.9
  7
SIMPLEX
 72
     1
 11
0.097231
 21
0.261984
 31
0.0
  0
LINE
  8
0
  6
CONTINUOUS
 62
   250
 10
0.121893
 20
0.284298
 30
0.0
 11
0.121893
 21
0.254768
 31
0.0
  0
LINE
  8
0
  6
CONTINUOUS
 62
   250
 10
0.180952
 20
0.216225
 30
0.0
 11
0.180952
 21
0.245754
 31
0.0
  0
CIRCLE
  8
0
  6
CONTINUOUS
 62
   250
 10
0.132967
 20
0.238372
 30
0.0
 40
0.007381
  0
LINE
  8
0
  6
CONTINUOUS
 62
   250
 10
0.138186
 20
0.233151
 30
0.0
 11
0.127747
 21
0.243592
 31
0.0
  0
LINE
  8
0
  6
CONTINUOUS
 62
   250
 10
0.196865
 20
0.185119
 30
0.0
 11
0.196865
 21
0.295297
 31
0.0
  0
ARC
  8
0
  6
CONTINUOUS
 62
   250
 10
0.188228
 20
0.178818
 30
0.0
 40
0.00315
 50
90.021683
 51
179.995667
  0
ARC
  8
0
  6
CONTINUOUS
 62
   250
 10
0.193713
 20
0.185121
 30
0.0
 40
0.003152
 50
270.033875
 51
359.966125
  0
LINE
  8
0
  6
CONTINUOUS
 62
   250
 10
0.188227
 20
0.181969
 30
0.0
 11
0.193715
 21
0.181969
 31
0.0
  0
CIRCLE
  8
0
  6
CONTINUOUS
 62
   250
 10
0.132967
 20
0.276916
 30
0.0
 40
0.007381
  0
LINE
  8
0
  6
CONTINUOUS
 62
   250
 10
0.138186
 20
0.271695
 30
0.0
 11
0.127747
 21
0.282136
 31
0.0
  0
LINE
  8
0
  6
CONTINUOUS
 62
   250
 10
0.180952
 20
0.254768
 30
0.0
 11
0.180952
 21
0.284298
 31
0.0
  0
ENDSEC
  0
EOF
