  0
SECTION
  2
HEADER
  9
$ACADVER
  1
AC1009
  9
$INSBASE
 10
0.0
 20
0.0
 30
0.0
  9
$EXTMIN
 10
-0.199162
 20
-0.022369
 30
0.0
  9
$EXTMAX
 10
11.641999
 20
16.978191
 30
0.0
  9
$LIMMIN
 10
10.417473
 20
16.013084
  9
$LIMMAX
 10
11.641999
 20
16.978191
  9
$ORTHOMODE
 70
     1
  9
$REGENMODE
 70
     1
  9
$FILLMODE
 70
     1
  9
$QTEXTMODE
 70
     0
  9
$MIRRTEXT
 70
     1
  9
$DRAGMODE
 70
     2
  9
$LTSCALE
 40
1.0
  9
$OSMODE
 70
     0
  9
$ATTMODE
 70
     2
  9
$TEXTSIZE
 40
0.01502
  9
$TRACEWID
 40
0.05
  9
$TEXTSTYLE
  7
STANDARD
  9
$CLAYER
  8
0
  9
$CELTYPE
  6
BYLAYER
  9
$CECOLOR
 62
   256
  9
$DIMSCALE
 40
1.0
  9
$DIMASZ
 40
1.0
  9
$DIMEXO
 40
0.5
  9
$DIMDLI
 40
0.38
  9
$DIMRND
 40
0.0
  9
$DIMDLE
 40
0.0
  9
$DIMEXE
 40
0.5
  9
$DIMTP
 40
0.0
  9
$DIMTM
 40
0.0
  9
$DIMTXT
 40
0.18
  9
$DIMCEN
 40
0.09
  9
$DIMTSZ
 40
0.0
  9
$DIMTOL
 70
     0
  9
$DIMLIM
 70
     0
  9
$DIMTIH
 70
     1
  9
$DIMTOH
 70
     1
  9
$DIMSE1
 70
     0
  9
$DIMSE2
 70
     0
  9
$DIMTAD
 70
     0
  9
$DIMZIN
 70
     0
  9
$DIMBLK
  1

  9
$DIMASO
 70
     1
  9
$DIMSHO
 70
     1
  9
$DIMPOST
  1
"
  9
$DIMAPOST
  1

  9
$DIMALT
 70
     0
  9
$DIMALTD
 70
     2
  9
$DIMALTF
 40
25.4
  9
$DIMLFAC
 40
1.0
  9
$DIMTOFL
 70
     0
  9
$DIMTVP
 40
0.0
  9
$DIMTIX
 70
     0
  9
$DIMSOXD
 70
     0
  9
$DIMSAH
 70
     0
  9
$DIMBLK1
  1

  9
$DIMBLK2
  1

  9
$DIMSTYLE
  2
*UNNAMED
  9
$DIMCLRD
 70
     0
  9
$DIMCLRE
 70
     0
  9
$DIMCLRT
 70
     0
  9
$DIMTFAC
 40
1.0
  9
$DIMGAP
 40
0.09
  9
$LUNITS
 70
     2
  9
$LUPREC
 70
     3
  9
$SKETCHINC
 40
0.1
  9
$FILLETRAD
 40
0.0
  9
$AUNITS
 70
     0
  9
$AUPREC
 70
     3
  9
$MENU
  1
acad
  9
$ELEVATION
 40
0.0
  9
$PELEVATION
 40
0.0
  9
$THICKNESS
 40
0.0
  9
$LIMCHECK
 70
     0
  9
$BLIPMODE
 70
     0
  9
$CHAMFERA
 40
0.5
  9
$CHAMFERB
 40
0.5
  9
$SKPOLY
 70
     0
  9
$TDCREATE
 40
2450086.705412962
  9
$TDUPDATE
 40
2450086.705412962
  9
$TDINDWG
 40
0.0000000000
  9
$TDUSRTIMER
 40
0.0000000000
  9
$USRTIMER
 70
     1
  9
$ANGBASE
 50
0.0
  9
$ANGDIR
 70
     0
  9
$PDMODE
 70
     2
  9
$PDSIZE
 40
0.0
  9
$PLINEWID
 40
0.0
  9
$COORDS
 70
     1
  9
$SPLFRAME
 70
     0
  9
$SPLINETYPE
 70
     6
  9
$SPLINESEGS
 70
     8
  9
$ATTDIA
 70
     0
  9
$ATTREQ
 70
     1
  9
$HANDLING
 70
     0
  9
$HANDSEED
  5
0
  9
$SURFTAB1
 70
     6
  9
$SURFTAB2
 70
     6
  9
$SURFTYPE
 70
     6
  9
$SURFU
 70
     6
  9
$SURFV
 70
     6
  9
$UCSNAME
  2

  9
$UCSORG
 10
0.0
 20
0.0
 30
0.0
  9
$UCSXDIR
 10
1.0
 20
0.0
 30
0.0
  9
$UCSYDIR
 10
0.0
 20
1.0
 30
0.0
  9
$PUCSNAME
  2

  9
$PUCSORG
 10
0.0
 20
0.0
 30
0.0
  9
$PUCSXDIR
 10
1.0
 20
0.0
 30
0.0
  9
$PUCSYDIR
 10
0.0
 20
1.0
 30
0.0
  9
$USERI1
 70
     0
  9
$USERI2
 70
     0
  9
$USERI3
 70
     0
  9
$USERI4
 70
     0
  9
$USERI5
 70
     0
  9
$USERR1
 40
0.0
  9
$USERR2
 40
0.0
  9
$USERR3
 40
0.0
  9
$USERR4
 40
0.0
  9
$USERR5
 40
0.0
  9
$WORLDVIEW
 70
     1
  9
$SHADEDGE
 70
     3
  9
$SHADEDIF
 70
    70
  9
$TILEMODE
 70
     1
  9
$MAXACTVP
 70
    16
  9
$PINSBASE
 10
-0.281274
 20
50.0
 30
0.990999
  9
$PLIMCHECK
 70
     0
  9
$PEXTMIN
 10
1.000000E+20
 20
1.000000E+20
 30
1.000000E+20
  9
$PEXTMAX
 10
-1.000000E+20
 20
-1.000000E+20
 30
-1.000000E+20
  9
$PLIMMIN
 10
0.0
 20
0.0
  9
$PLIMMAX
 10
12.0
 20
9.0
  9
$UNITMODE
 70
     0
  9
$VISRETAIN
 70
     0
  9
$PLINEGEN
 70
     0
  9
$PSLTSCALE
 70
     1
  9
$TREEDEPTH
 70
  3020
  9
$DWGCODEPAGE
  3
ascii
  0
ENDSEC
  0
SECTION
  2
TABLES
  0
TABLE
  2
VPORT
 70
     1
  0
VPORT
  2
*ACTIVE
 70
     0
 10
0.0
 20
0.0
 11
1.0
 21
1.0
 12
0.386648
 22
0.292623
 13
0.0
 23
0.0
 14
1.0
 24
1.0
 15
1.0
 25
1.0
 16
0.0
 26
0.0
 36
1.0
 17
0.0
 27
0.0
 37
0.0
 40
2.487887
 41
1.387409
 42
50.0
 43
0.0
 44
0.0
 50
0.0
 51
0.0
 71
     0
 72
   100
 73
     1
 74
     1
 75
     0
 76
     0
 77
     0
 78
     0
  0
ENDTAB
  0
TABLE
  2
LTYPE
 70
     1
  0
LTYPE
  2
CONTINUOUS
 70
    64
  3
SOLID LINE
 72
    65
 73
     0
 40
0.0
  0
ENDTAB
  0
TABLE
  2
LAYER
 70
     1
  0
LAYER
  2
0
 70
    64
 62
     4
  6
CONTINUOUS
  0
ENDTAB
  0
TABLE
  2
STYLE
 70
     1
  0
STYLE
  2
STANDARD
 70
     0
 40
0.0
 41
1.0
 50
0.0
 71
     0
 42
0.2
  3
txt
  4

  0
ENDTAB
  0
TABLE
  2
VIEW
 70
     0
  0
ENDTAB
  0
TABLE
  2
UCS
 70
     0
  0
ENDTAB
  0
TABLE
  2
APPID
 70
     1
  0
APPID
  2
ACAD
 70
    64
  0
ENDTAB
  0
TABLE
  2
DIMSTYLE
 70
     0
  0
ENDTAB
  0
ENDSEC
  0
SECTION
  2
BLOCKS
  0
ENDSEC
  0
SECTION
  2
ENTITIES
  0
LINE
  8
0
  6
CONTINUOUS
 62
   250
 10
-0.157233
 20
0.0
 30
0.0
 11
-0.157233
 21
0.838575
 31
0.0
  0
LINE
  8
0
  6
CONTINUOUS
 62
   250
 10
-0.157233
 20
0.838575
 30
0.0
 11
0.157232
 21
0.838575
 31
0.0
  0
LINE
  8
0
  6
CONTINUOUS
 62
   250
 10
0.157232
 20
0.838575
 30
0.0
 11
0.157232
 21
0.0
 31
0.0
  0
LINE
  8
0
  6
CONTINUOUS
 62
   250
 10
0.157232
 20
0.0
 30
0.0
 11
-0.157233
 21
0.0
 31
0.0
  0
LINE
  8
0
  6
CONTINUOUS
 62
   250
 10
-0.157233
 20
0.0
 30
0.0
 11
-0.157233
 21
-0.020965
 31
0.0
  0
LINE
  8
0
  6
CONTINUOUS
 62
   250
 10
-0.157233
 20
-0.020965
 30
0.0
 11
-0.199162
 21
0.0
 31
0.0
  0
LINE
  8
0
  6
CONTINUOUS
 62
   250
 10
-0.199162
 20
0.0
 30
0.0
 11
-0.199162
 21
0.838575
 31
0.0
  0
LINE
  8
0
  6
CONTINUOUS
 62
   250
 10
-0.199162
 20
0.838575
 30
0.0
 11
-0.157233
 21
0.85954
 31
0.0
  0
LINE
  8
0
  6
CONTINUOUS
 62
   250
 10
-0.157233
 20
0.85954
 30
0.0
 11
-0.157233
 21
0.838575
 31
0.0
  0
ARC
  8
0
  6
CONTINUOUS
 62
   250
 10
0.0
 20
0.67086
 30
0.0
 40
0.081
 50
15.000178
 51
344.999725
  0
ARC
  8
0
  6
CONTINUOUS
 62
   250
 10
0.0
 20
0.419288
 30
0.0
 40
0.081
 50
15.000239
 51
344.999817
  0
ARC
  8
0
  6
CONTINUOUS
 62
   250
 10
0.0
 20
0.14675
 30
0.0
 40
0.081
 50
15.000219
 51
344.999786
  0
ARC
  8
0
  6
CONTINUOUS
 62
   250
 10
0.564147
 20
0.417884
 30
0.0
 40
0.440253
 50
202.440796
 51
157.559219
  0
LINE
  8
0
  6
CONTINUOUS
 62
   250
 10
0.96247
 20
0.669457
 30
0.0
 11
1.025364
 21
0.690422
 31
0.0
  0
LINE
  8
0
  6
CONTINUOUS
 62
   250
 10
1.025364
 20
0.690422
 30
0.0
 11
1.025364
 21
0.77428
 31
0.0
  0
LINE
  8
0
  6
CONTINUOUS
 62
   250
 10
1.025364
 20
0.77428
 30
0.0
 11
0.836684
 21
0.816208
 31
0.0
  0
LINE
  8
0
  6
CONTINUOUS
 62
   250
 10
0.836684
 20
0.816208
 30
0.0
 11
0.817534
 21
0.777908
 31
0.0
  0
LINE
  8
0
  6
CONTINUOUS
 62
   250
 10
0.836684
 20
0.816208
 30
0.0
 11
0.752827
 21
0.92103
 31
0.0
  0
LINE
  8
0
  6
CONTINUOUS
 62
   250
 10
0.96247
 20
0.669457
 30
0.0
 11
0.902662
 21
0.699362
 31
0.0
  0
CIRCLE
  8
0
  6
CONTINUOUS
 62
   250
 10
0.96247
 20
0.732351
 30
0.0
 40
0.031446
  0
LINE
  8
0
  6
CONTINUOUS
 62
   250
 10
0.779931
 20
0.883444
 30
0.0
 11
0.850162
 21
0.813213
 31
0.0
  0
LINE
  8
0
  6
CONTINUOUS
 62
   250
 10
0.809579
 20
0.853795
 30
0.0
 11
0.824403
 21
0.86862
 31
0.0
  0
LINE
  8
0
  6
CONTINUOUS
 62
   250
 10
0.854052
 20
0.898268
 30
0.0
 11
0.868876
 21
0.913092
 31
0.0
  0
LINE
  8
0
  6
CONTINUOUS
 62
   250
 10
1.002637
 20
0.779329
 30
0.0
 11
0.839228
 21
0.942739
 31
0.0
  0
LINE
  8
0
  6
CONTINUOUS
 62
   250
 10
0.839228
 20
0.942739
 30
0.0
 11
0.779931
 21
0.883444
 31
0.0
  0
LINE
  8
0
  6
CONTINUOUS
 62
   250
 10
0.824403
 20
0.86862
 30
0.0
 11
0.854052
 21
0.898268
 31
0.0
  0
LINE
  8
0
  6
CONTINUOUS
 62
   250
 10
0.824403
 20
0.927916
 30
0.0
 11
0.809579
 21
0.942739
 31
0.0
  0
LINE
  8
0
  6
CONTINUOUS
 62
   250
 10
0.809579
 20
0.942739
 30
0.0
 11
0.779931
 21
0.913092
 31
0.0
  0
LINE
  8
0
  6
CONTINUOUS
 62
   250
 10
0.779931
 20
0.913092
 30
0.0
 11
0.794755
 21
0.898268
 31
0.0
  0
LINE
  8
0
  6
CONTINUOUS
 62
   250
 10
0.928171
 20
0.853795
 30
0.0
 11
0.809579
 21
0.853795
 31
0.0
  0
LINE
  8
0
  6
CONTINUOUS
 62
   250
 10
0.824403
 20
0.86862
 30
0.0
 11
0.913347
 21
0.86862
 31
0.0
  0
LINE
  8
0
  6
CONTINUOUS
 62
   250
 10
0.898523
 20
0.883444
 30
0.0
 11
0.839228
 21
0.883444
 31
0.0
  0
LINE
  8
0
  6
CONTINUOUS
 62
   250
 10
0.824244
 20
0.83913
 30
0.0
 11
0.942837
 21
0.83913
 31
0.0
  0
LINE
  8
0
  6
CONTINUOUS
 62
   250
 10
0.92802
 20
0.795912
 30
0.0
 11
0.985316
 21
0.795912
 31
0.0
  0
LINE
  8
0
  6
CONTINUOUS
 62
   250
 10
0.837975
 20
0.8254
 30
0.0
 11
0.955828
 21
0.8254
 31
0.0
  0
LINE
  8
0
  6
CONTINUOUS
 62
   250
 10
0.970652
 20
0.810576
 30
0.0
 11
0.862028
 21
0.810576
 31
0.0
  0
LINE
  8
0
  6
CONTINUOUS
 62
   250
 10
0.794755
 20
0.927916
 30
0.0
 11
0.809579
 21
0.913092
 31
0.0
  0
LINE
  8
0
  6
CONTINUOUS
 62
   250
 10
0.157232
 20
0.576521
 30
0.0
 11
0.157232
 21
0.262054
 31
0.0
  0
LINE
  8
0
  6
CONTINUOUS
 62
   250
 10
0.157232
 20
0.576521
 30
0.0
 11
0.345912
 21
0.576521
 31
0.0
  0
LINE
  8
0
  6
CONTINUOUS
 62
   250
 10
0.345912
 20
0.576521
 30
0.0
 11
0.345912
 21
0.262054
 31
0.0
  0
LINE
  8
0
  6
CONTINUOUS
 62
   250
 10
0.345912
 20
0.262054
 30
0.0
 11
0.157232
 21
0.262054
 31
0.0
  0
LINE
  8
0
  6
CONTINUOUS
 62
   250
 10
0.157232
 20
0.262054
 30
0.0
 11
0.157232
 21
0.576521
 31
0.0
  0
LINE
  8
0
  6
CONTINUOUS
 62
   250
 10
0.345912
 20
0.576521
 30
0.0
 11
0.366877
 21
0.576521
 31
0.0
  0
LINE
  8
0
  6
CONTINUOUS
 62
   250
 10
0.366877
 20
0.576521
 30
0.0
 11
0.366877
 21
0.262054
 31
0.0
  0
LINE
  8
0
  6
CONTINUOUS
 62
   250
 10
0.366877
 20
0.262054
 30
0.0
 11
0.366877
 21
0.576521
 31
0.0
  0
LINE
  8
0
  6
CONTINUOUS
 62
   250
 10
0.366877
 20
0.262054
 30
0.0
 11
0.345912
 21
0.262054
 31
0.0
  0
LINE
  8
0
  6
CONTINUOUS
 62
   250
 10
0.157232
 20
0.411183
 30
0.0
 11
0.32257
 21
0.576521
 31
0.0
  0
LINE
  8
0
  6
CONTINUOUS
 62
   250
 10
0.157232
 20
0.522364
 30
0.0
 11
0.21139
 21
0.576521
 31
0.0
  0
LINE
  8
0
  6
CONTINUOUS
 62
   250
 10
0.157232
 20
0.300002
 30
0.0
 11
0.345912
 21
0.488682
 31
0.0
  0
LINE
  8
0
  6
CONTINUOUS
 62
   250
 10
0.230465
 20
0.262054
 30
0.0
 11
0.345912
 21
0.377501
 31
0.0
  0
LINE
  8
0
  6
CONTINUOUS
 62
   250
 10
0.341646
 20
0.262054
 30
0.0
 11
0.345912
 21
0.266321
 31
0.0
  0
LINE
  8
0
  6
CONTINUOUS
 62
   250
 10
0.157232
 20
0.392653
 30
0.0
 11
0.341101
 21
0.576521
 31
0.0
  0
LINE
  8
0
  6
CONTINUOUS
 62
   250
 10
0.157232
 20
0.503834
 30
0.0
 11
0.22992
 21
0.576521
 31
0.0
  0
LINE
  8
0
  6
CONTINUOUS
 62
   250
 10
0.157232
 20
0.281472
 30
0.0
 11
0.345912
 21
0.470152
 31
0.0
  0
LINE
  8
0
  6
CONTINUOUS
 62
   250
 10
0.248995
 20
0.262054
 30
0.0
 11
0.345912
 21
0.358972
 31
0.0
  0
LINE
  8
0
  6
CONTINUOUS
 62
   250
 10
0.157232
 20
0.374123
 30
0.0
 11
0.345912
 21
0.562802
 31
0.0
  0
LINE
  8
0
  6
CONTINUOUS
 62
   250
 10
0.157232
 20
0.485304
 30
0.0
 11
0.248449
 21
0.576521
 31
0.0
  0
LINE
  8
0
  6
CONTINUOUS
 62
   250
 10
0.157232
 20
0.262942
 30
0.0
 11
0.345912
 21
0.451622
 31
0.0
  0
LINE
  8
0
  6
CONTINUOUS
 62
   250
 10
0.267526
 20
0.262054
 30
0.0
 11
0.345912
 21
0.340441
 31
0.0
  0
LINE
  8
0
  6
CONTINUOUS
 62
   250
 10
0.157232
 20
0.355593
 30
0.0
 11
0.345912
 21
0.544272
 31
0.0
  0
LINE
  8
0
  6
CONTINUOUS
 62
   250
 10
0.157232
 20
0.466773
 30
0.0
 11
0.26698
 21
0.576521
 31
0.0
  0
LINE
  8
0
  6
CONTINUOUS
 62
   250
 10
0.174875
 20
0.262054
 30
0.0
 11
0.345912
 21
0.433092
 31
0.0
  0
LINE
  8
0
  6
CONTINUOUS
 62
   250
 10
0.286056
 20
0.262054
 30
0.0
 11
0.345912
 21
0.321912
 31
0.0
  0
ENDSEC
  0
EOF
