  0
SECTION
  2
HEADER
  9
$ACADVER
  1
AC1009
  9
$INSBASE
 10
0.0
 20
0.0
 30
0.0
  9
$EXTMIN
 10
-0.229156
 20
-0.001883
 30
0.0
  9
$EXTMAX
 10
0.229155
 20
0.365519
 30
0.0
  9
$LIMMIN
 10
0.0
 20
0.0
  9
$LIMMAX
 10
12.0
 20
9.0
  9
$ORTHOMODE
 70
     1
  9
$REGENMODE
 70
     1
  9
$FILLMODE
 70
     1
  9
$QTEXTMODE
 70
     0
  9
$MIRRTEXT
 70
     1
  9
$DRAGMODE
 70
     2
  9
$LTSCALE
 40
1.0
  9
$OSMODE
 70
     0
  9
$ATTMODE
 70
     1
  9
$TEXTSIZE
 40
0.2
  9
$TRACEWID
 40
0.05
  9
$TEXTSTYLE
  7
STANDARD
  9
$CLAYER
  8
0
  9
$CELTYPE
  6
BYLAYER
  9
$CECOLOR
 62
   256
  9
$DIMSCALE
 40
1.0
  9
$DIMASZ
 40
0.18
  9
$DIMEXO
 40
0.0625
  9
$DIMDLI
 40
0.38
  9
$DIMRND
 40
0.0
  9
$DIMDLE
 40
0.0
  9
$DIMEXE
 40
0.18
  9
$DIMTP
 40
0.0
  9
$DIMTM
 40
0.0
  9
$DIMTXT
 40
0.18
  9
$DIMCEN
 40
0.09
  9
$DIMTSZ
 40
0.0
  9
$DIMTOL
 70
     0
  9
$DIMLIM
 70
     0
  9
$DIMTIH
 70
     1
  9
$DIMTOH
 70
     1
  9
$DIMSE1
 70
     0
  9
$DIMSE2
 70
     0
  9
$DIMTAD
 70
     0
  9
$DIMZIN
 70
     0
  9
$DIMBLK
  1

  9
$DIMASO
 70
     1
  9
$DIMSHO
 70
     1
  9
$DIMPOST
  1

  9
$DIMAPOST
  1

  9
$DIMALT
 70
     0
  9
$DIMALTD
 70
     2
  9
$DIMALTF
 40
25.4
  9
$DIMLFAC
 40
1.0
  9
$DIMTOFL
 70
     0
  9
$DIMTVP
 40
0.0
  9
$DIMTIX
 70
     0
  9
$DIMSOXD
 70
     0
  9
$DIMSAH
 70
     0
  9
$DIMBLK1
  1

  9
$DIMBLK2
  1

  9
$DIMSTYLE
  2
*UNNAMED
  9
$DIMCLRD
 70
     0
  9
$DIMCLRE
 70
     0
  9
$DIMCLRT
 70
     0
  9
$DIMTFAC
 40
1.0
  9
$DIMGAP
 40
0.09
  9
$LUNITS
 70
     2
  9
$LUPREC
 70
     4
  9
$SKETCHINC
 40
0.1
  9
$FILLETRAD
 40
0.0
  9
$AUNITS
 70
     0
  9
$AUPREC
 70
     0
  9
$MENU
  1
acad
  9
$ELEVATION
 40
0.0
  9
$PELEVATION
 40
0.0
  9
$THICKNESS
 40
0.0
  9
$LIMCHECK
 70
     0
  9
$BLIPMODE
 70
     0
  9
$CHAMFERA
 40
0.0
  9
$CHAMFERB
 40
0.0
  9
$SKPOLY
 70
     0
  9
$TDCREATE
 40
2450619.757629745
  9
$TDUPDATE
 40
2450619.757629745
  9
$TDINDWG
 40
0.0000000000
  9
$TDUSRTIMER
 40
0.0000000000
  9
$USRTIMER
 70
     1
  9
$ANGBASE
 50
0.0
  9
$ANGDIR
 70
     0
  9
$PDMODE
 70
     0
  9
$PDSIZE
 40
0.0
  9
$PLINEWID
 40
0.0
  9
$COORDS
 70
     1
  9
$SPLFRAME
 70
     0
  9
$SPLINETYPE
 70
     6
  9
$SPLINESEGS
 70
     8
  9
$ATTDIA
 70
     0
  9
$ATTREQ
 70
     1
  9
$HANDLING
 70
     0
  9
$HANDSEED
  5
0
  9
$SURFTAB1
 70
     6
  9
$SURFTAB2
 70
     6
  9
$SURFTYPE
 70
     6
  9
$SURFU
 70
     6
  9
$SURFV
 70
     6
  9
$UCSNAME
  2

  9
$UCSORG
 10
0.0
 20
0.0
 30
0.0
  9
$UCSXDIR
 10
1.0
 20
0.0
 30
0.0
  9
$UCSYDIR
 10
0.0
 20
1.0
 30
0.0
  9
$PUCSNAME
  2

  9
$PUCSORG
 10
0.0
 20
0.0
 30
0.0
  9
$PUCSXDIR
 10
1.0
 20
0.0
 30
0.0
  9
$PUCSYDIR
 10
0.0
 20
1.0
 30
0.0
  9
$USERI1
 70
     0
  9
$USERI2
 70
     0
  9
$USERI3
 70
     0
  9
$USERI4
 70
     0
  9
$USERI5
 70
     0
  9
$USERR1
 40
0.0
  9
$USERR2
 40
0.0
  9
$USERR3
 40
0.0
  9
$USERR4
 40
0.0
  9
$USERR5
 40
0.0
  9
$WORLDVIEW
 70
     1
  9
$SHADEDGE
 70
     3
  9
$SHADEDIF
 70
    70
  9
$TILEMODE
 70
     1
  9
$MAXACTVP
 70
    16
  9
$PINSBASE
 10
-0.174046
 20
50.0
 30
0.020375
  9
$PLIMCHECK
 70
     0
  9
$PEXTMIN
 10
1.000000E+20
 20
1.000000E+20
 30
1.000000E+20
  9
$PEXTMAX
 10
-1.000000E+20
 20
-1.000000E+20
 30
-1.000000E+20
  9
$PLIMMIN
 10
0.0
 20
0.0
  9
$PLIMMAX
 10
12.0
 20
9.0
  9
$UNITMODE
 70
     0
  9
$VISRETAIN
 70
     0
  9
$PLINEGEN
 70
     0
  9
$PSLTSCALE
 70
     1
  9
$TREEDEPTH
 70
  3020
  9
$DWGCODEPAGE
  3
ascii
  0
ENDSEC
  0
SECTION
  2
TABLES
  0
TABLE
  2
VPORT
 70
     2
  0
VPORT
  2
*ACTIVE
 70
     0
 10
0.0
 20
0.0
 11
1.0
 21
1.0
 12
6.015492
 22
4.499059
 13
0.0
 23
0.0
 14
1.0
 24
1.0
 15
0.0
 25
0.0
 16
0.0
 26
0.0
 36
1.0
 17
0.0
 27
0.0
 37
0.0
 40
9.001883
 41
1.387409
 42
50.0
 43
0.0
 44
0.0
 50
0.0
 51
0.0
 71
     0
 72
   100
 73
     1
 74
     1
 75
     0
 76
     0
 77
     0
 78
     0
  0
ENDTAB
  0
TABLE
  2
LTYPE
 70
     1
  0
LTYPE
  2
CONTINUOUS
 70
    64
  3
Solid line
 72
    65
 73
     0
 40
0.0
  0
ENDTAB
  0
TABLE
  2
LAYER
 70
     1
  0
LAYER
  2
0
 70
    64
 62
     4
  6
CONTINUOUS
  0
ENDTAB
  0
TABLE
  2
STYLE
 70
     1
  0
STYLE
  2
STANDARD
 70
     0
 40
0.0
 41
1.0
 50
0.0
 71
     0
 42
0.2
  3
txt
  4

  0
ENDTAB
  0
TABLE
  2
VIEW
 70
     0
  0
ENDTAB
  0
TABLE
  2
UCS
 70
     0
  0
ENDTAB
  0
TABLE
  2
APPID
 70
     1
  0
APPID
  2
ACAD
 70
    64
  0
ENDTAB
  0
TABLE
  2
DIMSTYLE
 70
     0
  0
ENDTAB
  0
ENDSEC
  0
SECTION
  2
BLOCKS
  0
ENDSEC
  0
SECTION
  2
ENTITIES
  0
LINE
  8
0
  6
CONTINUOUS
 62
   250
 10
0.145454
 20
0.00909
 30
0.0
 11
0.206818
 21
0.00909
 31
0.0
  0
LINE
  8
0
  6
CONTINUOUS
 62
   250
 10
0.145454
 20
0.354546
 30
0.0
 11
0.206818
 21
0.354546
 31
0.0
  0
LINE
  8
0
  6
CONTINUOUS
 62
   250
 10
-0.218182
 20
0.0
 30
0.0
 11
0.218182
 21
0.0
 31
0.0
  0
LINE
  8
0
  6
CONTINUOUS
 62
   250
 10
0.218182
 20
0.363636
 30
0.0
 11
-0.218182
 21
0.363636
 31
0.0
  0
LINE
  8
0
  6
CONTINUOUS
 62
   250
 10
-0.215909
 20
0.263637
 30
0.0
 11
-0.215909
 21
0.281818
 31
0.0
  0
LINE
  8
0
  6
CONTINUOUS
 62
   250
 10
-0.036364
 20
0.254546
 30
0.0
 11
-0.036364
 21
0.363636
 31
0.0
  0
LINE
  8
0
  6
CONTINUOUS
 62
   250
 10
-0.145454
 20
0.363636
 30
0.0
 11
-0.145454
 21
0.254546
 31
0.0
  0
LINE
  8
0
  6
CONTINUOUS
 62
   250
 10
0.127273
 20
0.254546
 30
0.0
 11
0.127273
 21
0.363636
 31
0.0
  0
LINE
  8
0
  6
CONTINUOUS
 62
   250
 10
0.145454
 20
0.363636
 30
0.0
 11
0.145454
 21
0.254546
 31
0.0
  0
LINE
  8
0
  6
CONTINUOUS
 62
   250
 10
0.109091
 20
0.363636
 30
0.0
 11
0.109091
 21
0.254546
 31
0.0
  0
LINE
  8
0
  6
CONTINUOUS
 62
   250
 10
0.090909
 20
0.254546
 30
0.0
 11
0.090909
 21
0.363636
 31
0.0
  0
LINE
  8
0
  6
CONTINUOUS
 62
   250
 10
0.072727
 20
0.363636
 30
0.0
 11
0.072727
 21
0.254546
 31
0.0
  0
LINE
  8
0
  6
CONTINUOUS
 62
   250
 10
0.054545
 20
0.254546
 30
0.0
 11
0.054545
 21
0.363636
 31
0.0
  0
LINE
  8
0
  6
CONTINUOUS
 62
   250
 10
0.036364
 20
0.363636
 30
0.0
 11
0.036364
 21
0.254546
 31
0.0
  0
LINE
  8
0
  6
CONTINUOUS
 62
   250
 10
0.018182
 20
0.254546
 30
0.0
 11
0.018182
 21
0.363636
 31
0.0
  0
LINE
  8
0
  6
CONTINUOUS
 62
   250
 10
-0.018182
 20
0.254546
 30
0.0
 11
-0.018182
 21
0.363636
 31
0.0
  0
LINE
  8
0
  6
CONTINUOUS
 62
   250
 10
0.0
 20
0.363636
 30
0.0
 11
0.0
 21
0.254546
 31
0.0
  0
LINE
  8
0
  6
CONTINUOUS
 62
   250
 10
-0.227273
 20
0.00909
 30
0.0
 11
-0.227273
 21
0.354546
 31
0.0
  0
LINE
  8
0
  6
CONTINUOUS
 62
   250
 10
-0.145454
 20
0.254546
 30
0.0
 11
-0.036364
 21
0.254546
 31
0.0
  0
LINE
  8
0
  6
CONTINUOUS
 62
   250
 10
-0.145454
 20
0.109091
 30
0.0
 11
-0.036364
 21
0.109091
 31
0.0
  0
LINE
  8
0
  6
CONTINUOUS
 62
   250
 10
-0.206818
 20
0.00909
 30
0.0
 11
-0.018182
 21
0.00909
 31
0.0
  0
LINE
  8
0
  6
CONTINUOUS
 62
   250
 10
-0.145454
 20
0.0
 30
0.0
 11
-0.145454
 21
0.109091
 31
0.0
  0
LINE
  8
0
  6
CONTINUOUS
 62
   250
 10
-0.227273
 20
0.099999
 30
0.0
 11
-0.227273
 21
0.118182
 31
0.0
  0
LINE
  8
0
  6
CONTINUOUS
 62
   250
 10
-0.190909
 20
0.118182
 30
0.0
 11
-0.190909
 21
0.099999
 31
0.0
  0
LINE
  8
0
  6
CONTINUOUS
 62
   250
 10
-0.190909
 20
0.099999
 30
0.0
 11
-0.227273
 21
0.099999
 31
0.0
  0
LINE
  8
0
  6
CONTINUOUS
 62
   250
 10
-0.227273
 20
0.081819
 30
0.0
 11
-0.190909
 21
0.081819
 31
0.0
  0
LINE
  8
0
  6
CONTINUOUS
 62
   250
 10
-0.190909
 20
0.063636
 30
0.0
 11
-0.227273
 21
0.063636
 31
0.0
  0
LINE
  8
0
  6
CONTINUOUS
 62
   250
 10
-0.190909
 20
0.027273
 30
0.0
 11
-0.227273
 21
0.027273
 31
0.0
  0
LINE
  8
0
  6
CONTINUOUS
 62
   250
 10
-0.227273
 20
0.045455
 30
0.0
 11
-0.190909
 21
0.045455
 31
0.0
  0
LINE
  8
0
  6
CONTINUOUS
 62
   250
 10
-0.215909
 20
0.045455
 30
0.0
 11
-0.215909
 21
0.063636
 31
0.0
  0
LINE
  8
0
  6
CONTINUOUS
 62
   250
 10
-0.215909
 20
0.081819
 30
0.0
 11
-0.215909
 21
0.099999
 31
0.0
  0
LINE
  8
0
  6
CONTINUOUS
 62
   250
 10
-0.215909
 20
0.018182
 30
0.0
 11
-0.215909
 21
0.027273
 31
0.0
  0
LINE
  8
0
  6
CONTINUOUS
 62
   250
 10
-0.224609
 20
0.002663
 30
0.0
 11
-0.213246
 21
0.011753
 31
0.0
  0
ARC
  8
0
  6
CONTINUOUS
 62
   250
 10
-0.206818
 20
0.018181
 30
0.0
 40
0.009091
 50
179.996933
 51
270.002991
  0
ARC
  8
0
  6
CONTINUOUS
 62
   250
 10
-0.218182
 20
0.009091
 30
0.0
 40
0.009091
 50
180.002914
 51
270.003204
  0
LINE
  8
0
  6
CONTINUOUS
 62
   250
 10
-0.227273
 20
0.063636
 30
0.0
 11
-0.227273
 21
0.081819
 31
0.0
  0
LINE
  8
0
  6
CONTINUOUS
 62
   250
 10
-0.227273
 20
0.027273
 30
0.0
 11
-0.227273
 21
0.045455
 31
0.0
  0
LINE
  8
0
  6
CONTINUOUS
 62
   250
 10
-0.190909
 20
0.081819
 30
0.0
 11
-0.190909
 21
0.063636
 31
0.0
  0
LINE
  8
0
  6
CONTINUOUS
 62
   250
 10
-0.190909
 20
0.045455
 30
0.0
 11
-0.190909
 21
0.027273
 31
0.0
  0
LINE
  8
0
  6
CONTINUOUS
 62
   250
 10
-0.227273
 20
0.118182
 30
0.0
 11
-0.190909
 21
0.118182
 31
0.0
  0
LINE
  8
0
  6
CONTINUOUS
 62
   250
 10
-0.190909
 20
0.245454
 30
0.0
 11
-0.227273
 21
0.245454
 31
0.0
  0
LINE
  8
0
  6
CONTINUOUS
 62
   250
 10
-0.227273
 20
0.263637
 30
0.0
 11
-0.190909
 21
0.263637
 31
0.0
  0
LINE
  8
0
  6
CONTINUOUS
 62
   250
 10
-0.215909
 20
0.118182
 30
0.0
 11
-0.215909
 21
0.245454
 31
0.0
  0
LINE
  8
0
  6
CONTINUOUS
 62
   250
 10
-0.227273
 20
0.245454
 30
0.0
 11
-0.227273
 21
0.263637
 31
0.0
  0
LINE
  8
0
  6
CONTINUOUS
 62
   250
 10
-0.190909
 20
0.263637
 30
0.0
 11
-0.190909
 21
0.245454
 31
0.0
  0
LINE
  8
0
  6
CONTINUOUS
 62
   250
 10
0.127273
 20
0.0
 30
0.0
 11
0.127273
 21
0.109091
 31
0.0
  0
LINE
  8
0
  6
CONTINUOUS
 62
   250
 10
0.090909
 20
0.0
 30
0.0
 11
0.090909
 21
0.109091
 31
0.0
  0
LINE
  8
0
  6
CONTINUOUS
 62
   250
 10
0.054545
 20
0.0
 30
0.0
 11
0.054545
 21
0.109091
 31
0.0
  0
LINE
  8
0
  6
CONTINUOUS
 62
   250
 10
0.018182
 20
0.0
 30
0.0
 11
0.018182
 21
0.109091
 31
0.0
  0
LINE
  8
0
  6
CONTINUOUS
 62
   250
 10
-0.018182
 20
0.0
 30
0.0
 11
-0.018182
 21
0.109091
 31
0.0
  0
LINE
  8
0
  6
CONTINUOUS
 62
   250
 10
-0.036364
 20
0.109091
 30
0.0
 11
-0.036364
 21
0.0
 31
0.0
  0
LINE
  8
0
  6
CONTINUOUS
 62
   250
 10
0.0
 20
0.109091
 30
0.0
 11
0.0
 21
0.0
 31
0.0
  0
LINE
  8
0
  6
CONTINUOUS
 62
   250
 10
0.036364
 20
0.109091
 30
0.0
 11
0.036364
 21
0.0
 31
0.0
  0
LINE
  8
0
  6
CONTINUOUS
 62
   250
 10
0.072727
 20
0.109091
 30
0.0
 11
0.072727
 21
0.0
 31
0.0
  0
LINE
  8
0
  6
CONTINUOUS
 62
   250
 10
0.109091
 20
0.109091
 30
0.0
 11
0.109091
 21
0.0
 31
0.0
  0
LINE
  8
0
  6
CONTINUOUS
 62
   250
 10
0.145454
 20
0.109091
 30
0.0
 11
0.145454
 21
0.0
 31
0.0
  0
LINE
  8
0
  6
CONTINUOUS
 62
   250
 10
0.036364
 20
0.0
 30
0.0
 11
0.018182
 21
0.0
 31
0.0
  0
LINE
  8
0
  6
CONTINUOUS
 62
   250
 10
0.0
 20
0.00909
 30
0.0
 11
0.018182
 21
0.00909
 31
0.0
  0
LINE
  8
0
  6
CONTINUOUS
 62
   250
 10
0.0
 20
0.0
 30
0.0
 11
-0.018182
 21
0.0
 31
0.0
  0
LINE
  8
0
  6
CONTINUOUS
 62
   250
 10
0.036364
 20
0.00909
 30
0.0
 11
0.054545
 21
0.00909
 31
0.0
  0
LINE
  8
0
  6
CONTINUOUS
 62
   250
 10
0.072727
 20
0.00909
 30
0.0
 11
0.090909
 21
0.00909
 31
0.0
  0
LINE
  8
0
  6
CONTINUOUS
 62
   250
 10
0.109091
 20
0.00909
 30
0.0
 11
0.127273
 21
0.00909
 31
0.0
  0
LINE
  8
0
  6
CONTINUOUS
 62
   250
 10
0.072727
 20
0.0
 30
0.0
 11
0.054545
 21
0.0
 31
0.0
  0
LINE
  8
0
  6
CONTINUOUS
 62
   250
 10
0.109091
 20
0.0
 30
0.0
 11
0.090909
 21
0.0
 31
0.0
  0
LINE
  8
0
  6
CONTINUOUS
 62
   250
 10
0.145454
 20
0.0
 30
0.0
 11
0.127273
 21
0.0
 31
0.0
  0
LINE
  8
0
  6
CONTINUOUS
 62
   250
 10
0.018182
 20
0.109091
 30
0.0
 11
0.036364
 21
0.109091
 31
0.0
  0
LINE
  8
0
  6
CONTINUOUS
 62
   250
 10
0.036364
 20
0.254546
 30
0.0
 11
0.018182
 21
0.254546
 31
0.0
  0
LINE
  8
0
  6
CONTINUOUS
 62
   250
 10
0.0
 20
0.109091
 30
0.0
 11
0.0
 21
0.109091
 31
0.0
  0
LINE
  8
0
  6
CONTINUOUS
 62
   250
 10
-0.018182
 20
0.109091
 30
0.0
 11
0.0
 21
0.109091
 31
0.0
  0
LINE
  8
0
  6
CONTINUOUS
 62
   250
 10
0.0
 20
0.254546
 30
0.0
 11
-0.018182
 21
0.254546
 31
0.0
  0
LINE
  8
0
  6
CONTINUOUS
 62
   250
 10
0.036364
 20
0.109091
 30
0.0
 11
0.036364
 21
0.109091
 31
0.0
  0
LINE
  8
0
  6
CONTINUOUS
 62
   250
 10
0.054545
 20
0.109091
 30
0.0
 11
0.072727
 21
0.109091
 31
0.0
  0
LINE
  8
0
  6
CONTINUOUS
 62
   250
 10
0.072727
 20
0.109091
 30
0.0
 11
0.072727
 21
0.109091
 31
0.0
  0
LINE
  8
0
  6
CONTINUOUS
 62
   250
 10
0.090909
 20
0.109091
 30
0.0
 11
0.109091
 21
0.109091
 31
0.0
  0
LINE
  8
0
  6
CONTINUOUS
 62
   250
 10
0.109091
 20
0.109091
 30
0.0
 11
0.109091
 21
0.109091
 31
0.0
  0
LINE
  8
0
  6
CONTINUOUS
 62
   250
 10
0.145454
 20
0.109091
 30
0.0
 11
0.145454
 21
0.109091
 31
0.0
  0
LINE
  8
0
  6
CONTINUOUS
 62
   250
 10
0.127273
 20
0.109091
 30
0.0
 11
0.145454
 21
0.109091
 31
0.0
  0
LINE
  8
0
  6
CONTINUOUS
 62
   250
 10
0.145454
 20
0.254546
 30
0.0
 11
0.127273
 21
0.254546
 31
0.0
  0
LINE
  8
0
  6
CONTINUOUS
 62
   250
 10
0.109091
 20
0.254546
 30
0.0
 11
0.090909
 21
0.254546
 31
0.0
  0
LINE
  8
0
  6
CONTINUOUS
 62
   250
 10
0.072727
 20
0.254546
 30
0.0
 11
0.054545
 21
0.254546
 31
0.0
  0
LINE
  8
0
  6
CONTINUOUS
 62
   250
 10
-0.206818
 20
0.354546
 30
0.0
 11
-0.036364
 21
0.354546
 31
0.0
  0
LINE
  8
0
  6
CONTINUOUS
 62
   250
 10
-0.190909
 20
0.318182
 30
0.0
 11
-0.227273
 21
0.318182
 31
0.0
  0
LINE
  8
0
  6
CONTINUOUS
 62
   250
 10
-0.227273
 20
0.336364
 30
0.0
 11
-0.190909
 21
0.336364
 31
0.0
  0
LINE
  8
0
  6
CONTINUOUS
 62
   250
 10
-0.227273
 20
0.3
 30
0.0
 11
-0.190909
 21
0.3
 31
0.0
  0
LINE
  8
0
  6
CONTINUOUS
 62
   250
 10
-0.190909
 20
0.281818
 30
0.0
 11
-0.227273
 21
0.281818
 31
0.0
  0
LINE
  8
0
  6
CONTINUOUS
 62
   250
 10
-0.215909
 20
0.3
 30
0.0
 11
-0.215909
 21
0.318182
 31
0.0
  0
LINE
  8
0
  6
CONTINUOUS
 62
   250
 10
-0.215909
 20
0.336364
 30
0.0
 11
-0.215909
 21
0.345455
 31
0.0
  0
ARC
  8
0
  6
CONTINUOUS
 62
   250
 10
-0.218182
 20
0.354545
 30
0.0
 40
0.009091
 50
89.996902
 51
179.996994
  0
ARC
  8
0
  6
CONTINUOUS
 62
   250
 10
-0.206818
 20
0.345455
 30
0.0
 40
0.009091
 50
89.996902
 51
179.997177
  0
LINE
  8
0
  6
CONTINUOUS
 62
   250
 10
-0.227273
 20
0.318182
 30
0.0
 11
-0.227273
 21
0.336364
 31
0.0
  0
LINE
  8
0
  6
CONTINUOUS
 62
   250
 10
-0.227273
 20
0.281818
 30
0.0
 11
-0.227273
 21
0.3
 31
0.0
  0
LINE
  8
0
  6
CONTINUOUS
 62
   250
 10
-0.224307
 20
0.361263
 30
0.0
 11
-0.212943
 21
0.352173
 31
0.0
  0
LINE
  8
0
  6
CONTINUOUS
 62
   250
 10
-0.190909
 20
0.336364
 30
0.0
 11
-0.190909
 21
0.318182
 31
0.0
  0
LINE
  8
0
  6
CONTINUOUS
 62
   250
 10
-0.190909
 20
0.3
 30
0.0
 11
-0.190909
 21
0.281818
 31
0.0
  0
LINE
  8
0
  6
CONTINUOUS
 62
   250
 10
0.018182
 20
0.363636
 30
0.0
 11
0.036364
 21
0.363636
 31
0.0
  0
LINE
  8
0
  6
CONTINUOUS
 62
   250
 10
0.0
 20
0.354546
 30
0.0
 11
0.018182
 21
0.354546
 31
0.0
  0
LINE
  8
0
  6
CONTINUOUS
 62
   250
 10
-0.036364
 20
0.354546
 30
0.0
 11
-0.018182
 21
0.354546
 31
0.0
  0
LINE
  8
0
  6
CONTINUOUS
 62
   250
 10
-0.018182
 20
0.363636
 30
0.0
 11
0.0
 21
0.363636
 31
0.0
  0
LINE
  8
0
  6
CONTINUOUS
 62
   250
 10
0.0
 20
0.363636
 30
0.0
 11
0.0
 21
0.363636
 31
0.0
  0
LINE
  8
0
  6
CONTINUOUS
 62
   250
 10
0.109091
 20
0.354546
 30
0.0
 11
0.127273
 21
0.354546
 31
0.0
  0
LINE
  8
0
  6
CONTINUOUS
 62
   250
 10
0.072727
 20
0.354546
 30
0.0
 11
0.090909
 21
0.354546
 31
0.0
  0
LINE
  8
0
  6
CONTINUOUS
 62
   250
 10
0.036364
 20
0.354546
 30
0.0
 11
0.054545
 21
0.354546
 31
0.0
  0
LINE
  8
0
  6
CONTINUOUS
 62
   250
 10
0.127273
 20
0.363636
 30
0.0
 11
0.145454
 21
0.363636
 31
0.0
  0
LINE
  8
0
  6
CONTINUOUS
 62
   250
 10
0.145454
 20
0.363636
 30
0.0
 11
0.145454
 21
0.363636
 31
0.0
  0
LINE
  8
0
  6
CONTINUOUS
 62
   250
 10
0.109091
 20
0.363636
 30
0.0
 11
0.109091
 21
0.363636
 31
0.0
  0
LINE
  8
0
  6
CONTINUOUS
 62
   250
 10
0.090909
 20
0.363636
 30
0.0
 11
0.109091
 21
0.363636
 31
0.0
  0
LINE
  8
0
  6
CONTINUOUS
 62
   250
 10
0.072727
 20
0.363636
 30
0.0
 11
0.072727
 21
0.363636
 31
0.0
  0
LINE
  8
0
  6
CONTINUOUS
 62
   250
 10
0.054545
 20
0.363636
 30
0.0
 11
0.072727
 21
0.363636
 31
0.0
  0
LINE
  8
0
  6
CONTINUOUS
 62
   250
 10
0.036364
 20
0.363636
 30
0.0
 11
0.036364
 21
0.363636
 31
0.0
  0
LINE
  8
0
  6
CONTINUOUS
 62
   250
 10
0.215909
 20
0.281818
 30
0.0
 11
0.215909
 21
0.263637
 31
0.0
  0
LINE
  8
0
  6
CONTINUOUS
 62
   250
 10
0.227272
 20
0.354546
 30
0.0
 11
0.227272
 21
0.00909
 31
0.0
  0
LINE
  8
0
  6
CONTINUOUS
 62
   250
 10
0.190909
 20
0.099999
 30
0.0
 11
0.190909
 21
0.118182
 31
0.0
  0
LINE
  8
0
  6
CONTINUOUS
 62
   250
 10
0.227272
 20
0.118182
 30
0.0
 11
0.227272
 21
0.099999
 31
0.0
  0
LINE
  8
0
  6
CONTINUOUS
 62
   250
 10
0.215909
 20
0.027273
 30
0.0
 11
0.215909
 21
0.018182
 31
0.0
  0
LINE
  8
0
  6
CONTINUOUS
 62
   250
 10
0.215909
 20
0.063636
 30
0.0
 11
0.215909
 21
0.045455
 31
0.0
  0
LINE
  8
0
  6
CONTINUOUS
 62
   250
 10
0.215909
 20
0.099999
 30
0.0
 11
0.215909
 21
0.081819
 31
0.0
  0
ARC
  8
0
  6
CONTINUOUS
 62
   250
 10
0.218183
 20
0.009089
 30
0.0
 40
0.009089
 50
269.992584
 51
0.00738
  0
ARC
  8
0
  6
CONTINUOUS
 62
   250
 10
0.206818
 20
0.018181
 30
0.0
 40
0.009091
 50
269.997009
 51
0.003064
  0
LINE
  8
0
  6
CONTINUOUS
 62
   250
 10
0.227272
 20
0.099999
 30
0.0
 11
0.190909
 21
0.099999
 31
0.0
  0
LINE
  8
0
  6
CONTINUOUS
 62
   250
 10
0.227272
 20
0.081819
 30
0.0
 11
0.227272
 21
0.063636
 31
0.0
  0
LINE
  8
0
  6
CONTINUOUS
 62
   250
 10
0.190909
 20
0.081819
 30
0.0
 11
0.227272
 21
0.081819
 31
0.0
  0
LINE
  8
0
  6
CONTINUOUS
 62
   250
 10
0.190909
 20
0.063636
 30
0.0
 11
0.190909
 21
0.081819
 31
0.0
  0
LINE
  8
0
  6
CONTINUOUS
 62
   250
 10
0.227272
 20
0.063636
 30
0.0
 11
0.190909
 21
0.063636
 31
0.0
  0
LINE
  8
0
  6
CONTINUOUS
 62
   250
 10
0.227272
 20
0.027273
 30
0.0
 11
0.190909
 21
0.027273
 31
0.0
  0
LINE
  8
0
  6
CONTINUOUS
 62
   250
 10
0.190909
 20
0.027273
 30
0.0
 11
0.190909
 21
0.045455
 31
0.0
  0
LINE
  8
0
  6
CONTINUOUS
 62
   250
 10
0.190909
 20
0.045455
 30
0.0
 11
0.227272
 21
0.045455
 31
0.0
  0
LINE
  8
0
  6
CONTINUOUS
 62
   250
 10
0.227272
 20
0.045455
 30
0.0
 11
0.227272
 21
0.027273
 31
0.0
  0
LINE
  8
0
  6
CONTINUOUS
 62
   250
 10
0.212943
 20
0.011463
 30
0.0
 11
0.224307
 21
0.002373
 31
0.0
  0
LINE
  8
0
  6
CONTINUOUS
 62
   250
 10
0.215909
 20
0.245454
 30
0.0
 11
0.215909
 21
0.118182
 31
0.0
  0
LINE
  8
0
  6
CONTINUOUS
 62
   250
 10
0.190909
 20
0.118182
 30
0.0
 11
0.227272
 21
0.118182
 31
0.0
  0
LINE
  8
0
  6
CONTINUOUS
 62
   250
 10
0.227272
 20
0.263637
 30
0.0
 11
0.227272
 21
0.245454
 31
0.0
  0
LINE
  8
0
  6
CONTINUOUS
 62
   250
 10
0.190909
 20
0.263637
 30
0.0
 11
0.227272
 21
0.263637
 31
0.0
  0
LINE
  8
0
  6
CONTINUOUS
 62
   250
 10
0.190909
 20
0.245454
 30
0.0
 11
0.190909
 21
0.263637
 31
0.0
  0
LINE
  8
0
  6
CONTINUOUS
 62
   250
 10
0.227272
 20
0.245454
 30
0.0
 11
0.190909
 21
0.245454
 31
0.0
  0
LINE
  8
0
  6
CONTINUOUS
 62
   250
 10
0.215909
 20
0.318182
 30
0.0
 11
0.215909
 21
0.3
 31
0.0
  0
ARC
  8
0
  6
CONTINUOUS
 62
   250
 10
0.206818
 20
0.345455
 30
0.0
 40
0.009091
 50
0.002817
 51
90.003098
  0
ARC
  8
0
  6
CONTINUOUS
 62
   250
 10
0.218183
 20
0.354547
 30
0.0
 40
0.009089
 50
359.992676
 51
90.007423
  0
LINE
  8
0
  6
CONTINUOUS
 62
   250
 10
0.227272
 20
0.281818
 30
0.0
 11
0.190909
 21
0.281818
 31
0.0
  0
LINE
  8
0
  6
CONTINUOUS
 62
   250
 10
0.190909
 20
0.281818
 30
0.0
 11
0.190909
 21
0.3
 31
0.0
  0
LINE
  8
0
  6
CONTINUOUS
 62
   250
 10
0.190909
 20
0.3
 30
0.0
 11
0.227272
 21
0.3
 31
0.0
  0
LINE
  8
0
  6
CONTINUOUS
 62
   250
 10
0.227272
 20
0.3
 30
0.0
 11
0.227272
 21
0.281818
 31
0.0
  0
LINE
  8
0
  6
CONTINUOUS
 62
   250
 10
0.227272
 20
0.336364
 30
0.0
 11
0.227272
 21
0.318182
 31
0.0
  0
LINE
  8
0
  6
CONTINUOUS
 62
   250
 10
0.190909
 20
0.336364
 30
0.0
 11
0.227272
 21
0.336364
 31
0.0
  0
LINE
  8
0
  6
CONTINUOUS
 62
   250
 10
0.190909
 20
0.318182
 30
0.0
 11
0.190909
 21
0.336364
 31
0.0
  0
LINE
  8
0
  6
CONTINUOUS
 62
   250
 10
0.227272
 20
0.318182
 30
0.0
 11
0.190909
 21
0.318182
 31
0.0
  0
LINE
  8
0
  6
CONTINUOUS
 62
   250
 10
0.215909
 20
0.345455
 30
0.0
 11
0.215909
 21
0.336364
 31
0.0
  0
LINE
  8
0
  6
CONTINUOUS
 62
   250
 10
0.224307
 20
0.361263
 30
0.0
 11
0.212943
 21
0.352173
 31
0.0
  0
LINE
  8
0
  6
CONTINUOUS
 62
   250
 10
0.172727
 20
0.363636
 30
0.0
 11
0.172727
 21
0.363636
 31
0.0
  0
ENDSEC
  0
EOF
