  0
SECTION
  2
HEADER
  9
$ACADVER
  1
AC1009
  9
$INSBASE
 10
0.0
 20
0.0
 30
0.0
  9
$EXTMIN
 10
-0.308935
 20
-0.381625
 30
0.0
  9
$EXTMAX
 10
1.522795
 20
0.381622
 30
0.0
  9
$LIMMIN
 10
15.324149
 20
14.27232
  9
$LIMMAX
 10
17.15588
 20
15.035567
  9
$ORTHOMODE
 70
     1
  9
$REGENMODE
 70
     1
  9
$FILLMODE
 70
     1
  9
$QTEXTMODE
 70
     0
  9
$MIRRTEXT
 70
     1
  9
$DRAGMODE
 70
     2
  9
$LTSCALE
 40
1.0
  9
$OSMODE
 70
     0
  9
$ATTMODE
 70
     2
  9
$TEXTSIZE
 40
0.01502
  9
$TRACEWID
 40
0.05
  9
$TEXTSTYLE
  7
STANDARD
  9
$CLAYER
  8
0
  9
$CELTYPE
  6
BYLAYER
  9
$CECOLOR
 62
   256
  9
$DIMSCALE
 40
1.0
  9
$DIMASZ
 40
1.0
  9
$DIMEXO
 40
0.5
  9
$DIMDLI
 40
0.38
  9
$DIMRND
 40
0.0
  9
$DIMDLE
 40
0.0
  9
$DIMEXE
 40
0.5
  9
$DIMTP
 40
0.0
  9
$DIMTM
 40
0.0
  9
$DIMTXT
 40
0.18
  9
$DIMCEN
 40
0.09
  9
$DIMTSZ
 40
0.0
  9
$DIMTOL
 70
     0
  9
$DIMLIM
 70
     0
  9
$DIMTIH
 70
     1
  9
$DIMTOH
 70
     1
  9
$DIMSE1
 70
     0
  9
$DIMSE2
 70
     0
  9
$DIMTAD
 70
     0
  9
$DIMZIN
 70
     0
  9
$DIMBLK
  1

  9
$DIMASO
 70
     1
  9
$DIMSHO
 70
     1
  9
$DIMPOST
  1
"
  9
$DIMAPOST
  1

  9
$DIMALT
 70
     0
  9
$DIMALTD
 70
     2
  9
$DIMALTF
 40
25.4
  9
$DIMLFAC
 40
1.0
  9
$DIMTOFL
 70
     0
  9
$DIMTVP
 40
0.0
  9
$DIMTIX
 70
     0
  9
$DIMSOXD
 70
     0
  9
$DIMSAH
 70
     0
  9
$DIMBLK1
  1

  9
$DIMBLK2
  1

  9
$DIMSTYLE
  2
*UNNAMED
  9
$DIMCLRD
 70
     0
  9
$DIMCLRE
 70
     0
  9
$DIMCLRT
 70
     0
  9
$DIMTFAC
 40
1.0
  9
$DIMGAP
 40
0.09
  9
$LUNITS
 70
     2
  9
$LUPREC
 70
     3
  9
$SKETCHINC
 40
0.1
  9
$FILLETRAD
 40
0.0
  9
$AUNITS
 70
     0
  9
$AUPREC
 70
     3
  9
$MENU
  1
acad
  9
$ELEVATION
 40
0.0
  9
$PELEVATION
 40
0.0
  9
$THICKNESS
 40
0.0
  9
$LIMCHECK
 70
     0
  9
$BLIPMODE
 70
     0
  9
$CHAMFERA
 40
0.5
  9
$CHAMFERB
 40
0.5
  9
$SKPOLY
 70
     0
  9
$TDCREATE
 40
2450086.703934953
  9
$TDUPDATE
 40
2450086.703934953
  9
$TDINDWG
 40
0.0000000000
  9
$TDUSRTIMER
 40
0.0000000000
  9
$USRTIMER
 70
     1
  9
$ANGBASE
 50
0.0
  9
$ANGDIR
 70
     0
  9
$PDMODE
 70
     2
  9
$PDSIZE
 40
0.0
  9
$PLINEWID
 40
0.0
  9
$COORDS
 70
     1
  9
$SPLFRAME
 70
     0
  9
$SPLINETYPE
 70
     6
  9
$SPLINESEGS
 70
     8
  9
$ATTDIA
 70
     0
  9
$ATTREQ
 70
     1
  9
$HANDLING
 70
     0
  9
$HANDSEED
  5
0
  9
$SURFTAB1
 70
     6
  9
$SURFTAB2
 70
     6
  9
$SURFTYPE
 70
     6
  9
$SURFU
 70
     6
  9
$SURFV
 70
     6
  9
$UCSNAME
  2

  9
$UCSORG
 10
0.0
 20
0.0
 30
0.0
  9
$UCSXDIR
 10
1.0
 20
0.0
 30
0.0
  9
$UCSYDIR
 10
0.0
 20
1.0
 30
0.0
  9
$PUCSNAME
  2

  9
$PUCSORG
 10
0.0
 20
0.0
 30
0.0
  9
$PUCSXDIR
 10
1.0
 20
0.0
 30
0.0
  9
$PUCSYDIR
 10
0.0
 20
1.0
 30
0.0
  9
$USERI1
 70
     0
  9
$USERI2
 70
     0
  9
$USERI3
 70
     0
  9
$USERI4
 70
     0
  9
$USERI5
 70
     0
  9
$USERR1
 40
0.0
  9
$USERR2
 40
0.0
  9
$USERR3
 40
0.0
  9
$USERR4
 40
0.0
  9
$USERR5
 40
0.0
  9
$WORLDVIEW
 70
     1
  9
$SHADEDGE
 70
     3
  9
$SHADEDIF
 70
    70
  9
$TILEMODE
 70
     1
  9
$MAXACTVP
 70
    16
  9
$PINSBASE
 10
0.622319
 20
50.0
 30
-0.229439
  9
$PLIMCHECK
 70
     0
  9
$PEXTMIN
 10
1.000000E+20
 20
1.000000E+20
 30
1.000000E+20
  9
$PEXTMAX
 10
-1.000000E+20
 20
-1.000000E+20
 30
-1.000000E+20
  9
$PLIMMIN
 10
0.0
 20
0.0
  9
$PLIMMAX
 10
12.0
 20
9.0
  9
$UNITMODE
 70
     0
  9
$VISRETAIN
 70
     0
  9
$PLINEGEN
 70
     0
  9
$PSLTSCALE
 70
     1
  9
$TREEDEPTH
 70
  3020
  9
$DWGCODEPAGE
  3
ascii
  0
ENDSEC
  0
SECTION
  2
TABLES
  0
TABLE
  2
VPORT
 70
     1
  0
VPORT
  2
*ACTIVE
 70
     0
 10
0.0
 20
0.0
 11
1.0
 21
1.0
 12
10.386042
 22
7.326971
 13
0.0
 23
0.0
 14
1.0
 24
1.0
 15
1.0
 25
1.0
 16
0.0
 26
0.0
 36
1.0
 17
0.0
 27
0.0
 37
0.0
 40
15.417192
 41
1.387409
 42
50.0
 43
0.0
 44
0.0
 50
0.0
 51
0.0
 71
     0
 72
   100
 73
     1
 74
     1
 75
     0
 76
     0
 77
     0
 78
     0
  0
ENDTAB
  0
TABLE
  2
LTYPE
 70
     1
  0
LTYPE
  2
CONTINUOUS
 70
    64
  3
SOLID LINE
 72
    65
 73
     0
 40
0.0
  0
ENDTAB
  0
TABLE
  2
LAYER
 70
     1
  0
LAYER
  2
0
 70
    64
 62
     4
  6
CONTINUOUS
  0
ENDTAB
  0
TABLE
  2
STYLE
 70
     1
  0
STYLE
  2
STANDARD
 70
     0
 40
0.0
 41
1.0
 50
0.0
 71
     0
 42
0.2
  3
txt
  4

  0
ENDTAB
  0
TABLE
  2
VIEW
 70
     0
  0
ENDTAB
  0
TABLE
  2
UCS
 70
     0
  0
ENDTAB
  0
TABLE
  2
APPID
 70
     1
  0
APPID
  2
ACAD
 70
    64
  0
ENDTAB
  0
TABLE
  2
DIMSTYLE
 70
     0
  0
ENDTAB
  0
ENDSEC
  0
SECTION
  2
BLOCKS
  0
ENDSEC
  0
SECTION
  2
ENTITIES
  0
LINE
  8
0
  6
CONTINUOUS
 62
   250
 10
-0.27259
 20
-0.363454
 30
0.0
 11
-0.27259
 21
0.363451
 31
0.0
  0
LINE
  8
0
  6
CONTINUOUS
 62
   250
 10
-0.27259
 20
0.363451
 30
0.0
 11
0.0
 21
0.363451
 31
0.0
  0
LINE
  8
0
  6
CONTINUOUS
 62
   250
 10
0.0
 20
0.363451
 30
0.0
 11
0.0
 21
-0.363454
 31
0.0
  0
LINE
  8
0
  6
CONTINUOUS
 62
   250
 10
0.0
 20
-0.363454
 30
0.0
 11
-0.27259
 21
-0.363454
 31
0.0
  0
LINE
  8
0
  6
CONTINUOUS
 62
   250
 10
-0.27259
 20
-0.363454
 30
0.0
 11
-0.27259
 21
-0.381625
 31
0.0
  0
LINE
  8
0
  6
CONTINUOUS
 62
   250
 10
-0.27259
 20
-0.381625
 30
0.0
 11
-0.308935
 21
-0.363454
 31
0.0
  0
LINE
  8
0
  6
CONTINUOUS
 62
   250
 10
-0.308935
 20
-0.363454
 30
0.0
 11
-0.308935
 21
0.363451
 31
0.0
  0
LINE
  8
0
  6
CONTINUOUS
 62
   250
 10
-0.308935
 20
0.363451
 30
0.0
 11
-0.27259
 21
0.381622
 31
0.0
  0
LINE
  8
0
  6
CONTINUOUS
 62
   250
 10
-0.27259
 20
0.381622
 30
0.0
 11
-0.27259
 21
0.363451
 31
0.0
  0
ARC
  8
0
  6
CONTINUOUS
 62
   250
 10
-0.136296
 20
0.21807
 30
0.0
 40
0.070213
 50
14.999804
 51
345.000183
  0
ARC
  8
0
  6
CONTINUOUS
 62
   250
 10
-0.136296
 20
-0.000001
 30
0.0
 40
0.070213
 50
14.999779
 51
345.000183
  0
ARC
  8
0
  6
CONTINUOUS
 62
   250
 10
-0.136295
 20
-0.236244
 30
0.0
 40
0.070213
 50
15.000593
 51
344.99942
  0
LINE
  8
0
  6
CONTINUOUS
 62
   250
 10
0.0
 20
0.136293
 30
0.0
 11
0.0
 21
-0.136295
 31
0.0
  0
LINE
  8
0
  6
CONTINUOUS
 62
   250
 10
0.0
 20
-0.136295
 30
0.0
 11
0.0
 21
0.136293
 31
0.0
  0
LINE
  8
0
  6
CONTINUOUS
 62
   250
 10
0.03012
 20
-0.095909
 30
0.0
 11
0.03012
 21
-0.052959
 31
0.0
  0
LINE
  8
0
  6
CONTINUOUS
 62
   250
 10
0.013352
 20
0.114796
 30
0.0
 11
0.03012
 21
0.093657
 31
0.0
  0
LINE
  8
0
  6
CONTINUOUS
 62
   250
 10
0.013352
 20
0.114796
 30
0.0
 11
0.051232
 21
0.13166
 31
0.0
  0
LINE
  8
0
  6
CONTINUOUS
 62
   250
 10
0.063962
 20
-0.095909
 30
0.0
 11
0.063962
 21
0.097931
 31
0.0
  0
LINE
  8
0
  6
CONTINUOUS
 62
   250
 10
0.051232
 20
0.13166
 30
0.0
 11
0.063962
 21
0.097931
 31
0.0
  0
LINE
  8
0
  6
CONTINUOUS
 62
   250
 10
0.013352
 20
-0.117046
 30
0.0
 11
0.03012
 21
-0.095909
 31
0.0
  0
LINE
  8
0
  6
CONTINUOUS
 62
   250
 10
0.013352
 20
-0.117046
 30
0.0
 11
0.051232
 21
-0.133912
 31
0.0
  0
LINE
  8
0
  6
CONTINUOUS
 62
   250
 10
0.051232
 20
-0.133912
 30
0.0
 11
0.063962
 21
-0.100182
 31
0.0
  0
LINE
  8
0
  6
CONTINUOUS
 62
   250
 10
0.054542
 20
0.026196
 30
0.0
 11
0.013352
 21
0.026196
 31
0.0
  0
LINE
  8
0
  6
CONTINUOUS
 62
   250
 10
0.013352
 20
0.026196
 30
0.0
 11
0.021737
 21
0.055878
 31
0.0
  0
LINE
  8
0
  6
CONTINUOUS
 62
   250
 10
0.021737
 20
0.055878
 30
0.0
 11
0.063962
 21
0.055878
 31
0.0
  0
LINE
  8
0
  6
CONTINUOUS
 62
   250
 10
0.03012
 20
0.055878
 30
0.0
 11
0.03012
 21
0.093657
 31
0.0
  0
LINE
  8
0
  6
CONTINUOUS
 62
   250
 10
0.03012
 20
-0.023275
 30
0.0
 11
0.03012
 21
0.026196
 31
0.0
  0
ARC
  8
0
  6
CONTINUOUS
 62
   250
 10
0.050268
 20
0.04002
 30
0.0
 40
0.01447
 50
285.98233
 51
341.404755
  0
ARC
  8
0
  6
CONTINUOUS
 62
   250
 10
0.050269
 20
-0.039137
 30
0.0
 40
0.014467
 50
285.979736
 51
341.419098
  0
LINE
  8
0
  6
CONTINUOUS
 62
   250
 10
0.054542
 20
-0.052959
 30
0.0
 11
0.013352
 21
-0.052959
 31
0.0
  0
LINE
  8
0
  6
CONTINUOUS
 62
   250
 10
0.013352
 20
-0.052959
 30
0.0
 11
0.021737
 21
-0.023275
 31
0.0
  0
LINE
  8
0
  6
CONTINUOUS
 62
   250
 10
0.021737
 20
-0.023275
 30
0.0
 11
0.063962
 21
-0.023275
 31
0.0
  0
LINE
  8
0
  6
CONTINUOUS
 62
   250
 10
0.063962
 20
-0.100182
 30
0.0
 11
0.063962
 21
-0.095909
 31
0.0
  0
LINE
  8
0
  6
CONTINUOUS
 62
   250
 10
0.063962
 20
0.055878
 30
0.0
 11
0.07413
 21
0.072489
 31
0.0
  0
LINE
  8
0
  6
CONTINUOUS
 62
   250
 10
0.07413
 20
0.072489
 30
0.0
 11
0.081046
 21
0.055689
 31
0.0
  0
LINE
  8
0
  6
CONTINUOUS
 62
   250
 10
0.080969
 20
0.055878
 30
0.0
 11
0.091136
 21
0.072489
 31
0.0
  0
LINE
  8
0
  6
CONTINUOUS
 62
   250
 10
0.091136
 20
0.072489
 30
0.0
 11
0.098053
 21
0.055689
 31
0.0
  0
LINE
  8
0
  6
CONTINUOUS
 62
   250
 10
0.097976
 20
0.055878
 30
0.0
 11
0.108143
 21
0.072489
 31
0.0
  0
LINE
  8
0
  6
CONTINUOUS
 62
   250
 10
0.108143
 20
0.072489
 30
0.0
 11
0.11506
 21
0.055689
 31
0.0
  0
LINE
  8
0
  6
CONTINUOUS
 62
   250
 10
0.114982
 20
0.055878
 30
0.0
 11
0.125149
 21
0.072489
 31
0.0
  0
LINE
  8
0
  6
CONTINUOUS
 62
   250
 10
0.125149
 20
0.072489
 30
0.0
 11
0.132066
 21
0.055689
 31
0.0
  0
LINE
  8
0
  6
CONTINUOUS
 62
   250
 10
0.131988
 20
0.055878
 30
0.0
 11
0.142155
 21
0.072489
 31
0.0
  0
LINE
  8
0
  6
CONTINUOUS
 62
   250
 10
0.142155
 20
0.072489
 30
0.0
 11
0.149073
 21
0.055689
 31
0.0
  0
LINE
  8
0
  6
CONTINUOUS
 62
   250
 10
0.142155
 20
-0.070263
 30
0.0
 11
0.149073
 21
-0.053463
 31
0.0
  0
LINE
  8
0
  6
CONTINUOUS
 62
   250
 10
0.131988
 20
-0.053654
 30
0.0
 11
0.142155
 21
-0.070263
 31
0.0
  0
LINE
  8
0
  6
CONTINUOUS
 62
   250
 10
0.125149
 20
-0.070263
 30
0.0
 11
0.132066
 21
-0.053463
 31
0.0
  0
LINE
  8
0
  6
CONTINUOUS
 62
   250
 10
0.114982
 20
-0.053654
 30
0.0
 11
0.125149
 21
-0.070263
 31
0.0
  0
LINE
  8
0
  6
CONTINUOUS
 62
   250
 10
0.108143
 20
-0.070263
 30
0.0
 11
0.11506
 21
-0.053463
 31
0.0
  0
LINE
  8
0
  6
CONTINUOUS
 62
   250
 10
0.097976
 20
-0.053654
 30
0.0
 11
0.108143
 21
-0.070263
 31
0.0
  0
LINE
  8
0
  6
CONTINUOUS
 62
   250
 10
0.091136
 20
-0.070263
 30
0.0
 11
0.098053
 21
-0.053463
 31
0.0
  0
LINE
  8
0
  6
CONTINUOUS
 62
   250
 10
0.080969
 20
-0.053654
 30
0.0
 11
0.091136
 21
-0.070263
 31
0.0
  0
LINE
  8
0
  6
CONTINUOUS
 62
   250
 10
0.07413
 20
-0.070263
 30
0.0
 11
0.081046
 21
-0.053463
 31
0.0
  0
LINE
  8
0
  6
CONTINUOUS
 62
   250
 10
0.063962
 20
-0.053654
 30
0.0
 11
0.07413
 21
-0.070263
 31
0.0
  0
LINE
  8
0
  6
CONTINUOUS
 62
   250
 10
0.080969
 20
0.055878
 30
0.0
 11
0.080969
 21
-0.053654
 31
0.0
  0
LINE
  8
0
  6
CONTINUOUS
 62
   250
 10
0.097976
 20
0.055878
 30
0.0
 11
0.097976
 21
-0.053654
 31
0.0
  0
LINE
  8
0
  6
CONTINUOUS
 62
   250
 10
0.114982
 20
0.055878
 30
0.0
 11
0.114982
 21
-0.053654
 31
0.0
  0
LINE
  8
0
  6
CONTINUOUS
 62
   250
 10
0.131988
 20
0.055878
 30
0.0
 11
0.131988
 21
-0.053654
 31
0.0
  0
LINE
  8
0
  6
CONTINUOUS
 62
   250
 10
0.149073
 20
0.056068
 30
0.0
 11
0.149073
 21
-0.053463
 31
0.0
  0
LINE
  8
0
  6
CONTINUOUS
 62
   250
 10
0.149073
 20
0.047403
 30
0.0
 11
0.167096
 21
0.047403
 31
0.0
  0
LINE
  8
0
  6
CONTINUOUS
 62
   250
 10
0.167096
 20
0.047403
 30
0.0
 11
0.167096
 21
-0.042456
 31
0.0
  0
LINE
  8
0
  6
CONTINUOUS
 62
   250
 10
0.167096
 20
-0.042456
 30
0.0
 11
0.149073
 21
-0.042456
 31
0.0
  0
LINE
  8
0
  6
CONTINUOUS
 62
   250
 10
0.167096
 20
0.035952
 30
0.0
 11
0.173874
 21
0.047026
 31
0.0
  0
LINE
  8
0
  6
CONTINUOUS
 62
   250
 10
0.173874
 20
0.047026
 30
0.0
 11
0.178487
 21
0.035826
 31
0.0
  0
LINE
  8
0
  6
CONTINUOUS
 62
   250
 10
0.178487
 20
0.035826
 30
0.0
 11
0.185264
 21
0.046898
 31
0.0
  0
LINE
  8
0
  6
CONTINUOUS
 62
   250
 10
0.185264
 20
0.046898
 30
0.0
 11
0.189877
 21
0.035698
 31
0.0
  0
LINE
  8
0
  6
CONTINUOUS
 62
   250
 10
0.189877
 20
0.035698
 30
0.0
 11
0.196654
 21
0.046772
 31
0.0
  0
LINE
  8
0
  6
CONTINUOUS
 62
   250
 10
0.196654
 20
0.046772
 30
0.0
 11
0.201266
 21
0.035572
 31
0.0
  0
LINE
  8
0
  6
CONTINUOUS
 62
   250
 10
0.201266
 20
0.035572
 30
0.0
 11
0.208044
 21
0.046646
 31
0.0
  0
LINE
  8
0
  6
CONTINUOUS
 62
   250
 10
0.208044
 20
0.046646
 30
0.0
 11
0.212656
 21
0.035446
 31
0.0
  0
LINE
  8
0
  6
CONTINUOUS
 62
   250
 10
0.212656
 20
0.035446
 30
0.0
 11
0.219434
 21
0.046518
 31
0.0
  0
LINE
  8
0
  6
CONTINUOUS
 62
   250
 10
0.219434
 20
0.046518
 30
0.0
 11
0.224046
 21
0.035318
 31
0.0
  0
LINE
  8
0
  6
CONTINUOUS
 62
   250
 10
0.224046
 20
0.035318
 30
0.0
 11
0.230824
 21
0.046391
 31
0.0
  0
LINE
  8
0
  6
CONTINUOUS
 62
   250
 10
0.230824
 20
0.046391
 30
0.0
 11
0.235435
 21
0.035191
 31
0.0
  0
LINE
  8
0
  6
CONTINUOUS
 62
   250
 10
0.235435
 20
0.035191
 30
0.0
 11
0.242214
 21
0.046265
 31
0.0
  0
LINE
  8
0
  6
CONTINUOUS
 62
   250
 10
0.242214
 20
0.046265
 30
0.0
 11
0.246825
 21
0.035065
 31
0.0
  0
LINE
  8
0
  6
CONTINUOUS
 62
   250
 10
0.246825
 20
0.035065
 30
0.0
 11
0.253602
 21
0.046139
 31
0.0
  0
LINE
  8
0
  6
CONTINUOUS
 62
   250
 10
0.253602
 20
0.046139
 30
0.0
 11
0.258216
 21
0.034939
 31
0.0
  0
LINE
  8
0
  6
CONTINUOUS
 62
   250
 10
0.258216
 20
0.034939
 30
0.0
 11
0.264993
 21
0.046011
 31
0.0
  0
LINE
  8
0
  6
CONTINUOUS
 62
   250
 10
0.264993
 20
0.046011
 30
0.0
 11
0.269605
 21
0.034813
 31
0.0
  0
LINE
  8
0
  6
CONTINUOUS
 62
   250
 10
0.265306
 20
-0.043005
 30
0.0
 11
0.269919
 21
-0.031807
 31
0.0
  0
LINE
  8
0
  6
CONTINUOUS
 62
   250
 10
0.258529
 20
-0.031933
 30
0.0
 11
0.265306
 21
-0.043005
 31
0.0
  0
LINE
  8
0
  6
CONTINUOUS
 62
   250
 10
0.253918
 20
-0.043133
 30
0.0
 11
0.258529
 21
-0.031933
 31
0.0
  0
LINE
  8
0
  6
CONTINUOUS
 62
   250
 10
0.247139
 20
-0.032061
 30
0.0
 11
0.253918
 21
-0.043133
 31
0.0
  0
LINE
  8
0
  6
CONTINUOUS
 62
   250
 10
0.242527
 20
-0.043261
 30
0.0
 11
0.247139
 21
-0.032061
 31
0.0
  0
LINE
  8
0
  6
CONTINUOUS
 62
   250
 10
0.235749
 20
-0.032188
 30
0.0
 11
0.242527
 21
-0.043261
 31
0.0
  0
LINE
  8
0
  6
CONTINUOUS
 62
   250
 10
0.231137
 20
-0.043386
 30
0.0
 11
0.235749
 21
-0.032188
 31
0.0
  0
LINE
  8
0
  6
CONTINUOUS
 62
   250
 10
0.224359
 20
-0.032314
 30
0.0
 11
0.231137
 21
-0.043386
 31
0.0
  0
LINE
  8
0
  6
CONTINUOUS
 62
   250
 10
0.219748
 20
-0.043514
 30
0.0
 11
0.224359
 21
-0.032314
 31
0.0
  0
LINE
  8
0
  6
CONTINUOUS
 62
   250
 10
0.21297
 20
-0.03244
 30
0.0
 11
0.219748
 21
-0.043514
 31
0.0
  0
LINE
  8
0
  6
CONTINUOUS
 62
   250
 10
0.208358
 20
-0.04364
 30
0.0
 11
0.21297
 21
-0.03244
 31
0.0
  0
LINE
  8
0
  6
CONTINUOUS
 62
   250
 10
0.20158
 20
-0.032568
 30
0.0
 11
0.208358
 21
-0.04364
 31
0.0
  0
LINE
  8
0
  6
CONTINUOUS
 62
   250
 10
0.196968
 20
-0.043768
 30
0.0
 11
0.20158
 21
-0.032568
 31
0.0
  0
LINE
  8
0
  6
CONTINUOUS
 62
   250
 10
0.190191
 20
-0.032694
 30
0.0
 11
0.196968
 21
-0.043768
 31
0.0
  0
LINE
  8
0
  6
CONTINUOUS
 62
   250
 10
0.185578
 20
-0.043894
 30
0.0
 11
0.190191
 21
-0.032694
 31
0.0
  0
LINE
  8
0
  6
CONTINUOUS
 62
   250
 10
0.1788
 20
-0.03282
 30
0.0
 11
0.185578
 21
-0.043894
 31
0.0
  0
LINE
  8
0
  6
CONTINUOUS
 62
   250
 10
0.174189
 20
-0.04402
 30
0.0
 11
0.1788
 21
-0.03282
 31
0.0
  0
LINE
  8
0
  6
CONTINUOUS
 62
   250
 10
0.167411
 20
-0.032948
 30
0.0
 11
0.174189
 21
-0.04402
 31
0.0
  0
LINE
  8
0
  6
CONTINUOUS
 62
   250
 10
0.178487
 20
0.035826
 30
0.0
 11
0.1788
 21
-0.03282
 31
0.0
  0
LINE
  8
0
  6
CONTINUOUS
 62
   250
 10
0.189877
 20
0.035698
 30
0.0
 11
0.190191
 21
-0.032948
 31
0.0
  0
LINE
  8
0
  6
CONTINUOUS
 62
   250
 10
0.201266
 20
0.035572
 30
0.0
 11
0.20158
 21
-0.033073
 31
0.0
  0
LINE
  8
0
  6
CONTINUOUS
 62
   250
 10
0.212656
 20
0.035446
 30
0.0
 11
0.21297
 21
-0.033201
 31
0.0
  0
LINE
  8
0
  6
CONTINUOUS
 62
   250
 10
0.224046
 20
0.035318
 30
0.0
 11
0.224359
 21
-0.033325
 31
0.0
  0
LINE
  8
0
  6
CONTINUOUS
 62
   250
 10
0.235435
 20
0.035191
 30
0.0
 11
0.235749
 21
-0.033453
 31
0.0
  0
LINE
  8
0
  6
CONTINUOUS
 62
   250
 10
0.246825
 20
0.035065
 30
0.0
 11
0.247139
 21
-0.033581
 31
0.0
  0
LINE
  8
0
  6
CONTINUOUS
 62
   250
 10
0.258216
 20
0.034939
 30
0.0
 11
0.258529
 21
-0.033707
 31
0.0
  0
LINE
  8
0
  6
CONTINUOUS
 62
   250
 10
0.269605
 20
0.034813
 30
0.0
 11
0.269919
 21
-0.033834
 31
0.0
  0
LINE
  8
0
  6
CONTINUOUS
 62
   250
 10
0.269605
 20
0.034813
 30
0.0
 11
0.274451
 21
0.034813
 31
0.0
  0
LINE
  8
0
  6
CONTINUOUS
 62
   250
 10
0.274451
 20
0.034813
 30
0.0
 11
0.274451
 21
-0.034069
 31
0.0
  0
LINE
  8
0
  6
CONTINUOUS
 62
   250
 10
0.274451
 20
-0.034069
 30
0.0
 11
0.269919
 21
-0.034069
 31
0.0
  0
ARC
  8
0
  6
CONTINUOUS
 62
   250
 10
1.500596
 20
0.001572
 30
0.0
 40
0.022199
 50
268.034485
 51
92.238914
  0
LINE
  8
0
  6
CONTINUOUS
 62
   250
 10
1.499835
 20
-0.020615
 30
0.0
 11
0.274451
 21
-0.020615
 31
0.0
  0
LINE
  8
0
  6
CONTINUOUS
 62
   250
 10
1.499729
 20
0.023754
 30
0.0
 11
0.274451
 21
0.023754
 31
0.0
  0
ENDSEC
  0
EOF
