  0
SECTION
  2
HEADER
  9
$ACADVER
  1
AC1009
  9
$INSBASE
 10
0.0
 20
0.0
 30
0.0
  9
$EXTMIN
 10
-0.501537
 20
-0.014816
 30
0.0
  9
$EXTMAX
 10
0.501537
 20
0.462677
 30
0.0
  9
$LIMMIN
 10
16.101345
 20
14.417742
  9
$LIMMAX
 10
17.478531
 20
15.180991
  9
$ORTHOMODE
 70
     1
  9
$REGENMODE
 70
     1
  9
$FILLMODE
 70
     1
  9
$QTEXTMODE
 70
     0
  9
$MIRRTEXT
 70
     1
  9
$DRAGMODE
 70
     2
  9
$LTSCALE
 40
1.0
  9
$OSMODE
 70
     0
  9
$ATTMODE
 70
     2
  9
$TEXTSIZE
 40
0.01502
  9
$TRACEWID
 40
0.05
  9
$TEXTSTYLE
  7
STANDARD
  9
$CLAYER
  8
0
  9
$CELTYPE
  6
BYLAYER
  9
$CECOLOR
 62
   256
  9
$DIMSCALE
 40
1.0
  9
$DIMASZ
 40
1.0
  9
$DIMEXO
 40
0.5
  9
$DIMDLI
 40
0.38
  9
$DIMRND
 40
0.0
  9
$DIMDLE
 40
0.0
  9
$DIMEXE
 40
0.5
  9
$DIMTP
 40
0.0
  9
$DIMTM
 40
0.0
  9
$DIMTXT
 40
0.18
  9
$DIMCEN
 40
0.09
  9
$DIMTSZ
 40
0.0
  9
$DIMTOL
 70
     0
  9
$DIMLIM
 70
     0
  9
$DIMTIH
 70
     1
  9
$DIMTOH
 70
     1
  9
$DIMSE1
 70
     0
  9
$DIMSE2
 70
     0
  9
$DIMTAD
 70
     0
  9
$DIMZIN
 70
     0
  9
$DIMBLK
  1

  9
$DIMASO
 70
     1
  9
$DIMSHO
 70
     1
  9
$DIMPOST
  1
"
  9
$DIMAPOST
  1

  9
$DIMALT
 70
     0
  9
$DIMALTD
 70
     2
  9
$DIMALTF
 40
25.4
  9
$DIMLFAC
 40
1.0
  9
$DIMTOFL
 70
     0
  9
$DIMTVP
 40
0.0
  9
$DIMTIX
 70
     0
  9
$DIMSOXD
 70
     0
  9
$DIMSAH
 70
     0
  9
$DIMBLK1
  1

  9
$DIMBLK2
  1

  9
$DIMSTYLE
  2
*UNNAMED
  9
$DIMCLRD
 70
     0
  9
$DIMCLRE
 70
     0
  9
$DIMCLRT
 70
     0
  9
$DIMTFAC
 40
1.0
  9
$DIMGAP
 40
0.09
  9
$LUNITS
 70
     2
  9
$LUPREC
 70
     3
  9
$SKETCHINC
 40
0.1
  9
$FILLETRAD
 40
0.0
  9
$AUNITS
 70
     0
  9
$AUPREC
 70
     3
  9
$MENU
  1
acad
  9
$ELEVATION
 40
0.0
  9
$PELEVATION
 40
0.0
  9
$THICKNESS
 40
0.0
  9
$LIMCHECK
 70
     0
  9
$BLIPMODE
 70
     0
  9
$CHAMFERA
 40
0.5
  9
$CHAMFERB
 40
0.5
  9
$SKPOLY
 70
     0
  9
$TDCREATE
 40
2450086.708028356
  9
$TDUPDATE
 40
2450086.708028356
  9
$TDINDWG
 40
0.0000000000
  9
$TDUSRTIMER
 40
0.0000000000
  9
$USRTIMER
 70
     1
  9
$ANGBASE
 50
0.0
  9
$ANGDIR
 70
     0
  9
$PDMODE
 70
     2
  9
$PDSIZE
 40
0.0
  9
$PLINEWID
 40
0.0
  9
$COORDS
 70
     1
  9
$SPLFRAME
 70
     0
  9
$SPLINETYPE
 70
     6
  9
$SPLINESEGS
 70
     8
  9
$ATTDIA
 70
     0
  9
$ATTREQ
 70
     1
  9
$HANDLING
 70
     0
  9
$HANDSEED
  5
0
  9
$SURFTAB1
 70
     6
  9
$SURFTAB2
 70
     6
  9
$SURFTYPE
 70
     6
  9
$SURFU
 70
     6
  9
$SURFV
 70
     6
  9
$UCSNAME
  2

  9
$UCSORG
 10
0.0
 20
0.0
 30
0.0
  9
$UCSXDIR
 10
1.0
 20
0.0
 30
0.0
  9
$UCSYDIR
 10
0.0
 20
1.0
 30
0.0
  9
$PUCSNAME
  2

  9
$PUCSORG
 10
0.0
 20
0.0
 30
0.0
  9
$PUCSXDIR
 10
1.0
 20
0.0
 30
0.0
  9
$PUCSYDIR
 10
0.0
 20
1.0
 30
0.0
  9
$USERI1
 70
     0
  9
$USERI2
 70
     0
  9
$USERI3
 70
     0
  9
$USERI4
 70
     0
  9
$USERI5
 70
     0
  9
$USERR1
 40
0.0
  9
$USERR2
 40
0.0
  9
$USERR3
 40
0.0
  9
$USERR4
 40
0.0
  9
$USERR5
 40
0.0
  9
$WORLDVIEW
 70
     1
  9
$SHADEDGE
 70
     3
  9
$SHADEDIF
 70
    70
  9
$TILEMODE
 70
     1
  9
$MAXACTVP
 70
    16
  9
$PINSBASE
 10
-0.689228
 20
50.0
 30
-0.080944
  9
$PLIMCHECK
 70
     0
  9
$PEXTMIN
 10
1.000000E+20
 20
1.000000E+20
 30
1.000000E+20
  9
$PEXTMAX
 10
-1.000000E+20
 20
-1.000000E+20
 30
-1.000000E+20
  9
$PLIMMIN
 10
0.0
 20
0.0
  9
$PLIMMAX
 10
12.0
 20
9.0
  9
$UNITMODE
 70
     0
  9
$VISRETAIN
 70
     0
  9
$PLINEGEN
 70
     0
  9
$PSLTSCALE
 70
     1
  9
$TREEDEPTH
 70
  3020
  9
$DWGCODEPAGE
  3
ascii
  0
ENDSEC
  0
SECTION
  2
TABLES
  0
TABLE
  2
VPORT
 70
     1
  0
VPORT
  2
*ACTIVE
 70
     0
 10
0.0
 20
0.0
 11
1.0
 21
1.0
 12
10.039864
 22
7.583088
 13
0.0
 23
0.0
 14
1.0
 24
1.0
 15
1.0
 25
1.0
 16
0.0
 26
0.0
 36
1.0
 17
0.0
 27
0.0
 37
0.0
 40
15.195807
 41
1.387409
 42
50.0
 43
0.0
 44
0.0
 50
0.0
 51
0.0
 71
     0
 72
   100
 73
     1
 74
     1
 75
     0
 76
     0
 77
     0
 78
     0
  0
ENDTAB
  0
TABLE
  2
LTYPE
 70
     1
  0
LTYPE
  2
CONTINUOUS
 70
    64
  3
SOLID LINE
 72
    65
 73
     0
 40
0.0
  0
ENDTAB
  0
TABLE
  2
LAYER
 70
     1
  0
LAYER
  2
0
 70
    64
 62
     4
  6
CONTINUOUS
  0
ENDTAB
  0
TABLE
  2
STYLE
 70
     2
  0
STYLE
  2
STANDARD
 70
     0
 40
0.0
 41
1.0
 50
0.0
 71
     0
 42
0.2
  3
txt
  4

  0
STYLE
  2
TEXT
 70
    64
 40
0.0
 41
1.0
 50
0.0
 71
     0
 42
1.0
  3
ROMANS.SHX
  4

  0
ENDTAB
  0
TABLE
  2
VIEW
 70
     0
  0
ENDTAB
  0
TABLE
  2
UCS
 70
     0
  0
ENDTAB
  0
TABLE
  2
APPID
 70
     1
  0
APPID
  2
ACAD
 70
    64
  0
ENDTAB
  0
TABLE
  2
DIMSTYLE
 70
     0
  0
ENDTAB
  0
ENDSEC
  0
SECTION
  2
BLOCKS
  0
ENDSEC
  0
SECTION
  2
ENTITIES
  0
LINE
  8
0
  6
CONTINUOUS
 62
   250
 10
-0.252157
 20
0.234556
 30
0.0
 11
-0.209639
 21
0.192036
 31
0.0
  0
LINE
  8
0
  6
CONTINUOUS
 62
   250
 10
-0.252157
 20
0.234556
 30
0.0
 11
-0.252157
 21
0.174423
 31
0.0
  0
LINE
  8
0
  6
CONTINUOUS
 62
   250
 10
-0.252157
 20
0.234556
 30
0.0
 11
-0.294678
 21
0.192036
 31
0.0
  0
LINE
  8
0
  6
CONTINUOUS
 62
   250
 10
-0.252157
 20
0.234556
 30
0.0
 11
-0.312288
 21
0.234556
 31
0.0
  0
LINE
  8
0
  6
CONTINUOUS
 62
   250
 10
-0.252157
 20
0.234556
 30
0.0
 11
-0.294678
 21
0.277077
 31
0.0
  0
LINE
  8
0
  6
CONTINUOUS
 62
   250
 10
-0.252157
 20
0.234556
 30
0.0
 11
-0.252157
 21
0.294689
 31
0.0
  0
LINE
  8
0
  6
CONTINUOUS
 62
   250
 10
-0.252157
 20
0.234556
 30
0.0
 11
-0.209639
 21
0.277077
 31
0.0
  0
LINE
  8
0
  6
CONTINUOUS
 62
   250
 10
-0.252157
 20
0.234556
 30
0.0
 11
-0.192022
 21
0.234556
 31
0.0
  0
CIRCLE
  8
0
  6
CONTINUOUS
 62
   250
 10
-0.252157
 20
0.234556
 30
0.0
 40
0.060135
  0
CIRCLE
  8
0
  6
CONTINUOUS
 62
   250
 10
-0.252157
 20
0.234556
 30
0.0
 40
0.06558
  0
LINE
  8
0
  6
CONTINUOUS
 62
   250
 10
0.427513
 20
0.212954
 30
0.0
 11
0.427513
 21
0.270433
 31
0.0
  0
ARC
  8
0
  6
CONTINUOUS
 62
   250
 10
0.427509
 20
0.316391
 30
0.0
 40
0.003246
 50
0.033138
 51
89.932671
  0
ARC
  8
0
  6
CONTINUOUS
 62
   250
 10
0.427513
 20
0.155957
 30
0.0
 40
0.003243
 50
270.00946
 51
359.990784
  0
LINE
  8
0
  6
CONTINUOUS
 62
   250
 10
0.430756
 20
0.209709
 30
0.0
 11
0.430756
 21
0.273678
 31
0.0
  0
ARC
  8
0
  6
CONTINUOUS
 62
   250
 10
0.427509
 20
0.209707
 30
0.0
 40
0.003246
 50
0.033138
 51
89.933197
  0
LINE
  8
0
  6
CONTINUOUS
 62
   250
 10
0.430756
 20
0.209709
 30
0.0
 11
0.430756
 21
0.155956
 31
0.0
  0
ARC
  8
0
  6
CONTINUOUS
 62
   250
 10
0.427513
 20
0.273676
 30
0.0
 40
0.003243
 50
270.00946
 51
0.02422
  0
LINE
  8
0
  6
CONTINUOUS
 62
   250
 10
0.385452
 20
0.329449
 30
0.0
 11
0.379391
 21
0.329449
 31
0.0
  0
LINE
  8
0
  6
CONTINUOUS
 62
   250
 10
0.385452
 20
0.136312
 30
0.0
 11
0.385452
 21
0.329449
 31
0.0
  0
LINE
  8
0
  6
CONTINUOUS
 62
   250
 10
0.379391
 20
0.136312
 30
0.0
 11
0.385452
 21
0.136312
 31
0.0
  0
LINE
  8
0
  6
CONTINUOUS
 62
   250
 10
0.451235
 20
0.306065
 30
0.0
 11
0.451235
 21
0.306065
 31
0.0
  0
LINE
  8
0
  6
CONTINUOUS
 62
   250
 10
0.385452
 20
0.212954
 30
0.0
 11
0.427513
 21
0.212954
 31
0.0
  0
LINE
  8
0
  6
CONTINUOUS
 62
   250
 10
0.385452
 20
0.270433
 30
0.0
 11
0.427513
 21
0.270433
 31
0.0
  0
LINE
  8
0
  6
CONTINUOUS
 62
   250
 10
0.430756
 20
0.273678
 30
0.0
 11
0.430756
 21
0.316393
 31
0.0
  0
LINE
  8
0
  6
CONTINUOUS
 62
   250
 10
0.427513
 20
0.152714
 30
0.0
 11
0.385452
 21
0.152714
 31
0.0
  0
LINE
  8
0
  6
CONTINUOUS
 62
   250
 10
0.427513
 20
0.319637
 30
0.0
 11
0.385452
 21
0.319637
 31
0.0
  0
LINE
  8
0
  6
CONTINUOUS
 62
   250
 10
-0.28903
 20
0.0
 30
0.0
 11
0.28903
 21
0.0
 31
0.0
  0
LINE
  8
0
  6
CONTINUOUS
 62
   250
 10
0.379391
 20
0.396059
 30
0.0
 11
0.379391
 21
0.090363
 31
0.0
  0
LINE
  8
0
  6
CONTINUOUS
 62
   250
 10
-0.379391
 20
0.090363
 30
0.0
 11
-0.379391
 21
0.396059
 31
0.0
  0
LINE
  8
0
  6
CONTINUOUS
 62
   250
 10
-0.462896
 20
0.396059
 30
0.0
 11
0.455889
 21
0.396059
 31
0.0
  0
LINE
  8
0
  6
CONTINUOUS
 62
   250
 10
-0.417719
 20
0.462677
 30
0.0
 11
0.410711
 21
0.462677
 31
0.0
  0
LINE
  8
0
  6
CONTINUOUS
 62
   250
 10
-0.462896
 20
0.396059
 30
0.0
 11
-0.462896
 21
0.417496
 31
0.0
  0
ARC
  8
0
  6
CONTINUOUS
 62
   250
 10
0.289029
 20
0.090362
 30
0.0
 40
0.090362
 50
270.000793
 51
0.000444
  0
ARC
  8
0
  6
CONTINUOUS
 62
   250
 10
-0.289029
 20
0.090362
 30
0.0
 40
0.090362
 50
180.001953
 51
269.999237
  0
LINE
  8
0
  6
CONTINUOUS
 62
   250
 10
0.455889
 20
0.396059
 30
0.0
 11
0.455889
 21
0.417496
 31
0.0
  0
ARC
  8
0
  6
CONTINUOUS
 62
   250
 10
0.410711
 20
0.417499
 30
0.0
 40
0.045178
 50
359.995422
 51
89.999733
  0
ARC
  8
0
  6
CONTINUOUS
 62
   250
 10
-0.417719
 20
0.417499
 30
0.0
 40
0.045178
 50
90.000267
 51
180.004578
  0
LINE
  8
0
  6
CONTINUOUS
 62
   250
 10
0.28903
 20
0.0
 30
0.0
 11
0.501537
 21
0.0
 31
0.0
  0
LINE
  8
0
  6
CONTINUOUS
 62
   250
 10
0.136972
 20
0.0
 30
0.0
 11
0.136972
 21
-0.014816
 31
0.0
  0
LINE
  8
0
  6
CONTINUOUS
 62
   250
 10
-0.136972
 20
0.0
 30
0.0
 11
-0.136972
 21
-0.014816
 31
0.0
  0
LINE
  8
0
  6
CONTINUOUS
 62
   250
 10
-0.501537
 20
-0.014816
 30
0.0
 11
-0.501537
 21
0.0
 31
0.0
  0
LINE
  8
0
  6
CONTINUOUS
 62
   250
 10
-0.136972
 20
-0.014816
 30
0.0
 11
-0.501537
 21
-0.014816
 31
0.0
  0
LINE
  8
0
  6
CONTINUOUS
 62
   250
 10
-0.28903
 20
0.0
 30
0.0
 11
-0.501537
 21
0.0
 31
0.0
  0
TEXT
  8
0
  6
CONTINUOUS
 62
   250
 10
-0.361193
 20
0.062382
 30
0.0
 40
0.081081
  1
+
 41
0.9
  7
TEXT
  0
LINE
  8
0
  6
CONTINUOUS
 62
   250
 10
0.501537
 20
0.0
 30
0.0
 11
0.501537
 21
-0.014816
 31
0.0
  0
LINE
  8
0
  6
CONTINUOUS
 62
   250
 10
0.501537
 20
-0.014816
 30
0.0
 11
0.136972
 21
-0.014816
 31
0.0
  0
TEXT
  8
0
  6
CONTINUOUS
 62
   250
 10
-0.361139
 20
0.121944
 30
0.0
 40
0.081081
  1
-
 41
0.9
  7
TEXT
  0
ENDSEC
  0
EOF
