  0
SECTION
  2
HEADER
  9
$ACADVER
  1
AC1009
  9
$INSBASE
 10
0.0
 20
0.0
 30
0.0
  9
$EXTMIN
 10
4.3868
 20
1.19416
 30
0.0
  9
$EXTMAX
 10
5.68304
 20
1.89288
 30
0.0
  9
$LIMMIN
 10
0.0
 20
0.0
  9
$LIMMAX
 10
12.0
 20
9.0
  9
$ORTHOMODE
 70
     0
  9
$REGENMODE
 70
     1
  9
$FILLMODE
 70
     1
  9
$QTEXTMODE
 70
     0
  9
$MIRRTEXT
 70
     1
  9
$DRAGMODE
 70
     2
  9
$LTSCALE
 40
0.044
  9
$OSMODE
 70
     0
  9
$ATTMODE
 70
     1
  9
$TEXTSIZE
 40
0.2
  9
$TRACEWID
 40
0.05
  9
$TEXTSTYLE
  7
STANDARD
  9
$CLAYER
  8
0
  9
$CELTYPE
  6
BYLAYER
  9
$CECOLOR
 62
   256
  9
$DIMSCALE
 40
1.0
  9
$DIMASZ
 40
0.18
  9
$DIMEXO
 40
0.0625
  9
$DIMDLI
 40
0.38
  9
$DIMRND
 40
0.0
  9
$DIMDLE
 40
0.0
  9
$DIMEXE
 40
0.18
  9
$DIMTP
 40
0.0
  9
$DIMTM
 40
0.0
  9
$DIMTXT
 40
0.18
  9
$DIMCEN
 40
0.09
  9
$DIMTSZ
 40
0.0
  9
$DIMTOL
 70
     0
  9
$DIMLIM
 70
     0
  9
$DIMTIH
 70
     1
  9
$DIMTOH
 70
     1
  9
$DIMSE1
 70
     0
  9
$DIMSE2
 70
     0
  9
$DIMTAD
 70
     0
  9
$DIMZIN
 70
     0
  9
$DIMBLK
  1

  9
$DIMASO
 70
     1
  9
$DIMSHO
 70
     1
  9
$DIMPOST
  1

  9
$DIMAPOST
  1

  9
$DIMALT
 70
     0
  9
$DIMALTD
 70
     2
  9
$DIMALTF
 40
25.4
  9
$DIMLFAC
 40
1.0
  9
$DIMTOFL
 70
     0
  9
$DIMTVP
 40
0.0
  9
$DIMTIX
 70
     0
  9
$DIMSOXD
 70
     0
  9
$DIMSAH
 70
     0
  9
$DIMBLK1
  1

  9
$DIMBLK2
  1

  9
$DIMSTYLE
  2
*UNNAMED
  9
$DIMCLRD
 70
     0
  9
$DIMCLRE
 70
     0
  9
$DIMCLRT
 70
     0
  9
$DIMTFAC
 40
1.0
  9
$DIMGAP
 40
0.09
  9
$LUNITS
 70
     2
  9
$LUPREC
 70
     4
  9
$SKETCHINC
 40
0.1
  9
$FILLETRAD
 40
0.0
  9
$AUNITS
 70
     0
  9
$AUPREC
 70
     0
  9
$MENU
  1
acad
  9
$ELEVATION
 40
0.0
  9
$PELEVATION
 40
0.0
  9
$THICKNESS
 40
0.0
  9
$LIMCHECK
 70
     0
  9
$BLIPMODE
 70
     0
  9
$CHAMFERA
 40
0.0
  9
$CHAMFERB
 40
0.0
  9
$SKPOLY
 70
     0
  9
$TDCREATE
 40
2451092.593952430
  9
$TDUPDATE
 40
2451092.593952430
  9
$TDINDWG
 40
0.0000000000
  9
$TDUSRTIMER
 40
0.0000000000
  9
$USRTIMER
 70
     1
  9
$ANGBASE
 50
0.0
  9
$ANGDIR
 70
     0
  9
$PDMODE
 70
    35
  9
$PDSIZE
 40
0.0352
  9
$PLINEWID
 40
0.0
  9
$COORDS
 70
     1
  9
$SPLFRAME
 70
     0
  9
$SPLINETYPE
 70
     6
  9
$SPLINESEGS
 70
     8
  9
$ATTDIA
 70
     0
  9
$ATTREQ
 70
     1
  9
$HANDLING
 70
     0
  9
$HANDSEED
  5
0
  9
$SURFTAB1
 70
     6
  9
$SURFTAB2
 70
     6
  9
$SURFTYPE
 70
     6
  9
$SURFU
 70
     6
  9
$SURFV
 70
     6
  9
$UCSNAME
  2

  9
$UCSORG
 10
0.0
 20
0.0
 30
0.0
  9
$UCSXDIR
 10
1.0
 20
0.0
 30
0.0
  9
$UCSYDIR
 10
0.0
 20
1.0
 30
0.0
  9
$PUCSNAME
  2

  9
$PUCSORG
 10
0.0
 20
0.0
 30
0.0
  9
$PUCSXDIR
 10
1.0
 20
0.0
 30
0.0
  9
$PUCSYDIR
 10
0.0
 20
1.0
 30
0.0
  9
$USERI1
 70
     0
  9
$USERI2
 70
     0
  9
$USERI3
 70
     0
  9
$USERI4
 70
     0
  9
$USERI5
 70
     0
  9
$USERR1
 40
0.0
  9
$USERR2
 40
0.0
  9
$USERR3
 40
0.0
  9
$USERR4
 40
0.0
  9
$USERR5
 40
0.0
  9
$WORLDVIEW
 70
     1
  9
$SHADEDGE
 70
     3
  9
$SHADEDIF
 70
    70
  9
$TILEMODE
 70
     1
  9
$MAXACTVP
 70
    16
  9
$PINSBASE
 10
0.0
 20
0.0
 30
0.0
  9
$PLIMCHECK
 70
     0
  9
$PEXTMIN
 10
1.000000E+20
 20
1.000000E+20
 30
1.000000E+20
  9
$PEXTMAX
 10
-1.000000E+20
 20
-1.000000E+20
 30
-1.000000E+20
  9
$PLIMMIN
 10
0.0
 20
0.0
  9
$PLIMMAX
 10
12.0
 20
9.0
  9
$UNITMODE
 70
     0
  9
$VISRETAIN
 70
     0
  9
$PLINEGEN
 70
     0
  9
$PSLTSCALE
 70
     1
  9
$TREEDEPTH
 70
  3020
  9
$DWGCODEPAGE
  3
ascii
  0
ENDSEC
  0
SECTION
  2
TABLES
  0
TABLE
  2
VPORT
 70
     2
  0
VPORT
  2
*ACTIVE
 70
     0
 10
0.0
 20
0.0
 11
1.0
 21
1.0
 12
6.243341
 22
4.5
 13
0.0
 23
0.0
 14
1.0
 24
1.0
 15
0.0
 25
0.0
 16
0.0
 26
0.0
 36
1.0
 17
0.0
 27
0.0
 37
0.0
 40
9.0
 41
1.387409
 42
50.0
 43
0.0
 44
0.0
 50
0.0
 51
0.0
 71
     0
 72
   100
 73
     1
 74
     1
 75
     0
 76
     0
 77
     0
 78
     0
  0
ENDTAB
  0
TABLE
  2
LTYPE
 70
    10
  0
LTYPE
  2
CONTINUOUS
 70
    64
  3
Solid line
 72
    65
 73
     0
 40
0.0
  0
LTYPE
  2
DASHED
 70
    64
  3
__ __ __ __ __ __ __ __ __ __ __ __ __ __ __
 72
    65
 73
     2
 40
0.00033
 49
0.00022
 49
-0.00011
  0
LTYPE
  2
HIDDEN
 70
    64
  3
 _ _ _ _ _ _ _ _ _ _ _ _ _ _ _ _ _ _ _ _ _ _
 72
    65
 73
     2
 40
0.000165
 49
0.00011
 49
-0.000055
  0
LTYPE
  2
CENTER
 70
    64
  3
____ _ ____ _ ____ _ ____ _ ____ _ ____ _ ____
 72
    65
 73
     4
 40
0.00088
 49
0.00055
 49
-0.00011
 49
0.00011
 49
-0.00011
  0
LTYPE
  2
PHANTOM
 70
    64
  3
_____ _ _ _____ _ _ _____ _ _ _____ _ _ ____
 72
    65
 73
     6
 40
0.0011
 49
0.00055
 49
-0.00011
 49
0.00011
 49
-0.00011
 49
0.00011
 49
-0.00011
  0
LTYPE
  2
DOT
 70
    64
  3
...............................................
 72
    65
 73
     2
 40
0.00011
 49
0.0
 49
-0.00011
  0
LTYPE
  2
DASHDOT
 70
    64
  3
__ . __ . __ . __ . __ . __ . __ . __ . __ . __
 72
    65
 73
     4
 40
0.00044
 49
0.00022
 49
-0.00011
 49
0.0
 49
-0.00011
  0
LTYPE
  2
BORDER
 70
    64
  3
__ __ . __ __ . __ __ . __ __ . __ __ . __ __
 72
    65
 73
     6
 40
0.00077
 49
0.00022
 49
-0.00011
 49
0.00022
 49
-0.00011
 49
0.0
 49
-0.00011
  0
LTYPE
  2
DIVIDE
 70
    64
  3
__ . . __ . . __ . . __ . . __ . . __ . . __
 72
    65
 73
     6
 40
0.00055
 49
0.00022
 49
-0.00011
 49
0.0
 49
-0.00011
 49
0.0
 49
-0.00011
  0
LTYPE
  2
DOTDOT
 70
    64
  3
 . .  . .  . .  . .  . .  . . 
 72
    65
 73
     5
 40
0.000242
 49
-0.00011
 49
0.0
 49
-0.00011
 49
0.0
 49
-0.00011
  0
ENDTAB
  0
TABLE
  2
LAYER
 70
     3
  0
LAYER
  2
0
 70
    64
 62
     7
  6
CONTINUOUS
  0
LAYER
  2
FOREGROUND
 70
    64
 62
     7
  6
CONTINUOUS
  0
LAYER
  2
BACKGROUND
 70
    65
 62
    -7
  6
CONTINUOUS
  0
ENDTAB
  0
TABLE
  2
STYLE
 70
     1
  0
STYLE
  2
STANDARD
 70
     0
 40
0.0
 41
1.0
 50
0.0
 71
     0
 42
0.2
  3
txt
  4

  0
ENDTAB
  0
TABLE
  2
VIEW
 70
     0
  0
ENDTAB
  0
TABLE
  2
UCS
 70
     0
  0
ENDTAB
  0
TABLE
  2
APPID
 70
     1
  0
APPID
  2
ACAD
 70
    64
  0
ENDTAB
  0
TABLE
  2
DIMSTYLE
 70
     0
  0
ENDTAB
  0
ENDSEC
  0
SECTION
  2
BLOCKS
  0
ENDSEC
  0
SECTION
  2
ENTITIES
  0
LINE
  8
0
  6
CONTINUOUS
 62
   250
 10
5.4824
 20
1.37676
 30
0.0
 11
5.5198
 21
1.41416
 31
0.0
  0
LINE
  8
0
  6
CONTINUOUS
 62
   250
 10
5.49296
 20
1.441
 30
0.0
 11
5.45556
 21
1.4036
 31
0.0
  0
LINE
  8
0
  6
CONTINUOUS
 62
   250
 10
5.38648
 20
1.54484
 30
0.0
 11
5.38648
 21
1.54924
 31
0.0
  0
LINE
  8
0
  6
CONTINUOUS
 62
   250
 10
5.38648
 20
1.54924
 30
0.0
 11
5.3856
 21
1.55364
 31
0.0
  0
LINE
  8
0
  6
CONTINUOUS
 62
   250
 10
5.3856
 20
1.55364
 30
0.0
 11
5.38428
 21
1.5576
 31
0.0
  0
LINE
  8
0
  6
CONTINUOUS
 62
   250
 10
5.38428
 20
1.5576
 30
0.0
 11
5.38296
 21
1.56156
 31
0.0
  0
LINE
  8
0
  6
CONTINUOUS
 62
   250
 10
5.38296
 20
1.56156
 30
0.0
 11
5.38076
 21
1.56552
 31
0.0
  0
LINE
  8
0
  6
CONTINUOUS
 62
   250
 10
5.38076
 20
1.56552
 30
0.0
 11
5.37812
 21
1.56904
 31
0.0
  0
LINE
  8
0
  6
CONTINUOUS
 62
   250
 10
5.37812
 20
1.56904
 30
0.0
 11
5.37504
 21
1.57256
 31
0.0
  0
LINE
  8
0
  6
CONTINUOUS
 62
   250
 10
5.37504
 20
1.57256
 30
0.0
 11
5.37196
 21
1.57564
 31
0.0
  0
LINE
  8
0
  6
CONTINUOUS
 62
   250
 10
5.37196
 20
1.57564
 30
0.0
 11
5.36844
 21
1.57784
 31
0.0
  0
LINE
  8
0
  6
CONTINUOUS
 62
   250
 10
5.36844
 20
1.57784
 30
0.0
 11
5.36448
 21
1.58004
 31
0.0
  0
LINE
  8
0
  6
CONTINUOUS
 62
   250
 10
5.36448
 20
1.58004
 30
0.0
 11
5.36008
 21
1.5818
 31
0.0
  0
LINE
  8
0
  6
CONTINUOUS
 62
   250
 10
5.36008
 20
1.5818
 30
0.0
 11
5.35612
 21
1.58312
 31
0.0
  0
LINE
  8
0
  6
CONTINUOUS
 62
   250
 10
5.35612
 20
1.58312
 30
0.0
 11
5.35172
 21
1.58356
 31
0.0
  0
LINE
  8
0
  6
CONTINUOUS
 62
   250
 10
5.35172
 20
1.58356
 30
0.0
 11
5.34732
 21
1.584
 31
0.0
  0
LINE
  8
0
  6
CONTINUOUS
 62
   250
 10
5.34732
 20
1.584
 30
0.0
 11
5.34292
 21
1.58356
 31
0.0
  0
LINE
  8
0
  6
CONTINUOUS
 62
   250
 10
5.34292
 20
1.58356
 30
0.0
 11
5.33852
 21
1.58312
 31
0.0
  0
LINE
  8
0
  6
CONTINUOUS
 62
   250
 10
5.33852
 20
1.58312
 30
0.0
 11
5.33456
 21
1.5818
 31
0.0
  0
LINE
  8
0
  6
CONTINUOUS
 62
   250
 10
5.33456
 20
1.5818
 30
0.0
 11
5.33016
 21
1.58004
 31
0.0
  0
LINE
  8
0
  6
CONTINUOUS
 62
   250
 10
5.33016
 20
1.58004
 30
0.0
 11
5.32664
 21
1.57784
 31
0.0
  0
LINE
  8
0
  6
CONTINUOUS
 62
   250
 10
5.32664
 20
1.57784
 30
0.0
 11
5.32312
 21
1.57564
 31
0.0
  0
LINE
  8
0
  6
CONTINUOUS
 62
   250
 10
5.32312
 20
1.57564
 30
0.0
 11
5.3196
 21
1.57256
 31
0.0
  0
LINE
  8
0
  6
CONTINUOUS
 62
   250
 10
5.3196
 20
1.57256
 30
0.0
 11
5.31652
 21
1.56904
 31
0.0
  0
LINE
  8
0
  6
CONTINUOUS
 62
   250
 10
5.31652
 20
1.56904
 30
0.0
 11
5.31432
 21
1.56552
 31
0.0
  0
LINE
  8
0
  6
CONTINUOUS
 62
   250
 10
5.31432
 20
1.56552
 30
0.0
 11
5.31212
 21
1.56156
 31
0.0
  0
LINE
  8
0
  6
CONTINUOUS
 62
   250
 10
5.31212
 20
1.56156
 30
0.0
 11
5.31036
 21
1.5576
 31
0.0
  0
LINE
  8
0
  6
CONTINUOUS
 62
   250
 10
5.31036
 20
1.5576
 30
0.0
 11
5.30904
 21
1.55364
 31
0.0
  0
LINE
  8
0
  6
CONTINUOUS
 62
   250
 10
5.30904
 20
1.55364
 30
0.0
 11
5.30816
 21
1.54924
 31
0.0
  0
LINE
  8
0
  6
CONTINUOUS
 62
   250
 10
5.30816
 20
1.54924
 30
0.0
 11
5.30816
 21
1.54484
 31
0.0
  0
LINE
  8
0
  6
CONTINUOUS
 62
   250
 10
5.30816
 20
1.54484
 30
0.0
 11
5.30816
 21
1.54044
 31
0.0
  0
LINE
  8
0
  6
CONTINUOUS
 62
   250
 10
5.30816
 20
1.54044
 30
0.0
 11
5.30904
 21
1.53604
 31
0.0
  0
LINE
  8
0
  6
CONTINUOUS
 62
   250
 10
5.30904
 20
1.53604
 30
0.0
 11
5.31036
 21
1.53164
 31
0.0
  0
LINE
  8
0
  6
CONTINUOUS
 62
   250
 10
5.31036
 20
1.53164
 30
0.0
 11
5.31212
 21
1.52768
 31
0.0
  0
LINE
  8
0
  6
CONTINUOUS
 62
   250
 10
5.31212
 20
1.52768
 30
0.0
 11
5.31432
 21
1.52416
 31
0.0
  0
LINE
  8
0
  6
CONTINUOUS
 62
   250
 10
5.31432
 20
1.52416
 30
0.0
 11
5.31652
 21
1.5202
 31
0.0
  0
LINE
  8
0
  6
CONTINUOUS
 62
   250
 10
5.31652
 20
1.5202
 30
0.0
 11
5.3196
 21
1.51712
 31
0.0
  0
LINE
  8
0
  6
CONTINUOUS
 62
   250
 10
5.3196
 20
1.51712
 30
0.0
 11
5.32312
 21
1.51404
 31
0.0
  0
LINE
  8
0
  6
CONTINUOUS
 62
   250
 10
5.32312
 20
1.51404
 30
0.0
 11
5.32664
 21
1.5114
 31
0.0
  0
LINE
  8
0
  6
CONTINUOUS
 62
   250
 10
5.32664
 20
1.5114
 30
0.0
 11
5.33016
 21
1.50964
 31
0.0
  0
LINE
  8
0
  6
CONTINUOUS
 62
   250
 10
5.33016
 20
1.50964
 30
0.0
 11
5.33456
 21
1.50788
 31
0.0
  0
LINE
  8
0
  6
CONTINUOUS
 62
   250
 10
5.33456
 20
1.50788
 30
0.0
 11
5.33852
 21
1.50656
 31
0.0
  0
LINE
  8
0
  6
CONTINUOUS
 62
   250
 10
5.33852
 20
1.50656
 30
0.0
 11
5.34292
 21
1.50568
 31
0.0
  0
LINE
  8
0
  6
CONTINUOUS
 62
   250
 10
5.34292
 20
1.50568
 30
0.0
 11
5.34732
 21
1.50568
 31
0.0
  0
LINE
  8
0
  6
CONTINUOUS
 62
   250
 10
5.34732
 20
1.50568
 30
0.0
 11
5.35172
 21
1.50568
 31
0.0
  0
LINE
  8
0
  6
CONTINUOUS
 62
   250
 10
5.35172
 20
1.50568
 30
0.0
 11
5.35612
 21
1.50656
 31
0.0
  0
LINE
  8
0
  6
CONTINUOUS
 62
   250
 10
5.35612
 20
1.50656
 30
0.0
 11
5.36008
 21
1.50788
 31
0.0
  0
LINE
  8
0
  6
CONTINUOUS
 62
   250
 10
5.36008
 20
1.50788
 30
0.0
 11
5.36448
 21
1.50964
 31
0.0
  0
LINE
  8
0
  6
CONTINUOUS
 62
   250
 10
5.36448
 20
1.50964
 30
0.0
 11
5.36844
 21
1.5114
 31
0.0
  0
LINE
  8
0
  6
CONTINUOUS
 62
   250
 10
5.36844
 20
1.5114
 30
0.0
 11
5.37196
 21
1.51404
 31
0.0
  0
LINE
  8
0
  6
CONTINUOUS
 62
   250
 10
5.37196
 20
1.51404
 30
0.0
 11
5.37504
 21
1.51712
 31
0.0
  0
LINE
  8
0
  6
CONTINUOUS
 62
   250
 10
5.37504
 20
1.51712
 30
0.0
 11
5.37812
 21
1.5202
 31
0.0
  0
LINE
  8
0
  6
CONTINUOUS
 62
   250
 10
5.37812
 20
1.5202
 30
0.0
 11
5.38076
 21
1.52416
 31
0.0
  0
LINE
  8
0
  6
CONTINUOUS
 62
   250
 10
5.38076
 20
1.52416
 30
0.0
 11
5.38296
 21
1.52768
 31
0.0
  0
LINE
  8
0
  6
CONTINUOUS
 62
   250
 10
5.38296
 20
1.52768
 30
0.0
 11
5.38428
 21
1.53164
 31
0.0
  0
LINE
  8
0
  6
CONTINUOUS
 62
   250
 10
5.38428
 20
1.53164
 30
0.0
 11
5.3856
 21
1.53604
 31
0.0
  0
LINE
  8
0
  6
CONTINUOUS
 62
   250
 10
5.3856
 20
1.53604
 30
0.0
 11
5.38648
 21
1.54044
 31
0.0
  0
LINE
  8
0
  6
CONTINUOUS
 62
   250
 10
5.38648
 20
1.54044
 30
0.0
 11
5.38648
 21
1.54484
 31
0.0
  0
LINE
  8
0
  6
CONTINUOUS
 62
   250
 10
5.621
 20
1.74724
 30
0.0
 11
5.621
 21
1.75516
 31
0.0
  0
LINE
  8
0
  6
CONTINUOUS
 62
   250
 10
5.621
 20
1.75516
 30
0.0
 11
5.6496
 21
1.75516
 31
0.0
  0
LINE
  8
0
  6
CONTINUOUS
 62
   250
 10
5.6496
 20
1.75516
 30
0.0
 11
5.6496
 21
1.87836
 31
0.0
  0
LINE
  8
0
  6
CONTINUOUS
 62
   250
 10
5.6496
 20
1.87836
 30
0.0
 11
4.46644
 21
1.87836
 31
0.0
  0
LINE
  8
0
  6
CONTINUOUS
 62
   250
 10
4.46644
 20
1.87836
 30
0.0
 11
4.46644
 21
1.36136
 31
0.0
  0
LINE
  8
0
  6
CONTINUOUS
 62
   250
 10
4.46644
 20
1.34596
 30
0.0
 11
4.46644
 21
1.20868
 31
0.0
  0
LINE
  8
0
  6
CONTINUOUS
 62
   250
 10
4.46644
 20
1.20868
 30
0.0
 11
5.6496
 21
1.20868
 31
0.0
  0
LINE
  8
0
  6
CONTINUOUS
 62
   250
 10
5.6496
 20
1.20868
 30
0.0
 11
5.6496
 21
1.2628
 31
0.0
  0
LINE
  8
0
  6
CONTINUOUS
 62
   250
 10
5.6496
 20
1.2628
 30
0.0
 11
5.621
 21
1.2628
 31
0.0
  0
LINE
  8
0
  6
CONTINUOUS
 62
   250
 10
5.621
 20
1.2628
 30
0.0
 11
5.621
 21
1.27028
 31
0.0
  0
LINE
  8
0
  6
CONTINUOUS
 62
   250
 10
5.621
 20
1.27028
 30
0.0
 11
5.6496
 21
1.27028
 31
0.0
  0
LINE
  8
0
  6
CONTINUOUS
 62
   250
 10
5.6496
 20
1.27028
 30
0.0
 11
5.6496
 21
1.74724
 31
0.0
  0
LINE
  8
0
  6
CONTINUOUS
 62
   250
 10
5.6496
 20
1.74724
 30
0.0
 11
5.621
 21
1.74724
 31
0.0
  0
LINE
  8
0
  6
CONTINUOUS
 62
   250
 10
5.65268
 20
1.75164
 30
0.0
 11
5.65268
 21
1.76264
 31
0.0
  0
LINE
  8
0
  6
CONTINUOUS
 62
   250
 10
5.65268
 20
1.76264
 30
0.0
 11
5.68304
 21
1.76264
 31
0.0
  0
LINE
  8
0
  6
CONTINUOUS
 62
   250
 10
5.68304
 20
1.76264
 30
0.0
 11
5.68304
 21
1.782
 31
0.0
  0
LINE
  8
0
  6
CONTINUOUS
 62
   250
 10
5.68304
 20
1.782
 30
0.0
 11
5.65268
 21
1.782
 31
0.0
  0
LINE
  8
0
  6
CONTINUOUS
 62
   250
 10
5.65268
 20
1.782
 30
0.0
 11
5.65268
 21
1.79344
 31
0.0
  0
LINE
  8
0
  6
CONTINUOUS
 62
   250
 10
5.65268
 20
1.79344
 30
0.0
 11
5.66368
 21
1.79344
 31
0.0
  0
LINE
  8
0
  6
CONTINUOUS
 62
   250
 10
5.66368
 20
1.79344
 30
0.0
 11
5.66368
 21
1.89288
 31
0.0
  0
LINE
  8
0
  6
CONTINUOUS
 62
   250
 10
5.66368
 20
1.89288
 30
0.0
 11
4.45192
 21
1.89288
 31
0.0
  0
LINE
  8
0
  6
CONTINUOUS
 62
   250
 10
4.45192
 20
1.89288
 30
0.0
 11
4.45192
 21
1.87176
 31
0.0
  0
LINE
  8
0
  6
CONTINUOUS
 62
   250
 10
4.45192
 20
1.87176
 30
0.0
 11
4.40572
 21
1.87176
 31
0.0
  0
LINE
  8
0
  6
CONTINUOUS
 62
   250
 10
4.40572
 20
1.87176
 30
0.0
 11
4.40572
 21
1.79344
 31
0.0
  0
LINE
  8
0
  6
CONTINUOUS
 62
   250
 10
4.40572
 20
1.79344
 30
0.0
 11
4.41716
 21
1.79344
 31
0.0
  0
LINE
  8
0
  6
CONTINUOUS
 62
   250
 10
4.41716
 20
1.79344
 30
0.0
 11
4.41716
 21
1.782
 31
0.0
  0
LINE
  8
0
  6
CONTINUOUS
 62
   250
 10
4.41716
 20
1.782
 30
0.0
 11
4.3868
 21
1.782
 31
0.0
  0
LINE
  8
0
  6
CONTINUOUS
 62
   250
 10
4.3868
 20
1.782
 30
0.0
 11
4.3868
 21
1.76264
 31
0.0
  0
LINE
  8
0
  6
CONTINUOUS
 62
   250
 10
4.3868
 20
1.76264
 30
0.0
 11
4.41716
 21
1.76264
 31
0.0
  0
LINE
  8
0
  6
CONTINUOUS
 62
   250
 10
4.41716
 20
1.76264
 30
0.0
 11
4.41716
 21
1.75164
 31
0.0
  0
LINE
  8
0
  6
CONTINUOUS
 62
   250
 10
4.41716
 20
1.75164
 30
0.0
 11
4.40572
 21
1.75164
 31
0.0
  0
LINE
  8
0
  6
CONTINUOUS
 62
   250
 10
4.40572
 20
1.75164
 30
0.0
 11
4.40572
 21
1.32352
 31
0.0
  0
LINE
  8
0
  6
CONTINUOUS
 62
   250
 10
4.40572
 20
1.32352
 30
0.0
 11
4.41716
 21
1.32352
 31
0.0
  0
LINE
  8
0
  6
CONTINUOUS
 62
   250
 10
4.41716
 20
1.32352
 30
0.0
 11
4.41716
 21
1.31208
 31
0.0
  0
LINE
  8
0
  6
CONTINUOUS
 62
   250
 10
4.41716
 20
1.31208
 30
0.0
 11
4.3868
 21
1.31208
 31
0.0
  0
LINE
  8
0
  6
CONTINUOUS
 62
   250
 10
4.3868
 20
1.31208
 30
0.0
 11
4.3868
 21
1.29316
 31
0.0
  0
LINE
  8
0
  6
CONTINUOUS
 62
   250
 10
4.3868
 20
1.29316
 30
0.0
 11
4.41716
 21
1.29316
 31
0.0
  0
LINE
  8
0
  6
CONTINUOUS
 62
   250
 10
4.41716
 20
1.29316
 30
0.0
 11
4.41716
 21
1.28172
 31
0.0
  0
LINE
  8
0
  6
CONTINUOUS
 62
   250
 10
4.41716
 20
1.28172
 30
0.0
 11
4.40572
 21
1.28172
 31
0.0
  0
LINE
  8
0
  6
CONTINUOUS
 62
   250
 10
4.40572
 20
1.28172
 30
0.0
 11
4.40572
 21
1.21572
 31
0.0
  0
LINE
  8
0
  6
CONTINUOUS
 62
   250
 10
4.40572
 20
1.21572
 30
0.0
 11
4.45192
 21
1.21572
 31
0.0
  0
LINE
  8
0
  6
CONTINUOUS
 62
   250
 10
4.45192
 20
1.21572
 30
0.0
 11
4.45192
 21
1.19416
 31
0.0
  0
LINE
  8
0
  6
CONTINUOUS
 62
   250
 10
4.45192
 20
1.19416
 30
0.0
 11
5.66368
 21
1.19416
 31
0.0
  0
LINE
  8
0
  6
CONTINUOUS
 62
   250
 10
5.66368
 20
1.19416
 30
0.0
 11
5.66368
 21
1.28172
 31
0.0
  0
LINE
  8
0
  6
CONTINUOUS
 62
   250
 10
5.66368
 20
1.28172
 30
0.0
 11
5.65268
 21
1.28172
 31
0.0
  0
LINE
  8
0
  6
CONTINUOUS
 62
   250
 10
5.65268
 20
1.28172
 30
0.0
 11
5.65268
 21
1.29316
 31
0.0
  0
LINE
  8
0
  6
CONTINUOUS
 62
   250
 10
5.65268
 20
1.29316
 30
0.0
 11
5.68304
 21
1.29316
 31
0.0
  0
LINE
  8
0
  6
CONTINUOUS
 62
   250
 10
5.68304
 20
1.29316
 30
0.0
 11
5.68304
 21
1.31208
 31
0.0
  0
LINE
  8
0
  6
CONTINUOUS
 62
   250
 10
5.68304
 20
1.31208
 30
0.0
 11
5.65268
 21
1.31208
 31
0.0
  0
LINE
  8
0
  6
CONTINUOUS
 62
   250
 10
5.65268
 20
1.31208
 30
0.0
 11
5.65268
 21
1.32352
 31
0.0
  0
LINE
  8
0
  6
CONTINUOUS
 62
   250
 10
5.65268
 20
1.32352
 30
0.0
 11
5.66368
 21
1.32352
 31
0.0
  0
LINE
  8
0
  6
CONTINUOUS
 62
   250
 10
5.66368
 20
1.32352
 30
0.0
 11
5.66368
 21
1.75164
 31
0.0
  0
LINE
  8
0
  6
CONTINUOUS
 62
   250
 10
5.66368
 20
1.75164
 30
0.0
 11
5.65268
 21
1.75164
 31
0.0
  0
LINE
  8
0
  6
CONTINUOUS
 62
   250
 10
5.66368
 20
1.89288
 30
0.0
 11
4.45192
 21
1.89288
 31
0.0
  0
LINE
  8
0
  6
CONTINUOUS
 62
   250
 10
4.46644
 20
1.85724
 30
0.0
 11
4.4198
 21
1.85724
 31
0.0
  0
LINE
  8
0
  6
CONTINUOUS
 62
   250
 10
4.4198
 20
1.85724
 30
0.0
 11
4.4198
 21
1.36136
 31
0.0
  0
LINE
  8
0
  6
CONTINUOUS
 62
   250
 10
4.4198
 20
1.36136
 30
0.0
 11
4.54872
 21
1.36136
 31
0.0
  0
LINE
  8
0
  6
CONTINUOUS
 62
   250
 10
4.54872
 20
1.36136
 30
0.0
 11
4.54872
 21
1.34596
 31
0.0
  0
LINE
  8
0
  6
CONTINUOUS
 62
   250
 10
4.54872
 20
1.34596
 30
0.0
 11
4.4198
 21
1.34596
 31
0.0
  0
LINE
  8
0
  6
CONTINUOUS
 62
   250
 10
4.4198
 20
1.24432
 30
0.0
 11
4.40572
 21
1.24432
 31
0.0
  0
LINE
  8
0
  6
CONTINUOUS
 62
   250
 10
4.4198
 20
1.2298
 30
0.0
 11
4.46644
 21
1.2298
 31
0.0
  0
LINE
  8
0
  6
CONTINUOUS
 62
   250
 10
4.58744
 20
1.37676
 30
0.0
 11
4.55004
 21
1.41416
 31
0.0
  0
LINE
  8
0
  6
CONTINUOUS
 62
   250
 10
4.57688
 20
1.441
 30
0.0
 11
4.61428
 21
1.4036
 31
0.0
  0
LINE
  8
0
  6
CONTINUOUS
 62
   250
 10
4.56104
 20
1.5356
 30
0.0
 11
4.56236
 21
1.53736
 31
0.0
  0
LINE
  8
0
  6
CONTINUOUS
 62
   250
 10
4.56236
 20
1.53736
 30
0.0
 11
4.56368
 21
1.53956
 31
0.0
  0
LINE
  8
0
  6
CONTINUOUS
 62
   250
 10
4.56368
 20
1.53956
 30
0.0
 11
4.56456
 21
1.5422
 31
0.0
  0
LINE
  8
0
  6
CONTINUOUS
 62
   250
 10
4.56456
 20
1.5422
 30
0.0
 11
4.565
 21
1.54484
 31
0.0
  0
LINE
  8
0
  6
CONTINUOUS
 62
   250
 10
4.565
 20
1.54484
 30
0.0
 11
4.56456
 21
1.54748
 31
0.0
  0
LINE
  8
0
  6
CONTINUOUS
 62
   250
 10
4.56456
 20
1.54748
 30
0.0
 11
4.56368
 21
1.54968
 31
0.0
  0
LINE
  8
0
  6
CONTINUOUS
 62
   250
 10
4.56368
 20
1.54968
 30
0.0
 11
4.56236
 21
1.55232
 31
0.0
  0
LINE
  8
0
  6
CONTINUOUS
 62
   250
 10
4.56236
 20
1.55232
 30
0.0
 11
4.56104
 21
1.55408
 31
0.0
  0
LINE
  8
0
  6
CONTINUOUS
 62
   250
 10
4.56104
 20
1.55408
 30
0.0
 11
4.55884
 21
1.55584
 31
0.0
  0
LINE
  8
0
  6
CONTINUOUS
 62
   250
 10
4.55884
 20
1.55584
 30
0.0
 11
4.55664
 21
1.55716
 31
0.0
  0
LINE
  8
0
  6
CONTINUOUS
 62
   250
 10
4.55664
 20
1.55716
 30
0.0
 11
4.554
 21
1.5576
 31
0.0
  0
LINE
  8
0
  6
CONTINUOUS
 62
   250
 10
4.554
 20
1.5576
 30
0.0
 11
4.55136
 21
1.55804
 31
0.0
  0
LINE
  8
0
  6
CONTINUOUS
 62
   250
 10
4.55136
 20
1.55804
 30
0.0
 11
4.54872
 21
1.5576
 31
0.0
  0
LINE
  8
0
  6
CONTINUOUS
 62
   250
 10
4.54872
 20
1.5576
 30
0.0
 11
4.54652
 21
1.55716
 31
0.0
  0
LINE
  8
0
  6
CONTINUOUS
 62
   250
 10
4.54652
 20
1.55716
 30
0.0
 11
4.54432
 21
1.55584
 31
0.0
  0
LINE
  8
0
  6
CONTINUOUS
 62
   250
 10
4.54432
 20
1.55584
 30
0.0
 11
4.54212
 21
1.55408
 31
0.0
  0
LINE
  8
0
  6
CONTINUOUS
 62
   250
 10
4.54212
 20
1.55408
 30
0.0
 11
4.54036
 21
1.55232
 31
0.0
  0
LINE
  8
0
  6
CONTINUOUS
 62
   250
 10
4.54036
 20
1.55232
 30
0.0
 11
4.53948
 21
1.54968
 31
0.0
  0
LINE
  8
0
  6
CONTINUOUS
 62
   250
 10
4.53948
 20
1.54968
 30
0.0
 11
4.5386
 21
1.54748
 31
0.0
  0
LINE
  8
0
  6
CONTINUOUS
 62
   250
 10
4.5386
 20
1.54748
 30
0.0
 11
4.53816
 21
1.54484
 31
0.0
  0
LINE
  8
0
  6
CONTINUOUS
 62
   250
 10
4.53816
 20
1.54484
 30
0.0
 11
4.5386
 21
1.5422
 31
0.0
  0
LINE
  8
0
  6
CONTINUOUS
 62
   250
 10
4.5386
 20
1.5422
 30
0.0
 11
4.53948
 21
1.53956
 31
0.0
  0
LINE
  8
0
  6
CONTINUOUS
 62
   250
 10
4.53948
 20
1.53956
 30
0.0
 11
4.54036
 21
1.53736
 31
0.0
  0
LINE
  8
0
  6
CONTINUOUS
 62
   250
 10
4.54036
 20
1.53736
 30
0.0
 11
4.54212
 21
1.5356
 31
0.0
  0
LINE
  8
0
  6
CONTINUOUS
 62
   250
 10
4.54212
 20
1.5356
 30
0.0
 11
4.54432
 21
1.53384
 31
0.0
  0
LINE
  8
0
  6
CONTINUOUS
 62
   250
 10
4.54432
 20
1.53384
 30
0.0
 11
4.54652
 21
1.53252
 31
0.0
  0
LINE
  8
0
  6
CONTINUOUS
 62
   250
 10
4.54652
 20
1.53252
 30
0.0
 11
4.54872
 21
1.53164
 31
0.0
  0
LINE
  8
0
  6
CONTINUOUS
 62
   250
 10
4.54872
 20
1.53164
 30
0.0
 11
4.55136
 21
1.53164
 31
0.0
  0
LINE
  8
0
  6
CONTINUOUS
 62
   250
 10
4.55136
 20
1.53164
 30
0.0
 11
4.554
 21
1.53164
 31
0.0
  0
LINE
  8
0
  6
CONTINUOUS
 62
   250
 10
4.554
 20
1.53164
 30
0.0
 11
4.55664
 21
1.53252
 31
0.0
  0
LINE
  8
0
  6
CONTINUOUS
 62
   250
 10
4.55664
 20
1.53252
 30
0.0
 11
4.55884
 21
1.53384
 31
0.0
  0
LINE
  8
0
  6
CONTINUOUS
 62
   250
 10
4.55884
 20
1.53384
 30
0.0
 11
4.56104
 21
1.5356
 31
0.0
  0
LINE
  8
0
  6
CONTINUOUS
 62
   250
 10
4.68424
 20
1.53604
 30
0.0
 11
4.68556
 21
1.53164
 31
0.0
  0
LINE
  8
0
  6
CONTINUOUS
 62
   250
 10
4.68556
 20
1.53164
 30
0.0
 11
4.68688
 21
1.52768
 31
0.0
  0
LINE
  8
0
  6
CONTINUOUS
 62
   250
 10
4.68688
 20
1.52768
 30
0.0
 11
4.68908
 21
1.52416
 31
0.0
  0
LINE
  8
0
  6
CONTINUOUS
 62
   250
 10
4.68908
 20
1.52416
 30
0.0
 11
4.69172
 21
1.5202
 31
0.0
  0
LINE
  8
0
  6
CONTINUOUS
 62
   250
 10
4.69172
 20
1.5202
 30
0.0
 11
4.69436
 21
1.51712
 31
0.0
  0
LINE
  8
0
  6
CONTINUOUS
 62
   250
 10
4.69436
 20
1.51712
 30
0.0
 11
4.69788
 21
1.51404
 31
0.0
  0
LINE
  8
0
  6
CONTINUOUS
 62
   250
 10
4.69788
 20
1.51404
 30
0.0
 11
4.7014
 21
1.5114
 31
0.0
  0
LINE
  8
0
  6
CONTINUOUS
 62
   250
 10
4.7014
 20
1.5114
 30
0.0
 11
4.70536
 21
1.50964
 31
0.0
  0
LINE
  8
0
  6
CONTINUOUS
 62
   250
 10
4.70536
 20
1.50964
 30
0.0
 11
4.70932
 21
1.50788
 31
0.0
  0
LINE
  8
0
  6
CONTINUOUS
 62
   250
 10
4.70932
 20
1.50788
 30
0.0
 11
4.71372
 21
1.50656
 31
0.0
  0
LINE
  8
0
  6
CONTINUOUS
 62
   250
 10
4.71372
 20
1.50656
 30
0.0
 11
4.71812
 21
1.50568
 31
0.0
  0
LINE
  8
0
  6
CONTINUOUS
 62
   250
 10
4.71812
 20
1.50568
 30
0.0
 11
4.72208
 21
1.50568
 31
0.0
  0
LINE
  8
0
  6
CONTINUOUS
 62
   250
 10
4.72208
 20
1.50568
 30
0.0
 11
4.72692
 21
1.50568
 31
0.0
  0
LINE
  8
0
  6
CONTINUOUS
 62
   250
 10
4.72692
 20
1.50568
 30
0.0
 11
4.73088
 21
1.50656
 31
0.0
  0
LINE
  8
0
  6
CONTINUOUS
 62
   250
 10
4.73088
 20
1.50656
 30
0.0
 11
4.73528
 21
1.50788
 31
0.0
  0
LINE
  8
0
  6
CONTINUOUS
 62
   250
 10
4.73528
 20
1.50788
 30
0.0
 11
4.73924
 21
1.50964
 31
0.0
  0
LINE
  8
0
  6
CONTINUOUS
 62
   250
 10
4.73924
 20
1.50964
 30
0.0
 11
4.7432
 21
1.5114
 31
0.0
  0
LINE
  8
0
  6
CONTINUOUS
 62
   250
 10
4.7432
 20
1.5114
 30
0.0
 11
4.74672
 21
1.51404
 31
0.0
  0
LINE
  8
0
  6
CONTINUOUS
 62
   250
 10
4.74672
 20
1.51404
 30
0.0
 11
4.75024
 21
1.51712
 31
0.0
  0
LINE
  8
0
  6
CONTINUOUS
 62
   250
 10
4.75024
 20
1.51712
 30
0.0
 11
4.75288
 21
1.5202
 31
0.0
  0
LINE
  8
0
  6
CONTINUOUS
 62
   250
 10
4.75288
 20
1.5202
 30
0.0
 11
4.75552
 21
1.52416
 31
0.0
  0
LINE
  8
0
  6
CONTINUOUS
 62
   250
 10
4.75552
 20
1.52416
 30
0.0
 11
4.75772
 21
1.52768
 31
0.0
  0
LINE
  8
0
  6
CONTINUOUS
 62
   250
 10
4.75772
 20
1.52768
 30
0.0
 11
4.75948
 21
1.53164
 31
0.0
  0
LINE
  8
0
  6
CONTINUOUS
 62
   250
 10
4.75948
 20
1.53164
 30
0.0
 11
4.7608
 21
1.53604
 31
0.0
  0
LINE
  8
0
  6
CONTINUOUS
 62
   250
 10
4.7608
 20
1.53604
 30
0.0
 11
4.76124
 21
1.54044
 31
0.0
  0
LINE
  8
0
  6
CONTINUOUS
 62
   250
 10
4.76124
 20
1.54044
 30
0.0
 11
4.76168
 21
1.54484
 31
0.0
  0
LINE
  8
0
  6
CONTINUOUS
 62
   250
 10
4.76168
 20
1.54484
 30
0.0
 11
4.76124
 21
1.54924
 31
0.0
  0
LINE
  8
0
  6
CONTINUOUS
 62
   250
 10
4.76124
 20
1.54924
 30
0.0
 11
4.7608
 21
1.55364
 31
0.0
  0
LINE
  8
0
  6
CONTINUOUS
 62
   250
 10
4.7608
 20
1.55364
 30
0.0
 11
4.75948
 21
1.5576
 31
0.0
  0
LINE
  8
0
  6
CONTINUOUS
 62
   250
 10
4.75948
 20
1.5576
 30
0.0
 11
4.75772
 21
1.56156
 31
0.0
  0
LINE
  8
0
  6
CONTINUOUS
 62
   250
 10
4.75772
 20
1.56156
 30
0.0
 11
4.75552
 21
1.56552
 31
0.0
  0
LINE
  8
0
  6
CONTINUOUS
 62
   250
 10
4.75552
 20
1.56552
 30
0.0
 11
4.75288
 21
1.56904
 31
0.0
  0
LINE
  8
0
  6
CONTINUOUS
 62
   250
 10
4.75288
 20
1.56904
 30
0.0
 11
4.75024
 21
1.57256
 31
0.0
  0
LINE
  8
0
  6
CONTINUOUS
 62
   250
 10
4.75024
 20
1.57256
 30
0.0
 11
4.74672
 21
1.57564
 31
0.0
  0
LINE
  8
0
  6
CONTINUOUS
 62
   250
 10
4.74672
 20
1.57564
 30
0.0
 11
4.7432
 21
1.57784
 31
0.0
  0
LINE
  8
0
  6
CONTINUOUS
 62
   250
 10
4.7432
 20
1.57784
 30
0.0
 11
4.73924
 21
1.58004
 31
0.0
  0
LINE
  8
0
  6
CONTINUOUS
 62
   250
 10
4.73924
 20
1.58004
 30
0.0
 11
4.73528
 21
1.5818
 31
0.0
  0
LINE
  8
0
  6
CONTINUOUS
 62
   250
 10
4.73528
 20
1.5818
 30
0.0
 11
4.73088
 21
1.58312
 31
0.0
  0
LINE
  8
0
  6
CONTINUOUS
 62
   250
 10
4.73088
 20
1.58312
 30
0.0
 11
4.72692
 21
1.58356
 31
0.0
  0
LINE
  8
0
  6
CONTINUOUS
 62
   250
 10
4.72692
 20
1.58356
 30
0.0
 11
4.72208
 21
1.584
 31
0.0
  0
LINE
  8
0
  6
CONTINUOUS
 62
   250
 10
4.72208
 20
1.584
 30
0.0
 11
4.71812
 21
1.58356
 31
0.0
  0
LINE
  8
0
  6
CONTINUOUS
 62
   250
 10
4.71812
 20
1.58356
 30
0.0
 11
4.71372
 21
1.58312
 31
0.0
  0
LINE
  8
0
  6
CONTINUOUS
 62
   250
 10
4.71372
 20
1.58312
 30
0.0
 11
4.70932
 21
1.5818
 31
0.0
  0
LINE
  8
0
  6
CONTINUOUS
 62
   250
 10
4.70932
 20
1.5818
 30
0.0
 11
4.70536
 21
1.58004
 31
0.0
  0
LINE
  8
0
  6
CONTINUOUS
 62
   250
 10
4.70536
 20
1.58004
 30
0.0
 11
4.7014
 21
1.57784
 31
0.0
  0
LINE
  8
0
  6
CONTINUOUS
 62
   250
 10
4.7014
 20
1.57784
 30
0.0
 11
4.69788
 21
1.57564
 31
0.0
  0
LINE
  8
0
  6
CONTINUOUS
 62
   250
 10
4.69788
 20
1.57564
 30
0.0
 11
4.69436
 21
1.57256
 31
0.0
  0
LINE
  8
0
  6
CONTINUOUS
 62
   250
 10
4.69436
 20
1.57256
 30
0.0
 11
4.69172
 21
1.56904
 31
0.0
  0
LINE
  8
0
  6
CONTINUOUS
 62
   250
 10
4.69172
 20
1.56904
 30
0.0
 11
4.68908
 21
1.56552
 31
0.0
  0
LINE
  8
0
  6
CONTINUOUS
 62
   250
 10
4.68908
 20
1.56552
 30
0.0
 11
4.68688
 21
1.56156
 31
0.0
  0
LINE
  8
0
  6
CONTINUOUS
 62
   250
 10
4.68688
 20
1.56156
 30
0.0
 11
4.68556
 21
1.5576
 31
0.0
  0
LINE
  8
0
  6
CONTINUOUS
 62
   250
 10
4.68556
 20
1.5576
 30
0.0
 11
4.68424
 21
1.55364
 31
0.0
  0
LINE
  8
0
  6
CONTINUOUS
 62
   250
 10
4.68424
 20
1.55364
 30
0.0
 11
4.68336
 21
1.54924
 31
0.0
  0
LINE
  8
0
  6
CONTINUOUS
 62
   250
 10
4.68336
 20
1.54924
 30
0.0
 11
4.68292
 21
1.54484
 31
0.0
  0
LINE
  8
0
  6
CONTINUOUS
 62
   250
 10
4.68292
 20
1.54484
 30
0.0
 11
4.68336
 21
1.54044
 31
0.0
  0
LINE
  8
0
  6
CONTINUOUS
 62
   250
 10
4.68336
 20
1.54044
 30
0.0
 11
4.68424
 21
1.53604
 31
0.0
  0
LINE
  8
0
  6
CONTINUOUS
 62
   250
 10
4.78192
 20
1.5356
 30
0.0
 11
4.78104
 21
1.53384
 31
0.0
  0
LINE
  8
0
  6
CONTINUOUS
 62
   250
 10
4.78104
 20
1.53384
 30
0.0
 11
4.78016
 21
1.53208
 31
0.0
  0
LINE
  8
0
  6
CONTINUOUS
 62
   250
 10
4.78016
 20
1.53208
 30
0.0
 11
4.77972
 21
1.52944
 31
0.0
  0
LINE
  8
0
  6
CONTINUOUS
 62
   250
 10
4.77972
 20
1.52944
 30
0.0
 11
4.78016
 21
1.52768
 31
0.0
  0
LINE
  8
0
  6
CONTINUOUS
 62
   250
 10
4.78016
 20
1.52768
 30
0.0
 11
4.78104
 21
1.52548
 31
0.0
  0
LINE
  8
0
  6
CONTINUOUS
 62
   250
 10
4.78104
 20
1.52548
 30
0.0
 11
4.78192
 21
1.52372
 31
0.0
  0
LINE
  8
0
  6
CONTINUOUS
 62
   250
 10
4.78192
 20
1.52372
 30
0.0
 11
4.78368
 21
1.5224
 31
0.0
  0
LINE
  8
0
  6
CONTINUOUS
 62
   250
 10
4.78368
 20
1.5224
 30
0.0
 11
4.78544
 21
1.52108
 31
0.0
  0
LINE
  8
0
  6
CONTINUOUS
 62
   250
 10
4.78544
 20
1.52108
 30
0.0
 11
4.7872
 21
1.5202
 31
0.0
  0
LINE
  8
0
  6
CONTINUOUS
 62
   250
 10
4.7872
 20
1.5202
 30
0.0
 11
4.7894
 21
1.5202
 31
0.0
  0
LINE
  8
0
  6
CONTINUOUS
 62
   250
 10
4.7894
 20
1.5202
 30
0.0
 11
4.7916
 21
1.5202
 31
0.0
  0
LINE
  8
0
  6
CONTINUOUS
 62
   250
 10
4.7916
 20
1.5202
 30
0.0
 11
4.7938
 21
1.52108
 31
0.0
  0
LINE
  8
0
  6
CONTINUOUS
 62
   250
 10
4.7938
 20
1.52108
 30
0.0
 11
4.79556
 21
1.5224
 31
0.0
  0
LINE
  8
0
  6
CONTINUOUS
 62
   250
 10
4.79556
 20
1.5224
 30
0.0
 11
4.79688
 21
1.52372
 31
0.0
  0
LINE
  8
0
  6
CONTINUOUS
 62
   250
 10
4.79688
 20
1.52372
 30
0.0
 11
4.7982
 21
1.52548
 31
0.0
  0
LINE
  8
0
  6
CONTINUOUS
 62
   250
 10
4.7982
 20
1.52548
 30
0.0
 11
4.79908
 21
1.52768
 31
0.0
  0
LINE
  8
0
  6
CONTINUOUS
 62
   250
 10
4.79908
 20
1.52768
 30
0.0
 11
4.79908
 21
1.52944
 31
0.0
  0
LINE
  8
0
  6
CONTINUOUS
 62
   250
 10
4.79908
 20
1.52944
 30
0.0
 11
4.79908
 21
1.53208
 31
0.0
  0
LINE
  8
0
  6
CONTINUOUS
 62
   250
 10
4.79908
 20
1.53208
 30
0.0
 11
4.7982
 21
1.53384
 31
0.0
  0
LINE
  8
0
  6
CONTINUOUS
 62
   250
 10
4.7982
 20
1.53384
 30
0.0
 11
4.79688
 21
1.5356
 31
0.0
  0
LINE
  8
0
  6
CONTINUOUS
 62
   250
 10
4.79688
 20
1.5356
 30
0.0
 11
4.79556
 21
1.53736
 31
0.0
  0
LINE
  8
0
  6
CONTINUOUS
 62
   250
 10
4.79556
 20
1.53736
 30
0.0
 11
4.7938
 21
1.53824
 31
0.0
  0
LINE
  8
0
  6
CONTINUOUS
 62
   250
 10
4.7938
 20
1.53824
 30
0.0
 11
4.7916
 21
1.53912
 31
0.0
  0
LINE
  8
0
  6
CONTINUOUS
 62
   250
 10
4.7916
 20
1.53912
 30
0.0
 11
4.7894
 21
1.53956
 31
0.0
  0
LINE
  8
0
  6
CONTINUOUS
 62
   250
 10
4.7894
 20
1.53956
 30
0.0
 11
4.7872
 21
1.53912
 31
0.0
  0
LINE
  8
0
  6
CONTINUOUS
 62
   250
 10
4.7872
 20
1.53912
 30
0.0
 11
4.78544
 21
1.53824
 31
0.0
  0
LINE
  8
0
  6
CONTINUOUS
 62
   250
 10
4.78544
 20
1.53824
 30
0.0
 11
4.78368
 21
1.53736
 31
0.0
  0
LINE
  8
0
  6
CONTINUOUS
 62
   250
 10
4.78368
 20
1.53736
 30
0.0
 11
4.78192
 21
1.5356
 31
0.0
  0
LINE
  8
0
  6
CONTINUOUS
 62
   250
 10
4.7894
 20
1.53956
 30
0.0
 11
4.7894
 21
1.5202
 31
0.0
  0
LINE
  8
0
  6
CONTINUOUS
 62
   250
 10
4.80304
 20
1.51052
 30
0.0
 11
4.81448
 21
1.51052
 31
0.0
  0
LINE
  8
0
  6
CONTINUOUS
 62
   250
 10
4.77488
 20
1.51052
 30
0.0
 11
4.77488
 21
1.58708
 31
0.0
  0
LINE
  8
0
  6
CONTINUOUS
 62
   250
 10
4.78368
 20
1.5752
 30
0.0
 11
4.78192
 21
1.57344
 31
0.0
  0
LINE
  8
0
  6
CONTINUOUS
 62
   250
 10
4.78192
 20
1.57344
 30
0.0
 11
4.78104
 21
1.57168
 31
0.0
  0
LINE
  8
0
  6
CONTINUOUS
 62
   250
 10
4.78104
 20
1.57168
 30
0.0
 11
4.78016
 21
1.56992
 31
0.0
  0
LINE
  8
0
  6
CONTINUOUS
 62
   250
 10
4.78016
 20
1.56992
 30
0.0
 11
4.77972
 21
1.56772
 31
0.0
  0
LINE
  8
0
  6
CONTINUOUS
 62
   250
 10
4.77972
 20
1.56772
 30
0.0
 11
4.78016
 21
1.56552
 31
0.0
  0
LINE
  8
0
  6
CONTINUOUS
 62
   250
 10
4.78016
 20
1.56552
 30
0.0
 11
4.78104
 21
1.56332
 31
0.0
  0
LINE
  8
0
  6
CONTINUOUS
 62
   250
 10
4.78104
 20
1.56332
 30
0.0
 11
4.78192
 21
1.56156
 31
0.0
  0
LINE
  8
0
  6
CONTINUOUS
 62
   250
 10
4.78192
 20
1.56156
 30
0.0
 11
4.78368
 21
1.5598
 31
0.0
  0
LINE
  8
0
  6
CONTINUOUS
 62
   250
 10
4.78368
 20
1.5598
 30
0.0
 11
4.78544
 21
1.55892
 31
0.0
  0
LINE
  8
0
  6
CONTINUOUS
 62
   250
 10
4.78544
 20
1.55892
 30
0.0
 11
4.7872
 21
1.55804
 31
0.0
  0
LINE
  8
0
  6
CONTINUOUS
 62
   250
 10
4.7872
 20
1.55804
 30
0.0
 11
4.7894
 21
1.55804
 31
0.0
  0
LINE
  8
0
  6
CONTINUOUS
 62
   250
 10
4.7894
 20
1.55804
 30
0.0
 11
4.7916
 21
1.55804
 31
0.0
  0
LINE
  8
0
  6
CONTINUOUS
 62
   250
 10
4.7916
 20
1.55804
 30
0.0
 11
4.7938
 21
1.55892
 31
0.0
  0
LINE
  8
0
  6
CONTINUOUS
 62
   250
 10
4.7938
 20
1.55892
 30
0.0
 11
4.79556
 21
1.5598
 31
0.0
  0
LINE
  8
0
  6
CONTINUOUS
 62
   250
 10
4.79556
 20
1.5598
 30
0.0
 11
4.79688
 21
1.56156
 31
0.0
  0
LINE
  8
0
  6
CONTINUOUS
 62
   250
 10
4.79688
 20
1.56156
 30
0.0
 11
4.7982
 21
1.56332
 31
0.0
  0
LINE
  8
0
  6
CONTINUOUS
 62
   250
 10
4.7982
 20
1.56332
 30
0.0
 11
4.79908
 21
1.56552
 31
0.0
  0
LINE
  8
0
  6
CONTINUOUS
 62
   250
 10
4.79908
 20
1.56552
 30
0.0
 11
4.79908
 21
1.56772
 31
0.0
  0
LINE
  8
0
  6
CONTINUOUS
 62
   250
 10
4.79908
 20
1.56772
 30
0.0
 11
4.79908
 21
1.56992
 31
0.0
  0
LINE
  8
0
  6
CONTINUOUS
 62
   250
 10
4.79908
 20
1.56992
 30
0.0
 11
4.7982
 21
1.57168
 31
0.0
  0
LINE
  8
0
  6
CONTINUOUS
 62
   250
 10
4.7982
 20
1.57168
 30
0.0
 11
4.79688
 21
1.57344
 31
0.0
  0
LINE
  8
0
  6
CONTINUOUS
 62
   250
 10
4.79688
 20
1.57344
 30
0.0
 11
4.79556
 21
1.5752
 31
0.0
  0
LINE
  8
0
  6
CONTINUOUS
 62
   250
 10
4.79556
 20
1.5752
 30
0.0
 11
4.7938
 21
1.57608
 31
0.0
  0
LINE
  8
0
  6
CONTINUOUS
 62
   250
 10
4.7938
 20
1.57608
 30
0.0
 11
4.7916
 21
1.57696
 31
0.0
  0
LINE
  8
0
  6
CONTINUOUS
 62
   250
 10
4.7916
 20
1.57696
 30
0.0
 11
4.7894
 21
1.5774
 31
0.0
  0
LINE
  8
0
  6
CONTINUOUS
 62
   250
 10
4.7894
 20
1.5774
 30
0.0
 11
4.7872
 21
1.57696
 31
0.0
  0
LINE
  8
0
  6
CONTINUOUS
 62
   250
 10
4.7872
 20
1.57696
 30
0.0
 11
4.78544
 21
1.57608
 31
0.0
  0
LINE
  8
0
  6
CONTINUOUS
 62
   250
 10
4.78544
 20
1.57608
 30
0.0
 11
4.78368
 21
1.5752
 31
0.0
  0
LINE
  8
0
  6
CONTINUOUS
 62
   250
 10
4.77972
 20
1.56772
 30
0.0
 11
4.79908
 21
1.56772
 31
0.0
  0
LINE
  8
0
  6
CONTINUOUS
 62
   250
 10
4.80304
 20
1.58708
 30
0.0
 11
4.81448
 21
1.58708
 31
0.0
  0
LINE
  8
0
  6
CONTINUOUS
 62
   250
 10
4.88092
 20
1.58708
 30
0.0
 11
4.88092
 21
1.51052
 31
0.0
  0
LINE
  8
0
  6
CONTINUOUS
 62
   250
 10
5.08992
 20
1.60468
 30
0.0
 11
5.16692
 21
1.60468
 31
0.0
  0
LINE
  8
0
  6
CONTINUOUS
 62
   250
 10
5.16692
 20
1.67376
 30
0.0
 11
5.16692
 21
1.71072
 31
0.0
  0
LINE
  8
0
  6
CONTINUOUS
 62
   250
 10
5.16692
 20
1.71072
 30
0.0
 11
5.08992
 21
1.71072
 31
0.0
  0
LINE
  8
0
  6
CONTINUOUS
 62
   250
 10
5.08992
 20
1.71072
 30
0.0
 11
5.08992
 21
1.66188
 31
0.0
  0
LINE
  8
0
  6
CONTINUOUS
 62
   250
 10
5.10136
 20
1.69004
 30
0.0
 11
5.10312
 21
1.68872
 31
0.0
  0
LINE
  8
0
  6
CONTINUOUS
 62
   250
 10
5.10312
 20
1.68872
 30
0.0
 11
5.10488
 21
1.6874
 31
0.0
  0
LINE
  8
0
  6
CONTINUOUS
 62
   250
 10
5.10488
 20
1.6874
 30
0.0
 11
5.10664
 21
1.68696
 31
0.0
  0
LINE
  8
0
  6
CONTINUOUS
 62
   250
 10
5.10664
 20
1.68696
 30
0.0
 11
5.10884
 21
1.68652
 31
0.0
  0
LINE
  8
0
  6
CONTINUOUS
 62
   250
 10
5.10884
 20
1.68652
 30
0.0
 11
5.11104
 21
1.68696
 31
0.0
  0
LINE
  8
0
  6
CONTINUOUS
 62
   250
 10
5.11104
 20
1.68696
 30
0.0
 11
5.11324
 21
1.6874
 31
0.0
  0
LINE
  8
0
  6
CONTINUOUS
 62
   250
 10
5.11324
 20
1.6874
 30
0.0
 11
5.115
 21
1.68872
 31
0.0
  0
LINE
  8
0
  6
CONTINUOUS
 62
   250
 10
5.115
 20
1.68872
 30
0.0
 11
5.11676
 21
1.69004
 31
0.0
  0
LINE
  8
0
  6
CONTINUOUS
 62
   250
 10
5.11676
 20
1.69004
 30
0.0
 11
5.11764
 21
1.6918
 31
0.0
  0
LINE
  8
0
  6
CONTINUOUS
 62
   250
 10
5.11764
 20
1.6918
 30
0.0
 11
5.11852
 21
1.694
 31
0.0
  0
LINE
  8
0
  6
CONTINUOUS
 62
   250
 10
5.11852
 20
1.694
 30
0.0
 11
5.11852
 21
1.6962
 31
0.0
  0
LINE
  8
0
  6
CONTINUOUS
 62
   250
 10
5.11852
 20
1.6962
 30
0.0
 11
5.11852
 21
1.6984
 31
0.0
  0
LINE
  8
0
  6
CONTINUOUS
 62
   250
 10
5.11852
 20
1.6984
 30
0.0
 11
5.11764
 21
1.70016
 31
0.0
  0
LINE
  8
0
  6
CONTINUOUS
 62
   250
 10
5.11764
 20
1.70016
 30
0.0
 11
5.11676
 21
1.70236
 31
0.0
  0
LINE
  8
0
  6
CONTINUOUS
 62
   250
 10
5.11676
 20
1.70236
 30
0.0
 11
5.115
 21
1.70368
 31
0.0
  0
LINE
  8
0
  6
CONTINUOUS
 62
   250
 10
5.115
 20
1.70368
 30
0.0
 11
5.11324
 21
1.70456
 31
0.0
  0
LINE
  8
0
  6
CONTINUOUS
 62
   250
 10
5.11324
 20
1.70456
 30
0.0
 11
5.11104
 21
1.70544
 31
0.0
  0
LINE
  8
0
  6
CONTINUOUS
 62
   250
 10
5.11104
 20
1.70544
 30
0.0
 11
5.10884
 21
1.70588
 31
0.0
  0
LINE
  8
0
  6
CONTINUOUS
 62
   250
 10
5.10884
 20
1.70588
 30
0.0
 11
5.10664
 21
1.70544
 31
0.0
  0
LINE
  8
0
  6
CONTINUOUS
 62
   250
 10
5.10664
 20
1.70544
 30
0.0
 11
5.10488
 21
1.70456
 31
0.0
  0
LINE
  8
0
  6
CONTINUOUS
 62
   250
 10
5.10488
 20
1.70456
 30
0.0
 11
5.10312
 21
1.70368
 31
0.0
  0
LINE
  8
0
  6
CONTINUOUS
 62
   250
 10
5.10312
 20
1.70368
 30
0.0
 11
5.10136
 21
1.70236
 31
0.0
  0
LINE
  8
0
  6
CONTINUOUS
 62
   250
 10
5.10136
 20
1.70236
 30
0.0
 11
5.10048
 21
1.70016
 31
0.0
  0
LINE
  8
0
  6
CONTINUOUS
 62
   250
 10
5.10048
 20
1.70016
 30
0.0
 11
5.0996
 21
1.6984
 31
0.0
  0
LINE
  8
0
  6
CONTINUOUS
 62
   250
 10
5.0996
 20
1.6984
 30
0.0
 11
5.0996
 21
1.6962
 31
0.0
  0
LINE
  8
0
  6
CONTINUOUS
 62
   250
 10
5.0996
 20
1.6962
 30
0.0
 11
5.0996
 21
1.694
 31
0.0
  0
LINE
  8
0
  6
CONTINUOUS
 62
   250
 10
5.0996
 20
1.694
 30
0.0
 11
5.10048
 21
1.6918
 31
0.0
  0
LINE
  8
0
  6
CONTINUOUS
 62
   250
 10
5.10048
 20
1.6918
 30
0.0
 11
5.10136
 21
1.69004
 31
0.0
  0
LINE
  8
0
  6
CONTINUOUS
 62
   250
 10
5.0996
 20
1.6962
 30
0.0
 11
5.11852
 21
1.6962
 31
0.0
  0
LINE
  8
0
  6
CONTINUOUS
 62
   250
 10
5.13788
 20
1.6962
 30
0.0
 11
5.13832
 21
1.694
 31
0.0
  0
LINE
  8
0
  6
CONTINUOUS
 62
   250
 10
5.13832
 20
1.694
 30
0.0
 11
5.13876
 21
1.6918
 31
0.0
  0
LINE
  8
0
  6
CONTINUOUS
 62
   250
 10
5.13876
 20
1.6918
 30
0.0
 11
5.14008
 21
1.69004
 31
0.0
  0
LINE
  8
0
  6
CONTINUOUS
 62
   250
 10
5.14008
 20
1.69004
 30
0.0
 11
5.1414
 21
1.68872
 31
0.0
  0
LINE
  8
0
  6
CONTINUOUS
 62
   250
 10
5.1414
 20
1.68872
 30
0.0
 11
5.14316
 21
1.6874
 31
0.0
  0
LINE
  8
0
  6
CONTINUOUS
 62
   250
 10
5.14316
 20
1.6874
 30
0.0
 11
5.14536
 21
1.68696
 31
0.0
  0
LINE
  8
0
  6
CONTINUOUS
 62
   250
 10
5.14536
 20
1.68696
 30
0.0
 11
5.14756
 21
1.68652
 31
0.0
  0
LINE
  8
0
  6
CONTINUOUS
 62
   250
 10
5.14756
 20
1.68652
 30
0.0
 11
5.14976
 21
1.68696
 31
0.0
  0
LINE
  8
0
  6
CONTINUOUS
 62
   250
 10
5.14976
 20
1.68696
 30
0.0
 11
5.15152
 21
1.6874
 31
0.0
  0
LINE
  8
0
  6
CONTINUOUS
 62
   250
 10
5.15152
 20
1.6874
 30
0.0
 11
5.15328
 21
1.68872
 31
0.0
  0
LINE
  8
0
  6
CONTINUOUS
 62
   250
 10
5.15328
 20
1.68872
 30
0.0
 11
5.15504
 21
1.69004
 31
0.0
  0
LINE
  8
0
  6
CONTINUOUS
 62
   250
 10
5.15504
 20
1.69004
 30
0.0
 11
5.15636
 21
1.6918
 31
0.0
  0
LINE
  8
0
  6
CONTINUOUS
 62
   250
 10
5.15636
 20
1.6918
 30
0.0
 11
5.1568
 21
1.694
 31
0.0
  0
LINE
  8
0
  6
CONTINUOUS
 62
   250
 10
5.1568
 20
1.694
 30
0.0
 11
5.15724
 21
1.6962
 31
0.0
  0
LINE
  8
0
  6
CONTINUOUS
 62
   250
 10
5.15724
 20
1.6962
 30
0.0
 11
5.1568
 21
1.6984
 31
0.0
  0
LINE
  8
0
  6
CONTINUOUS
 62
   250
 10
5.1568
 20
1.6984
 30
0.0
 11
5.15636
 21
1.70016
 31
0.0
  0
LINE
  8
0
  6
CONTINUOUS
 62
   250
 10
5.15636
 20
1.70016
 30
0.0
 11
5.15504
 21
1.70236
 31
0.0
  0
LINE
  8
0
  6
CONTINUOUS
 62
   250
 10
5.15504
 20
1.70236
 30
0.0
 11
5.15328
 21
1.70368
 31
0.0
  0
LINE
  8
0
  6
CONTINUOUS
 62
   250
 10
5.15328
 20
1.70368
 30
0.0
 11
5.15152
 21
1.70456
 31
0.0
  0
LINE
  8
0
  6
CONTINUOUS
 62
   250
 10
5.15152
 20
1.70456
 30
0.0
 11
5.14976
 21
1.70544
 31
0.0
  0
LINE
  8
0
  6
CONTINUOUS
 62
   250
 10
5.14976
 20
1.70544
 30
0.0
 11
5.14756
 21
1.70588
 31
0.0
  0
LINE
  8
0
  6
CONTINUOUS
 62
   250
 10
5.14756
 20
1.70588
 30
0.0
 11
5.14536
 21
1.70544
 31
0.0
  0
LINE
  8
0
  6
CONTINUOUS
 62
   250
 10
5.14536
 20
1.70544
 30
0.0
 11
5.14316
 21
1.70456
 31
0.0
  0
LINE
  8
0
  6
CONTINUOUS
 62
   250
 10
5.14316
 20
1.70456
 30
0.0
 11
5.1414
 21
1.70368
 31
0.0
  0
LINE
  8
0
  6
CONTINUOUS
 62
   250
 10
5.1414
 20
1.70368
 30
0.0
 11
5.14008
 21
1.70236
 31
0.0
  0
LINE
  8
0
  6
CONTINUOUS
 62
   250
 10
5.14008
 20
1.70236
 30
0.0
 11
5.13876
 21
1.70016
 31
0.0
  0
LINE
  8
0
  6
CONTINUOUS
 62
   250
 10
5.13876
 20
1.70016
 30
0.0
 11
5.13832
 21
1.6984
 31
0.0
  0
LINE
  8
0
  6
CONTINUOUS
 62
   250
 10
5.13832
 20
1.6984
 30
0.0
 11
5.13788
 21
1.6962
 31
0.0
  0
LINE
  8
0
  6
CONTINUOUS
 62
   250
 10
5.14756
 20
1.70588
 30
0.0
 11
5.14756
 21
1.68652
 31
0.0
  0
LINE
  8
0
  6
CONTINUOUS
 62
   250
 10
5.2052
 20
1.36532
 30
0.0
 11
5.20388
 21
1.36356
 31
0.0
  0
LINE
  8
0
  6
CONTINUOUS
 62
   250
 10
5.20388
 20
1.36356
 30
0.0
 11
5.20344
 21
1.3618
 31
0.0
  0
LINE
  8
0
  6
CONTINUOUS
 62
   250
 10
5.20344
 20
1.3618
 30
0.0
 11
5.203
 21
1.3596
 31
0.0
  0
LINE
  8
0
  6
CONTINUOUS
 62
   250
 10
5.203
 20
1.3596
 30
0.0
 11
5.20344
 21
1.3574
 31
0.0
  0
LINE
  8
0
  6
CONTINUOUS
 62
   250
 10
5.20344
 20
1.3574
 30
0.0
 11
5.20388
 21
1.3552
 31
0.0
  0
LINE
  8
0
  6
CONTINUOUS
 62
   250
 10
5.20388
 20
1.3552
 30
0.0
 11
5.2052
 21
1.35344
 31
0.0
  0
LINE
  8
0
  6
CONTINUOUS
 62
   250
 10
5.2052
 20
1.35344
 30
0.0
 11
5.20696
 21
1.35212
 31
0.0
  0
LINE
  8
0
  6
CONTINUOUS
 62
   250
 10
5.20696
 20
1.35212
 30
0.0
 11
5.20872
 21
1.3508
 31
0.0
  0
LINE
  8
0
  6
CONTINUOUS
 62
   250
 10
5.20872
 20
1.3508
 30
0.0
 11
5.21048
 21
1.34992
 31
0.0
  0
LINE
  8
0
  6
CONTINUOUS
 62
   250
 10
5.21048
 20
1.34992
 30
0.0
 11
5.21268
 21
1.34992
 31
0.0
  0
LINE
  8
0
  6
CONTINUOUS
 62
   250
 10
5.21268
 20
1.34992
 30
0.0
 11
5.21488
 21
1.34992
 31
0.0
  0
LINE
  8
0
  6
CONTINUOUS
 62
   250
 10
5.21488
 20
1.34992
 30
0.0
 11
5.21708
 21
1.3508
 31
0.0
  0
LINE
  8
0
  6
CONTINUOUS
 62
   250
 10
5.21708
 20
1.3508
 30
0.0
 11
5.21884
 21
1.35212
 31
0.0
  0
LINE
  8
0
  6
CONTINUOUS
 62
   250
 10
5.21884
 20
1.35212
 30
0.0
 11
5.22016
 21
1.35344
 31
0.0
  0
LINE
  8
0
  6
CONTINUOUS
 62
   250
 10
5.22016
 20
1.35344
 30
0.0
 11
5.22148
 21
1.3552
 31
0.0
  0
LINE
  8
0
  6
CONTINUOUS
 62
   250
 10
5.22148
 20
1.3552
 30
0.0
 11
5.22192
 21
1.3574
 31
0.0
  0
LINE
  8
0
  6
CONTINUOUS
 62
   250
 10
5.22192
 20
1.3574
 30
0.0
 11
5.22236
 21
1.3596
 31
0.0
  0
LINE
  8
0
  6
CONTINUOUS
 62
   250
 10
5.22236
 20
1.3596
 30
0.0
 11
5.22192
 21
1.3618
 31
0.0
  0
LINE
  8
0
  6
CONTINUOUS
 62
   250
 10
5.22192
 20
1.3618
 30
0.0
 11
5.22148
 21
1.36356
 31
0.0
  0
LINE
  8
0
  6
CONTINUOUS
 62
   250
 10
5.22148
 20
1.36356
 30
0.0
 11
5.22016
 21
1.36532
 31
0.0
  0
LINE
  8
0
  6
CONTINUOUS
 62
   250
 10
5.22016
 20
1.36532
 30
0.0
 11
5.21884
 21
1.36708
 31
0.0
  0
LINE
  8
0
  6
CONTINUOUS
 62
   250
 10
5.21884
 20
1.36708
 30
0.0
 11
5.21708
 21
1.36796
 31
0.0
  0
LINE
  8
0
  6
CONTINUOUS
 62
   250
 10
5.21708
 20
1.36796
 30
0.0
 11
5.21488
 21
1.36884
 31
0.0
  0
LINE
  8
0
  6
CONTINUOUS
 62
   250
 10
5.21488
 20
1.36884
 30
0.0
 11
5.21268
 21
1.36928
 31
0.0
  0
LINE
  8
0
  6
CONTINUOUS
 62
   250
 10
5.21268
 20
1.36928
 30
0.0
 11
5.21048
 21
1.36884
 31
0.0
  0
LINE
  8
0
  6
CONTINUOUS
 62
   250
 10
5.21048
 20
1.36884
 30
0.0
 11
5.20872
 21
1.36796
 31
0.0
  0
LINE
  8
0
  6
CONTINUOUS
 62
   250
 10
5.20872
 20
1.36796
 30
0.0
 11
5.20696
 21
1.36708
 31
0.0
  0
LINE
  8
0
  6
CONTINUOUS
 62
   250
 10
5.20696
 20
1.36708
 30
0.0
 11
5.2052
 21
1.36532
 31
0.0
  0
LINE
  8
0
  6
CONTINUOUS
 62
   250
 10
5.21268
 20
1.36928
 30
0.0
 11
5.21268
 21
1.34992
 31
0.0
  0
LINE
  8
0
  6
CONTINUOUS
 62
   250
 10
5.19332
 20
1.34508
 30
0.0
 11
5.34688
 21
1.34508
 31
0.0
  0
LINE
  8
0
  6
CONTINUOUS
 62
   250
 10
5.34688
 20
1.34508
 30
0.0
 11
5.34688
 21
1.45112
 31
0.0
  0
LINE
  8
0
  6
CONTINUOUS
 62
   250
 10
5.26988
 20
1.45112
 30
0.0
 11
5.26988
 21
1.3838
 31
0.0
  0
LINE
  8
0
  6
CONTINUOUS
 62
   250
 10
5.258
 20
1.36532
 30
0.0
 11
5.25668
 21
1.36708
 31
0.0
  0
LINE
  8
0
  6
CONTINUOUS
 62
   250
 10
5.25668
 20
1.36708
 30
0.0
 11
5.25492
 21
1.36796
 31
0.0
  0
LINE
  8
0
  6
CONTINUOUS
 62
   250
 10
5.25492
 20
1.36796
 30
0.0
 11
5.25272
 21
1.36884
 31
0.0
  0
LINE
  8
0
  6
CONTINUOUS
 62
   250
 10
5.25272
 20
1.36884
 30
0.0
 11
5.25052
 21
1.36928
 31
0.0
  0
LINE
  8
0
  6
CONTINUOUS
 62
   250
 10
5.25052
 20
1.36928
 30
0.0
 11
5.24832
 21
1.36884
 31
0.0
  0
LINE
  8
0
  6
CONTINUOUS
 62
   250
 10
5.24832
 20
1.36884
 30
0.0
 11
5.24612
 21
1.36796
 31
0.0
  0
LINE
  8
0
  6
CONTINUOUS
 62
   250
 10
5.24612
 20
1.36796
 30
0.0
 11
5.2448
 21
1.36708
 31
0.0
  0
LINE
  8
0
  6
CONTINUOUS
 62
   250
 10
5.2448
 20
1.36708
 30
0.0
 11
5.24304
 21
1.36532
 31
0.0
  0
LINE
  8
0
  6
CONTINUOUS
 62
   250
 10
5.24304
 20
1.36532
 30
0.0
 11
5.24172
 21
1.36356
 31
0.0
  0
LINE
  8
0
  6
CONTINUOUS
 62
   250
 10
5.24172
 20
1.36356
 30
0.0
 11
5.24128
 21
1.3618
 31
0.0
  0
LINE
  8
0
  6
CONTINUOUS
 62
   250
 10
5.24128
 20
1.3618
 30
0.0
 11
5.24084
 21
1.3596
 31
0.0
  0
LINE
  8
0
  6
CONTINUOUS
 62
   250
 10
5.24084
 20
1.3596
 30
0.0
 11
5.24128
 21
1.3574
 31
0.0
  0
LINE
  8
0
  6
CONTINUOUS
 62
   250
 10
5.24128
 20
1.3574
 30
0.0
 11
5.24172
 21
1.3552
 31
0.0
  0
LINE
  8
0
  6
CONTINUOUS
 62
   250
 10
5.24172
 20
1.3552
 30
0.0
 11
5.24304
 21
1.35344
 31
0.0
  0
LINE
  8
0
  6
CONTINUOUS
 62
   250
 10
5.24304
 20
1.35344
 30
0.0
 11
5.2448
 21
1.35212
 31
0.0
  0
LINE
  8
0
  6
CONTINUOUS
 62
   250
 10
5.2448
 20
1.35212
 30
0.0
 11
5.24612
 21
1.3508
 31
0.0
  0
LINE
  8
0
  6
CONTINUOUS
 62
   250
 10
5.24612
 20
1.3508
 30
0.0
 11
5.24832
 21
1.34992
 31
0.0
  0
LINE
  8
0
  6
CONTINUOUS
 62
   250
 10
5.24832
 20
1.34992
 30
0.0
 11
5.25052
 21
1.34992
 31
0.0
  0
LINE
  8
0
  6
CONTINUOUS
 62
   250
 10
5.25052
 20
1.34992
 30
0.0
 11
5.25272
 21
1.34992
 31
0.0
  0
LINE
  8
0
  6
CONTINUOUS
 62
   250
 10
5.25272
 20
1.34992
 30
0.0
 11
5.25492
 21
1.3508
 31
0.0
  0
LINE
  8
0
  6
CONTINUOUS
 62
   250
 10
5.25492
 20
1.3508
 30
0.0
 11
5.25668
 21
1.35212
 31
0.0
  0
LINE
  8
0
  6
CONTINUOUS
 62
   250
 10
5.25668
 20
1.35212
 30
0.0
 11
5.258
 21
1.35344
 31
0.0
  0
LINE
  8
0
  6
CONTINUOUS
 62
   250
 10
5.258
 20
1.35344
 30
0.0
 11
5.25932
 21
1.3552
 31
0.0
  0
LINE
  8
0
  6
CONTINUOUS
 62
   250
 10
5.25932
 20
1.3552
 30
0.0
 11
5.25976
 21
1.3574
 31
0.0
  0
LINE
  8
0
  6
CONTINUOUS
 62
   250
 10
5.25976
 20
1.3574
 30
0.0
 11
5.2602
 21
1.3596
 31
0.0
  0
LINE
  8
0
  6
CONTINUOUS
 62
   250
 10
5.2602
 20
1.3596
 30
0.0
 11
5.25976
 21
1.3618
 31
0.0
  0
LINE
  8
0
  6
CONTINUOUS
 62
   250
 10
5.25976
 20
1.3618
 30
0.0
 11
5.25932
 21
1.36356
 31
0.0
  0
LINE
  8
0
  6
CONTINUOUS
 62
   250
 10
5.25932
 20
1.36356
 30
0.0
 11
5.258
 21
1.36532
 31
0.0
  0
LINE
  8
0
  6
CONTINUOUS
 62
   250
 10
5.2602
 20
1.3596
 30
0.0
 11
5.24084
 21
1.3596
 31
0.0
  0
LINE
  8
0
  6
CONTINUOUS
 62
   250
 10
5.27956
 20
1.3596
 30
0.0
 11
5.27956
 21
1.3574
 31
0.0
  0
LINE
  8
0
  6
CONTINUOUS
 62
   250
 10
5.27956
 20
1.3574
 30
0.0
 11
5.28044
 21
1.3552
 31
0.0
  0
LINE
  8
0
  6
CONTINUOUS
 62
   250
 10
5.28044
 20
1.3552
 30
0.0
 11
5.28176
 21
1.35344
 31
0.0
  0
LINE
  8
0
  6
CONTINUOUS
 62
   250
 10
5.28176
 20
1.35344
 30
0.0
 11
5.28308
 21
1.35212
 31
0.0
  0
LINE
  8
0
  6
CONTINUOUS
 62
   250
 10
5.28308
 20
1.35212
 30
0.0
 11
5.28484
 21
1.3508
 31
0.0
  0
LINE
  8
0
  6
CONTINUOUS
 62
   250
 10
5.28484
 20
1.3508
 30
0.0
 11
5.28704
 21
1.34992
 31
0.0
  0
LINE
  8
0
  6
CONTINUOUS
 62
   250
 10
5.28704
 20
1.34992
 30
0.0
 11
5.28924
 21
1.34992
 31
0.0
  0
LINE
  8
0
  6
CONTINUOUS
 62
   250
 10
5.28924
 20
1.34992
 30
0.0
 11
5.29144
 21
1.34992
 31
0.0
  0
LINE
  8
0
  6
CONTINUOUS
 62
   250
 10
5.29144
 20
1.34992
 30
0.0
 11
5.2932
 21
1.3508
 31
0.0
  0
LINE
  8
0
  6
CONTINUOUS
 62
   250
 10
5.2932
 20
1.3508
 30
0.0
 11
5.29496
 21
1.35212
 31
0.0
  0
LINE
  8
0
  6
CONTINUOUS
 62
   250
 10
5.29496
 20
1.35212
 30
0.0
 11
5.29672
 21
1.35344
 31
0.0
  0
LINE
  8
0
  6
CONTINUOUS
 62
   250
 10
5.29672
 20
1.35344
 30
0.0
 11
5.2976
 21
1.3552
 31
0.0
  0
LINE
  8
0
  6
CONTINUOUS
 62
   250
 10
5.2976
 20
1.3552
 30
0.0
 11
5.29848
 21
1.3574
 31
0.0
  0
LINE
  8
0
  6
CONTINUOUS
 62
   250
 10
5.29848
 20
1.3574
 30
0.0
 11
5.29892
 21
1.3596
 31
0.0
  0
LINE
  8
0
  6
CONTINUOUS
 62
   250
 10
5.29892
 20
1.3596
 30
0.0
 11
5.29848
 21
1.3618
 31
0.0
  0
LINE
  8
0
  6
CONTINUOUS
 62
   250
 10
5.29848
 20
1.3618
 30
0.0
 11
5.2976
 21
1.36356
 31
0.0
  0
LINE
  8
0
  6
CONTINUOUS
 62
   250
 10
5.2976
 20
1.36356
 30
0.0
 11
5.29672
 21
1.36532
 31
0.0
  0
LINE
  8
0
  6
CONTINUOUS
 62
   250
 10
5.29672
 20
1.36532
 30
0.0
 11
5.29496
 21
1.36708
 31
0.0
  0
LINE
  8
0
  6
CONTINUOUS
 62
   250
 10
5.29496
 20
1.36708
 30
0.0
 11
5.2932
 21
1.36796
 31
0.0
  0
LINE
  8
0
  6
CONTINUOUS
 62
   250
 10
5.2932
 20
1.36796
 30
0.0
 11
5.29144
 21
1.36884
 31
0.0
  0
LINE
  8
0
  6
CONTINUOUS
 62
   250
 10
5.29144
 20
1.36884
 30
0.0
 11
5.28924
 21
1.36928
 31
0.0
  0
LINE
  8
0
  6
CONTINUOUS
 62
   250
 10
5.28924
 20
1.36928
 30
0.0
 11
5.28704
 21
1.36884
 31
0.0
  0
LINE
  8
0
  6
CONTINUOUS
 62
   250
 10
5.28704
 20
1.36884
 30
0.0
 11
5.28484
 21
1.36796
 31
0.0
  0
LINE
  8
0
  6
CONTINUOUS
 62
   250
 10
5.28484
 20
1.36796
 30
0.0
 11
5.28308
 21
1.36708
 31
0.0
  0
LINE
  8
0
  6
CONTINUOUS
 62
   250
 10
5.28308
 20
1.36708
 30
0.0
 11
5.28176
 21
1.36532
 31
0.0
  0
LINE
  8
0
  6
CONTINUOUS
 62
   250
 10
5.28176
 20
1.36532
 30
0.0
 11
5.28044
 21
1.36356
 31
0.0
  0
LINE
  8
0
  6
CONTINUOUS
 62
   250
 10
5.28044
 20
1.36356
 30
0.0
 11
5.27956
 21
1.3618
 31
0.0
  0
LINE
  8
0
  6
CONTINUOUS
 62
   250
 10
5.27956
 20
1.3618
 30
0.0
 11
5.27956
 21
1.3596
 31
0.0
  0
LINE
  8
0
  6
CONTINUOUS
 62
   250
 10
5.27956
 20
1.3596
 30
0.0
 11
5.29892
 21
1.3596
 31
0.0
  0
LINE
  8
0
  6
CONTINUOUS
 62
   250
 10
5.31784
 20
1.3596
 30
0.0
 11
5.31828
 21
1.3574
 31
0.0
  0
LINE
  8
0
  6
CONTINUOUS
 62
   250
 10
5.31828
 20
1.3574
 30
0.0
 11
5.31872
 21
1.3552
 31
0.0
  0
LINE
  8
0
  6
CONTINUOUS
 62
   250
 10
5.31872
 20
1.3552
 30
0.0
 11
5.32004
 21
1.35344
 31
0.0
  0
LINE
  8
0
  6
CONTINUOUS
 62
   250
 10
5.32004
 20
1.35344
 30
0.0
 11
5.3218
 21
1.35212
 31
0.0
  0
LINE
  8
0
  6
CONTINUOUS
 62
   250
 10
5.3218
 20
1.35212
 30
0.0
 11
5.32356
 21
1.3508
 31
0.0
  0
LINE
  8
0
  6
CONTINUOUS
 62
   250
 10
5.32356
 20
1.3508
 30
0.0
 11
5.32532
 21
1.34992
 31
0.0
  0
LINE
  8
0
  6
CONTINUOUS
 62
   250
 10
5.32532
 20
1.34992
 30
0.0
 11
5.32752
 21
1.34992
 31
0.0
  0
LINE
  8
0
  6
CONTINUOUS
 62
   250
 10
5.32752
 20
1.34992
 30
0.0
 11
5.32972
 21
1.34992
 31
0.0
  0
LINE
  8
0
  6
CONTINUOUS
 62
   250
 10
5.32972
 20
1.34992
 30
0.0
 11
5.33192
 21
1.3508
 31
0.0
  0
LINE
  8
0
  6
CONTINUOUS
 62
   250
 10
5.33192
 20
1.3508
 30
0.0
 11
5.33368
 21
1.35212
 31
0.0
  0
LINE
  8
0
  6
CONTINUOUS
 62
   250
 10
5.33368
 20
1.35212
 30
0.0
 11
5.335
 21
1.35344
 31
0.0
  0
LINE
  8
0
  6
CONTINUOUS
 62
   250
 10
5.335
 20
1.35344
 30
0.0
 11
5.33632
 21
1.3552
 31
0.0
  0
LINE
  8
0
  6
CONTINUOUS
 62
   250
 10
5.33632
 20
1.3552
 30
0.0
 11
5.33676
 21
1.3574
 31
0.0
  0
LINE
  8
0
  6
CONTINUOUS
 62
   250
 10
5.33676
 20
1.3574
 30
0.0
 11
5.3372
 21
1.3596
 31
0.0
  0
LINE
  8
0
  6
CONTINUOUS
 62
   250
 10
5.3372
 20
1.3596
 30
0.0
 11
5.33676
 21
1.3618
 31
0.0
  0
LINE
  8
0
  6
CONTINUOUS
 62
   250
 10
5.33676
 20
1.3618
 30
0.0
 11
5.33632
 21
1.36356
 31
0.0
  0
LINE
  8
0
  6
CONTINUOUS
 62
   250
 10
5.33632
 20
1.36356
 30
0.0
 11
5.335
 21
1.36532
 31
0.0
  0
LINE
  8
0
  6
CONTINUOUS
 62
   250
 10
5.335
 20
1.36532
 30
0.0
 11
5.33368
 21
1.36708
 31
0.0
  0
LINE
  8
0
  6
CONTINUOUS
 62
   250
 10
5.33368
 20
1.36708
 30
0.0
 11
5.33192
 21
1.36796
 31
0.0
  0
LINE
  8
0
  6
CONTINUOUS
 62
   250
 10
5.33192
 20
1.36796
 30
0.0
 11
5.32972
 21
1.36884
 31
0.0
  0
LINE
  8
0
  6
CONTINUOUS
 62
   250
 10
5.32972
 20
1.36884
 30
0.0
 11
5.32752
 21
1.36928
 31
0.0
  0
LINE
  8
0
  6
CONTINUOUS
 62
   250
 10
5.32752
 20
1.36928
 30
0.0
 11
5.32532
 21
1.36884
 31
0.0
  0
LINE
  8
0
  6
CONTINUOUS
 62
   250
 10
5.32532
 20
1.36884
 30
0.0
 11
5.32356
 21
1.36796
 31
0.0
  0
LINE
  8
0
  6
CONTINUOUS
 62
   250
 10
5.32356
 20
1.36796
 30
0.0
 11
5.3218
 21
1.36708
 31
0.0
  0
LINE
  8
0
  6
CONTINUOUS
 62
   250
 10
5.3218
 20
1.36708
 30
0.0
 11
5.32004
 21
1.36532
 31
0.0
  0
LINE
  8
0
  6
CONTINUOUS
 62
   250
 10
5.32004
 20
1.36532
 30
0.0
 11
5.31872
 21
1.36356
 31
0.0
  0
LINE
  8
0
  6
CONTINUOUS
 62
   250
 10
5.31872
 20
1.36356
 30
0.0
 11
5.31828
 21
1.3618
 31
0.0
  0
LINE
  8
0
  6
CONTINUOUS
 62
   250
 10
5.31828
 20
1.3618
 30
0.0
 11
5.31784
 21
1.3596
 31
0.0
  0
LINE
  8
0
  6
CONTINUOUS
 62
   250
 10
5.32752
 20
1.34992
 30
0.0
 11
5.32752
 21
1.36928
 31
0.0
  0
LINE
  8
0
  6
CONTINUOUS
 62
   250
 10
5.26988
 20
1.45112
 30
0.0
 11
5.19332
 21
1.45112
 31
0.0
  0
LINE
  8
0
  6
CONTINUOUS
 62
   250
 10
5.19332
 20
1.45112
 30
0.0
 11
5.19332
 21
1.3838
 31
0.0
  0
LINE
  8
0
  6
CONTINUOUS
 62
   250
 10
5.16868
 20
1.36532
 30
0.0
 11
5.16736
 21
1.36708
 31
0.0
  0
LINE
  8
0
  6
CONTINUOUS
 62
   250
 10
5.16736
 20
1.36708
 30
0.0
 11
5.1656
 21
1.36796
 31
0.0
  0
LINE
  8
0
  6
CONTINUOUS
 62
   250
 10
5.1656
 20
1.36796
 30
0.0
 11
5.1634
 21
1.36884
 31
0.0
  0
LINE
  8
0
  6
CONTINUOUS
 62
   250
 10
5.1634
 20
1.36884
 30
0.0
 11
5.1612
 21
1.36928
 31
0.0
  0
LINE
  8
0
  6
CONTINUOUS
 62
   250
 10
5.1612
 20
1.36928
 30
0.0
 11
5.15944
 21
1.36884
 31
0.0
  0
LINE
  8
0
  6
CONTINUOUS
 62
   250
 10
5.15944
 20
1.36884
 30
0.0
 11
5.15724
 21
1.36796
 31
0.0
  0
LINE
  8
0
  6
CONTINUOUS
 62
   250
 10
5.15724
 20
1.36796
 30
0.0
 11
5.15548
 21
1.36708
 31
0.0
  0
LINE
  8
0
  6
CONTINUOUS
 62
   250
 10
5.15548
 20
1.36708
 30
0.0
 11
5.15372
 21
1.36532
 31
0.0
  0
LINE
  8
0
  6
CONTINUOUS
 62
   250
 10
5.15372
 20
1.36532
 30
0.0
 11
5.15284
 21
1.36356
 31
0.0
  0
LINE
  8
0
  6
CONTINUOUS
 62
   250
 10
5.15284
 20
1.36356
 30
0.0
 11
5.15196
 21
1.3618
 31
0.0
  0
LINE
  8
0
  6
CONTINUOUS
 62
   250
 10
5.15196
 20
1.3618
 30
0.0
 11
5.15196
 21
1.3596
 31
0.0
  0
LINE
  8
0
  6
CONTINUOUS
 62
   250
 10
5.15196
 20
1.3596
 30
0.0
 11
5.15196
 21
1.3574
 31
0.0
  0
LINE
  8
0
  6
CONTINUOUS
 62
   250
 10
5.15196
 20
1.3574
 30
0.0
 11
5.15284
 21
1.3552
 31
0.0
  0
LINE
  8
0
  6
CONTINUOUS
 62
   250
 10
5.15284
 20
1.3552
 30
0.0
 11
5.15372
 21
1.35344
 31
0.0
  0
LINE
  8
0
  6
CONTINUOUS
 62
   250
 10
5.15372
 20
1.35344
 30
0.0
 11
5.15548
 21
1.35212
 31
0.0
  0
LINE
  8
0
  6
CONTINUOUS
 62
   250
 10
5.15548
 20
1.35212
 30
0.0
 11
5.15724
 21
1.3508
 31
0.0
  0
LINE
  8
0
  6
CONTINUOUS
 62
   250
 10
5.15724
 20
1.3508
 30
0.0
 11
5.15944
 21
1.34992
 31
0.0
  0
LINE
  8
0
  6
CONTINUOUS
 62
   250
 10
5.15944
 20
1.34992
 30
0.0
 11
5.1612
 21
1.34992
 31
0.0
  0
LINE
  8
0
  6
CONTINUOUS
 62
   250
 10
5.1612
 20
1.34992
 30
0.0
 11
5.1634
 21
1.34992
 31
0.0
  0
LINE
  8
0
  6
CONTINUOUS
 62
   250
 10
5.1634
 20
1.34992
 30
0.0
 11
5.1656
 21
1.3508
 31
0.0
  0
LINE
  8
0
  6
CONTINUOUS
 62
   250
 10
5.1656
 20
1.3508
 30
0.0
 11
5.16736
 21
1.35212
 31
0.0
  0
LINE
  8
0
  6
CONTINUOUS
 62
   250
 10
5.16736
 20
1.35212
 30
0.0
 11
5.16868
 21
1.35344
 31
0.0
  0
LINE
  8
0
  6
CONTINUOUS
 62
   250
 10
5.16868
 20
1.35344
 30
0.0
 11
5.17
 21
1.3552
 31
0.0
  0
LINE
  8
0
  6
CONTINUOUS
 62
   250
 10
5.17
 20
1.3552
 30
0.0
 11
5.17088
 21
1.3574
 31
0.0
  0
LINE
  8
0
  6
CONTINUOUS
 62
   250
 10
5.17088
 20
1.3574
 30
0.0
 11
5.17088
 21
1.3596
 31
0.0
  0
LINE
  8
0
  6
CONTINUOUS
 62
   250
 10
5.17088
 20
1.3596
 30
0.0
 11
5.17088
 21
1.3618
 31
0.0
  0
LINE
  8
0
  6
CONTINUOUS
 62
   250
 10
5.17088
 20
1.3618
 30
0.0
 11
5.17
 21
1.36356
 31
0.0
  0
LINE
  8
0
  6
CONTINUOUS
 62
   250
 10
5.17
 20
1.36356
 30
0.0
 11
5.16868
 21
1.36532
 31
0.0
  0
LINE
  8
0
  6
CONTINUOUS
 62
   250
 10
5.1612
 20
1.36928
 30
0.0
 11
5.1612
 21
1.34992
 31
0.0
  0
LINE
  8
0
  6
CONTINUOUS
 62
   250
 10
5.18056
 20
1.34508
 30
0.0
 11
5.02744
 21
1.34508
 31
0.0
  0
LINE
  8
0
  6
CONTINUOUS
 62
   250
 10
5.02744
 20
1.34508
 30
0.0
 11
5.02744
 21
1.3838
 31
0.0
  0
LINE
  8
0
  6
CONTINUOUS
 62
   250
 10
5.03888
 20
1.36532
 30
0.0
 11
5.038
 21
1.36356
 31
0.0
  0
LINE
  8
0
  6
CONTINUOUS
 62
   250
 10
5.038
 20
1.36356
 30
0.0
 11
5.03712
 21
1.3618
 31
0.0
  0
LINE
  8
0
  6
CONTINUOUS
 62
   250
 10
5.03712
 20
1.3618
 30
0.0
 11
5.03668
 21
1.3596
 31
0.0
  0
LINE
  8
0
  6
CONTINUOUS
 62
   250
 10
5.03668
 20
1.3596
 30
0.0
 11
5.03712
 21
1.3574
 31
0.0
  0
LINE
  8
0
  6
CONTINUOUS
 62
   250
 10
5.03712
 20
1.3574
 30
0.0
 11
5.038
 21
1.3552
 31
0.0
  0
LINE
  8
0
  6
CONTINUOUS
 62
   250
 10
5.038
 20
1.3552
 30
0.0
 11
5.03888
 21
1.35344
 31
0.0
  0
LINE
  8
0
  6
CONTINUOUS
 62
   250
 10
5.03888
 20
1.35344
 30
0.0
 11
5.04064
 21
1.35212
 31
0.0
  0
LINE
  8
0
  6
CONTINUOUS
 62
   250
 10
5.04064
 20
1.35212
 30
0.0
 11
5.0424
 21
1.3508
 31
0.0
  0
LINE
  8
0
  6
CONTINUOUS
 62
   250
 10
5.0424
 20
1.3508
 30
0.0
 11
5.04416
 21
1.34992
 31
0.0
  0
LINE
  8
0
  6
CONTINUOUS
 62
   250
 10
5.04416
 20
1.34992
 30
0.0
 11
5.0468
 21
1.34992
 31
0.0
  0
LINE
  8
0
  6
CONTINUOUS
 62
   250
 10
5.0468
 20
1.34992
 30
0.0
 11
5.04856
 21
1.34992
 31
0.0
  0
LINE
  8
0
  6
CONTINUOUS
 62
   250
 10
5.04856
 20
1.34992
 30
0.0
 11
5.05076
 21
1.3508
 31
0.0
  0
LINE
  8
0
  6
CONTINUOUS
 62
   250
 10
5.05076
 20
1.3508
 30
0.0
 11
5.05252
 21
1.35212
 31
0.0
  0
LINE
  8
0
  6
CONTINUOUS
 62
   250
 10
5.05252
 20
1.35212
 30
0.0
 11
5.05384
 21
1.35344
 31
0.0
  0
LINE
  8
0
  6
CONTINUOUS
 62
   250
 10
5.05384
 20
1.35344
 30
0.0
 11
5.05516
 21
1.3552
 31
0.0
  0
LINE
  8
0
  6
CONTINUOUS
 62
   250
 10
5.05516
 20
1.3552
 30
0.0
 11
5.05604
 21
1.3574
 31
0.0
  0
LINE
  8
0
  6
CONTINUOUS
 62
   250
 10
5.05604
 20
1.3574
 30
0.0
 11
5.05604
 21
1.3596
 31
0.0
  0
LINE
  8
0
  6
CONTINUOUS
 62
   250
 10
5.05604
 20
1.3596
 30
0.0
 11
5.05604
 21
1.3618
 31
0.0
  0
LINE
  8
0
  6
CONTINUOUS
 62
   250
 10
5.05604
 20
1.3618
 30
0.0
 11
5.05516
 21
1.36356
 31
0.0
  0
LINE
  8
0
  6
CONTINUOUS
 62
   250
 10
5.05516
 20
1.36356
 30
0.0
 11
5.05384
 21
1.36532
 31
0.0
  0
LINE
  8
0
  6
CONTINUOUS
 62
   250
 10
5.05384
 20
1.36532
 30
0.0
 11
5.05252
 21
1.36708
 31
0.0
  0
LINE
  8
0
  6
CONTINUOUS
 62
   250
 10
5.05252
 20
1.36708
 30
0.0
 11
5.05076
 21
1.36796
 31
0.0
  0
LINE
  8
0
  6
CONTINUOUS
 62
   250
 10
5.05076
 20
1.36796
 30
0.0
 11
5.04856
 21
1.36884
 31
0.0
  0
LINE
  8
0
  6
CONTINUOUS
 62
   250
 10
5.04856
 20
1.36884
 30
0.0
 11
5.0468
 21
1.36928
 31
0.0
  0
LINE
  8
0
  6
CONTINUOUS
 62
   250
 10
5.0468
 20
1.36928
 30
0.0
 11
5.04416
 21
1.36884
 31
0.0
  0
LINE
  8
0
  6
CONTINUOUS
 62
   250
 10
5.04416
 20
1.36884
 30
0.0
 11
5.0424
 21
1.36796
 31
0.0
  0
LINE
  8
0
  6
CONTINUOUS
 62
   250
 10
5.0424
 20
1.36796
 30
0.0
 11
5.04064
 21
1.36708
 31
0.0
  0
LINE
  8
0
  6
CONTINUOUS
 62
   250
 10
5.04064
 20
1.36708
 30
0.0
 11
5.03888
 21
1.36532
 31
0.0
  0
LINE
  8
0
  6
CONTINUOUS
 62
   250
 10
5.0468
 20
1.36928
 30
0.0
 11
5.0468
 21
1.34992
 31
0.0
  0
LINE
  8
0
  6
CONTINUOUS
 62
   250
 10
5.07672
 20
1.35344
 30
0.0
 11
5.07848
 21
1.35212
 31
0.0
  0
LINE
  8
0
  6
CONTINUOUS
 62
   250
 10
5.07848
 20
1.35212
 30
0.0
 11
5.08024
 21
1.3508
 31
0.0
  0
LINE
  8
0
  6
CONTINUOUS
 62
   250
 10
5.08024
 20
1.3508
 30
0.0
 11
5.08244
 21
1.34992
 31
0.0
  0
LINE
  8
0
  6
CONTINUOUS
 62
   250
 10
5.08244
 20
1.34992
 30
0.0
 11
5.0842
 21
1.34992
 31
0.0
  0
LINE
  8
0
  6
CONTINUOUS
 62
   250
 10
5.0842
 20
1.34992
 30
0.0
 11
5.0864
 21
1.34992
 31
0.0
  0
LINE
  8
0
  6
CONTINUOUS
 62
   250
 10
5.0864
 20
1.34992
 30
0.0
 11
5.0886
 21
1.3508
 31
0.0
  0
LINE
  8
0
  6
CONTINUOUS
 62
   250
 10
5.0886
 20
1.3508
 30
0.0
 11
5.09036
 21
1.35212
 31
0.0
  0
LINE
  8
0
  6
CONTINUOUS
 62
   250
 10
5.09036
 20
1.35212
 30
0.0
 11
5.09168
 21
1.35344
 31
0.0
  0
LINE
  8
0
  6
CONTINUOUS
 62
   250
 10
5.09168
 20
1.35344
 30
0.0
 11
5.093
 21
1.3552
 31
0.0
  0
LINE
  8
0
  6
CONTINUOUS
 62
   250
 10
5.093
 20
1.3552
 30
0.0
 11
5.09388
 21
1.3574
 31
0.0
  0
LINE
  8
0
  6
CONTINUOUS
 62
   250
 10
5.09388
 20
1.3574
 30
0.0
 11
5.09388
 21
1.3596
 31
0.0
  0
LINE
  8
0
  6
CONTINUOUS
 62
   250
 10
5.09388
 20
1.3596
 30
0.0
 11
5.09388
 21
1.3618
 31
0.0
  0
LINE
  8
0
  6
CONTINUOUS
 62
   250
 10
5.09388
 20
1.3618
 30
0.0
 11
5.093
 21
1.36356
 31
0.0
  0
LINE
  8
0
  6
CONTINUOUS
 62
   250
 10
5.093
 20
1.36356
 30
0.0
 11
5.09168
 21
1.36532
 31
0.0
  0
LINE
  8
0
  6
CONTINUOUS
 62
   250
 10
5.09168
 20
1.36532
 30
0.0
 11
5.09036
 21
1.36708
 31
0.0
  0
LINE
  8
0
  6
CONTINUOUS
 62
   250
 10
5.09036
 20
1.36708
 30
0.0
 11
5.0886
 21
1.36796
 31
0.0
  0
LINE
  8
0
  6
CONTINUOUS
 62
   250
 10
5.0886
 20
1.36796
 30
0.0
 11
5.0864
 21
1.36884
 31
0.0
  0
LINE
  8
0
  6
CONTINUOUS
 62
   250
 10
5.0864
 20
1.36884
 30
0.0
 11
5.0842
 21
1.36928
 31
0.0
  0
LINE
  8
0
  6
CONTINUOUS
 62
   250
 10
5.0842
 20
1.36928
 30
0.0
 11
5.08244
 21
1.36884
 31
0.0
  0
LINE
  8
0
  6
CONTINUOUS
 62
   250
 10
5.08244
 20
1.36884
 30
0.0
 11
5.08024
 21
1.36796
 31
0.0
  0
LINE
  8
0
  6
CONTINUOUS
 62
   250
 10
5.08024
 20
1.36796
 30
0.0
 11
5.07848
 21
1.36708
 31
0.0
  0
LINE
  8
0
  6
CONTINUOUS
 62
   250
 10
5.07848
 20
1.36708
 30
0.0
 11
5.07672
 21
1.36532
 31
0.0
  0
LINE
  8
0
  6
CONTINUOUS
 62
   250
 10
5.07672
 20
1.36532
 30
0.0
 11
5.07584
 21
1.36356
 31
0.0
  0
LINE
  8
0
  6
CONTINUOUS
 62
   250
 10
5.07584
 20
1.36356
 30
0.0
 11
5.07496
 21
1.3618
 31
0.0
  0
LINE
  8
0
  6
CONTINUOUS
 62
   250
 10
5.07496
 20
1.3618
 30
0.0
 11
5.07452
 21
1.3596
 31
0.0
  0
LINE
  8
0
  6
CONTINUOUS
 62
   250
 10
5.07452
 20
1.3596
 30
0.0
 11
5.07496
 21
1.3574
 31
0.0
  0
LINE
  8
0
  6
CONTINUOUS
 62
   250
 10
5.07496
 20
1.3574
 30
0.0
 11
5.07584
 21
1.3552
 31
0.0
  0
LINE
  8
0
  6
CONTINUOUS
 62
   250
 10
5.07584
 20
1.3552
 30
0.0
 11
5.07672
 21
1.35344
 31
0.0
  0
LINE
  8
0
  6
CONTINUOUS
 62
   250
 10
5.07452
 20
1.3596
 30
0.0
 11
5.09388
 21
1.3596
 31
0.0
  0
LINE
  8
0
  6
CONTINUOUS
 62
   250
 10
5.11324
 20
1.3596
 30
0.0
 11
5.11368
 21
1.3574
 31
0.0
  0
LINE
  8
0
  6
CONTINUOUS
 62
   250
 10
5.11368
 20
1.3574
 30
0.0
 11
5.11412
 21
1.3552
 31
0.0
  0
LINE
  8
0
  6
CONTINUOUS
 62
   250
 10
5.11412
 20
1.3552
 30
0.0
 11
5.11544
 21
1.35344
 31
0.0
  0
LINE
  8
0
  6
CONTINUOUS
 62
   250
 10
5.11544
 20
1.35344
 30
0.0
 11
5.11676
 21
1.35212
 31
0.0
  0
LINE
  8
0
  6
CONTINUOUS
 62
   250
 10
5.11676
 20
1.35212
 30
0.0
 11
5.11852
 21
1.3508
 31
0.0
  0
LINE
  8
0
  6
CONTINUOUS
 62
   250
 10
5.11852
 20
1.3508
 30
0.0
 11
5.12072
 21
1.34992
 31
0.0
  0
LINE
  8
0
  6
CONTINUOUS
 62
   250
 10
5.12072
 20
1.34992
 30
0.0
 11
5.12292
 21
1.34992
 31
0.0
  0
LINE
  8
0
  6
CONTINUOUS
 62
   250
 10
5.12292
 20
1.34992
 30
0.0
 11
5.12512
 21
1.34992
 31
0.0
  0
LINE
  8
0
  6
CONTINUOUS
 62
   250
 10
5.12512
 20
1.34992
 30
0.0
 11
5.12688
 21
1.3508
 31
0.0
  0
LINE
  8
0
  6
CONTINUOUS
 62
   250
 10
5.12688
 20
1.3508
 30
0.0
 11
5.12864
 21
1.35212
 31
0.0
  0
LINE
  8
0
  6
CONTINUOUS
 62
   250
 10
5.12864
 20
1.35212
 30
0.0
 11
5.1304
 21
1.35344
 31
0.0
  0
LINE
  8
0
  6
CONTINUOUS
 62
   250
 10
5.1304
 20
1.35344
 30
0.0
 11
5.13172
 21
1.3552
 31
0.0
  0
LINE
  8
0
  6
CONTINUOUS
 62
   250
 10
5.13172
 20
1.3552
 30
0.0
 11
5.13216
 21
1.3574
 31
0.0
  0
LINE
  8
0
  6
CONTINUOUS
 62
   250
 10
5.13216
 20
1.3574
 30
0.0
 11
5.1326
 21
1.3596
 31
0.0
  0
LINE
  8
0
  6
CONTINUOUS
 62
   250
 10
5.1326
 20
1.3596
 30
0.0
 11
5.13216
 21
1.3618
 31
0.0
  0
LINE
  8
0
  6
CONTINUOUS
 62
   250
 10
5.13216
 20
1.3618
 30
0.0
 11
5.13172
 21
1.36356
 31
0.0
  0
LINE
  8
0
  6
CONTINUOUS
 62
   250
 10
5.13172
 20
1.36356
 30
0.0
 11
5.1304
 21
1.36532
 31
0.0
  0
LINE
  8
0
  6
CONTINUOUS
 62
   250
 10
5.1304
 20
1.36532
 30
0.0
 11
5.12864
 21
1.36708
 31
0.0
  0
LINE
  8
0
  6
CONTINUOUS
 62
   250
 10
5.12864
 20
1.36708
 30
0.0
 11
5.12688
 21
1.36796
 31
0.0
  0
LINE
  8
0
  6
CONTINUOUS
 62
   250
 10
5.12688
 20
1.36796
 30
0.0
 11
5.12512
 21
1.36884
 31
0.0
  0
LINE
  8
0
  6
CONTINUOUS
 62
   250
 10
5.12512
 20
1.36884
 30
0.0
 11
5.12292
 21
1.36928
 31
0.0
  0
LINE
  8
0
  6
CONTINUOUS
 62
   250
 10
5.12292
 20
1.36928
 30
0.0
 11
5.12072
 21
1.36884
 31
0.0
  0
LINE
  8
0
  6
CONTINUOUS
 62
   250
 10
5.12072
 20
1.36884
 30
0.0
 11
5.11852
 21
1.36796
 31
0.0
  0
LINE
  8
0
  6
CONTINUOUS
 62
   250
 10
5.11852
 20
1.36796
 30
0.0
 11
5.11676
 21
1.36708
 31
0.0
  0
LINE
  8
0
  6
CONTINUOUS
 62
   250
 10
5.11676
 20
1.36708
 30
0.0
 11
5.11544
 21
1.36532
 31
0.0
  0
LINE
  8
0
  6
CONTINUOUS
 62
   250
 10
5.11544
 20
1.36532
 30
0.0
 11
5.11412
 21
1.36356
 31
0.0
  0
LINE
  8
0
  6
CONTINUOUS
 62
   250
 10
5.11412
 20
1.36356
 30
0.0
 11
5.11368
 21
1.3618
 31
0.0
  0
LINE
  8
0
  6
CONTINUOUS
 62
   250
 10
5.11368
 20
1.3618
 30
0.0
 11
5.11324
 21
1.3596
 31
0.0
  0
LINE
  8
0
  6
CONTINUOUS
 62
   250
 10
5.11324
 20
1.3596
 30
0.0
 11
5.1326
 21
1.3596
 31
0.0
  0
LINE
  8
0
  6
CONTINUOUS
 62
   250
 10
5.10356
 20
1.3838
 30
0.0
 11
5.10356
 21
1.45112
 31
0.0
  0
LINE
  8
0
  6
CONTINUOUS
 62
   250
 10
5.10356
 20
1.45112
 30
0.0
 11
5.02744
 21
1.45112
 31
0.0
  0
LINE
  8
0
  6
CONTINUOUS
 62
   250
 10
5.0028
 20
1.36532
 30
0.0
 11
5.00104
 21
1.36708
 31
0.0
  0
LINE
  8
0
  6
CONTINUOUS
 62
   250
 10
5.00104
 20
1.36708
 30
0.0
 11
4.99928
 21
1.36796
 31
0.0
  0
LINE
  8
0
  6
CONTINUOUS
 62
   250
 10
4.99928
 20
1.36796
 30
0.0
 11
4.99708
 21
1.36884
 31
0.0
  0
LINE
  8
0
  6
CONTINUOUS
 62
   250
 10
4.99708
 20
1.36884
 30
0.0
 11
4.99532
 21
1.36928
 31
0.0
  0
LINE
  8
0
  6
CONTINUOUS
 62
   250
 10
4.99532
 20
1.36928
 30
0.0
 11
4.99312
 21
1.36884
 31
0.0
  0
LINE
  8
0
  6
CONTINUOUS
 62
   250
 10
4.99312
 20
1.36884
 30
0.0
 11
4.99092
 21
1.36796
 31
0.0
  0
LINE
  8
0
  6
CONTINUOUS
 62
   250
 10
4.99092
 20
1.36796
 30
0.0
 11
4.98916
 21
1.36708
 31
0.0
  0
LINE
  8
0
  6
CONTINUOUS
 62
   250
 10
4.98916
 20
1.36708
 30
0.0
 11
4.9874
 21
1.36532
 31
0.0
  0
LINE
  8
0
  6
CONTINUOUS
 62
   250
 10
4.9874
 20
1.36532
 30
0.0
 11
4.98652
 21
1.36356
 31
0.0
  0
LINE
  8
0
  6
CONTINUOUS
 62
   250
 10
4.98652
 20
1.36356
 30
0.0
 11
4.98564
 21
1.3618
 31
0.0
  0
LINE
  8
0
  6
CONTINUOUS
 62
   250
 10
4.98564
 20
1.3618
 30
0.0
 11
4.98564
 21
1.3596
 31
0.0
  0
LINE
  8
0
  6
CONTINUOUS
 62
   250
 10
4.98564
 20
1.3596
 30
0.0
 11
4.98564
 21
1.3574
 31
0.0
  0
LINE
  8
0
  6
CONTINUOUS
 62
   250
 10
4.98564
 20
1.3574
 30
0.0
 11
4.98652
 21
1.3552
 31
0.0
  0
LINE
  8
0
  6
CONTINUOUS
 62
   250
 10
4.98652
 20
1.3552
 30
0.0
 11
4.9874
 21
1.35344
 31
0.0
  0
LINE
  8
0
  6
CONTINUOUS
 62
   250
 10
4.9874
 20
1.35344
 30
0.0
 11
4.98916
 21
1.35212
 31
0.0
  0
LINE
  8
0
  6
CONTINUOUS
 62
   250
 10
4.98916
 20
1.35212
 30
0.0
 11
4.99092
 21
1.3508
 31
0.0
  0
LINE
  8
0
  6
CONTINUOUS
 62
   250
 10
4.99092
 20
1.3508
 30
0.0
 11
4.99312
 21
1.34992
 31
0.0
  0
LINE
  8
0
  6
CONTINUOUS
 62
   250
 10
4.99312
 20
1.34992
 30
0.0
 11
4.99532
 21
1.34992
 31
0.0
  0
LINE
  8
0
  6
CONTINUOUS
 62
   250
 10
4.99532
 20
1.34992
 30
0.0
 11
4.99708
 21
1.34992
 31
0.0
  0
LINE
  8
0
  6
CONTINUOUS
 62
   250
 10
4.99708
 20
1.34992
 30
0.0
 11
4.99928
 21
1.3508
 31
0.0
  0
LINE
  8
0
  6
CONTINUOUS
 62
   250
 10
4.99928
 20
1.3508
 30
0.0
 11
5.00104
 21
1.35212
 31
0.0
  0
LINE
  8
0
  6
CONTINUOUS
 62
   250
 10
5.00104
 20
1.35212
 30
0.0
 11
5.0028
 21
1.35344
 31
0.0
  0
LINE
  8
0
  6
CONTINUOUS
 62
   250
 10
5.0028
 20
1.35344
 30
0.0
 11
5.00368
 21
1.3552
 31
0.0
  0
LINE
  8
0
  6
CONTINUOUS
 62
   250
 10
5.00368
 20
1.3552
 30
0.0
 11
5.00456
 21
1.3574
 31
0.0
  0
LINE
  8
0
  6
CONTINUOUS
 62
   250
 10
5.00456
 20
1.3574
 30
0.0
 11
5.005
 21
1.3596
 31
0.0
  0
LINE
  8
0
  6
CONTINUOUS
 62
   250
 10
5.005
 20
1.3596
 30
0.0
 11
5.00456
 21
1.3618
 31
0.0
  0
LINE
  8
0
  6
CONTINUOUS
 62
   250
 10
5.00456
 20
1.3618
 30
0.0
 11
5.00368
 21
1.36356
 31
0.0
  0
LINE
  8
0
  6
CONTINUOUS
 62
   250
 10
5.00368
 20
1.36356
 30
0.0
 11
5.0028
 21
1.36532
 31
0.0
  0
LINE
  8
0
  6
CONTINUOUS
 62
   250
 10
4.99532
 20
1.36928
 30
0.0
 11
4.99532
 21
1.34992
 31
0.0
  0
LINE
  8
0
  6
CONTINUOUS
 62
   250
 10
5.01424
 20
1.34508
 30
0.0
 11
4.86112
 21
1.34508
 31
0.0
  0
LINE
  8
0
  6
CONTINUOUS
 62
   250
 10
4.87256
 20
1.35344
 30
0.0
 11
4.87432
 21
1.35212
 31
0.0
  0
LINE
  8
0
  6
CONTINUOUS
 62
   250
 10
4.87432
 20
1.35212
 30
0.0
 11
4.87608
 21
1.3508
 31
0.0
  0
LINE
  8
0
  6
CONTINUOUS
 62
   250
 10
4.87608
 20
1.3508
 30
0.0
 11
4.87828
 21
1.34992
 31
0.0
  0
LINE
  8
0
  6
CONTINUOUS
 62
   250
 10
4.87828
 20
1.34992
 30
0.0
 11
4.88048
 21
1.34992
 31
0.0
  0
LINE
  8
0
  6
CONTINUOUS
 62
   250
 10
4.88048
 20
1.34992
 30
0.0
 11
4.88268
 21
1.34992
 31
0.0
  0
LINE
  8
0
  6
CONTINUOUS
 62
   250
 10
4.88268
 20
1.34992
 30
0.0
 11
4.88444
 21
1.3508
 31
0.0
  0
LINE
  8
0
  6
CONTINUOUS
 62
   250
 10
4.88444
 20
1.3508
 30
0.0
 11
4.8862
 21
1.35212
 31
0.0
  0
LINE
  8
0
  6
CONTINUOUS
 62
   250
 10
4.8862
 20
1.35212
 30
0.0
 11
4.88796
 21
1.35344
 31
0.0
  0
LINE
  8
0
  6
CONTINUOUS
 62
   250
 10
4.88796
 20
1.35344
 30
0.0
 11
4.88884
 21
1.3552
 31
0.0
  0
LINE
  8
0
  6
CONTINUOUS
 62
   250
 10
4.88884
 20
1.3552
 30
0.0
 11
4.88972
 21
1.3574
 31
0.0
  0
LINE
  8
0
  6
CONTINUOUS
 62
   250
 10
4.88972
 20
1.3574
 30
0.0
 11
4.89016
 21
1.3596
 31
0.0
  0
LINE
  8
0
  6
CONTINUOUS
 62
   250
 10
4.89016
 20
1.3596
 30
0.0
 11
4.88972
 21
1.3618
 31
0.0
  0
LINE
  8
0
  6
CONTINUOUS
 62
   250
 10
4.88972
 20
1.3618
 30
0.0
 11
4.88884
 21
1.36356
 31
0.0
  0
LINE
  8
0
  6
CONTINUOUS
 62
   250
 10
4.88884
 20
1.36356
 30
0.0
 11
4.88796
 21
1.36532
 31
0.0
  0
LINE
  8
0
  6
CONTINUOUS
 62
   250
 10
4.88796
 20
1.36532
 30
0.0
 11
4.8862
 21
1.36708
 31
0.0
  0
LINE
  8
0
  6
CONTINUOUS
 62
   250
 10
4.8862
 20
1.36708
 30
0.0
 11
4.88444
 21
1.36796
 31
0.0
  0
LINE
  8
0
  6
CONTINUOUS
 62
   250
 10
4.88444
 20
1.36796
 30
0.0
 11
4.88268
 21
1.36884
 31
0.0
  0
LINE
  8
0
  6
CONTINUOUS
 62
   250
 10
4.88268
 20
1.36884
 30
0.0
 11
4.88048
 21
1.36928
 31
0.0
  0
LINE
  8
0
  6
CONTINUOUS
 62
   250
 10
4.88048
 20
1.36928
 30
0.0
 11
4.87828
 21
1.36884
 31
0.0
  0
LINE
  8
0
  6
CONTINUOUS
 62
   250
 10
4.87828
 20
1.36884
 30
0.0
 11
4.87608
 21
1.36796
 31
0.0
  0
LINE
  8
0
  6
CONTINUOUS
 62
   250
 10
4.87608
 20
1.36796
 30
0.0
 11
4.87432
 21
1.36708
 31
0.0
  0
LINE
  8
0
  6
CONTINUOUS
 62
   250
 10
4.87432
 20
1.36708
 30
0.0
 11
4.87256
 21
1.36532
 31
0.0
  0
LINE
  8
0
  6
CONTINUOUS
 62
   250
 10
4.87256
 20
1.36532
 30
0.0
 11
4.87168
 21
1.36356
 31
0.0
  0
LINE
  8
0
  6
CONTINUOUS
 62
   250
 10
4.87168
 20
1.36356
 30
0.0
 11
4.8708
 21
1.3618
 31
0.0
  0
LINE
  8
0
  6
CONTINUOUS
 62
   250
 10
4.8708
 20
1.3618
 30
0.0
 11
4.8708
 21
1.3596
 31
0.0
  0
LINE
  8
0
  6
CONTINUOUS
 62
   250
 10
4.8708
 20
1.3596
 30
0.0
 11
4.8708
 21
1.3574
 31
0.0
  0
LINE
  8
0
  6
CONTINUOUS
 62
   250
 10
4.8708
 20
1.3574
 30
0.0
 11
4.87168
 21
1.3552
 31
0.0
  0
LINE
  8
0
  6
CONTINUOUS
 62
   250
 10
4.87168
 20
1.3552
 30
0.0
 11
4.87256
 21
1.35344
 31
0.0
  0
LINE
  8
0
  6
CONTINUOUS
 62
   250
 10
4.88048
 20
1.34992
 30
0.0
 11
4.88048
 21
1.36928
 31
0.0
  0
LINE
  8
0
  6
CONTINUOUS
 62
   250
 10
4.86112
 20
1.37588
 30
0.0
 11
4.86112
 21
1.45112
 31
0.0
  0
LINE
  8
0
  6
CONTINUOUS
 62
   250
 10
4.86112
 20
1.45112
 30
0.0
 11
4.93724
 21
1.45112
 31
0.0
  0
LINE
  8
0
  6
CONTINUOUS
 62
   250
 10
4.93724
 20
1.45112
 30
0.0
 11
4.93724
 21
1.37588
 31
0.0
  0
LINE
  8
0
  6
CONTINUOUS
 62
   250
 10
4.9258
 20
1.36532
 30
0.0
 11
4.92404
 21
1.36708
 31
0.0
  0
LINE
  8
0
  6
CONTINUOUS
 62
   250
 10
4.92404
 20
1.36708
 30
0.0
 11
4.92228
 21
1.36796
 31
0.0
  0
LINE
  8
0
  6
CONTINUOUS
 62
   250
 10
4.92228
 20
1.36796
 30
0.0
 11
4.92052
 21
1.36884
 31
0.0
  0
LINE
  8
0
  6
CONTINUOUS
 62
   250
 10
4.92052
 20
1.36884
 30
0.0
 11
4.91832
 21
1.36928
 31
0.0
  0
LINE
  8
0
  6
CONTINUOUS
 62
   250
 10
4.91832
 20
1.36928
 30
0.0
 11
4.91612
 21
1.36884
 31
0.0
  0
LINE
  8
0
  6
CONTINUOUS
 62
   250
 10
4.91612
 20
1.36884
 30
0.0
 11
4.91392
 21
1.36796
 31
0.0
  0
LINE
  8
0
  6
CONTINUOUS
 62
   250
 10
4.91392
 20
1.36796
 30
0.0
 11
4.91216
 21
1.36708
 31
0.0
  0
LINE
  8
0
  6
CONTINUOUS
 62
   250
 10
4.91216
 20
1.36708
 30
0.0
 11
4.9104
 21
1.36532
 31
0.0
  0
LINE
  8
0
  6
CONTINUOUS
 62
   250
 10
4.9104
 20
1.36532
 30
0.0
 11
4.90952
 21
1.36356
 31
0.0
  0
LINE
  8
0
  6
CONTINUOUS
 62
   250
 10
4.90952
 20
1.36356
 30
0.0
 11
4.90864
 21
1.3618
 31
0.0
  0
LINE
  8
0
  6
CONTINUOUS
 62
   250
 10
4.90864
 20
1.3618
 30
0.0
 11
4.90864
 21
1.3596
 31
0.0
  0
LINE
  8
0
  6
CONTINUOUS
 62
   250
 10
4.90864
 20
1.3596
 30
0.0
 11
4.90864
 21
1.3574
 31
0.0
  0
LINE
  8
0
  6
CONTINUOUS
 62
   250
 10
4.90864
 20
1.3574
 30
0.0
 11
4.90952
 21
1.3552
 31
0.0
  0
LINE
  8
0
  6
CONTINUOUS
 62
   250
 10
4.90952
 20
1.3552
 30
0.0
 11
4.9104
 21
1.35344
 31
0.0
  0
LINE
  8
0
  6
CONTINUOUS
 62
   250
 10
4.9104
 20
1.35344
 30
0.0
 11
4.91216
 21
1.35212
 31
0.0
  0
LINE
  8
0
  6
CONTINUOUS
 62
   250
 10
4.91216
 20
1.35212
 30
0.0
 11
4.91392
 21
1.3508
 31
0.0
  0
LINE
  8
0
  6
CONTINUOUS
 62
   250
 10
4.91392
 20
1.3508
 30
0.0
 11
4.91612
 21
1.34992
 31
0.0
  0
LINE
  8
0
  6
CONTINUOUS
 62
   250
 10
4.91612
 20
1.34992
 30
0.0
 11
4.91832
 21
1.34992
 31
0.0
  0
LINE
  8
0
  6
CONTINUOUS
 62
   250
 10
4.91832
 20
1.34992
 30
0.0
 11
4.92052
 21
1.34992
 31
0.0
  0
LINE
  8
0
  6
CONTINUOUS
 62
   250
 10
4.92052
 20
1.34992
 30
0.0
 11
4.92228
 21
1.3508
 31
0.0
  0
LINE
  8
0
  6
CONTINUOUS
 62
   250
 10
4.92228
 20
1.3508
 30
0.0
 11
4.92404
 21
1.35212
 31
0.0
  0
LINE
  8
0
  6
CONTINUOUS
 62
   250
 10
4.92404
 20
1.35212
 30
0.0
 11
4.9258
 21
1.35344
 31
0.0
  0
LINE
  8
0
  6
CONTINUOUS
 62
   250
 10
4.9258
 20
1.35344
 30
0.0
 11
4.92668
 21
1.3552
 31
0.0
  0
LINE
  8
0
  6
CONTINUOUS
 62
   250
 10
4.92668
 20
1.3552
 30
0.0
 11
4.92756
 21
1.3574
 31
0.0
  0
LINE
  8
0
  6
CONTINUOUS
 62
   250
 10
4.92756
 20
1.3574
 30
0.0
 11
4.928
 21
1.3596
 31
0.0
  0
LINE
  8
0
  6
CONTINUOUS
 62
   250
 10
4.928
 20
1.3596
 30
0.0
 11
4.92756
 21
1.3618
 31
0.0
  0
LINE
  8
0
  6
CONTINUOUS
 62
   250
 10
4.92756
 20
1.3618
 30
0.0
 11
4.92668
 21
1.36356
 31
0.0
  0
LINE
  8
0
  6
CONTINUOUS
 62
   250
 10
4.92668
 20
1.36356
 30
0.0
 11
4.9258
 21
1.36532
 31
0.0
  0
LINE
  8
0
  6
CONTINUOUS
 62
   250
 10
4.928
 20
1.3596
 30
0.0
 11
4.90864
 21
1.3596
 31
0.0
  0
LINE
  8
0
  6
CONTINUOUS
 62
   250
 10
4.94692
 20
1.3596
 30
0.0
 11
4.94736
 21
1.3574
 31
0.0
  0
LINE
  8
0
  6
CONTINUOUS
 62
   250
 10
4.94736
 20
1.3574
 30
0.0
 11
4.94824
 21
1.3552
 31
0.0
  0
LINE
  8
0
  6
CONTINUOUS
 62
   250
 10
4.94824
 20
1.3552
 30
0.0
 11
4.94912
 21
1.35344
 31
0.0
  0
LINE
  8
0
  6
CONTINUOUS
 62
   250
 10
4.94912
 20
1.35344
 30
0.0
 11
4.95044
 21
1.35212
 31
0.0
  0
LINE
  8
0
  6
CONTINUOUS
 62
   250
 10
4.95044
 20
1.35212
 30
0.0
 11
4.95264
 21
1.3508
 31
0.0
  0
LINE
  8
0
  6
CONTINUOUS
 62
   250
 10
4.95264
 20
1.3508
 30
0.0
 11
4.9544
 21
1.34992
 31
0.0
  0
LINE
  8
0
  6
CONTINUOUS
 62
   250
 10
4.9544
 20
1.34992
 30
0.0
 11
4.9566
 21
1.34992
 31
0.0
  0
LINE
  8
0
  6
CONTINUOUS
 62
   250
 10
4.9566
 20
1.34992
 30
0.0
 11
4.9588
 21
1.34992
 31
0.0
  0
LINE
  8
0
  6
CONTINUOUS
 62
   250
 10
4.9588
 20
1.34992
 30
0.0
 11
4.961
 21
1.3508
 31
0.0
  0
LINE
  8
0
  6
CONTINUOUS
 62
   250
 10
4.961
 20
1.3508
 30
0.0
 11
4.96276
 21
1.35212
 31
0.0
  0
LINE
  8
0
  6
CONTINUOUS
 62
   250
 10
4.96276
 20
1.35212
 30
0.0
 11
4.96408
 21
1.35344
 31
0.0
  0
LINE
  8
0
  6
CONTINUOUS
 62
   250
 10
4.96408
 20
1.35344
 30
0.0
 11
4.9654
 21
1.3552
 31
0.0
  0
LINE
  8
0
  6
CONTINUOUS
 62
   250
 10
4.9654
 20
1.3552
 30
0.0
 11
4.96584
 21
1.3574
 31
0.0
  0
LINE
  8
0
  6
CONTINUOUS
 62
   250
 10
4.96584
 20
1.3574
 30
0.0
 11
4.96628
 21
1.3596
 31
0.0
  0
LINE
  8
0
  6
CONTINUOUS
 62
   250
 10
4.96628
 20
1.3596
 30
0.0
 11
4.96584
 21
1.3618
 31
0.0
  0
LINE
  8
0
  6
CONTINUOUS
 62
   250
 10
4.96584
 20
1.3618
 30
0.0
 11
4.9654
 21
1.36356
 31
0.0
  0
LINE
  8
0
  6
CONTINUOUS
 62
   250
 10
4.9654
 20
1.36356
 30
0.0
 11
4.96408
 21
1.36532
 31
0.0
  0
LINE
  8
0
  6
CONTINUOUS
 62
   250
 10
4.96408
 20
1.36532
 30
0.0
 11
4.96276
 21
1.36708
 31
0.0
  0
LINE
  8
0
  6
CONTINUOUS
 62
   250
 10
4.96276
 20
1.36708
 30
0.0
 11
4.961
 21
1.36796
 31
0.0
  0
LINE
  8
0
  6
CONTINUOUS
 62
   250
 10
4.961
 20
1.36796
 30
0.0
 11
4.9588
 21
1.36884
 31
0.0
  0
LINE
  8
0
  6
CONTINUOUS
 62
   250
 10
4.9588
 20
1.36884
 30
0.0
 11
4.9566
 21
1.36928
 31
0.0
  0
LINE
  8
0
  6
CONTINUOUS
 62
   250
 10
4.9566
 20
1.36928
 30
0.0
 11
4.9544
 21
1.36884
 31
0.0
  0
LINE
  8
0
  6
CONTINUOUS
 62
   250
 10
4.9544
 20
1.36884
 30
0.0
 11
4.95264
 21
1.36796
 31
0.0
  0
LINE
  8
0
  6
CONTINUOUS
 62
   250
 10
4.95264
 20
1.36796
 30
0.0
 11
4.95044
 21
1.36708
 31
0.0
  0
LINE
  8
0
  6
CONTINUOUS
 62
   250
 10
4.95044
 20
1.36708
 30
0.0
 11
4.94912
 21
1.36532
 31
0.0
  0
LINE
  8
0
  6
CONTINUOUS
 62
   250
 10
4.94912
 20
1.36532
 30
0.0
 11
4.94824
 21
1.36356
 31
0.0
  0
LINE
  8
0
  6
CONTINUOUS
 62
   250
 10
4.94824
 20
1.36356
 30
0.0
 11
4.94736
 21
1.3618
 31
0.0
  0
LINE
  8
0
  6
CONTINUOUS
 62
   250
 10
4.94736
 20
1.3618
 30
0.0
 11
4.94692
 21
1.3596
 31
0.0
  0
LINE
  8
0
  6
CONTINUOUS
 62
   250
 10
4.94692
 20
1.3596
 30
0.0
 11
4.96628
 21
1.3596
 31
0.0
  0
LINE
  8
0
  6
CONTINUOUS
 62
   250
 10
5.01424
 20
1.3838
 30
0.0
 11
5.01424
 21
1.45112
 31
0.0
  0
LINE
  8
0
  6
CONTINUOUS
 62
   250
 10
5.18056
 20
1.45112
 30
0.0
 11
5.18056
 21
1.3838
 31
0.0
  0
LINE
  8
0
  6
CONTINUOUS
 62
   250
 10
5.07716
 20
1.60468
 30
0.0
 11
4.99972
 21
1.60468
 31
0.0
  0
LINE
  8
0
  6
CONTINUOUS
 62
   250
 10
4.99972
 20
1.67376
 30
0.0
 11
4.99972
 21
1.71072
 31
0.0
  0
LINE
  8
0
  6
CONTINUOUS
 62
   250
 10
4.99972
 20
1.71072
 30
0.0
 11
5.07716
 21
1.71072
 31
0.0
  0
LINE
  8
0
  6
CONTINUOUS
 62
   250
 10
5.07716
 20
1.71072
 30
0.0
 11
5.07716
 21
1.67376
 31
0.0
  0
LINE
  8
0
  6
CONTINUOUS
 62
   250
 10
5.08992
 20
1.67376
 30
0.0
 11
5.08992
 21
1.71072
 31
0.0
  0
LINE
  8
0
  6
CONTINUOUS
 62
   250
 10
5.06528
 20
1.70236
 30
0.0
 11
5.06352
 21
1.70368
 31
0.0
  0
LINE
  8
0
  6
CONTINUOUS
 62
   250
 10
5.06352
 20
1.70368
 30
0.0
 11
5.06176
 21
1.70456
 31
0.0
  0
LINE
  8
0
  6
CONTINUOUS
 62
   250
 10
5.06176
 20
1.70456
 30
0.0
 11
5.06
 21
1.70544
 31
0.0
  0
LINE
  8
0
  6
CONTINUOUS
 62
   250
 10
5.06
 20
1.70544
 30
0.0
 11
5.0578
 21
1.70588
 31
0.0
  0
LINE
  8
0
  6
CONTINUOUS
 62
   250
 10
5.0578
 20
1.70588
 30
0.0
 11
5.0556
 21
1.70544
 31
0.0
  0
LINE
  8
0
  6
CONTINUOUS
 62
   250
 10
5.0556
 20
1.70544
 30
0.0
 11
5.0534
 21
1.70456
 31
0.0
  0
LINE
  8
0
  6
CONTINUOUS
 62
   250
 10
5.0534
 20
1.70456
 30
0.0
 11
5.05164
 21
1.70368
 31
0.0
  0
LINE
  8
0
  6
CONTINUOUS
 62
   250
 10
5.05164
 20
1.70368
 30
0.0
 11
5.04988
 21
1.70236
 31
0.0
  0
LINE
  8
0
  6
CONTINUOUS
 62
   250
 10
5.04988
 20
1.70236
 30
0.0
 11
5.049
 21
1.70016
 31
0.0
  0
LINE
  8
0
  6
CONTINUOUS
 62
   250
 10
5.049
 20
1.70016
 30
0.0
 11
5.04812
 21
1.6984
 31
0.0
  0
LINE
  8
0
  6
CONTINUOUS
 62
   250
 10
5.04812
 20
1.6984
 30
0.0
 11
5.04812
 21
1.6962
 31
0.0
  0
LINE
  8
0
  6
CONTINUOUS
 62
   250
 10
5.04812
 20
1.6962
 30
0.0
 11
5.04812
 21
1.694
 31
0.0
  0
LINE
  8
0
  6
CONTINUOUS
 62
   250
 10
5.04812
 20
1.694
 30
0.0
 11
5.049
 21
1.6918
 31
0.0
  0
LINE
  8
0
  6
CONTINUOUS
 62
   250
 10
5.049
 20
1.6918
 30
0.0
 11
5.04988
 21
1.69004
 31
0.0
  0
LINE
  8
0
  6
CONTINUOUS
 62
   250
 10
5.04988
 20
1.69004
 30
0.0
 11
5.05164
 21
1.68872
 31
0.0
  0
LINE
  8
0
  6
CONTINUOUS
 62
   250
 10
5.05164
 20
1.68872
 30
0.0
 11
5.0534
 21
1.6874
 31
0.0
  0
LINE
  8
0
  6
CONTINUOUS
 62
   250
 10
5.0534
 20
1.6874
 30
0.0
 11
5.0556
 21
1.68696
 31
0.0
  0
LINE
  8
0
  6
CONTINUOUS
 62
   250
 10
5.0556
 20
1.68696
 30
0.0
 11
5.0578
 21
1.68652
 31
0.0
  0
LINE
  8
0
  6
CONTINUOUS
 62
   250
 10
5.0578
 20
1.68652
 30
0.0
 11
5.06
 21
1.68696
 31
0.0
  0
LINE
  8
0
  6
CONTINUOUS
 62
   250
 10
5.06
 20
1.68696
 30
0.0
 11
5.06176
 21
1.6874
 31
0.0
  0
LINE
  8
0
  6
CONTINUOUS
 62
   250
 10
5.06176
 20
1.6874
 30
0.0
 11
5.06352
 21
1.68872
 31
0.0
  0
LINE
  8
0
  6
CONTINUOUS
 62
   250
 10
5.06352
 20
1.68872
 30
0.0
 11
5.06528
 21
1.69004
 31
0.0
  0
LINE
  8
0
  6
CONTINUOUS
 62
   250
 10
5.06528
 20
1.69004
 30
0.0
 11
5.06616
 21
1.6918
 31
0.0
  0
LINE
  8
0
  6
CONTINUOUS
 62
   250
 10
5.06616
 20
1.6918
 30
0.0
 11
5.06704
 21
1.694
 31
0.0
  0
LINE
  8
0
  6
CONTINUOUS
 62
   250
 10
5.06704
 20
1.694
 30
0.0
 11
5.06748
 21
1.6962
 31
0.0
  0
LINE
  8
0
  6
CONTINUOUS
 62
   250
 10
5.06748
 20
1.6962
 30
0.0
 11
5.06704
 21
1.6984
 31
0.0
  0
LINE
  8
0
  6
CONTINUOUS
 62
   250
 10
5.06704
 20
1.6984
 30
0.0
 11
5.06616
 21
1.70016
 31
0.0
  0
LINE
  8
0
  6
CONTINUOUS
 62
   250
 10
5.06616
 20
1.70016
 30
0.0
 11
5.06528
 21
1.70236
 31
0.0
  0
LINE
  8
0
  6
CONTINUOUS
 62
   250
 10
5.05956
 20
1.70588
 30
0.0
 11
5.05956
 21
1.68652
 31
0.0
  0
LINE
  8
0
  6
CONTINUOUS
 62
   250
 10
5.02524
 20
1.68872
 30
0.0
 11
5.02656
 21
1.69004
 31
0.0
  0
LINE
  8
0
  6
CONTINUOUS
 62
   250
 10
5.02656
 20
1.69004
 30
0.0
 11
5.02788
 21
1.6918
 31
0.0
  0
LINE
  8
0
  6
CONTINUOUS
 62
   250
 10
5.02788
 20
1.6918
 30
0.0
 11
5.02832
 21
1.694
 31
0.0
  0
LINE
  8
0
  6
CONTINUOUS
 62
   250
 10
5.02832
 20
1.694
 30
0.0
 11
5.02876
 21
1.6962
 31
0.0
  0
LINE
  8
0
  6
CONTINUOUS
 62
   250
 10
5.02876
 20
1.6962
 30
0.0
 11
5.02832
 21
1.6984
 31
0.0
  0
LINE
  8
0
  6
CONTINUOUS
 62
   250
 10
5.02832
 20
1.6984
 30
0.0
 11
5.02788
 21
1.70016
 31
0.0
  0
LINE
  8
0
  6
CONTINUOUS
 62
   250
 10
5.02788
 20
1.70016
 30
0.0
 11
5.02656
 21
1.70236
 31
0.0
  0
LINE
  8
0
  6
CONTINUOUS
 62
   250
 10
5.02656
 20
1.70236
 30
0.0
 11
5.02524
 21
1.70368
 31
0.0
  0
LINE
  8
0
  6
CONTINUOUS
 62
   250
 10
5.02524
 20
1.70368
 30
0.0
 11
5.02304
 21
1.70456
 31
0.0
  0
LINE
  8
0
  6
CONTINUOUS
 62
   250
 10
5.02304
 20
1.70456
 30
0.0
 11
5.02128
 21
1.70544
 31
0.0
  0
LINE
  8
0
  6
CONTINUOUS
 62
   250
 10
5.02128
 20
1.70544
 30
0.0
 11
5.01908
 21
1.70588
 31
0.0
  0
LINE
  8
0
  6
CONTINUOUS
 62
   250
 10
5.01908
 20
1.70588
 30
0.0
 11
5.01688
 21
1.70544
 31
0.0
  0
LINE
  8
0
  6
CONTINUOUS
 62
   250
 10
5.01688
 20
1.70544
 30
0.0
 11
5.01512
 21
1.70456
 31
0.0
  0
LINE
  8
0
  6
CONTINUOUS
 62
   250
 10
5.01512
 20
1.70456
 30
0.0
 11
5.01336
 21
1.70368
 31
0.0
  0
LINE
  8
0
  6
CONTINUOUS
 62
   250
 10
5.01336
 20
1.70368
 30
0.0
 11
5.0116
 21
1.70236
 31
0.0
  0
LINE
  8
0
  6
CONTINUOUS
 62
   250
 10
5.0116
 20
1.70236
 30
0.0
 11
5.01028
 21
1.70016
 31
0.0
  0
LINE
  8
0
  6
CONTINUOUS
 62
   250
 10
5.01028
 20
1.70016
 30
0.0
 11
5.00984
 21
1.6984
 31
0.0
  0
LINE
  8
0
  6
CONTINUOUS
 62
   250
 10
5.00984
 20
1.6984
 30
0.0
 11
5.0094
 21
1.6962
 31
0.0
  0
LINE
  8
0
  6
CONTINUOUS
 62
   250
 10
5.0094
 20
1.6962
 30
0.0
 11
5.00984
 21
1.694
 31
0.0
  0
LINE
  8
0
  6
CONTINUOUS
 62
   250
 10
5.00984
 20
1.694
 30
0.0
 11
5.01028
 21
1.6918
 31
0.0
  0
LINE
  8
0
  6
CONTINUOUS
 62
   250
 10
5.01028
 20
1.6918
 30
0.0
 11
5.0116
 21
1.69004
 31
0.0
  0
LINE
  8
0
  6
CONTINUOUS
 62
   250
 10
5.0116
 20
1.69004
 30
0.0
 11
5.01336
 21
1.68872
 31
0.0
  0
LINE
  8
0
  6
CONTINUOUS
 62
   250
 10
5.01336
 20
1.68872
 30
0.0
 11
5.01512
 21
1.6874
 31
0.0
  0
LINE
  8
0
  6
CONTINUOUS
 62
   250
 10
5.01512
 20
1.6874
 30
0.0
 11
5.01688
 21
1.68696
 31
0.0
  0
LINE
  8
0
  6
CONTINUOUS
 62
   250
 10
5.01688
 20
1.68696
 30
0.0
 11
5.01908
 21
1.68652
 31
0.0
  0
LINE
  8
0
  6
CONTINUOUS
 62
   250
 10
5.01908
 20
1.68652
 30
0.0
 11
5.02128
 21
1.68696
 31
0.0
  0
LINE
  8
0
  6
CONTINUOUS
 62
   250
 10
5.02128
 20
1.68696
 30
0.0
 11
5.02304
 21
1.6874
 31
0.0
  0
LINE
  8
0
  6
CONTINUOUS
 62
   250
 10
5.02304
 20
1.6874
 30
0.0
 11
5.02524
 21
1.68872
 31
0.0
  0
LINE
  8
0
  6
CONTINUOUS
 62
   250
 10
5.02876
 20
1.6962
 30
0.0
 11
5.0094
 21
1.6962
 31
0.0
  0
LINE
  8
0
  6
CONTINUOUS
 62
   250
 10
4.97816
 20
1.6962
 30
0.0
 11
4.97772
 21
1.6984
 31
0.0
  0
LINE
  8
0
  6
CONTINUOUS
 62
   250
 10
4.97772
 20
1.6984
 30
0.0
 11
4.97728
 21
1.70016
 31
0.0
  0
LINE
  8
0
  6
CONTINUOUS
 62
   250
 10
4.97728
 20
1.70016
 30
0.0
 11
4.97596
 21
1.70236
 31
0.0
  0
LINE
  8
0
  6
CONTINUOUS
 62
   250
 10
4.97596
 20
1.70236
 30
0.0
 11
4.97464
 21
1.70368
 31
0.0
  0
LINE
  8
0
  6
CONTINUOUS
 62
   250
 10
4.97464
 20
1.70368
 30
0.0
 11
4.97244
 21
1.70456
 31
0.0
  0
LINE
  8
0
  6
CONTINUOUS
 62
   250
 10
4.97244
 20
1.70456
 30
0.0
 11
4.97068
 21
1.70544
 31
0.0
  0
LINE
  8
0
  6
CONTINUOUS
 62
   250
 10
4.97068
 20
1.70544
 30
0.0
 11
4.96848
 21
1.70588
 31
0.0
  0
LINE
  8
0
  6
CONTINUOUS
 62
   250
 10
4.96848
 20
1.70588
 30
0.0
 11
4.96628
 21
1.70544
 31
0.0
  0
LINE
  8
0
  6
CONTINUOUS
 62
   250
 10
4.96628
 20
1.70544
 30
0.0
 11
4.96408
 21
1.70456
 31
0.0
  0
LINE
  8
0
  6
CONTINUOUS
 62
   250
 10
4.96408
 20
1.70456
 30
0.0
 11
4.96232
 21
1.70368
 31
0.0
  0
LINE
  8
0
  6
CONTINUOUS
 62
   250
 10
4.96232
 20
1.70368
 30
0.0
 11
4.961
 21
1.70236
 31
0.0
  0
LINE
  8
0
  6
CONTINUOUS
 62
   250
 10
4.961
 20
1.70236
 30
0.0
 11
4.95968
 21
1.70016
 31
0.0
  0
LINE
  8
0
  6
CONTINUOUS
 62
   250
 10
4.95968
 20
1.70016
 30
0.0
 11
4.9588
 21
1.6984
 31
0.0
  0
LINE
  8
0
  6
CONTINUOUS
 62
   250
 10
4.9588
 20
1.6984
 30
0.0
 11
4.9588
 21
1.6962
 31
0.0
  0
LINE
  8
0
  6
CONTINUOUS
 62
   250
 10
4.9588
 20
1.6962
 30
0.0
 11
4.9588
 21
1.694
 31
0.0
  0
LINE
  8
0
  6
CONTINUOUS
 62
   250
 10
4.9588
 20
1.694
 30
0.0
 11
4.95968
 21
1.6918
 31
0.0
  0
LINE
  8
0
  6
CONTINUOUS
 62
   250
 10
4.95968
 20
1.6918
 30
0.0
 11
4.961
 21
1.69004
 31
0.0
  0
LINE
  8
0
  6
CONTINUOUS
 62
   250
 10
4.961
 20
1.69004
 30
0.0
 11
4.96232
 21
1.68872
 31
0.0
  0
LINE
  8
0
  6
CONTINUOUS
 62
   250
 10
4.96232
 20
1.68872
 30
0.0
 11
4.96408
 21
1.6874
 31
0.0
  0
LINE
  8
0
  6
CONTINUOUS
 62
   250
 10
4.96408
 20
1.6874
 30
0.0
 11
4.96628
 21
1.68696
 31
0.0
  0
LINE
  8
0
  6
CONTINUOUS
 62
   250
 10
4.96628
 20
1.68696
 30
0.0
 11
4.96848
 21
1.68652
 31
0.0
  0
LINE
  8
0
  6
CONTINUOUS
 62
   250
 10
4.96848
 20
1.68652
 30
0.0
 11
4.97068
 21
1.68696
 31
0.0
  0
LINE
  8
0
  6
CONTINUOUS
 62
   250
 10
4.97068
 20
1.68696
 30
0.0
 11
4.97244
 21
1.6874
 31
0.0
  0
LINE
  8
0
  6
CONTINUOUS
 62
   250
 10
4.97244
 20
1.6874
 30
0.0
 11
4.97464
 21
1.68872
 31
0.0
  0
LINE
  8
0
  6
CONTINUOUS
 62
   250
 10
4.97464
 20
1.68872
 30
0.0
 11
4.97596
 21
1.69004
 31
0.0
  0
LINE
  8
0
  6
CONTINUOUS
 62
   250
 10
4.97596
 20
1.69004
 30
0.0
 11
4.97728
 21
1.6918
 31
0.0
  0
LINE
  8
0
  6
CONTINUOUS
 62
   250
 10
4.97728
 20
1.6918
 30
0.0
 11
4.97772
 21
1.694
 31
0.0
  0
LINE
  8
0
  6
CONTINUOUS
 62
   250
 10
4.97772
 20
1.694
 30
0.0
 11
4.97816
 21
1.6962
 31
0.0
  0
LINE
  8
0
  6
CONTINUOUS
 62
   250
 10
4.97024
 20
1.70588
 30
0.0
 11
4.97024
 21
1.68652
 31
0.0
  0
LINE
  8
0
  6
CONTINUOUS
 62
   250
 10
4.98784
 20
1.6808
 30
0.0
 11
4.98784
 21
1.67376
 31
0.0
  0
LINE
  8
0
  6
CONTINUOUS
 62
   250
 10
4.98784
 20
1.71072
 30
0.0
 11
4.91084
 21
1.71072
 31
0.0
  0
LINE
  8
0
  6
CONTINUOUS
 62
   250
 10
4.91084
 20
1.71072
 30
0.0
 11
4.91084
 21
1.67376
 31
0.0
  0
LINE
  8
0
  6
CONTINUOUS
 62
   250
 10
4.92228
 20
1.69004
 30
0.0
 11
4.92404
 21
1.68872
 31
0.0
  0
LINE
  8
0
  6
CONTINUOUS
 62
   250
 10
4.92404
 20
1.68872
 30
0.0
 11
4.9258
 21
1.6874
 31
0.0
  0
LINE
  8
0
  6
CONTINUOUS
 62
   250
 10
4.9258
 20
1.6874
 30
0.0
 11
4.928
 21
1.68696
 31
0.0
  0
LINE
  8
0
  6
CONTINUOUS
 62
   250
 10
4.928
 20
1.68696
 30
0.0
 11
4.92976
 21
1.68652
 31
0.0
  0
LINE
  8
0
  6
CONTINUOUS
 62
   250
 10
4.92976
 20
1.68652
 30
0.0
 11
4.93196
 21
1.68696
 31
0.0
  0
LINE
  8
0
  6
CONTINUOUS
 62
   250
 10
4.93196
 20
1.68696
 30
0.0
 11
4.93416
 21
1.6874
 31
0.0
  0
LINE
  8
0
  6
CONTINUOUS
 62
   250
 10
4.93416
 20
1.6874
 30
0.0
 11
4.93592
 21
1.68872
 31
0.0
  0
LINE
  8
0
  6
CONTINUOUS
 62
   250
 10
4.93592
 20
1.68872
 30
0.0
 11
4.93724
 21
1.69004
 31
0.0
  0
LINE
  8
0
  6
CONTINUOUS
 62
   250
 10
4.93724
 20
1.69004
 30
0.0
 11
4.93856
 21
1.6918
 31
0.0
  0
LINE
  8
0
  6
CONTINUOUS
 62
   250
 10
4.93856
 20
1.6918
 30
0.0
 11
4.93944
 21
1.694
 31
0.0
  0
LINE
  8
0
  6
CONTINUOUS
 62
   250
 10
4.93944
 20
1.694
 30
0.0
 11
4.93944
 21
1.6962
 31
0.0
  0
LINE
  8
0
  6
CONTINUOUS
 62
   250
 10
4.93944
 20
1.6962
 30
0.0
 11
4.93944
 21
1.6984
 31
0.0
  0
LINE
  8
0
  6
CONTINUOUS
 62
   250
 10
4.93944
 20
1.6984
 30
0.0
 11
4.93856
 21
1.70016
 31
0.0
  0
LINE
  8
0
  6
CONTINUOUS
 62
   250
 10
4.93856
 20
1.70016
 30
0.0
 11
4.93724
 21
1.70236
 31
0.0
  0
LINE
  8
0
  6
CONTINUOUS
 62
   250
 10
4.93724
 20
1.70236
 30
0.0
 11
4.93592
 21
1.70368
 31
0.0
  0
LINE
  8
0
  6
CONTINUOUS
 62
   250
 10
4.93592
 20
1.70368
 30
0.0
 11
4.93416
 21
1.70456
 31
0.0
  0
LINE
  8
0
  6
CONTINUOUS
 62
   250
 10
4.93416
 20
1.70456
 30
0.0
 11
4.93196
 21
1.70544
 31
0.0
  0
LINE
  8
0
  6
CONTINUOUS
 62
   250
 10
4.93196
 20
1.70544
 30
0.0
 11
4.92976
 21
1.70588
 31
0.0
  0
LINE
  8
0
  6
CONTINUOUS
 62
   250
 10
4.92976
 20
1.70588
 30
0.0
 11
4.928
 21
1.70544
 31
0.0
  0
LINE
  8
0
  6
CONTINUOUS
 62
   250
 10
4.928
 20
1.70544
 30
0.0
 11
4.9258
 21
1.70456
 31
0.0
  0
LINE
  8
0
  6
CONTINUOUS
 62
   250
 10
4.9258
 20
1.70456
 30
0.0
 11
4.92404
 21
1.70368
 31
0.0
  0
LINE
  8
0
  6
CONTINUOUS
 62
   250
 10
4.92404
 20
1.70368
 30
0.0
 11
4.92228
 21
1.70236
 31
0.0
  0
LINE
  8
0
  6
CONTINUOUS
 62
   250
 10
4.92228
 20
1.70236
 30
0.0
 11
4.92096
 21
1.70016
 31
0.0
  0
LINE
  8
0
  6
CONTINUOUS
 62
   250
 10
4.92096
 20
1.70016
 30
0.0
 11
4.92052
 21
1.6984
 31
0.0
  0
LINE
  8
0
  6
CONTINUOUS
 62
   250
 10
4.92052
 20
1.6984
 30
0.0
 11
4.92052
 21
1.6962
 31
0.0
  0
LINE
  8
0
  6
CONTINUOUS
 62
   250
 10
4.92052
 20
1.6962
 30
0.0
 11
4.92052
 21
1.694
 31
0.0
  0
LINE
  8
0
  6
CONTINUOUS
 62
   250
 10
4.92052
 20
1.694
 30
0.0
 11
4.92096
 21
1.6918
 31
0.0
  0
LINE
  8
0
  6
CONTINUOUS
 62
   250
 10
4.92096
 20
1.6918
 30
0.0
 11
4.92228
 21
1.69004
 31
0.0
  0
LINE
  8
0
  6
CONTINUOUS
 62
   250
 10
4.92052
 20
1.6962
 30
0.0
 11
4.93944
 21
1.6962
 31
0.0
  0
LINE
  8
0
  6
CONTINUOUS
 62
   250
 10
4.91084
 20
1.60468
 30
0.0
 11
4.98784
 21
1.60468
 31
0.0
  0
LINE
  8
0
  6
CONTINUOUS
 62
   250
 10
4.91612
 20
1.58136
 30
0.0
 11
4.91392
 21
1.58136
 31
0.0
  0
LINE
  8
0
  6
CONTINUOUS
 62
   250
 10
4.91392
 20
1.58136
 30
0.0
 11
4.91216
 21
1.58048
 31
0.0
  0
LINE
  8
0
  6
CONTINUOUS
 62
   250
 10
4.91216
 20
1.58048
 30
0.0
 11
4.91084
 21
1.57916
 31
0.0
  0
LINE
  8
0
  6
CONTINUOUS
 62
   250
 10
4.91084
 20
1.57916
 30
0.0
 11
4.90952
 21
1.57784
 31
0.0
  0
LINE
  8
0
  6
CONTINUOUS
 62
   250
 10
4.90952
 20
1.57784
 30
0.0
 11
4.90864
 21
1.57564
 31
0.0
  0
LINE
  8
0
  6
CONTINUOUS
 62
   250
 10
4.90864
 20
1.57564
 30
0.0
 11
4.90864
 21
1.57388
 31
0.0
  0
LINE
  8
0
  6
CONTINUOUS
 62
   250
 10
4.90864
 20
1.57388
 30
0.0
 11
4.90864
 21
1.48192
 31
0.0
  0
LINE
  8
0
  6
CONTINUOUS
 62
   250
 10
4.90864
 20
1.48192
 30
0.0
 11
4.90864
 21
1.47972
 31
0.0
  0
LINE
  8
0
  6
CONTINUOUS
 62
   250
 10
4.90864
 20
1.47972
 30
0.0
 11
4.90952
 21
1.47796
 31
0.0
  0
LINE
  8
0
  6
CONTINUOUS
 62
   250
 10
4.90952
 20
1.47796
 30
0.0
 11
4.91084
 21
1.4762
 31
0.0
  0
LINE
  8
0
  6
CONTINUOUS
 62
   250
 10
4.91084
 20
1.4762
 30
0.0
 11
4.91216
 21
1.47532
 31
0.0
  0
LINE
  8
0
  6
CONTINUOUS
 62
   250
 10
4.91216
 20
1.47532
 30
0.0
 11
4.91392
 21
1.47444
 31
0.0
  0
LINE
  8
0
  6
CONTINUOUS
 62
   250
 10
4.91392
 20
1.47444
 30
0.0
 11
4.91612
 21
1.47444
 31
0.0
  0
LINE
  8
0
  6
CONTINUOUS
 62
   250
 10
4.91612
 20
1.47444
 30
0.0
 11
5.28792
 21
1.47444
 31
0.0
  0
LINE
  8
0
  6
CONTINUOUS
 62
   250
 10
5.28792
 20
1.47444
 30
0.0
 11
5.29012
 21
1.47444
 31
0.0
  0
LINE
  8
0
  6
CONTINUOUS
 62
   250
 10
5.29012
 20
1.47444
 30
0.0
 11
5.29188
 21
1.47532
 31
0.0
  0
LINE
  8
0
  6
CONTINUOUS
 62
   250
 10
5.29188
 20
1.47532
 30
0.0
 11
5.2932
 21
1.4762
 31
0.0
  0
LINE
  8
0
  6
CONTINUOUS
 62
   250
 10
5.2932
 20
1.4762
 30
0.0
 11
5.29452
 21
1.47796
 31
0.0
  0
LINE
  8
0
  6
CONTINUOUS
 62
   250
 10
5.29452
 20
1.47796
 30
0.0
 11
5.2954
 21
1.47972
 31
0.0
  0
LINE
  8
0
  6
CONTINUOUS
 62
   250
 10
5.2954
 20
1.47972
 30
0.0
 11
5.2954
 21
1.48192
 31
0.0
  0
LINE
  8
0
  6
CONTINUOUS
 62
   250
 10
5.2954
 20
1.48192
 30
0.0
 11
5.2954
 21
1.57388
 31
0.0
  0
LINE
  8
0
  6
CONTINUOUS
 62
   250
 10
5.2954
 20
1.57388
 30
0.0
 11
5.2954
 21
1.57564
 31
0.0
  0
LINE
  8
0
  6
CONTINUOUS
 62
   250
 10
5.2954
 20
1.57564
 30
0.0
 11
5.29452
 21
1.57784
 31
0.0
  0
LINE
  8
0
  6
CONTINUOUS
 62
   250
 10
5.29452
 20
1.57784
 30
0.0
 11
5.2932
 21
1.57916
 31
0.0
  0
LINE
  8
0
  6
CONTINUOUS
 62
   250
 10
5.2932
 20
1.57916
 30
0.0
 11
5.29188
 21
1.58048
 31
0.0
  0
LINE
  8
0
  6
CONTINUOUS
 62
   250
 10
5.29188
 20
1.58048
 30
0.0
 11
5.29012
 21
1.58136
 31
0.0
  0
LINE
  8
0
  6
CONTINUOUS
 62
   250
 10
5.29012
 20
1.58136
 30
0.0
 11
5.28792
 21
1.58136
 31
0.0
  0
LINE
  8
0
  6
CONTINUOUS
 62
   250
 10
5.28792
 20
1.58136
 30
0.0
 11
4.91612
 21
1.58136
 31
0.0
  0
LINE
  8
0
  6
CONTINUOUS
 62
   250
 10
4.74716
 20
1.5752
 30
0.0
 11
4.74716
 21
1.51448
 31
0.0
  0
LINE
  8
0
  6
CONTINUOUS
 62
   250
 10
4.71284
 20
1.52768
 30
0.0
 11
4.71108
 21
1.52988
 31
0.0
  0
LINE
  8
0
  6
CONTINUOUS
 62
   250
 10
4.71108
 20
1.52988
 30
0.0
 11
4.7102
 21
1.53208
 31
0.0
  0
LINE
  8
0
  6
CONTINUOUS
 62
   250
 10
4.7102
 20
1.53208
 30
0.0
 11
4.70932
 21
1.53472
 31
0.0
  0
LINE
  8
0
  6
CONTINUOUS
 62
   250
 10
4.70932
 20
1.53472
 30
0.0
 11
4.70888
 21
1.53736
 31
0.0
  0
LINE
  8
0
  6
CONTINUOUS
 62
   250
 10
4.71284
 20
1.52768
 30
0.0
 11
4.71504
 21
1.52636
 31
0.0
  0
LINE
  8
0
  6
CONTINUOUS
 62
   250
 10
4.71504
 20
1.52636
 30
0.0
 11
4.71724
 21
1.52504
 31
0.0
  0
LINE
  8
0
  6
CONTINUOUS
 62
   250
 10
4.71724
 20
1.52504
 30
0.0
 11
4.71988
 21
1.52416
 31
0.0
  0
LINE
  8
0
  6
CONTINUOUS
 62
   250
 10
4.71988
 20
1.52416
 30
0.0
 11
4.72208
 21
1.52416
 31
0.0
  0
LINE
  8
0
  6
CONTINUOUS
 62
   250
 10
4.72208
 20
1.52416
 30
0.0
 11
4.72472
 21
1.52416
 31
0.0
  0
LINE
  8
0
  6
CONTINUOUS
 62
   250
 10
4.72472
 20
1.52416
 30
0.0
 11
4.72736
 21
1.52504
 31
0.0
  0
LINE
  8
0
  6
CONTINUOUS
 62
   250
 10
4.72736
 20
1.52504
 30
0.0
 11
4.72956
 21
1.52636
 31
0.0
  0
LINE
  8
0
  6
CONTINUOUS
 62
   250
 10
4.72956
 20
1.52636
 30
0.0
 11
4.73176
 21
1.52768
 31
0.0
  0
LINE
  8
0
  6
CONTINUOUS
 62
   250
 10
4.73176
 20
1.52768
 30
0.0
 11
4.73352
 21
1.52988
 31
0.0
  0
LINE
  8
0
  6
CONTINUOUS
 62
   250
 10
4.73352
 20
1.52988
 30
0.0
 11
4.7344
 21
1.53208
 31
0.0
  0
LINE
  8
0
  6
CONTINUOUS
 62
   250
 10
4.7344
 20
1.53208
 30
0.0
 11
4.73528
 21
1.53472
 31
0.0
  0
LINE
  8
0
  6
CONTINUOUS
 62
   250
 10
4.73528
 20
1.53472
 30
0.0
 11
4.73572
 21
1.53736
 31
0.0
  0
LINE
  8
0
  6
CONTINUOUS
 62
   250
 10
4.73572
 20
1.53736
 30
0.0
 11
4.73572
 21
1.55232
 31
0.0
  0
LINE
  8
0
  6
CONTINUOUS
 62
   250
 10
4.73572
 20
1.55232
 30
0.0
 11
4.73528
 21
1.55496
 31
0.0
  0
LINE
  8
0
  6
CONTINUOUS
 62
   250
 10
4.73528
 20
1.55496
 30
0.0
 11
4.7344
 21
1.5576
 31
0.0
  0
LINE
  8
0
  6
CONTINUOUS
 62
   250
 10
4.7344
 20
1.5576
 30
0.0
 11
4.73352
 21
1.5598
 31
0.0
  0
LINE
  8
0
  6
CONTINUOUS
 62
   250
 10
4.73352
 20
1.5598
 30
0.0
 11
4.73176
 21
1.56156
 31
0.0
  0
LINE
  8
0
  6
CONTINUOUS
 62
   250
 10
4.73176
 20
1.56156
 30
0.0
 11
4.72956
 21
1.56332
 31
0.0
  0
LINE
  8
0
  6
CONTINUOUS
 62
   250
 10
4.72956
 20
1.56332
 30
0.0
 11
4.72736
 21
1.56464
 31
0.0
  0
LINE
  8
0
  6
CONTINUOUS
 62
   250
 10
4.72736
 20
1.56464
 30
0.0
 11
4.72472
 21
1.56552
 31
0.0
  0
LINE
  8
0
  6
CONTINUOUS
 62
   250
 10
4.72472
 20
1.56552
 30
0.0
 11
4.72208
 21
1.56552
 31
0.0
  0
LINE
  8
0
  6
CONTINUOUS
 62
   250
 10
4.72208
 20
1.56552
 30
0.0
 11
4.71988
 21
1.56552
 31
0.0
  0
LINE
  8
0
  6
CONTINUOUS
 62
   250
 10
4.71988
 20
1.56552
 30
0.0
 11
4.71724
 21
1.56464
 31
0.0
  0
LINE
  8
0
  6
CONTINUOUS
 62
   250
 10
4.71724
 20
1.56464
 30
0.0
 11
4.71504
 21
1.56332
 31
0.0
  0
LINE
  8
0
  6
CONTINUOUS
 62
   250
 10
4.71504
 20
1.56332
 30
0.0
 11
4.71284
 21
1.56156
 31
0.0
  0
LINE
  8
0
  6
CONTINUOUS
 62
   250
 10
4.71284
 20
1.56156
 30
0.0
 11
4.71108
 21
1.5598
 31
0.0
  0
LINE
  8
0
  6
CONTINUOUS
 62
   250
 10
4.71108
 20
1.5598
 30
0.0
 11
4.7102
 21
1.5576
 31
0.0
  0
LINE
  8
0
  6
CONTINUOUS
 62
   250
 10
4.7102
 20
1.5576
 30
0.0
 11
4.70932
 21
1.55496
 31
0.0
  0
LINE
  8
0
  6
CONTINUOUS
 62
   250
 10
4.70932
 20
1.55496
 30
0.0
 11
4.70888
 21
1.55232
 31
0.0
  0
LINE
  8
0
  6
CONTINUOUS
 62
   250
 10
4.70888
 20
1.55232
 30
0.0
 11
4.70888
 21
1.53736
 31
0.0
  0
LINE
  8
0
  6
CONTINUOUS
 62
   250
 10
4.73704
 20
1.31604
 30
0.0
 11
4.82636
 21
1.31604
 31
0.0
  0
LINE
  8
0
  6
CONTINUOUS
 62
   250
 10
4.82636
 20
1.2672
 30
0.0
 11
4.82812
 21
1.26676
 31
0.0
  0
LINE
  8
0
  6
CONTINUOUS
 62
   250
 10
4.82812
 20
1.26676
 30
0.0
 11
4.82988
 21
1.26588
 31
0.0
  0
LINE
  8
0
  6
CONTINUOUS
 62
   250
 10
4.82988
 20
1.26588
 30
0.0
 11
4.83164
 21
1.26456
 31
0.0
  0
LINE
  8
0
  6
CONTINUOUS
 62
   250
 10
4.83164
 20
1.26456
 30
0.0
 11
4.83296
 21
1.26324
 31
0.0
  0
LINE
  8
0
  6
CONTINUOUS
 62
   250
 10
4.83296
 20
1.26324
 30
0.0
 11
4.83384
 21
1.26104
 31
0.0
  0
LINE
  8
0
  6
CONTINUOUS
 62
   250
 10
4.83384
 20
1.26104
 30
0.0
 11
4.83384
 21
1.25928
 31
0.0
  0
LINE
  8
0
  6
CONTINUOUS
 62
   250
 10
4.83384
 20
1.25928
 30
0.0
 11
4.83384
 21
1.25752
 31
0.0
  0
LINE
  8
0
  6
CONTINUOUS
 62
   250
 10
4.83384
 20
1.25752
 30
0.0
 11
4.83296
 21
1.25532
 31
0.0
  0
LINE
  8
0
  6
CONTINUOUS
 62
   250
 10
4.83296
 20
1.25532
 30
0.0
 11
4.83164
 21
1.254
 31
0.0
  0
LINE
  8
0
  6
CONTINUOUS
 62
   250
 10
4.83164
 20
1.254
 30
0.0
 11
4.82988
 21
1.25268
 31
0.0
  0
LINE
  8
0
  6
CONTINUOUS
 62
   250
 10
4.82988
 20
1.25268
 30
0.0
 11
4.82812
 21
1.2518
 31
0.0
  0
LINE
  8
0
  6
CONTINUOUS
 62
   250
 10
4.82812
 20
1.2518
 30
0.0
 11
4.82636
 21
1.2518
 31
0.0
  0
LINE
  8
0
  6
CONTINUOUS
 62
   250
 10
4.96628
 20
1.232
 30
0.0
 11
5.25052
 21
1.232
 31
0.0
  0
LINE
  8
0
  6
CONTINUOUS
 62
   250
 10
5.25052
 20
1.232
 30
0.0
 11
5.25052
 21
1.2738
 31
0.0
  0
LINE
  8
0
  6
CONTINUOUS
 62
   250
 10
5.25052
 20
1.2738
 30
0.0
 11
4.96628
 21
1.2738
 31
0.0
  0
LINE
  8
0
  6
CONTINUOUS
 62
   250
 10
4.96628
 20
1.2738
 30
0.0
 11
4.96628
 21
1.232
 31
0.0
  0
LINE
  8
0
  6
CONTINUOUS
 62
   250
 10
4.51968
 20
1.22144
 30
0.0
 11
4.51968
 21
1.25488
 31
0.0
  0
LINE
  8
0
  6
CONTINUOUS
 62
   250
 10
4.51968
 20
1.25488
 30
0.0
 11
4.51924
 21
1.25708
 31
0.0
  0
LINE
  8
0
  6
CONTINUOUS
 62
   250
 10
4.51924
 20
1.25708
 30
0.0
 11
4.5188
 21
1.25884
 31
0.0
  0
LINE
  8
0
  6
CONTINUOUS
 62
   250
 10
4.5188
 20
1.25884
 30
0.0
 11
4.51748
 21
1.2606
 31
0.0
  0
LINE
  8
0
  6
CONTINUOUS
 62
   250
 10
4.51748
 20
1.2606
 30
0.0
 11
4.51572
 21
1.26148
 31
0.0
  0
LINE
  8
0
  6
CONTINUOUS
 62
   250
 10
4.51572
 20
1.26148
 30
0.0
 11
4.51396
 21
1.26236
 31
0.0
  0
LINE
  8
0
  6
CONTINUOUS
 62
   250
 10
4.51396
 20
1.26236
 30
0.0
 11
4.5122
 21
1.2628
 31
0.0
  0
LINE
  8
0
  6
CONTINUOUS
 62
   250
 10
4.5122
 20
1.2628
 30
0.0
 11
4.46644
 21
1.2628
 31
0.0
  0
LINE
  8
0
  6
CONTINUOUS
 62
   250
 10
4.46644
 20
1.33892
 30
0.0
 11
4.55356
 21
1.33892
 31
0.0
  0
LINE
  8
0
  6
CONTINUOUS
 62
   250
 10
4.55356
 20
1.33892
 30
0.0
 11
4.55532
 21
1.33892
 31
0.0
  0
LINE
  8
0
  6
CONTINUOUS
 62
   250
 10
4.55532
 20
1.33892
 30
0.0
 11
4.55708
 21
1.3398
 31
0.0
  0
LINE
  8
0
  6
CONTINUOUS
 62
   250
 10
4.55708
 20
1.3398
 30
0.0
 11
4.55884
 21
1.34112
 31
0.0
  0
LINE
  8
0
  6
CONTINUOUS
 62
   250
 10
4.55884
 20
1.34112
 30
0.0
 11
4.56016
 21
1.34244
 31
0.0
  0
LINE
  8
0
  6
CONTINUOUS
 62
   250
 10
4.56016
 20
1.34244
 30
0.0
 11
4.56104
 21
1.3442
 31
0.0
  0
LINE
  8
0
  6
CONTINUOUS
 62
   250
 10
4.56104
 20
1.3442
 30
0.0
 11
4.56104
 21
1.3464
 31
0.0
  0
LINE
  8
0
  6
CONTINUOUS
 62
   250
 10
4.56104
 20
1.3464
 30
0.0
 11
4.56104
 21
1.36092
 31
0.0
  0
LINE
  8
0
  6
CONTINUOUS
 62
   250
 10
4.56104
 20
1.36092
 30
0.0
 11
4.56104
 21
1.36268
 31
0.0
  0
LINE
  8
0
  6
CONTINUOUS
 62
   250
 10
4.56104
 20
1.36268
 30
0.0
 11
4.56016
 21
1.36444
 31
0.0
  0
LINE
  8
0
  6
CONTINUOUS
 62
   250
 10
4.56016
 20
1.36444
 30
0.0
 11
4.55884
 21
1.3662
 31
0.0
  0
LINE
  8
0
  6
CONTINUOUS
 62
   250
 10
4.55884
 20
1.3662
 30
0.0
 11
4.55708
 21
1.36752
 31
0.0
  0
LINE
  8
0
  6
CONTINUOUS
 62
   250
 10
4.55708
 20
1.36752
 30
0.0
 11
4.55532
 21
1.3684
 31
0.0
  0
LINE
  8
0
  6
CONTINUOUS
 62
   250
 10
4.55532
 20
1.3684
 30
0.0
 11
4.55356
 21
1.3684
 31
0.0
  0
LINE
  8
0
  6
CONTINUOUS
 62
   250
 10
4.55356
 20
1.3684
 30
0.0
 11
4.46644
 21
1.3684
 31
0.0
  0
LINE
  8
0
  6
CONTINUOUS
 62
   250
 10
4.45016
 20
1.507
 30
0.0
 11
4.4198
 21
1.507
 31
0.0
  0
LINE
  8
0
  6
CONTINUOUS
 62
   250
 10
4.45016
 20
1.507
 30
0.0
 11
4.45016
 21
1.58268
 31
0.0
  0
LINE
  8
0
  6
CONTINUOUS
 62
   250
 10
4.45016
 20
1.58268
 30
0.0
 11
4.4198
 21
1.58268
 31
0.0
  0
LINE
  8
0
  6
CONTINUOUS
 62
   250
 10
4.5122
 20
1.63812
 30
0.0
 11
4.5122
 21
1.67464
 31
0.0
  0
LINE
  8
0
  6
CONTINUOUS
 62
   250
 10
4.5122
 20
1.67464
 30
0.0
 11
4.54872
 21
1.67464
 31
0.0
  0
LINE
  8
0
  6
CONTINUOUS
 62
   250
 10
4.54872
 20
1.67464
 30
0.0
 11
4.54872
 21
1.63812
 31
0.0
  0
LINE
  8
0
  6
CONTINUOUS
 62
   250
 10
4.54872
 20
1.63812
 30
0.0
 11
4.5122
 21
1.63812
 31
0.0
  0
LINE
  8
0
  6
CONTINUOUS
 62
   250
 10
4.52232
 20
1.64956
 30
0.0
 11
4.52408
 21
1.6478
 31
0.0
  0
LINE
  8
0
  6
CONTINUOUS
 62
   250
 10
4.52408
 20
1.6478
 30
0.0
 11
4.52628
 21
1.64648
 31
0.0
  0
LINE
  8
0
  6
CONTINUOUS
 62
   250
 10
4.52628
 20
1.64648
 30
0.0
 11
4.52848
 21
1.6456
 31
0.0
  0
LINE
  8
0
  6
CONTINUOUS
 62
   250
 10
4.52848
 20
1.6456
 30
0.0
 11
4.53068
 21
1.6456
 31
0.0
  0
LINE
  8
0
  6
CONTINUOUS
 62
   250
 10
4.53068
 20
1.6456
 30
0.0
 11
4.53288
 21
1.6456
 31
0.0
  0
LINE
  8
0
  6
CONTINUOUS
 62
   250
 10
4.53288
 20
1.6456
 30
0.0
 11
4.53508
 21
1.64648
 31
0.0
  0
LINE
  8
0
  6
CONTINUOUS
 62
   250
 10
4.53508
 20
1.64648
 30
0.0
 11
4.53728
 21
1.6478
 31
0.0
  0
LINE
  8
0
  6
CONTINUOUS
 62
   250
 10
4.53728
 20
1.6478
 30
0.0
 11
4.53904
 21
1.64956
 31
0.0
  0
LINE
  8
0
  6
CONTINUOUS
 62
   250
 10
4.53904
 20
1.64956
 30
0.0
 11
4.54036
 21
1.65132
 31
0.0
  0
LINE
  8
0
  6
CONTINUOUS
 62
   250
 10
4.54036
 20
1.65132
 30
0.0
 11
4.5408
 21
1.65352
 31
0.0
  0
LINE
  8
0
  6
CONTINUOUS
 62
   250
 10
4.5408
 20
1.65352
 30
0.0
 11
4.54124
 21
1.65616
 31
0.0
  0
LINE
  8
0
  6
CONTINUOUS
 62
   250
 10
4.54124
 20
1.65616
 30
0.0
 11
4.5408
 21
1.65836
 31
0.0
  0
LINE
  8
0
  6
CONTINUOUS
 62
   250
 10
4.5408
 20
1.65836
 30
0.0
 11
4.54036
 21
1.66056
 31
0.0
  0
LINE
  8
0
  6
CONTINUOUS
 62
   250
 10
4.54036
 20
1.66056
 30
0.0
 11
4.53904
 21
1.66276
 31
0.0
  0
LINE
  8
0
  6
CONTINUOUS
 62
   250
 10
4.53904
 20
1.66276
 30
0.0
 11
4.53728
 21
1.66408
 31
0.0
  0
LINE
  8
0
  6
CONTINUOUS
 62
   250
 10
4.53728
 20
1.66408
 30
0.0
 11
4.53508
 21
1.6654
 31
0.0
  0
LINE
  8
0
  6
CONTINUOUS
 62
   250
 10
4.53508
 20
1.6654
 30
0.0
 11
4.53288
 21
1.66628
 31
0.0
  0
LINE
  8
0
  6
CONTINUOUS
 62
   250
 10
4.53288
 20
1.66628
 30
0.0
 11
4.53068
 21
1.66672
 31
0.0
  0
LINE
  8
0
  6
CONTINUOUS
 62
   250
 10
4.53068
 20
1.66672
 30
0.0
 11
4.52848
 21
1.66628
 31
0.0
  0
LINE
  8
0
  6
CONTINUOUS
 62
   250
 10
4.52848
 20
1.66628
 30
0.0
 11
4.52628
 21
1.6654
 31
0.0
  0
LINE
  8
0
  6
CONTINUOUS
 62
   250
 10
4.52628
 20
1.6654
 30
0.0
 11
4.52408
 21
1.66408
 31
0.0
  0
LINE
  8
0
  6
CONTINUOUS
 62
   250
 10
4.52408
 20
1.66408
 30
0.0
 11
4.52232
 21
1.66276
 31
0.0
  0
LINE
  8
0
  6
CONTINUOUS
 62
   250
 10
4.52232
 20
1.66276
 30
0.0
 11
4.521
 21
1.66056
 31
0.0
  0
LINE
  8
0
  6
CONTINUOUS
 62
   250
 10
4.521
 20
1.66056
 30
0.0
 11
4.52056
 21
1.65836
 31
0.0
  0
LINE
  8
0
  6
CONTINUOUS
 62
   250
 10
4.52056
 20
1.65836
 30
0.0
 11
4.52012
 21
1.65616
 31
0.0
  0
LINE
  8
0
  6
CONTINUOUS
 62
   250
 10
4.52012
 20
1.65616
 30
0.0
 11
4.52056
 21
1.65352
 31
0.0
  0
LINE
  8
0
  6
CONTINUOUS
 62
   250
 10
4.52056
 20
1.65352
 30
0.0
 11
4.521
 21
1.65132
 31
0.0
  0
LINE
  8
0
  6
CONTINUOUS
 62
   250
 10
4.521
 20
1.65132
 30
0.0
 11
4.52232
 21
1.64956
 31
0.0
  0
LINE
  8
0
  6
CONTINUOUS
 62
   250
 10
4.52364
 20
1.65616
 30
0.0
 11
4.53816
 21
1.65616
 31
0.0
  0
LINE
  8
0
  6
CONTINUOUS
 62
   250
 10
4.53068
 20
1.6632
 30
0.0
 11
4.53068
 21
1.64868
 31
0.0
  0
LINE
  8
0
  6
CONTINUOUS
 62
   250
 10
4.51748
 20
1.82688
 30
0.0
 11
4.5188
 21
1.8282
 31
0.0
  0
LINE
  8
0
  6
CONTINUOUS
 62
   250
 10
4.5188
 20
1.8282
 30
0.0
 11
4.51924
 21
1.82996
 31
0.0
  0
LINE
  8
0
  6
CONTINUOUS
 62
   250
 10
4.51924
 20
1.82996
 30
0.0
 11
4.51968
 21
1.83216
 31
0.0
  0
LINE
  8
0
  6
CONTINUOUS
 62
   250
 10
4.51968
 20
1.83216
 30
0.0
 11
4.51968
 21
1.86604
 31
0.0
  0
LINE
  8
0
  6
CONTINUOUS
 62
   250
 10
4.51968
 20
1.86604
 30
0.0
 11
5.64344
 21
1.86604
 31
0.0
  0
LINE
  8
0
  6
CONTINUOUS
 62
   250
 10
5.64344
 20
1.86604
 30
0.0
 11
5.64344
 21
1.75516
 31
0.0
  0
LINE
  8
0
  6
CONTINUOUS
 62
   250
 10
5.64344
 20
1.74724
 30
0.0
 11
5.64344
 21
1.27028
 31
0.0
  0
LINE
  8
0
  6
CONTINUOUS
 62
   250
 10
5.64344
 20
1.2628
 30
0.0
 11
5.64344
 21
1.22144
 31
0.0
  0
LINE
  8
0
  6
CONTINUOUS
 62
   250
 10
5.64344
 20
1.22144
 30
0.0
 11
4.51968
 21
1.22144
 31
0.0
  0
LINE
  8
0
  6
CONTINUOUS
 62
   250
 10
4.55488
 20
1.38116
 30
0.0
 11
4.55796
 21
1.37808
 31
0.0
  0
LINE
  8
0
  6
CONTINUOUS
 62
   250
 10
4.55796
 20
1.37808
 30
0.0
 11
4.56148
 21
1.37544
 31
0.0
  0
LINE
  8
0
  6
CONTINUOUS
 62
   250
 10
4.56148
 20
1.37544
 30
0.0
 11
4.56544
 21
1.37324
 31
0.0
  0
LINE
  8
0
  6
CONTINUOUS
 62
   250
 10
4.56544
 20
1.37324
 30
0.0
 11
4.5694
 21
1.37192
 31
0.0
  0
LINE
  8
0
  6
CONTINUOUS
 62
   250
 10
4.5694
 20
1.37192
 30
0.0
 11
4.5738
 21
1.3706
 31
0.0
  0
LINE
  8
0
  6
CONTINUOUS
 62
   250
 10
4.5738
 20
1.3706
 30
0.0
 11
4.57776
 21
1.36972
 31
0.0
  0
LINE
  8
0
  6
CONTINUOUS
 62
   250
 10
4.57776
 20
1.36972
 30
0.0
 11
4.5826
 21
1.36972
 31
0.0
  0
LINE
  8
0
  6
CONTINUOUS
 62
   250
 10
4.5826
 20
1.36972
 30
0.0
 11
4.58656
 21
1.36972
 31
0.0
  0
LINE
  8
0
  6
CONTINUOUS
 62
   250
 10
4.58656
 20
1.36972
 30
0.0
 11
4.59096
 21
1.3706
 31
0.0
  0
LINE
  8
0
  6
CONTINUOUS
 62
   250
 10
4.59096
 20
1.3706
 30
0.0
 11
4.59536
 21
1.37192
 31
0.0
  0
LINE
  8
0
  6
CONTINUOUS
 62
   250
 10
4.59536
 20
1.37192
 30
0.0
 11
4.59932
 21
1.37324
 31
0.0
  0
LINE
  8
0
  6
CONTINUOUS
 62
   250
 10
4.59932
 20
1.37324
 30
0.0
 11
4.60328
 21
1.37544
 31
0.0
  0
LINE
  8
0
  6
CONTINUOUS
 62
   250
 10
4.60328
 20
1.37544
 30
0.0
 11
4.6068
 21
1.37808
 31
0.0
  0
LINE
  8
0
  6
CONTINUOUS
 62
   250
 10
4.6068
 20
1.37808
 30
0.0
 11
4.60988
 21
1.38116
 31
0.0
  0
LINE
  8
0
  6
CONTINUOUS
 62
   250
 10
4.60988
 20
1.38116
 30
0.0
 11
4.61296
 21
1.38468
 31
0.0
  0
LINE
  8
0
  6
CONTINUOUS
 62
   250
 10
4.61296
 20
1.38468
 30
0.0
 11
4.6156
 21
1.38776
 31
0.0
  0
LINE
  8
0
  6
CONTINUOUS
 62
   250
 10
4.6156
 20
1.38776
 30
0.0
 11
4.6178
 21
1.39172
 31
0.0
  0
LINE
  8
0
  6
CONTINUOUS
 62
   250
 10
4.6178
 20
1.39172
 30
0.0
 11
4.61912
 21
1.39612
 31
0.0
  0
LINE
  8
0
  6
CONTINUOUS
 62
   250
 10
4.61912
 20
1.39612
 30
0.0
 11
4.62044
 21
1.40008
 31
0.0
  0
LINE
  8
0
  6
CONTINUOUS
 62
   250
 10
4.62044
 20
1.40008
 30
0.0
 11
4.62132
 21
1.40448
 31
0.0
  0
LINE
  8
0
  6
CONTINUOUS
 62
   250
 10
4.62132
 20
1.40448
 30
0.0
 11
4.62176
 21
1.40888
 31
0.0
  0
LINE
  8
0
  6
CONTINUOUS
 62
   250
 10
4.62176
 20
1.40888
 30
0.0
 11
4.62132
 21
1.41328
 31
0.0
  0
LINE
  8
0
  6
CONTINUOUS
 62
   250
 10
4.62132
 20
1.41328
 30
0.0
 11
4.62044
 21
1.41768
 31
0.0
  0
LINE
  8
0
  6
CONTINUOUS
 62
   250
 10
4.62044
 20
1.41768
 30
0.0
 11
4.61912
 21
1.42164
 31
0.0
  0
LINE
  8
0
  6
CONTINUOUS
 62
   250
 10
4.61912
 20
1.42164
 30
0.0
 11
4.6178
 21
1.42604
 31
0.0
  0
LINE
  8
0
  6
CONTINUOUS
 62
   250
 10
4.6178
 20
1.42604
 30
0.0
 11
4.6156
 21
1.42956
 31
0.0
  0
LINE
  8
0
  6
CONTINUOUS
 62
   250
 10
4.6156
 20
1.42956
 30
0.0
 11
4.61296
 21
1.43308
 31
0.0
  0
LINE
  8
0
  6
CONTINUOUS
 62
   250
 10
4.61296
 20
1.43308
 30
0.0
 11
4.60988
 21
1.4366
 31
0.0
  0
LINE
  8
0
  6
CONTINUOUS
 62
   250
 10
4.60988
 20
1.4366
 30
0.0
 11
4.6068
 21
1.43968
 31
0.0
  0
LINE
  8
0
  6
CONTINUOUS
 62
   250
 10
4.6068
 20
1.43968
 30
0.0
 11
4.60328
 21
1.44188
 31
0.0
  0
LINE
  8
0
  6
CONTINUOUS
 62
   250
 10
4.60328
 20
1.44188
 30
0.0
 11
4.59932
 21
1.44408
 31
0.0
  0
LINE
  8
0
  6
CONTINUOUS
 62
   250
 10
4.59932
 20
1.44408
 30
0.0
 11
4.59536
 21
1.44584
 31
0.0
  0
LINE
  8
0
  6
CONTINUOUS
 62
   250
 10
4.59536
 20
1.44584
 30
0.0
 11
4.59096
 21
1.44716
 31
0.0
  0
LINE
  8
0
  6
CONTINUOUS
 62
   250
 10
4.59096
 20
1.44716
 30
0.0
 11
4.58656
 21
1.44804
 31
0.0
  0
LINE
  8
0
  6
CONTINUOUS
 62
   250
 10
4.58656
 20
1.44804
 30
0.0
 11
4.5826
 21
1.44804
 31
0.0
  0
LINE
  8
0
  6
CONTINUOUS
 62
   250
 10
4.5826
 20
1.44804
 30
0.0
 11
4.57776
 21
1.44804
 31
0.0
  0
LINE
  8
0
  6
CONTINUOUS
 62
   250
 10
4.57776
 20
1.44804
 30
0.0
 11
4.5738
 21
1.44716
 31
0.0
  0
LINE
  8
0
  6
CONTINUOUS
 62
   250
 10
4.5738
 20
1.44716
 30
0.0
 11
4.5694
 21
1.44584
 31
0.0
  0
LINE
  8
0
  6
CONTINUOUS
 62
   250
 10
4.5694
 20
1.44584
 30
0.0
 11
4.56544
 21
1.44408
 31
0.0
  0
LINE
  8
0
  6
CONTINUOUS
 62
   250
 10
4.56544
 20
1.44408
 30
0.0
 11
4.56148
 21
1.44188
 31
0.0
  0
LINE
  8
0
  6
CONTINUOUS
 62
   250
 10
4.56148
 20
1.44188
 30
0.0
 11
4.55796
 21
1.43968
 31
0.0
  0
LINE
  8
0
  6
CONTINUOUS
 62
   250
 10
4.55796
 20
1.43968
 30
0.0
 11
4.55488
 21
1.4366
 31
0.0
  0
LINE
  8
0
  6
CONTINUOUS
 62
   250
 10
4.55488
 20
1.4366
 30
0.0
 11
4.5518
 21
1.43308
 31
0.0
  0
LINE
  8
0
  6
CONTINUOUS
 62
   250
 10
4.5518
 20
1.43308
 30
0.0
 11
4.54916
 21
1.42956
 31
0.0
  0
LINE
  8
0
  6
CONTINUOUS
 62
   250
 10
4.54916
 20
1.42956
 30
0.0
 11
4.54696
 21
1.42604
 31
0.0
  0
LINE
  8
0
  6
CONTINUOUS
 62
   250
 10
4.54696
 20
1.42604
 30
0.0
 11
4.5452
 21
1.42164
 31
0.0
  0
LINE
  8
0
  6
CONTINUOUS
 62
   250
 10
4.5452
 20
1.42164
 30
0.0
 11
4.54432
 21
1.41768
 31
0.0
  0
LINE
  8
0
  6
CONTINUOUS
 62
   250
 10
4.54432
 20
1.41768
 30
0.0
 11
4.54344
 21
1.41328
 31
0.0
  0
LINE
  8
0
  6
CONTINUOUS
 62
   250
 10
4.54344
 20
1.41328
 30
0.0
 11
4.543
 21
1.40888
 31
0.0
  0
LINE
  8
0
  6
CONTINUOUS
 62
   250
 10
4.543
 20
1.40888
 30
0.0
 11
4.54344
 21
1.40448
 31
0.0
  0
LINE
  8
0
  6
CONTINUOUS
 62
   250
 10
4.54344
 20
1.40448
 30
0.0
 11
4.54432
 21
1.40008
 31
0.0
  0
LINE
  8
0
  6
CONTINUOUS
 62
   250
 10
4.54432
 20
1.40008
 30
0.0
 11
4.5452
 21
1.39612
 31
0.0
  0
LINE
  8
0
  6
CONTINUOUS
 62
   250
 10
4.5452
 20
1.39612
 30
0.0
 11
4.54696
 21
1.39172
 31
0.0
  0
LINE
  8
0
  6
CONTINUOUS
 62
   250
 10
4.54696
 20
1.39172
 30
0.0
 11
4.54916
 21
1.38776
 31
0.0
  0
LINE
  8
0
  6
CONTINUOUS
 62
   250
 10
4.54916
 20
1.38776
 30
0.0
 11
4.5518
 21
1.38468
 31
0.0
  0
LINE
  8
0
  6
CONTINUOUS
 62
   250
 10
4.5518
 20
1.38468
 30
0.0
 11
4.55488
 21
1.38116
 31
0.0
  0
LINE
  8
0
  6
CONTINUOUS
 62
   250
 10
4.51748
 20
1.82688
 30
0.0
 11
4.51572
 21
1.82556
 31
0.0
  0
LINE
  8
0
  6
CONTINUOUS
 62
   250
 10
4.51572
 20
1.82556
 30
0.0
 11
4.51396
 21
1.82468
 31
0.0
  0
LINE
  8
0
  6
CONTINUOUS
 62
   250
 10
4.51396
 20
1.82468
 30
0.0
 11
4.5122
 21
1.82468
 31
0.0
  0
LINE
  8
0
  6
CONTINUOUS
 62
   250
 10
4.5122
 20
1.82468
 30
0.0
 11
4.46644
 21
1.82468
 31
0.0
  0
LINE
  8
0
  6
CONTINUOUS
 62
   250
 10
4.4198
 20
1.84316
 30
0.0
 11
4.40572
 21
1.84316
 31
0.0
  0
LINE
  8
0
  6
CONTINUOUS
 62
   250
 10
4.5452
 20
1.42208
 30
0.0
 11
4.54652
 21
1.419
 31
0.0
  0
LINE
  8
0
  6
CONTINUOUS
 62
   250
 10
4.54652
 20
1.419
 30
0.0
 11
4.54828
 21
1.41636
 31
0.0
  0
LINE
  8
0
  6
CONTINUOUS
 62
   250
 10
4.54828
 20
1.41636
 30
0.0
 11
4.55004
 21
1.41416
 31
0.0
  0
LINE
  8
0
  6
CONTINUOUS
 62
   250
 10
4.54388
 20
1.40096
 30
0.0
 11
4.57424
 21
1.3706
 31
0.0
  0
LINE
  8
0
  6
CONTINUOUS
 62
   250
 10
4.61912
 20
1.39524
 30
0.0
 11
4.6178
 21
1.39832
 31
0.0
  0
LINE
  8
0
  6
CONTINUOUS
 62
   250
 10
4.6178
 20
1.39832
 30
0.0
 11
4.61604
 21
1.4014
 31
0.0
  0
LINE
  8
0
  6
CONTINUOUS
 62
   250
 10
4.61604
 20
1.4014
 30
0.0
 11
4.61384
 21
1.4036
 31
0.0
  0
LINE
  8
0
  6
CONTINUOUS
 62
   250
 10
4.62088
 20
1.41636
 30
0.0
 11
4.59008
 21
1.44716
 31
0.0
  0
LINE
  8
0
  6
CONTINUOUS
 62
   250
 10
4.57688
 20
1.441
 30
0.0
 11
4.57468
 21
1.44276
 31
0.0
  0
LINE
  8
0
  6
CONTINUOUS
 62
   250
 10
4.57468
 20
1.44276
 30
0.0
 11
4.57204
 21
1.44452
 31
0.0
  0
LINE
  8
0
  6
CONTINUOUS
 62
   250
 10
4.57204
 20
1.44452
 30
0.0
 11
4.56896
 21
1.44584
 31
0.0
  0
LINE
  8
0
  6
CONTINUOUS
 62
   250
 10
4.58744
 20
1.37676
 30
0.0
 11
4.58964
 21
1.37456
 31
0.0
  0
LINE
  8
0
  6
CONTINUOUS
 62
   250
 10
4.58964
 20
1.37456
 30
0.0
 11
4.59272
 21
1.37324
 31
0.0
  0
LINE
  8
0
  6
CONTINUOUS
 62
   250
 10
4.59272
 20
1.37324
 30
0.0
 11
4.59536
 21
1.37192
 31
0.0
  0
LINE
  8
0
  6
CONTINUOUS
 62
   250
 10
5.32268
 20
1.51448
 30
0.0
 11
5.32268
 21
1.5752
 31
0.0
  0
LINE
  8
0
  6
CONTINUOUS
 62
   250
 10
5.33808
 20
1.56156
 30
0.0
 11
5.33632
 21
1.5598
 31
0.0
  0
LINE
  8
0
  6
CONTINUOUS
 62
   250
 10
5.33632
 20
1.5598
 30
0.0
 11
5.335
 21
1.5576
 31
0.0
  0
LINE
  8
0
  6
CONTINUOUS
 62
   250
 10
5.335
 20
1.5576
 30
0.0
 11
5.33412
 21
1.55496
 31
0.0
  0
LINE
  8
0
  6
CONTINUOUS
 62
   250
 10
5.33412
 20
1.55496
 30
0.0
 11
5.33412
 21
1.55232
 31
0.0
  0
LINE
  8
0
  6
CONTINUOUS
 62
   250
 10
5.33412
 20
1.55232
 30
0.0
 11
5.33412
 21
1.53736
 31
0.0
  0
LINE
  8
0
  6
CONTINUOUS
 62
   250
 10
5.33412
 20
1.53736
 30
0.0
 11
5.33412
 21
1.53472
 31
0.0
  0
LINE
  8
0
  6
CONTINUOUS
 62
   250
 10
5.33412
 20
1.53472
 30
0.0
 11
5.335
 21
1.53208
 31
0.0
  0
LINE
  8
0
  6
CONTINUOUS
 62
   250
 10
5.335
 20
1.53208
 30
0.0
 11
5.33632
 21
1.52988
 31
0.0
  0
LINE
  8
0
  6
CONTINUOUS
 62
   250
 10
5.33632
 20
1.52988
 30
0.0
 11
5.33808
 21
1.52768
 31
0.0
  0
LINE
  8
0
  6
CONTINUOUS
 62
   250
 10
5.33808
 20
1.52768
 30
0.0
 11
5.34028
 21
1.52636
 31
0.0
  0
LINE
  8
0
  6
CONTINUOUS
 62
   250
 10
5.34028
 20
1.52636
 30
0.0
 11
5.34248
 21
1.52504
 31
0.0
  0
LINE
  8
0
  6
CONTINUOUS
 62
   250
 10
5.34248
 20
1.52504
 30
0.0
 11
5.34468
 21
1.52416
 31
0.0
  0
LINE
  8
0
  6
CONTINUOUS
 62
   250
 10
5.34468
 20
1.52416
 30
0.0
 11
5.34732
 21
1.52416
 31
0.0
  0
LINE
  8
0
  6
CONTINUOUS
 62
   250
 10
5.34732
 20
1.52416
 30
0.0
 11
5.34996
 21
1.52416
 31
0.0
  0
LINE
  8
0
  6
CONTINUOUS
 62
   250
 10
5.34996
 20
1.52416
 30
0.0
 11
5.3526
 21
1.52504
 31
0.0
  0
LINE
  8
0
  6
CONTINUOUS
 62
   250
 10
5.3526
 20
1.52504
 30
0.0
 11
5.3548
 21
1.52636
 31
0.0
  0
LINE
  8
0
  6
CONTINUOUS
 62
   250
 10
5.3548
 20
1.52636
 30
0.0
 11
5.357
 21
1.52768
 31
0.0
  0
LINE
  8
0
  6
CONTINUOUS
 62
   250
 10
5.357
 20
1.52768
 30
0.0
 11
5.35832
 21
1.52988
 31
0.0
  0
LINE
  8
0
  6
CONTINUOUS
 62
   250
 10
5.35832
 20
1.52988
 30
0.0
 11
5.35964
 21
1.53208
 31
0.0
  0
LINE
  8
0
  6
CONTINUOUS
 62
   250
 10
5.35964
 20
1.53208
 30
0.0
 11
5.36052
 21
1.53472
 31
0.0
  0
LINE
  8
0
  6
CONTINUOUS
 62
   250
 10
5.36052
 20
1.53472
 30
0.0
 11
5.36052
 21
1.53736
 31
0.0
  0
LINE
  8
0
  6
CONTINUOUS
 62
   250
 10
5.36052
 20
1.53736
 30
0.0
 11
5.36052
 21
1.55232
 31
0.0
  0
LINE
  8
0
  6
CONTINUOUS
 62
   250
 10
5.36052
 20
1.55232
 30
0.0
 11
5.36052
 21
1.55496
 31
0.0
  0
LINE
  8
0
  6
CONTINUOUS
 62
   250
 10
5.36052
 20
1.55496
 30
0.0
 11
5.35964
 21
1.5576
 31
0.0
  0
LINE
  8
0
  6
CONTINUOUS
 62
   250
 10
5.35964
 20
1.5576
 30
0.0
 11
5.35832
 21
1.5598
 31
0.0
  0
LINE
  8
0
  6
CONTINUOUS
 62
   250
 10
5.35832
 20
1.5598
 30
0.0
 11
5.357
 21
1.56156
 31
0.0
  0
LINE
  8
0
  6
CONTINUOUS
 62
   250
 10
5.357
 20
1.56156
 30
0.0
 11
5.3548
 21
1.56332
 31
0.0
  0
LINE
  8
0
  6
CONTINUOUS
 62
   250
 10
5.3548
 20
1.56332
 30
0.0
 11
5.3526
 21
1.56464
 31
0.0
  0
LINE
  8
0
  6
CONTINUOUS
 62
   250
 10
5.3526
 20
1.56464
 30
0.0
 11
5.34996
 21
1.56552
 31
0.0
  0
LINE
  8
0
  6
CONTINUOUS
 62
   250
 10
5.34996
 20
1.56552
 30
0.0
 11
5.34732
 21
1.56552
 31
0.0
  0
LINE
  8
0
  6
CONTINUOUS
 62
   250
 10
5.34732
 20
1.56552
 30
0.0
 11
5.34468
 21
1.56552
 31
0.0
  0
LINE
  8
0
  6
CONTINUOUS
 62
   250
 10
5.34468
 20
1.56552
 30
0.0
 11
5.34248
 21
1.56464
 31
0.0
  0
LINE
  8
0
  6
CONTINUOUS
 62
   250
 10
5.34248
 20
1.56464
 30
0.0
 11
5.34028
 21
1.56332
 31
0.0
  0
LINE
  8
0
  6
CONTINUOUS
 62
   250
 10
5.34028
 20
1.56332
 30
0.0
 11
5.33808
 21
1.56156
 31
0.0
  0
LINE
  8
0
  6
CONTINUOUS
 62
   250
 10
5.2954
 20
1.60468
 30
0.0
 11
5.2954
 21
1.71072
 31
0.0
  0
LINE
  8
0
  6
CONTINUOUS
 62
   250
 10
5.2954
 20
1.71072
 30
0.0
 11
5.1788
 21
1.71072
 31
0.0
  0
LINE
  8
0
  6
CONTINUOUS
 62
   250
 10
5.1788
 20
1.71072
 30
0.0
 11
5.1788
 21
1.66804
 31
0.0
  0
LINE
  8
0
  6
CONTINUOUS
 62
   250
 10
5.192
 20
1.69004
 30
0.0
 11
5.19376
 21
1.68872
 31
0.0
  0
LINE
  8
0
  6
CONTINUOUS
 62
   250
 10
5.19376
 20
1.68872
 30
0.0
 11
5.19552
 21
1.6874
 31
0.0
  0
LINE
  8
0
  6
CONTINUOUS
 62
   250
 10
5.19552
 20
1.6874
 30
0.0
 11
5.19728
 21
1.68696
 31
0.0
  0
LINE
  8
0
  6
CONTINUOUS
 62
   250
 10
5.19728
 20
1.68696
 30
0.0
 11
5.19948
 21
1.68652
 31
0.0
  0
LINE
  8
0
  6
CONTINUOUS
 62
   250
 10
5.19948
 20
1.68652
 30
0.0
 11
5.20168
 21
1.68696
 31
0.0
  0
LINE
  8
0
  6
CONTINUOUS
 62
   250
 10
5.20168
 20
1.68696
 30
0.0
 11
5.20388
 21
1.6874
 31
0.0
  0
LINE
  8
0
  6
CONTINUOUS
 62
   250
 10
5.20388
 20
1.6874
 30
0.0
 11
5.20564
 21
1.68872
 31
0.0
  0
LINE
  8
0
  6
CONTINUOUS
 62
   250
 10
5.20564
 20
1.68872
 30
0.0
 11
5.20696
 21
1.69004
 31
0.0
  0
LINE
  8
0
  6
CONTINUOUS
 62
   250
 10
5.20696
 20
1.69004
 30
0.0
 11
5.20828
 21
1.6918
 31
0.0
  0
LINE
  8
0
  6
CONTINUOUS
 62
   250
 10
5.20828
 20
1.6918
 30
0.0
 11
5.20916
 21
1.694
 31
0.0
  0
LINE
  8
0
  6
CONTINUOUS
 62
   250
 10
5.20916
 20
1.694
 30
0.0
 11
5.20916
 21
1.6962
 31
0.0
  0
LINE
  8
0
  6
CONTINUOUS
 62
   250
 10
5.20916
 20
1.6962
 30
0.0
 11
5.20916
 21
1.6984
 31
0.0
  0
LINE
  8
0
  6
CONTINUOUS
 62
   250
 10
5.20916
 20
1.6984
 30
0.0
 11
5.20828
 21
1.70016
 31
0.0
  0
LINE
  8
0
  6
CONTINUOUS
 62
   250
 10
5.20828
 20
1.70016
 30
0.0
 11
5.20696
 21
1.70236
 31
0.0
  0
LINE
  8
0
  6
CONTINUOUS
 62
   250
 10
5.20696
 20
1.70236
 30
0.0
 11
5.20564
 21
1.70368
 31
0.0
  0
LINE
  8
0
  6
CONTINUOUS
 62
   250
 10
5.20564
 20
1.70368
 30
0.0
 11
5.20388
 21
1.70456
 31
0.0
  0
LINE
  8
0
  6
CONTINUOUS
 62
   250
 10
5.20388
 20
1.70456
 30
0.0
 11
5.20168
 21
1.70544
 31
0.0
  0
LINE
  8
0
  6
CONTINUOUS
 62
   250
 10
5.20168
 20
1.70544
 30
0.0
 11
5.19948
 21
1.70588
 31
0.0
  0
LINE
  8
0
  6
CONTINUOUS
 62
   250
 10
5.19948
 20
1.70588
 30
0.0
 11
5.19728
 21
1.70544
 31
0.0
  0
LINE
  8
0
  6
CONTINUOUS
 62
   250
 10
5.19728
 20
1.70544
 30
0.0
 11
5.19552
 21
1.70456
 31
0.0
  0
LINE
  8
0
  6
CONTINUOUS
 62
   250
 10
5.19552
 20
1.70456
 30
0.0
 11
5.19376
 21
1.70368
 31
0.0
  0
LINE
  8
0
  6
CONTINUOUS
 62
   250
 10
5.19376
 20
1.70368
 30
0.0
 11
5.192
 21
1.70236
 31
0.0
  0
LINE
  8
0
  6
CONTINUOUS
 62
   250
 10
5.192
 20
1.70236
 30
0.0
 11
5.19112
 21
1.70016
 31
0.0
  0
LINE
  8
0
  6
CONTINUOUS
 62
   250
 10
5.19112
 20
1.70016
 30
0.0
 11
5.19024
 21
1.6984
 31
0.0
  0
LINE
  8
0
  6
CONTINUOUS
 62
   250
 10
5.19024
 20
1.6984
 30
0.0
 11
5.1898
 21
1.6962
 31
0.0
  0
LINE
  8
0
  6
CONTINUOUS
 62
   250
 10
5.1898
 20
1.6962
 30
0.0
 11
5.19024
 21
1.694
 31
0.0
  0
LINE
  8
0
  6
CONTINUOUS
 62
   250
 10
5.19024
 20
1.694
 30
0.0
 11
5.19112
 21
1.6918
 31
0.0
  0
LINE
  8
0
  6
CONTINUOUS
 62
   250
 10
5.19112
 20
1.6918
 30
0.0
 11
5.192
 21
1.69004
 31
0.0
  0
LINE
  8
0
  6
CONTINUOUS
 62
   250
 10
5.1898
 20
1.6962
 30
0.0
 11
5.20916
 21
1.6962
 31
0.0
  0
LINE
  8
0
  6
CONTINUOUS
 62
   250
 10
5.26636
 20
1.6962
 30
0.0
 11
5.26636
 21
1.694
 31
0.0
  0
LINE
  8
0
  6
CONTINUOUS
 62
   250
 10
5.26636
 20
1.694
 30
0.0
 11
5.26724
 21
1.6918
 31
0.0
  0
LINE
  8
0
  6
CONTINUOUS
 62
   250
 10
5.26724
 20
1.6918
 30
0.0
 11
5.26856
 21
1.69004
 31
0.0
  0
LINE
  8
0
  6
CONTINUOUS
 62
   250
 10
5.26856
 20
1.69004
 30
0.0
 11
5.26988
 21
1.68872
 31
0.0
  0
LINE
  8
0
  6
CONTINUOUS
 62
   250
 10
5.26988
 20
1.68872
 30
0.0
 11
5.27164
 21
1.6874
 31
0.0
  0
LINE
  8
0
  6
CONTINUOUS
 62
   250
 10
5.27164
 20
1.6874
 30
0.0
 11
5.27384
 21
1.68696
 31
0.0
  0
LINE
  8
0
  6
CONTINUOUS
 62
   250
 10
5.27384
 20
1.68696
 30
0.0
 11
5.27604
 21
1.68652
 31
0.0
  0
LINE
  8
0
  6
CONTINUOUS
 62
   250
 10
5.27604
 20
1.68652
 30
0.0
 11
5.27824
 21
1.68696
 31
0.0
  0
LINE
  8
0
  6
CONTINUOUS
 62
   250
 10
5.27824
 20
1.68696
 30
0.0
 11
5.28
 21
1.6874
 31
0.0
  0
LINE
  8
0
  6
CONTINUOUS
 62
   250
 10
5.28
 20
1.6874
 30
0.0
 11
5.28176
 21
1.68872
 31
0.0
  0
LINE
  8
0
  6
CONTINUOUS
 62
   250
 10
5.28176
 20
1.68872
 30
0.0
 11
5.28352
 21
1.69004
 31
0.0
  0
LINE
  8
0
  6
CONTINUOUS
 62
   250
 10
5.28352
 20
1.69004
 30
0.0
 11
5.28484
 21
1.6918
 31
0.0
  0
LINE
  8
0
  6
CONTINUOUS
 62
   250
 10
5.28484
 20
1.6918
 30
0.0
 11
5.28528
 21
1.694
 31
0.0
  0
LINE
  8
0
  6
CONTINUOUS
 62
   250
 10
5.28528
 20
1.694
 30
0.0
 11
5.28572
 21
1.6962
 31
0.0
  0
LINE
  8
0
  6
CONTINUOUS
 62
   250
 10
5.28572
 20
1.6962
 30
0.0
 11
5.28528
 21
1.6984
 31
0.0
  0
LINE
  8
0
  6
CONTINUOUS
 62
   250
 10
5.28528
 20
1.6984
 30
0.0
 11
5.28484
 21
1.70016
 31
0.0
  0
LINE
  8
0
  6
CONTINUOUS
 62
   250
 10
5.28484
 20
1.70016
 30
0.0
 11
5.28352
 21
1.70236
 31
0.0
  0
LINE
  8
0
  6
CONTINUOUS
 62
   250
 10
5.28352
 20
1.70236
 30
0.0
 11
5.28176
 21
1.70368
 31
0.0
  0
LINE
  8
0
  6
CONTINUOUS
 62
   250
 10
5.28176
 20
1.70368
 30
0.0
 11
5.28
 21
1.70456
 31
0.0
  0
LINE
  8
0
  6
CONTINUOUS
 62
   250
 10
5.28
 20
1.70456
 30
0.0
 11
5.27824
 21
1.70544
 31
0.0
  0
LINE
  8
0
  6
CONTINUOUS
 62
   250
 10
5.27824
 20
1.70544
 30
0.0
 11
5.27604
 21
1.70588
 31
0.0
  0
LINE
  8
0
  6
CONTINUOUS
 62
   250
 10
5.27604
 20
1.70588
 30
0.0
 11
5.27384
 21
1.70544
 31
0.0
  0
LINE
  8
0
  6
CONTINUOUS
 62
   250
 10
5.27384
 20
1.70544
 30
0.0
 11
5.27164
 21
1.70456
 31
0.0
  0
LINE
  8
0
  6
CONTINUOUS
 62
   250
 10
5.27164
 20
1.70456
 30
0.0
 11
5.26988
 21
1.70368
 31
0.0
  0
LINE
  8
0
  6
CONTINUOUS
 62
   250
 10
5.26988
 20
1.70368
 30
0.0
 11
5.26856
 21
1.70236
 31
0.0
  0
LINE
  8
0
  6
CONTINUOUS
 62
   250
 10
5.26856
 20
1.70236
 30
0.0
 11
5.26724
 21
1.70016
 31
0.0
  0
LINE
  8
0
  6
CONTINUOUS
 62
   250
 10
5.26724
 20
1.70016
 30
0.0
 11
5.26636
 21
1.6984
 31
0.0
  0
LINE
  8
0
  6
CONTINUOUS
 62
   250
 10
5.26636
 20
1.6984
 30
0.0
 11
5.26636
 21
1.6962
 31
0.0
  0
LINE
  8
0
  6
CONTINUOUS
 62
   250
 10
5.247
 20
1.6962
 30
0.0
 11
5.247
 21
1.6984
 31
0.0
  0
LINE
  8
0
  6
CONTINUOUS
 62
   250
 10
5.247
 20
1.6984
 30
0.0
 11
5.24612
 21
1.70016
 31
0.0
  0
LINE
  8
0
  6
CONTINUOUS
 62
   250
 10
5.24612
 20
1.70016
 30
0.0
 11
5.2448
 21
1.70236
 31
0.0
  0
LINE
  8
0
  6
CONTINUOUS
 62
   250
 10
5.2448
 20
1.70236
 30
0.0
 11
5.24348
 21
1.70368
 31
0.0
  0
LINE
  8
0
  6
CONTINUOUS
 62
   250
 10
5.24348
 20
1.70368
 30
0.0
 11
5.24172
 21
1.70456
 31
0.0
  0
LINE
  8
0
  6
CONTINUOUS
 62
   250
 10
5.24172
 20
1.70456
 30
0.0
 11
5.23952
 21
1.70544
 31
0.0
  0
LINE
  8
0
  6
CONTINUOUS
 62
   250
 10
5.23952
 20
1.70544
 30
0.0
 11
5.23732
 21
1.70588
 31
0.0
  0
LINE
  8
0
  6
CONTINUOUS
 62
   250
 10
5.23732
 20
1.70588
 30
0.0
 11
5.23556
 21
1.70544
 31
0.0
  0
LINE
  8
0
  6
CONTINUOUS
 62
   250
 10
5.23556
 20
1.70544
 30
0.0
 11
5.23336
 21
1.70456
 31
0.0
  0
LINE
  8
0
  6
CONTINUOUS
 62
   250
 10
5.23336
 20
1.70456
 30
0.0
 11
5.2316
 21
1.70368
 31
0.0
  0
LINE
  8
0
  6
CONTINUOUS
 62
   250
 10
5.2316
 20
1.70368
 30
0.0
 11
5.22984
 21
1.70236
 31
0.0
  0
LINE
  8
0
  6
CONTINUOUS
 62
   250
 10
5.22984
 20
1.70236
 30
0.0
 11
5.22896
 21
1.70016
 31
0.0
  0
LINE
  8
0
  6
CONTINUOUS
 62
   250
 10
5.22896
 20
1.70016
 30
0.0
 11
5.22808
 21
1.6984
 31
0.0
  0
LINE
  8
0
  6
CONTINUOUS
 62
   250
 10
5.22808
 20
1.6984
 30
0.0
 11
5.22808
 21
1.6962
 31
0.0
  0
LINE
  8
0
  6
CONTINUOUS
 62
   250
 10
5.22808
 20
1.6962
 30
0.0
 11
5.22808
 21
1.694
 31
0.0
  0
LINE
  8
0
  6
CONTINUOUS
 62
   250
 10
5.22808
 20
1.694
 30
0.0
 11
5.22896
 21
1.6918
 31
0.0
  0
LINE
  8
0
  6
CONTINUOUS
 62
   250
 10
5.22896
 20
1.6918
 30
0.0
 11
5.22984
 21
1.69004
 31
0.0
  0
LINE
  8
0
  6
CONTINUOUS
 62
   250
 10
5.22984
 20
1.69004
 30
0.0
 11
5.2316
 21
1.68872
 31
0.0
  0
LINE
  8
0
  6
CONTINUOUS
 62
   250
 10
5.2316
 20
1.68872
 30
0.0
 11
5.23336
 21
1.6874
 31
0.0
  0
LINE
  8
0
  6
CONTINUOUS
 62
   250
 10
5.23336
 20
1.6874
 30
0.0
 11
5.23556
 21
1.68696
 31
0.0
  0
LINE
  8
0
  6
CONTINUOUS
 62
   250
 10
5.23556
 20
1.68696
 30
0.0
 11
5.23732
 21
1.68652
 31
0.0
  0
LINE
  8
0
  6
CONTINUOUS
 62
   250
 10
5.23732
 20
1.68652
 30
0.0
 11
5.23952
 21
1.68696
 31
0.0
  0
LINE
  8
0
  6
CONTINUOUS
 62
   250
 10
5.23952
 20
1.68696
 30
0.0
 11
5.24172
 21
1.6874
 31
0.0
  0
LINE
  8
0
  6
CONTINUOUS
 62
   250
 10
5.24172
 20
1.6874
 30
0.0
 11
5.24348
 21
1.68872
 31
0.0
  0
LINE
  8
0
  6
CONTINUOUS
 62
   250
 10
5.24348
 20
1.68872
 30
0.0
 11
5.2448
 21
1.69004
 31
0.0
  0
LINE
  8
0
  6
CONTINUOUS
 62
   250
 10
5.2448
 20
1.69004
 30
0.0
 11
5.24612
 21
1.6918
 31
0.0
  0
LINE
  8
0
  6
CONTINUOUS
 62
   250
 10
5.24612
 20
1.6918
 30
0.0
 11
5.247
 21
1.694
 31
0.0
  0
LINE
  8
0
  6
CONTINUOUS
 62
   250
 10
5.247
 20
1.694
 30
0.0
 11
5.247
 21
1.6962
 31
0.0
  0
LINE
  8
0
  6
CONTINUOUS
 62
   250
 10
5.247
 20
1.6962
 30
0.0
 11
5.22808
 21
1.6962
 31
0.0
  0
LINE
  8
0
  6
CONTINUOUS
 62
   250
 10
5.27604
 20
1.70588
 30
0.0
 11
5.27604
 21
1.68652
 31
0.0
  0
LINE
  8
0
  6
CONTINUOUS
 62
   250
 10
5.1788
 20
1.67376
 30
0.0
 11
5.1788
 21
1.66188
 31
0.0
  0
LINE
  8
0
  6
CONTINUOUS
 62
   250
 10
5.1788
 20
1.66188
 30
0.0
 11
5.1788
 21
1.60468
 31
0.0
  0
LINE
  8
0
  6
CONTINUOUS
 62
   250
 10
5.1788
 20
1.60468
 30
0.0
 11
5.1788
 21
1.66188
 31
0.0
  0
LINE
  8
0
  6
CONTINUOUS
 62
   250
 10
5.16692
 20
1.66188
 30
0.0
 11
5.16692
 21
1.60468
 31
0.0
  0
LINE
  8
0
  6
CONTINUOUS
 62
   250
 10
5.16692
 20
1.66188
 30
0.0
 11
5.16692
 21
1.67376
 31
0.0
  0
LINE
  8
0
  6
CONTINUOUS
 62
   250
 10
5.1788
 20
1.6808
 30
0.0
 11
5.1788
 21
1.71072
 31
0.0
  0
LINE
  8
0
  6
CONTINUOUS
 62
   250
 10
5.08992
 20
1.6808
 30
0.0
 11
5.08992
 21
1.60468
 31
0.0
  0
LINE
  8
0
  6
CONTINUOUS
 62
   250
 10
5.08992
 20
1.60468
 30
0.0
 11
5.08992
 21
1.66188
 31
0.0
  0
LINE
  8
0
  6
CONTINUOUS
 62
   250
 10
5.07716
 20
1.66188
 30
0.0
 11
5.07716
 21
1.60468
 31
0.0
  0
LINE
  8
0
  6
CONTINUOUS
 62
   250
 10
5.07716
 20
1.66188
 30
0.0
 11
5.07716
 21
1.67376
 31
0.0
  0
LINE
  8
0
  6
CONTINUOUS
 62
   250
 10
4.99972
 20
1.6808
 30
0.0
 11
4.99972
 21
1.66188
 31
0.0
  0
LINE
  8
0
  6
CONTINUOUS
 62
   250
 10
4.99972
 20
1.66188
 30
0.0
 11
4.99972
 21
1.60468
 31
0.0
  0
LINE
  8
0
  6
CONTINUOUS
 62
   250
 10
4.98784
 20
1.60468
 30
0.0
 11
4.98784
 21
1.66188
 31
0.0
  0
LINE
  8
0
  6
CONTINUOUS
 62
   250
 10
4.98784
 20
1.66188
 30
0.0
 11
4.98784
 21
1.66804
 31
0.0
  0
LINE
  8
0
  6
CONTINUOUS
 62
   250
 10
4.98784
 20
1.66804
 30
0.0
 11
4.98784
 21
1.67376
 31
0.0
  0
LINE
  8
0
  6
CONTINUOUS
 62
   250
 10
4.91084
 20
1.6808
 30
0.0
 11
4.91084
 21
1.60468
 31
0.0
  0
LINE
  8
0
  6
CONTINUOUS
 62
   250
 10
4.88092
 20
1.58708
 30
0.0
 11
4.81448
 21
1.58708
 31
0.0
  0
LINE
  8
0
  6
CONTINUOUS
 62
   250
 10
4.81448
 20
1.51052
 30
0.0
 11
4.88092
 21
1.51052
 31
0.0
  0
LINE
  8
0
  6
CONTINUOUS
 62
   250
 10
4.93724
 20
1.3838
 30
0.0
 11
4.93724
 21
1.34508
 31
0.0
  0
LINE
  8
0
  6
CONTINUOUS
 62
   250
 10
5.01424
 20
1.34508
 30
0.0
 11
5.01424
 21
1.3838
 31
0.0
  0
LINE
  8
0
  6
CONTINUOUS
 62
   250
 10
5.02744
 20
1.3728
 30
0.0
 11
5.02744
 21
1.45112
 31
0.0
  0
LINE
  8
0
  6
CONTINUOUS
 62
   250
 10
5.10356
 20
1.3838
 30
0.0
 11
5.10356
 21
1.34508
 31
0.0
  0
LINE
  8
0
  6
CONTINUOUS
 62
   250
 10
5.18056
 20
1.34508
 30
0.0
 11
5.18056
 21
1.3838
 31
0.0
  0
LINE
  8
0
  6
CONTINUOUS
 62
   250
 10
5.19332
 20
1.3838
 30
0.0
 11
5.19332
 21
1.3728
 31
0.0
  0
LINE
  8
0
  6
CONTINUOUS
 62
   250
 10
5.26988
 20
1.3838
 30
0.0
 11
5.26988
 21
1.34508
 31
0.0
  0
LINE
  8
0
  6
CONTINUOUS
 62
   250
 10
5.45952
 20
1.38116
 30
0.0
 11
5.46304
 21
1.37808
 31
0.0
  0
LINE
  8
0
  6
CONTINUOUS
 62
   250
 10
5.46304
 20
1.37808
 30
0.0
 11
5.46656
 21
1.37544
 31
0.0
  0
LINE
  8
0
  6
CONTINUOUS
 62
   250
 10
5.46656
 20
1.37544
 30
0.0
 11
5.47052
 21
1.37324
 31
0.0
  0
LINE
  8
0
  6
CONTINUOUS
 62
   250
 10
5.47052
 20
1.37324
 30
0.0
 11
5.47448
 21
1.37192
 31
0.0
  0
LINE
  8
0
  6
CONTINUOUS
 62
   250
 10
5.47448
 20
1.37192
 30
0.0
 11
5.47888
 21
1.3706
 31
0.0
  0
LINE
  8
0
  6
CONTINUOUS
 62
   250
 10
5.47888
 20
1.3706
 30
0.0
 11
5.48328
 21
1.36972
 31
0.0
  0
LINE
  8
0
  6
CONTINUOUS
 62
   250
 10
5.48328
 20
1.36972
 30
0.0
 11
5.48724
 21
1.36972
 31
0.0
  0
LINE
  8
0
  6
CONTINUOUS
 62
   250
 10
5.48724
 20
1.36972
 30
0.0
 11
5.49164
 21
1.36972
 31
0.0
  0
LINE
  8
0
  6
CONTINUOUS
 62
   250
 10
5.49164
 20
1.36972
 30
0.0
 11
5.49604
 21
1.3706
 31
0.0
  0
LINE
  8
0
  6
CONTINUOUS
 62
   250
 10
5.49604
 20
1.3706
 30
0.0
 11
5.50044
 21
1.37192
 31
0.0
  0
LINE
  8
0
  6
CONTINUOUS
 62
   250
 10
5.50044
 20
1.37192
 30
0.0
 11
5.5044
 21
1.37324
 31
0.0
  0
LINE
  8
0
  6
CONTINUOUS
 62
   250
 10
5.5044
 20
1.37324
 30
0.0
 11
5.50836
 21
1.37544
 31
0.0
  0
LINE
  8
0
  6
CONTINUOUS
 62
   250
 10
5.50836
 20
1.37544
 30
0.0
 11
5.51188
 21
1.37808
 31
0.0
  0
LINE
  8
0
  6
CONTINUOUS
 62
   250
 10
5.51188
 20
1.37808
 30
0.0
 11
5.5154
 21
1.38116
 31
0.0
  0
LINE
  8
0
  6
CONTINUOUS
 62
   250
 10
5.5154
 20
1.38116
 30
0.0
 11
5.51804
 21
1.38468
 31
0.0
  0
LINE
  8
0
  6
CONTINUOUS
 62
   250
 10
5.51804
 20
1.38468
 30
0.0
 11
5.52068
 21
1.38776
 31
0.0
  0
LINE
  8
0
  6
CONTINUOUS
 62
   250
 10
5.52068
 20
1.38776
 30
0.0
 11
5.52288
 21
1.39172
 31
0.0
  0
LINE
  8
0
  6
CONTINUOUS
 62
   250
 10
5.52288
 20
1.39172
 30
0.0
 11
5.52464
 21
1.39612
 31
0.0
  0
LINE
  8
0
  6
CONTINUOUS
 62
   250
 10
5.52464
 20
1.39612
 30
0.0
 11
5.52552
 21
1.40008
 31
0.0
  0
LINE
  8
0
  6
CONTINUOUS
 62
   250
 10
5.52552
 20
1.40008
 30
0.0
 11
5.5264
 21
1.40448
 31
0.0
  0
LINE
  8
0
  6
CONTINUOUS
 62
   250
 10
5.5264
 20
1.40448
 30
0.0
 11
5.5264
 21
1.40888
 31
0.0
  0
LINE
  8
0
  6
CONTINUOUS
 62
   250
 10
5.5264
 20
1.40888
 30
0.0
 11
5.5264
 21
1.41328
 31
0.0
  0
LINE
  8
0
  6
CONTINUOUS
 62
   250
 10
5.5264
 20
1.41328
 30
0.0
 11
5.52552
 21
1.41768
 31
0.0
  0
LINE
  8
0
  6
CONTINUOUS
 62
   250
 10
5.52552
 20
1.41768
 30
0.0
 11
5.52464
 21
1.42164
 31
0.0
  0
LINE
  8
0
  6
CONTINUOUS
 62
   250
 10
5.52464
 20
1.42164
 30
0.0
 11
5.52288
 21
1.42604
 31
0.0
  0
LINE
  8
0
  6
CONTINUOUS
 62
   250
 10
5.52288
 20
1.42604
 30
0.0
 11
5.52068
 21
1.42956
 31
0.0
  0
LINE
  8
0
  6
CONTINUOUS
 62
   250
 10
5.52068
 20
1.42956
 30
0.0
 11
5.51804
 21
1.43308
 31
0.0
  0
LINE
  8
0
  6
CONTINUOUS
 62
   250
 10
5.51804
 20
1.43308
 30
0.0
 11
5.5154
 21
1.4366
 31
0.0
  0
LINE
  8
0
  6
CONTINUOUS
 62
   250
 10
5.5154
 20
1.4366
 30
0.0
 11
5.51188
 21
1.43968
 31
0.0
  0
LINE
  8
0
  6
CONTINUOUS
 62
   250
 10
5.51188
 20
1.43968
 30
0.0
 11
5.50836
 21
1.44188
 31
0.0
  0
LINE
  8
0
  6
CONTINUOUS
 62
   250
 10
5.50836
 20
1.44188
 30
0.0
 11
5.5044
 21
1.44408
 31
0.0
  0
LINE
  8
0
  6
CONTINUOUS
 62
   250
 10
5.5044
 20
1.44408
 30
0.0
 11
5.50044
 21
1.44584
 31
0.0
  0
LINE
  8
0
  6
CONTINUOUS
 62
   250
 10
5.50044
 20
1.44584
 30
0.0
 11
5.49604
 21
1.44716
 31
0.0
  0
LINE
  8
0
  6
CONTINUOUS
 62
   250
 10
5.49604
 20
1.44716
 30
0.0
 11
5.49164
 21
1.44804
 31
0.0
  0
LINE
  8
0
  6
CONTINUOUS
 62
   250
 10
5.49164
 20
1.44804
 30
0.0
 11
5.48724
 21
1.44804
 31
0.0
  0
LINE
  8
0
  6
CONTINUOUS
 62
   250
 10
5.48724
 20
1.44804
 30
0.0
 11
5.48328
 21
1.44804
 31
0.0
  0
LINE
  8
0
  6
CONTINUOUS
 62
   250
 10
5.48328
 20
1.44804
 30
0.0
 11
5.47888
 21
1.44716
 31
0.0
  0
LINE
  8
0
  6
CONTINUOUS
 62
   250
 10
5.47888
 20
1.44716
 30
0.0
 11
5.47448
 21
1.44584
 31
0.0
  0
LINE
  8
0
  6
CONTINUOUS
 62
   250
 10
5.47448
 20
1.44584
 30
0.0
 11
5.47052
 21
1.44408
 31
0.0
  0
LINE
  8
0
  6
CONTINUOUS
 62
   250
 10
5.47052
 20
1.44408
 30
0.0
 11
5.46656
 21
1.44188
 31
0.0
  0
LINE
  8
0
  6
CONTINUOUS
 62
   250
 10
5.46656
 20
1.44188
 30
0.0
 11
5.46304
 21
1.43968
 31
0.0
  0
LINE
  8
0
  6
CONTINUOUS
 62
   250
 10
5.46304
 20
1.43968
 30
0.0
 11
5.45952
 21
1.4366
 31
0.0
  0
LINE
  8
0
  6
CONTINUOUS
 62
   250
 10
5.45952
 20
1.4366
 30
0.0
 11
5.45688
 21
1.43308
 31
0.0
  0
LINE
  8
0
  6
CONTINUOUS
 62
   250
 10
5.45688
 20
1.43308
 30
0.0
 11
5.45424
 21
1.42956
 31
0.0
  0
LINE
  8
0
  6
CONTINUOUS
 62
   250
 10
5.45424
 20
1.42956
 30
0.0
 11
5.45204
 21
1.42604
 31
0.0
  0
LINE
  8
0
  6
CONTINUOUS
 62
   250
 10
5.45204
 20
1.42604
 30
0.0
 11
5.45028
 21
1.42164
 31
0.0
  0
LINE
  8
0
  6
CONTINUOUS
 62
   250
 10
5.45028
 20
1.42164
 30
0.0
 11
5.4494
 21
1.41768
 31
0.0
  0
LINE
  8
0
  6
CONTINUOUS
 62
   250
 10
5.4494
 20
1.41768
 30
0.0
 11
5.44852
 21
1.41328
 31
0.0
  0
LINE
  8
0
  6
CONTINUOUS
 62
   250
 10
5.44852
 20
1.41328
 30
0.0
 11
5.44808
 21
1.40888
 31
0.0
  0
LINE
  8
0
  6
CONTINUOUS
 62
   250
 10
5.44808
 20
1.40888
 30
0.0
 11
5.44852
 21
1.40448
 31
0.0
  0
LINE
  8
0
  6
CONTINUOUS
 62
   250
 10
5.44852
 20
1.40448
 30
0.0
 11
5.4494
 21
1.40008
 31
0.0
  0
LINE
  8
0
  6
CONTINUOUS
 62
   250
 10
5.4494
 20
1.40008
 30
0.0
 11
5.45028
 21
1.39612
 31
0.0
  0
LINE
  8
0
  6
CONTINUOUS
 62
   250
 10
5.45028
 20
1.39612
 30
0.0
 11
5.45204
 21
1.39172
 31
0.0
  0
LINE
  8
0
  6
CONTINUOUS
 62
   250
 10
5.45204
 20
1.39172
 30
0.0
 11
5.45424
 21
1.38776
 31
0.0
  0
LINE
  8
0
  6
CONTINUOUS
 62
   250
 10
5.45424
 20
1.38776
 30
0.0
 11
5.45688
 21
1.38468
 31
0.0
  0
LINE
  8
0
  6
CONTINUOUS
 62
   250
 10
5.45688
 20
1.38468
 30
0.0
 11
5.45952
 21
1.38116
 31
0.0
  0
LINE
  8
0
  6
CONTINUOUS
 62
   250
 10
5.45072
 20
1.39524
 30
0.0
 11
5.4516
 21
1.39832
 31
0.0
  0
LINE
  8
0
  6
CONTINUOUS
 62
   250
 10
5.4516
 20
1.39832
 30
0.0
 11
5.45336
 21
1.4014
 31
0.0
  0
LINE
  8
0
  6
CONTINUOUS
 62
   250
 10
5.45336
 20
1.4014
 30
0.0
 11
5.45556
 21
1.4036
 31
0.0
  0
LINE
  8
0
  6
CONTINUOUS
 62
   250
 10
5.44896
 20
1.41636
 30
0.0
 11
5.47976
 21
1.44716
 31
0.0
  0
LINE
  8
0
  6
CONTINUOUS
 62
   250
 10
5.49296
 20
1.441
 30
0.0
 11
5.49516
 21
1.44276
 31
0.0
  0
LINE
  8
0
  6
CONTINUOUS
 62
   250
 10
5.49516
 20
1.44276
 30
0.0
 11
5.4978
 21
1.44452
 31
0.0
  0
LINE
  8
0
  6
CONTINUOUS
 62
   250
 10
5.4978
 20
1.44452
 30
0.0
 11
5.50088
 21
1.44584
 31
0.0
  0
LINE
  8
0
  6
CONTINUOUS
 62
   250
 10
5.5242
 20
1.42208
 30
0.0
 11
5.52332
 21
1.419
 31
0.0
  0
LINE
  8
0
  6
CONTINUOUS
 62
   250
 10
5.52332
 20
1.419
 30
0.0
 11
5.52156
 21
1.41636
 31
0.0
  0
LINE
  8
0
  6
CONTINUOUS
 62
   250
 10
5.52156
 20
1.41636
 30
0.0
 11
5.5198
 21
1.41416
 31
0.0
  0
LINE
  8
0
  6
CONTINUOUS
 62
   250
 10
5.52596
 20
1.40096
 30
0.0
 11
5.4956
 21
1.3706
 31
0.0
  0
LINE
  8
0
  6
CONTINUOUS
 62
   250
 10
5.4824
 20
1.37676
 30
0.0
 11
5.47976
 21
1.37456
 31
0.0
  0
LINE
  8
0
  6
CONTINUOUS
 62
   250
 10
5.47976
 20
1.37456
 30
0.0
 11
5.47712
 21
1.37324
 31
0.0
  0
LINE
  8
0
  6
CONTINUOUS
 62
   250
 10
5.47712
 20
1.37324
 30
0.0
 11
5.47448
 21
1.37192
 31
0.0
  0
LINE
  8
0
  6
CONTINUOUS
 62
   250
 10
5.64344
 20
1.28524
 30
0.0
 11
5.6496
 21
1.28524
 31
0.0
  0
LINE
  8
0
  6
CONTINUOUS
 62
   250
 10
5.6496
 20
1.2474
 30
0.0
 11
5.64344
 21
1.2474
 31
0.0
  0
LINE
  8
0
  6
CONTINUOUS
 62
   250
 10
5.23908
 20
1.28524
 30
0.0
 11
5.23776
 21
1.28392
 31
0.0
  0
LINE
  8
0
  6
CONTINUOUS
 62
   250
 10
5.23776
 20
1.28392
 30
0.0
 11
5.236
 21
1.28348
 31
0.0
  0
LINE
  8
0
  6
CONTINUOUS
 62
   250
 10
5.236
 20
1.28348
 30
0.0
 11
5.23468
 21
1.28348
 31
0.0
  0
LINE
  8
0
  6
CONTINUOUS
 62
   250
 10
5.23468
 20
1.28348
 30
0.0
 11
5.23292
 21
1.28392
 31
0.0
  0
LINE
  8
0
  6
CONTINUOUS
 62
   250
 10
5.23292
 20
1.28392
 30
0.0
 11
5.23204
 21
1.2848
 31
0.0
  0
LINE
  8
0
  6
CONTINUOUS
 62
   250
 10
5.23204
 20
1.2848
 30
0.0
 11
5.2316
 21
1.28568
 31
0.0
  0
LINE
  8
0
  6
CONTINUOUS
 62
   250
 10
5.23908
 20
1.28524
 30
0.0
 11
5.23952
 21
1.287
 31
0.0
  0
LINE
  8
0
  6
CONTINUOUS
 62
   250
 10
5.23952
 20
1.287
 30
0.0
 11
5.23952
 21
1.28788
 31
0.0
  0
LINE
  8
0
  6
CONTINUOUS
 62
   250
 10
5.23952
 20
1.28788
 30
0.0
 11
5.23908
 21
1.28964
 31
0.0
  0
LINE
  8
0
  6
CONTINUOUS
 62
   250
 10
5.23908
 20
1.28964
 30
0.0
 11
5.23864
 21
1.29008
 31
0.0
  0
LINE
  8
0
  6
CONTINUOUS
 62
   250
 10
5.23864
 20
1.29008
 30
0.0
 11
5.23732
 21
1.29096
 31
0.0
  0
LINE
  8
0
  6
CONTINUOUS
 62
   250
 10
5.23732
 20
1.29096
 30
0.0
 11
5.23556
 21
1.29096
 31
0.0
  0
LINE
  8
0
  6
CONTINUOUS
 62
   250
 10
5.23556
 20
1.29096
 30
0.0
 11
5.23908
 21
1.29536
 31
0.0
  0
LINE
  8
0
  6
CONTINUOUS
 62
   250
 10
5.23908
 20
1.29536
 30
0.0
 11
5.23292
 21
1.29536
 31
0.0
  0
LINE
  8
0
  6
CONTINUOUS
 62
   250
 10
5.22764
 20
1.29404
 30
0.0
 11
5.22808
 21
1.29316
 31
0.0
  0
LINE
  8
0
  6
CONTINUOUS
 62
   250
 10
5.22808
 20
1.29316
 30
0.0
 11
5.22808
 21
1.2914
 31
0.0
  0
LINE
  8
0
  6
CONTINUOUS
 62
   250
 10
5.22808
 20
1.2914
 30
0.0
 11
5.22764
 21
1.29008
 31
0.0
  0
LINE
  8
0
  6
CONTINUOUS
 62
   250
 10
5.22764
 20
1.29008
 30
0.0
 11
5.2272
 21
1.28964
 31
0.0
  0
LINE
  8
0
  6
CONTINUOUS
 62
   250
 10
5.2272
 20
1.28964
 30
0.0
 11
5.22544
 21
1.2892
 31
0.0
  0
LINE
  8
0
  6
CONTINUOUS
 62
   250
 10
5.22544
 20
1.2892
 30
0.0
 11
5.2206
 21
1.2892
 31
0.0
  0
LINE
  8
0
  6
CONTINUOUS
 62
   250
 10
5.2206
 20
1.28348
 30
0.0
 11
5.2206
 21
1.29536
 31
0.0
  0
LINE
  8
0
  6
CONTINUOUS
 62
   250
 10
5.2206
 20
1.29536
 30
0.0
 11
5.22544
 21
1.29536
 31
0.0
  0
LINE
  8
0
  6
CONTINUOUS
 62
   250
 10
5.22544
 20
1.29536
 30
0.0
 11
5.2272
 21
1.29492
 31
0.0
  0
LINE
  8
0
  6
CONTINUOUS
 62
   250
 10
5.2272
 20
1.29492
 30
0.0
 11
5.22764
 21
1.29404
 31
0.0
  0
LINE
  8
0
  6
CONTINUOUS
 62
   250
 10
5.21576
 20
1.29536
 30
0.0
 11
5.21576
 21
1.28656
 31
0.0
  0
LINE
  8
0
  6
CONTINUOUS
 62
   250
 10
5.21576
 20
1.28656
 30
0.0
 11
5.21532
 21
1.2848
 31
0.0
  0
LINE
  8
0
  6
CONTINUOUS
 62
   250
 10
5.21532
 20
1.2848
 30
0.0
 11
5.21488
 21
1.28392
 31
0.0
  0
LINE
  8
0
  6
CONTINUOUS
 62
   250
 10
5.21488
 20
1.28392
 30
0.0
 11
5.21356
 21
1.28348
 31
0.0
  0
LINE
  8
0
  6
CONTINUOUS
 62
   250
 10
5.21356
 20
1.28348
 30
0.0
 11
5.21268
 21
1.28348
 31
0.0
  0
LINE
  8
0
  6
CONTINUOUS
 62
   250
 10
5.21268
 20
1.28348
 30
0.0
 11
5.21136
 21
1.28392
 31
0.0
  0
LINE
  8
0
  6
CONTINUOUS
 62
   250
 10
5.21136
 20
1.28392
 30
0.0
 11
5.21092
 21
1.2848
 31
0.0
  0
LINE
  8
0
  6
CONTINUOUS
 62
   250
 10
5.21092
 20
1.2848
 30
0.0
 11
5.21048
 21
1.28656
 31
0.0
  0
LINE
  8
0
  6
CONTINUOUS
 62
   250
 10
5.21048
 20
1.28656
 30
0.0
 11
5.21048
 21
1.28744
 31
0.0
  0
LINE
  8
0
  6
CONTINUOUS
 62
   250
 10
5.21928
 20
1.60468
 30
0.0
 11
5.25448
 21
1.60468
 31
0.0
  0
LINE
  8
0
  6
CONTINUOUS
 62
   250
 10
5.25448
 20
1.60468
 30
0.0
 11
5.2954
 21
1.60468
 31
0.0
  0
LINE
  8
0
  6
CONTINUOUS
 62
   250
 10
5.35788
 20
1.60952
 30
0.0
 11
5.35656
 21
1.6104
 31
0.0
  0
LINE
  8
0
  6
CONTINUOUS
 62
   250
 10
5.35788
 20
1.60952
 30
0.0
 11
5.35964
 21
1.60864
 31
0.0
  0
LINE
  8
0
  6
CONTINUOUS
 62
   250
 10
5.35964
 20
1.60864
 30
0.0
 11
5.36184
 21
1.60864
 31
0.0
  0
LINE
  8
0
  6
CONTINUOUS
 62
   250
 10
5.36184
 20
1.60864
 30
0.0
 11
5.36316
 21
1.60952
 31
0.0
  0
LINE
  8
0
  6
CONTINUOUS
 62
   250
 10
5.36316
 20
1.60952
 30
0.0
 11
5.36448
 21
1.6104
 31
0.0
  0
LINE
  8
0
  6
CONTINUOUS
 62
   250
 10
5.36448
 20
1.6104
 30
0.0
 11
5.36448
 21
1.61216
 31
0.0
  0
LINE
  8
0
  6
CONTINUOUS
 62
   250
 10
5.36448
 20
1.61216
 30
0.0
 11
5.36404
 21
1.61304
 31
0.0
  0
LINE
  8
0
  6
CONTINUOUS
 62
   250
 10
5.36404
 20
1.61304
 30
0.0
 11
5.36316
 21
1.61392
 31
0.0
  0
LINE
  8
0
  6
CONTINUOUS
 62
   250
 10
5.36316
 20
1.61392
 30
0.0
 11
5.36228
 21
1.61436
 31
0.0
  0
LINE
  8
0
  6
CONTINUOUS
 62
   250
 10
5.36228
 20
1.61436
 30
0.0
 11
5.35876
 21
1.61524
 31
0.0
  0
LINE
  8
0
  6
CONTINUOUS
 62
   250
 10
5.35876
 20
1.61524
 30
0.0
 11
5.35788
 21
1.61612
 31
0.0
  0
LINE
  8
0
  6
CONTINUOUS
 62
   250
 10
5.35788
 20
1.61612
 30
0.0
 11
5.35744
 21
1.61656
 31
0.0
  0
LINE
  8
0
  6
CONTINUOUS
 62
   250
 10
5.35744
 20
1.61656
 30
0.0
 11
5.35656
 21
1.61788
 31
0.0
  0
LINE
  8
0
  6
CONTINUOUS
 62
   250
 10
5.35656
 20
1.61788
 30
0.0
 11
5.35656
 21
1.61876
 31
0.0
  0
LINE
  8
0
  6
CONTINUOUS
 62
   250
 10
5.35656
 20
1.61876
 30
0.0
 11
5.35788
 21
1.62008
 31
0.0
  0
LINE
  8
0
  6
CONTINUOUS
 62
   250
 10
5.35788
 20
1.62008
 30
0.0
 11
5.35964
 21
1.62052
 31
0.0
  0
LINE
  8
0
  6
CONTINUOUS
 62
   250
 10
5.35964
 20
1.62052
 30
0.0
 11
5.36184
 21
1.62052
 31
0.0
  0
LINE
  8
0
  6
CONTINUOUS
 62
   250
 10
5.36184
 20
1.62052
 30
0.0
 11
5.36316
 21
1.62008
 31
0.0
  0
LINE
  8
0
  6
CONTINUOUS
 62
   250
 10
5.36316
 20
1.62008
 30
0.0
 11
5.36448
 21
1.61876
 31
0.0
  0
LINE
  8
0
  6
CONTINUOUS
 62
   250
 10
5.36756
 20
1.62052
 30
0.0
 11
5.3702
 21
1.60864
 31
0.0
  0
LINE
  8
0
  6
CONTINUOUS
 62
   250
 10
5.3702
 20
1.60864
 30
0.0
 11
5.37284
 21
1.62052
 31
0.0
  0
LINE
  8
0
  6
CONTINUOUS
 62
   250
 10
5.37284
 20
1.62052
 30
0.0
 11
5.37592
 21
1.60864
 31
0.0
  0
LINE
  8
0
  6
CONTINUOUS
 62
   250
 10
5.37592
 20
1.60864
 30
0.0
 11
5.37856
 21
1.62052
 31
0.0
  0
LINE
  8
0
  6
CONTINUOUS
 62
   250
 10
5.38296
 20
1.61832
 30
0.0
 11
5.38428
 21
1.61876
 31
0.0
  0
LINE
  8
0
  6
CONTINUOUS
 62
   250
 10
5.38428
 20
1.61876
 30
0.0
 11
5.38604
 21
1.62052
 31
0.0
  0
LINE
  8
0
  6
CONTINUOUS
 62
   250
 10
5.38604
 20
1.62052
 30
0.0
 11
5.38604
 21
1.60864
 31
0.0
  0
LINE
  8
0
  6
CONTINUOUS
 62
   250
 10
5.39704
 20
1.60864
 30
0.0
 11
5.39704
 21
1.62052
 31
0.0
  0
LINE
  8
0
  6
CONTINUOUS
 62
   250
 10
5.39704
 20
1.62052
 30
0.0
 11
5.39572
 21
1.61876
 31
0.0
  0
LINE
  8
0
  6
CONTINUOUS
 62
   250
 10
5.39572
 20
1.61876
 30
0.0
 11
5.3944
 21
1.61832
 31
0.0
  0
LINE
  8
0
  6
CONTINUOUS
 62
   250
 10
5.40672
 20
1.62668
 30
0.0
 11
5.34732
 21
1.62668
 31
0.0
  0
LINE
  8
0
  6
CONTINUOUS
 62
   250
 10
5.34732
 20
1.62668
 30
0.0
 11
5.34732
 21
1.64428
 31
0.0
  0
LINE
  8
0
  6
CONTINUOUS
 62
   250
 10
5.34732
 20
1.64428
 30
0.0
 11
5.40672
 21
1.64428
 31
0.0
  0
LINE
  8
0
  6
CONTINUOUS
 62
   250
 10
5.40672
 20
1.64428
 30
0.0
 11
5.40672
 21
1.62668
 31
0.0
  0
LINE
  8
0
  6
CONTINUOUS
 62
   250
 10
5.21928
 20
1.60468
 30
0.0
 11
5.1788
 21
1.60468
 31
0.0
  0
LINE
  8
0
  6
CONTINUOUS
 62
   250
 10
5.1788
 20
1.67376
 30
0.0
 11
5.1788
 21
1.6808
 31
0.0
  0
LINE
  8
0
  6
CONTINUOUS
 62
   250
 10
4.98784
 20
1.6808
 30
0.0
 11
4.98784
 21
1.71072
 31
0.0
  0
LINE
  8
0
  6
CONTINUOUS
 62
   250
 10
4.93548
 20
1.59852
 30
0.0
 11
4.93592
 21
1.59808
 31
0.0
  0
LINE
  8
0
  6
CONTINUOUS
 62
   250
 10
4.93592
 20
1.59808
 30
0.0
 11
4.93636
 21
1.59676
 31
0.0
  0
LINE
  8
0
  6
CONTINUOUS
 62
   250
 10
4.93636
 20
1.59676
 30
0.0
 11
4.93636
 21
1.59588
 31
0.0
  0
LINE
  8
0
  6
CONTINUOUS
 62
   250
 10
4.93636
 20
1.59588
 30
0.0
 11
4.93592
 21
1.59456
 31
0.0
  0
LINE
  8
0
  6
CONTINUOUS
 62
   250
 10
4.93592
 20
1.59456
 30
0.0
 11
4.93548
 21
1.59412
 31
0.0
  0
LINE
  8
0
  6
CONTINUOUS
 62
   250
 10
4.93548
 20
1.59412
 30
0.0
 11
4.93372
 21
1.59368
 31
0.0
  0
LINE
  8
0
  6
CONTINUOUS
 62
   250
 10
4.93372
 20
1.59368
 30
0.0
 11
4.92844
 21
1.59368
 31
0.0
  0
LINE
  8
0
  6
CONTINUOUS
 62
   250
 10
4.9324
 20
1.59368
 30
0.0
 11
4.93636
 21
1.58752
 31
0.0
  0
LINE
  8
0
  6
CONTINUOUS
 62
   250
 10
4.92844
 20
1.58752
 30
0.0
 11
4.92844
 21
1.5994
 31
0.0
  0
LINE
  8
0
  6
CONTINUOUS
 62
   250
 10
4.92844
 20
1.5994
 30
0.0
 11
4.93372
 21
1.5994
 31
0.0
  0
LINE
  8
0
  6
CONTINUOUS
 62
   250
 10
4.93372
 20
1.5994
 30
0.0
 11
4.93548
 21
1.59852
 31
0.0
  0
LINE
  8
0
  6
CONTINUOUS
 62
   250
 10
4.95
 20
1.5994
 30
0.0
 11
4.95264
 21
1.58752
 31
0.0
  0
LINE
  8
0
  6
CONTINUOUS
 62
   250
 10
4.95264
 20
1.58752
 30
0.0
 11
4.95484
 21
1.5994
 31
0.0
  0
LINE
  8
0
  6
CONTINUOUS
 62
   250
 10
4.95484
 20
1.5994
 30
0.0
 11
4.95704
 21
1.58752
 31
0.0
  0
LINE
  8
0
  6
CONTINUOUS
 62
   250
 10
4.95704
 20
1.58752
 30
0.0
 11
4.95968
 21
1.5994
 31
0.0
  0
LINE
  8
0
  6
CONTINUOUS
 62
   250
 10
4.97156
 20
1.5994
 30
0.0
 11
4.97552
 21
1.59368
 31
0.0
  0
LINE
  8
0
  6
CONTINUOUS
 62
   250
 10
4.97552
 20
1.59368
 30
0.0
 11
4.97552
 21
1.58752
 31
0.0
  0
LINE
  8
0
  6
CONTINUOUS
 62
   250
 10
4.97552
 20
1.59368
 30
0.0
 11
4.97904
 21
1.5994
 31
0.0
  0
LINE
  8
0
  6
CONTINUOUS
 62
   250
 10
4.98256
 20
1.59852
 30
0.0
 11
4.98344
 21
1.5994
 31
0.0
  0
LINE
  8
0
  6
CONTINUOUS
 62
   250
 10
4.98344
 20
1.5994
 30
0.0
 11
4.9852
 21
1.5994
 31
0.0
  0
LINE
  8
0
  6
CONTINUOUS
 62
   250
 10
4.9852
 20
1.5994
 30
0.0
 11
4.98608
 21
1.59852
 31
0.0
  0
LINE
  8
0
  6
CONTINUOUS
 62
   250
 10
4.98608
 20
1.59852
 30
0.0
 11
4.98652
 21
1.59808
 31
0.0
  0
LINE
  8
0
  6
CONTINUOUS
 62
   250
 10
4.98652
 20
1.59808
 30
0.0
 11
4.98696
 21
1.59676
 31
0.0
  0
LINE
  8
0
  6
CONTINUOUS
 62
   250
 10
4.98696
 20
1.59676
 30
0.0
 11
4.98696
 21
1.59588
 31
0.0
  0
LINE
  8
0
  6
CONTINUOUS
 62
   250
 10
4.98696
 20
1.59588
 30
0.0
 11
4.98652
 21
1.59456
 31
0.0
  0
LINE
  8
0
  6
CONTINUOUS
 62
   250
 10
4.98652
 20
1.59456
 30
0.0
 11
4.98564
 21
1.59324
 31
0.0
  0
LINE
  8
0
  6
CONTINUOUS
 62
   250
 10
4.98564
 20
1.59324
 30
0.0
 11
4.9808
 21
1.58752
 31
0.0
  0
LINE
  8
0
  6
CONTINUOUS
 62
   250
 10
4.9808
 20
1.58752
 30
0.0
 11
4.98784
 21
1.58752
 31
0.0
  0
LINE
  8
0
  6
CONTINUOUS
 62
   250
 10
4.98124
 20
1.59632
 30
0.0
 11
4.98124
 21
1.59676
 31
0.0
  0
LINE
  8
0
  6
CONTINUOUS
 62
   250
 10
4.98124
 20
1.59676
 30
0.0
 11
4.98168
 21
1.59808
 31
0.0
  0
LINE
  8
0
  6
CONTINUOUS
 62
   250
 10
4.98168
 20
1.59808
 30
0.0
 11
4.98256
 21
1.59852
 31
0.0
  0
LINE
  8
0
  6
CONTINUOUS
 62
   250
 10
4.97024
 20
1.6016
 30
0.0
 11
4.96144
 21
1.58356
 31
0.0
  0
LINE
  8
0
  6
CONTINUOUS
 62
   250
 10
5.00324
 20
1.58752
 30
0.0
 11
5.0006
 21
1.5994
 31
0.0
  0
LINE
  8
0
  6
CONTINUOUS
 62
   250
 10
5.00544
 20
1.5994
 30
0.0
 11
5.00324
 21
1.58752
 31
0.0
  0
LINE
  8
0
  6
CONTINUOUS
 62
   250
 10
5.00808
 20
1.58752
 30
0.0
 11
5.00544
 21
1.5994
 31
0.0
  0
LINE
  8
0
  6
CONTINUOUS
 62
   250
 10
5.01028
 20
1.5994
 30
0.0
 11
5.00808
 21
1.58752
 31
0.0
  0
LINE
  8
0
  6
CONTINUOUS
 62
   250
 10
5.01204
 20
1.58356
 30
0.0
 11
5.02084
 21
1.6016
 31
0.0
  0
LINE
  8
0
  6
CONTINUOUS
 62
   250
 10
5.02216
 20
1.5994
 30
0.0
 11
5.02612
 21
1.59368
 31
0.0
  0
LINE
  8
0
  6
CONTINUOUS
 62
   250
 10
5.02612
 20
1.59368
 30
0.0
 11
5.02612
 21
1.58752
 31
0.0
  0
LINE
  8
0
  6
CONTINUOUS
 62
   250
 10
5.02612
 20
1.59368
 30
0.0
 11
5.02964
 21
1.5994
 31
0.0
  0
LINE
  8
0
  6
CONTINUOUS
 62
   250
 10
5.03316
 20
1.59852
 30
0.0
 11
5.03404
 21
1.5994
 31
0.0
  0
LINE
  8
0
  6
CONTINUOUS
 62
   250
 10
5.03404
 20
1.5994
 30
0.0
 11
5.0358
 21
1.5994
 31
0.0
  0
LINE
  8
0
  6
CONTINUOUS
 62
   250
 10
5.0358
 20
1.5994
 30
0.0
 11
5.03712
 21
1.59852
 31
0.0
  0
LINE
  8
0
  6
CONTINUOUS
 62
   250
 10
5.03712
 20
1.59852
 30
0.0
 11
5.03756
 21
1.59808
 31
0.0
  0
LINE
  8
0
  6
CONTINUOUS
 62
   250
 10
5.03756
 20
1.59808
 30
0.0
 11
5.038
 21
1.59676
 31
0.0
  0
LINE
  8
0
  6
CONTINUOUS
 62
   250
 10
5.038
 20
1.59676
 30
0.0
 11
5.038
 21
1.59588
 31
0.0
  0
LINE
  8
0
  6
CONTINUOUS
 62
   250
 10
5.038
 20
1.59588
 30
0.0
 11
5.03756
 21
1.59456
 31
0.0
  0
LINE
  8
0
  6
CONTINUOUS
 62
   250
 10
5.03756
 20
1.59456
 30
0.0
 11
5.03624
 21
1.59324
 31
0.0
  0
LINE
  8
0
  6
CONTINUOUS
 62
   250
 10
5.03624
 20
1.59324
 30
0.0
 11
5.03184
 21
1.58752
 31
0.0
  0
LINE
  8
0
  6
CONTINUOUS
 62
   250
 10
5.03184
 20
1.58752
 30
0.0
 11
5.03844
 21
1.58752
 31
0.0
  0
LINE
  8
0
  6
CONTINUOUS
 62
   250
 10
5.03228
 20
1.59632
 30
0.0
 11
5.03228
 21
1.59676
 31
0.0
  0
LINE
  8
0
  6
CONTINUOUS
 62
   250
 10
5.03228
 20
1.59676
 30
0.0
 11
5.03272
 21
1.59808
 31
0.0
  0
LINE
  8
0
  6
CONTINUOUS
 62
   250
 10
5.03272
 20
1.59808
 30
0.0
 11
5.03316
 21
1.59852
 31
0.0
  0
LINE
  8
0
  6
CONTINUOUS
 62
   250
 10
5.0556
 20
1.59852
 30
0.0
 11
5.05472
 21
1.59764
 31
0.0
  0
LINE
  8
0
  6
CONTINUOUS
 62
   250
 10
5.05472
 20
1.59764
 30
0.0
 11
5.05384
 21
1.59632
 31
0.0
  0
LINE
  8
0
  6
CONTINUOUS
 62
   250
 10
5.05384
 20
1.59632
 30
0.0
 11
5.0534
 21
1.59456
 31
0.0
  0
LINE
  8
0
  6
CONTINUOUS
 62
   250
 10
5.0534
 20
1.59456
 30
0.0
 11
5.0534
 21
1.59192
 31
0.0
  0
LINE
  8
0
  6
CONTINUOUS
 62
   250
 10
5.0534
 20
1.59192
 30
0.0
 11
5.05384
 21
1.59016
 31
0.0
  0
LINE
  8
0
  6
CONTINUOUS
 62
   250
 10
5.05384
 20
1.59016
 30
0.0
 11
5.05472
 21
1.58928
 31
0.0
  0
LINE
  8
0
  6
CONTINUOUS
 62
   250
 10
5.05472
 20
1.58928
 30
0.0
 11
5.0556
 21
1.58796
 31
0.0
  0
LINE
  8
0
  6
CONTINUOUS
 62
   250
 10
5.0556
 20
1.58796
 30
0.0
 11
5.05692
 21
1.58752
 31
0.0
  0
LINE
  8
0
  6
CONTINUOUS
 62
   250
 10
5.05692
 20
1.58752
 30
0.0
 11
5.05912
 21
1.58752
 31
0.0
  0
LINE
  8
0
  6
CONTINUOUS
 62
   250
 10
5.05912
 20
1.58752
 30
0.0
 11
5.06
 21
1.58796
 31
0.0
  0
LINE
  8
0
  6
CONTINUOUS
 62
   250
 10
5.06
 20
1.58796
 30
0.0
 11
5.06132
 21
1.58928
 31
0.0
  0
LINE
  8
0
  6
CONTINUOUS
 62
   250
 10
5.06132
 20
1.58928
 30
0.0
 11
5.06176
 21
1.59016
 31
0.0
  0
LINE
  8
0
  6
CONTINUOUS
 62
   250
 10
5.06176
 20
1.59016
 30
0.0
 11
5.06176
 21
1.59192
 31
0.0
  0
LINE
  8
0
  6
CONTINUOUS
 62
   250
 10
5.06176
 20
1.59192
 30
0.0
 11
5.05912
 21
1.59192
 31
0.0
  0
LINE
  8
0
  6
CONTINUOUS
 62
   250
 10
5.06176
 20
1.59632
 30
0.0
 11
5.06132
 21
1.59764
 31
0.0
  0
LINE
  8
0
  6
CONTINUOUS
 62
   250
 10
5.06132
 20
1.59764
 30
0.0
 11
5.06
 21
1.59852
 31
0.0
  0
LINE
  8
0
  6
CONTINUOUS
 62
   250
 10
5.06
 20
1.59852
 30
0.0
 11
5.05912
 21
1.5994
 31
0.0
  0
LINE
  8
0
  6
CONTINUOUS
 62
   250
 10
5.05912
 20
1.5994
 30
0.0
 11
5.05692
 21
1.5994
 31
0.0
  0
LINE
  8
0
  6
CONTINUOUS
 62
   250
 10
5.05692
 20
1.5994
 30
0.0
 11
5.0556
 21
1.59852
 31
0.0
  0
LINE
  8
0
  6
CONTINUOUS
 62
   250
 10
5.104
 20
1.5994
 30
0.0
 11
5.0996
 21
1.58752
 31
0.0
  0
LINE
  8
0
  6
CONTINUOUS
 62
   250
 10
5.10136
 20
1.59148
 30
0.0
 11
5.10664
 21
1.59148
 31
0.0
  0
LINE
  8
0
  6
CONTINUOUS
 62
   250
 10
5.1084
 20
1.58752
 30
0.0
 11
5.104
 21
1.5994
 31
0.0
  0
LINE
  8
0
  6
CONTINUOUS
 62
   250
 10
5.11236
 20
1.59852
 30
0.0
 11
5.11368
 21
1.5994
 31
0.0
  0
LINE
  8
0
  6
CONTINUOUS
 62
   250
 10
5.11368
 20
1.5994
 30
0.0
 11
5.11588
 21
1.5994
 31
0.0
  0
LINE
  8
0
  6
CONTINUOUS
 62
   250
 10
5.11588
 20
1.5994
 30
0.0
 11
5.11676
 21
1.59852
 31
0.0
  0
LINE
  8
0
  6
CONTINUOUS
 62
   250
 10
5.11676
 20
1.59852
 30
0.0
 11
5.11764
 21
1.59808
 31
0.0
  0
LINE
  8
0
  6
CONTINUOUS
 62
   250
 10
5.11764
 20
1.59808
 30
0.0
 11
5.11808
 21
1.59676
 31
0.0
  0
LINE
  8
0
  6
CONTINUOUS
 62
   250
 10
5.11808
 20
1.59676
 30
0.0
 11
5.11808
 21
1.59588
 31
0.0
  0
LINE
  8
0
  6
CONTINUOUS
 62
   250
 10
5.11808
 20
1.59588
 30
0.0
 11
5.11764
 21
1.59456
 31
0.0
  0
LINE
  8
0
  6
CONTINUOUS
 62
   250
 10
5.11764
 20
1.59456
 30
0.0
 11
5.11632
 21
1.59324
 31
0.0
  0
LINE
  8
0
  6
CONTINUOUS
 62
   250
 10
5.11632
 20
1.59324
 30
0.0
 11
5.1106
 21
1.58752
 31
0.0
  0
LINE
  8
0
  6
CONTINUOUS
 62
   250
 10
5.1106
 20
1.58752
 30
0.0
 11
5.11852
 21
1.58752
 31
0.0
  0
LINE
  8
0
  6
CONTINUOUS
 62
   250
 10
5.11104
 20
1.59632
 30
0.0
 11
5.11104
 21
1.59676
 31
0.0
  0
LINE
  8
0
  6
CONTINUOUS
 62
   250
 10
5.11104
 20
1.59676
 30
0.0
 11
5.11192
 21
1.59808
 31
0.0
  0
LINE
  8
0
  6
CONTINUOUS
 62
   250
 10
5.11192
 20
1.59808
 30
0.0
 11
5.11236
 21
1.59852
 31
0.0
  0
LINE
  8
0
  6
CONTINUOUS
 62
   250
 10
5.14404
 20
1.5994
 30
0.0
 11
5.13964
 21
1.58752
 31
0.0
  0
LINE
  8
0
  6
CONTINUOUS
 62
   250
 10
5.1414
 20
1.59148
 30
0.0
 11
5.14668
 21
1.59148
 31
0.0
  0
LINE
  8
0
  6
CONTINUOUS
 62
   250
 10
5.14844
 20
1.58752
 30
0.0
 11
5.14404
 21
1.5994
 31
0.0
  0
LINE
  8
0
  6
CONTINUOUS
 62
   250
 10
5.1524
 20
1.59676
 30
0.0
 11
5.15372
 21
1.59764
 31
0.0
  0
LINE
  8
0
  6
CONTINUOUS
 62
   250
 10
5.15372
 20
1.59764
 30
0.0
 11
5.15548
 21
1.5994
 31
0.0
  0
LINE
  8
0
  6
CONTINUOUS
 62
   250
 10
5.15548
 20
1.5994
 30
0.0
 11
5.15548
 21
1.58752
 31
0.0
  0
LINE
  8
0
  6
CONTINUOUS
 62
   250
 10
5.18232
 20
1.58752
 30
0.0
 11
5.18672
 21
1.5994
 31
0.0
  0
LINE
  8
0
  6
CONTINUOUS
 62
   250
 10
5.18672
 20
1.5994
 30
0.0
 11
5.19112
 21
1.58752
 31
0.0
  0
LINE
  8
0
  6
CONTINUOUS
 62
   250
 10
5.19464
 20
1.58928
 30
0.0
 11
5.19596
 21
1.58796
 31
0.0
  0
LINE
  8
0
  6
CONTINUOUS
 62
   250
 10
5.19596
 20
1.58796
 30
0.0
 11
5.19684
 21
1.58752
 31
0.0
  0
LINE
  8
0
  6
CONTINUOUS
 62
   250
 10
5.19684
 20
1.58752
 30
0.0
 11
5.19948
 21
1.58752
 31
0.0
  0
LINE
  8
0
  6
CONTINUOUS
 62
   250
 10
5.19948
 20
1.58752
 30
0.0
 11
5.20036
 21
1.58796
 31
0.0
  0
LINE
  8
0
  6
CONTINUOUS
 62
   250
 10
5.20036
 20
1.58796
 30
0.0
 11
5.20168
 21
1.58928
 31
0.0
  0
LINE
  8
0
  6
CONTINUOUS
 62
   250
 10
5.20168
 20
1.58928
 30
0.0
 11
5.20212
 21
1.59016
 31
0.0
  0
LINE
  8
0
  6
CONTINUOUS
 62
   250
 10
5.20212
 20
1.59016
 30
0.0
 11
5.20256
 21
1.59192
 31
0.0
  0
LINE
  8
0
  6
CONTINUOUS
 62
   250
 10
5.20256
 20
1.59192
 30
0.0
 11
5.20256
 21
1.59456
 31
0.0
  0
LINE
  8
0
  6
CONTINUOUS
 62
   250
 10
5.20256
 20
1.59456
 30
0.0
 11
5.20212
 21
1.59632
 31
0.0
  0
LINE
  8
0
  6
CONTINUOUS
 62
   250
 10
5.20212
 20
1.59632
 30
0.0
 11
5.20168
 21
1.59764
 31
0.0
  0
LINE
  8
0
  6
CONTINUOUS
 62
   250
 10
5.20168
 20
1.59764
 30
0.0
 11
5.20036
 21
1.59852
 31
0.0
  0
LINE
  8
0
  6
CONTINUOUS
 62
   250
 10
5.20036
 20
1.59852
 30
0.0
 11
5.19948
 21
1.5994
 31
0.0
  0
LINE
  8
0
  6
CONTINUOUS
 62
   250
 10
5.19948
 20
1.5994
 30
0.0
 11
5.19684
 21
1.5994
 31
0.0
  0
LINE
  8
0
  6
CONTINUOUS
 62
   250
 10
5.19684
 20
1.5994
 30
0.0
 11
5.19596
 21
1.59852
 31
0.0
  0
LINE
  8
0
  6
CONTINUOUS
 62
   250
 10
5.19596
 20
1.59852
 30
0.0
 11
5.19464
 21
1.59764
 31
0.0
  0
LINE
  8
0
  6
CONTINUOUS
 62
   250
 10
5.19464
 20
1.59764
 30
0.0
 11
5.1942
 21
1.59632
 31
0.0
  0
LINE
  8
0
  6
CONTINUOUS
 62
   250
 10
5.1942
 20
1.59632
 30
0.0
 11
5.19376
 21
1.59456
 31
0.0
  0
LINE
  8
0
  6
CONTINUOUS
 62
   250
 10
5.19376
 20
1.59456
 30
0.0
 11
5.19376
 21
1.59192
 31
0.0
  0
LINE
  8
0
  6
CONTINUOUS
 62
   250
 10
5.19376
 20
1.59192
 30
0.0
 11
5.1942
 21
1.59016
 31
0.0
  0
LINE
  8
0
  6
CONTINUOUS
 62
   250
 10
5.1942
 20
1.59016
 30
0.0
 11
5.19464
 21
1.58928
 31
0.0
  0
LINE
  8
0
  6
CONTINUOUS
 62
   250
 10
5.1898
 20
1.59148
 30
0.0
 11
5.18408
 21
1.59148
 31
0.0
  0
LINE
  8
0
  6
CONTINUOUS
 62
   250
 10
5.20652
 20
1.59632
 30
0.0
 11
5.20652
 21
1.59676
 31
0.0
  0
LINE
  8
0
  6
CONTINUOUS
 62
   250
 10
5.20652
 20
1.59676
 30
0.0
 11
5.20696
 21
1.59808
 31
0.0
  0
LINE
  8
0
  6
CONTINUOUS
 62
   250
 10
5.20696
 20
1.59808
 30
0.0
 11
5.20784
 21
1.59852
 31
0.0
  0
LINE
  8
0
  6
CONTINUOUS
 62
   250
 10
5.20784
 20
1.59852
 30
0.0
 11
5.20872
 21
1.5994
 31
0.0
  0
LINE
  8
0
  6
CONTINUOUS
 62
   250
 10
5.20872
 20
1.5994
 30
0.0
 11
5.21092
 21
1.5994
 31
0.0
  0
LINE
  8
0
  6
CONTINUOUS
 62
   250
 10
5.21092
 20
1.5994
 30
0.0
 11
5.21224
 21
1.59852
 31
0.0
  0
LINE
  8
0
  6
CONTINUOUS
 62
   250
 10
5.21224
 20
1.59852
 30
0.0
 11
5.21268
 21
1.59808
 31
0.0
  0
LINE
  8
0
  6
CONTINUOUS
 62
   250
 10
5.21268
 20
1.59808
 30
0.0
 11
5.21312
 21
1.59676
 31
0.0
  0
LINE
  8
0
  6
CONTINUOUS
 62
   250
 10
5.21312
 20
1.59676
 30
0.0
 11
5.21312
 21
1.59588
 31
0.0
  0
LINE
  8
0
  6
CONTINUOUS
 62
   250
 10
5.21312
 20
1.59588
 30
0.0
 11
5.21268
 21
1.59456
 31
0.0
  0
LINE
  8
0
  6
CONTINUOUS
 62
   250
 10
5.21268
 20
1.59456
 30
0.0
 11
5.2118
 21
1.59324
 31
0.0
  0
LINE
  8
0
  6
CONTINUOUS
 62
   250
 10
5.2118
 20
1.59324
 30
0.0
 11
5.20608
 21
1.58752
 31
0.0
  0
LINE
  8
0
  6
CONTINUOUS
 62
   250
 10
5.20608
 20
1.58752
 30
0.0
 11
5.214
 21
1.58752
 31
0.0
  0
LINE
  8
0
  6
CONTINUOUS
 62
   250
 10
5.2228
 20
1.58752
 30
0.0
 11
5.2272
 21
1.5994
 31
0.0
  0
LINE
  8
0
  6
CONTINUOUS
 62
   250
 10
5.2272
 20
1.5994
 30
0.0
 11
5.23204
 21
1.58752
 31
0.0
  0
LINE
  8
0
  6
CONTINUOUS
 62
   250
 10
5.23512
 20
1.58928
 30
0.0
 11
5.23644
 21
1.58796
 31
0.0
  0
LINE
  8
0
  6
CONTINUOUS
 62
   250
 10
5.23644
 20
1.58796
 30
0.0
 11
5.23732
 21
1.58752
 31
0.0
  0
LINE
  8
0
  6
CONTINUOUS
 62
   250
 10
5.23732
 20
1.58752
 30
0.0
 11
5.23952
 21
1.58752
 31
0.0
  0
LINE
  8
0
  6
CONTINUOUS
 62
   250
 10
5.23952
 20
1.58752
 30
0.0
 11
5.24084
 21
1.58796
 31
0.0
  0
LINE
  8
0
  6
CONTINUOUS
 62
   250
 10
5.24084
 20
1.58796
 30
0.0
 11
5.24216
 21
1.58928
 31
0.0
  0
LINE
  8
0
  6
CONTINUOUS
 62
   250
 10
5.24216
 20
1.58928
 30
0.0
 11
5.2426
 21
1.59016
 31
0.0
  0
LINE
  8
0
  6
CONTINUOUS
 62
   250
 10
5.2426
 20
1.59016
 30
0.0
 11
5.24304
 21
1.59192
 31
0.0
  0
LINE
  8
0
  6
CONTINUOUS
 62
   250
 10
5.24304
 20
1.59192
 30
0.0
 11
5.24304
 21
1.59456
 31
0.0
  0
LINE
  8
0
  6
CONTINUOUS
 62
   250
 10
5.24304
 20
1.59456
 30
0.0
 11
5.2426
 21
1.59632
 31
0.0
  0
LINE
  8
0
  6
CONTINUOUS
 62
   250
 10
5.2426
 20
1.59632
 30
0.0
 11
5.24216
 21
1.59764
 31
0.0
  0
LINE
  8
0
  6
CONTINUOUS
 62
   250
 10
5.24216
 20
1.59764
 30
0.0
 11
5.24084
 21
1.59852
 31
0.0
  0
LINE
  8
0
  6
CONTINUOUS
 62
   250
 10
5.24084
 20
1.59852
 30
0.0
 11
5.23952
 21
1.5994
 31
0.0
  0
LINE
  8
0
  6
CONTINUOUS
 62
   250
 10
5.23952
 20
1.5994
 30
0.0
 11
5.23732
 21
1.5994
 31
0.0
  0
LINE
  8
0
  6
CONTINUOUS
 62
   250
 10
5.23732
 20
1.5994
 30
0.0
 11
5.23644
 21
1.59852
 31
0.0
  0
LINE
  8
0
  6
CONTINUOUS
 62
   250
 10
5.23644
 20
1.59852
 30
0.0
 11
5.23512
 21
1.59764
 31
0.0
  0
LINE
  8
0
  6
CONTINUOUS
 62
   250
 10
5.23512
 20
1.59764
 30
0.0
 11
5.23468
 21
1.59632
 31
0.0
  0
LINE
  8
0
  6
CONTINUOUS
 62
   250
 10
5.23468
 20
1.59632
 30
0.0
 11
5.23424
 21
1.59456
 31
0.0
  0
LINE
  8
0
  6
CONTINUOUS
 62
   250
 10
5.23424
 20
1.59456
 30
0.0
 11
5.23424
 21
1.59192
 31
0.0
  0
LINE
  8
0
  6
CONTINUOUS
 62
   250
 10
5.23424
 20
1.59192
 30
0.0
 11
5.23468
 21
1.59016
 31
0.0
  0
LINE
  8
0
  6
CONTINUOUS
 62
   250
 10
5.23468
 20
1.59016
 30
0.0
 11
5.23512
 21
1.58928
 31
0.0
  0
LINE
  8
0
  6
CONTINUOUS
 62
   250
 10
5.23028
 20
1.59148
 30
0.0
 11
5.22456
 21
1.59148
 31
0.0
  0
LINE
  8
0
  6
CONTINUOUS
 62
   250
 10
5.24832
 20
1.59676
 30
0.0
 11
5.2492
 21
1.59764
 31
0.0
  0
LINE
  8
0
  6
CONTINUOUS
 62
   250
 10
5.2492
 20
1.59764
 30
0.0
 11
5.25096
 21
1.5994
 31
0.0
  0
LINE
  8
0
  6
CONTINUOUS
 62
   250
 10
5.25096
 20
1.5994
 30
0.0
 11
5.25096
 21
1.58752
 31
0.0
  0
LINE
  8
0
  6
CONTINUOUS
 62
   250
 10
5.25976
 20
1.59016
 30
0.0
 11
5.25932
 21
1.59192
 31
0.0
  0
LINE
  8
0
  6
CONTINUOUS
 62
   250
 10
5.25932
 20
1.59192
 30
0.0
 11
5.25932
 21
1.59456
 31
0.0
  0
LINE
  8
0
  6
CONTINUOUS
 62
   250
 10
5.25932
 20
1.59456
 30
0.0
 11
5.25976
 21
1.59632
 31
0.0
  0
LINE
  8
0
  6
CONTINUOUS
 62
   250
 10
5.25976
 20
1.59632
 30
0.0
 11
5.26064
 21
1.59764
 31
0.0
  0
LINE
  8
0
  6
CONTINUOUS
 62
   250
 10
5.26064
 20
1.59764
 30
0.0
 11
5.26152
 21
1.59852
 31
0.0
  0
LINE
  8
0
  6
CONTINUOUS
 62
   250
 10
5.26152
 20
1.59852
 30
0.0
 11
5.26284
 21
1.5994
 31
0.0
  0
LINE
  8
0
  6
CONTINUOUS
 62
   250
 10
5.26284
 20
1.5994
 30
0.0
 11
5.26504
 21
1.5994
 31
0.0
  0
LINE
  8
0
  6
CONTINUOUS
 62
   250
 10
5.26504
 20
1.5994
 30
0.0
 11
5.26592
 21
1.59852
 31
0.0
  0
LINE
  8
0
  6
CONTINUOUS
 62
   250
 10
5.26592
 20
1.59852
 30
0.0
 11
5.26724
 21
1.59764
 31
0.0
  0
LINE
  8
0
  6
CONTINUOUS
 62
   250
 10
5.26724
 20
1.59764
 30
0.0
 11
5.26768
 21
1.59632
 31
0.0
  0
LINE
  8
0
  6
CONTINUOUS
 62
   250
 10
5.26768
 20
1.59192
 30
0.0
 11
5.26768
 21
1.59016
 31
0.0
  0
LINE
  8
0
  6
CONTINUOUS
 62
   250
 10
5.26768
 20
1.59016
 30
0.0
 11
5.26724
 21
1.58928
 31
0.0
  0
LINE
  8
0
  6
CONTINUOUS
 62
   250
 10
5.26724
 20
1.58928
 30
0.0
 11
5.26592
 21
1.58796
 31
0.0
  0
LINE
  8
0
  6
CONTINUOUS
 62
   250
 10
5.26592
 20
1.58796
 30
0.0
 11
5.26504
 21
1.58752
 31
0.0
  0
LINE
  8
0
  6
CONTINUOUS
 62
   250
 10
5.26504
 20
1.58752
 30
0.0
 11
5.26284
 21
1.58752
 31
0.0
  0
LINE
  8
0
  6
CONTINUOUS
 62
   250
 10
5.26284
 20
1.58752
 30
0.0
 11
5.26152
 21
1.58796
 31
0.0
  0
LINE
  8
0
  6
CONTINUOUS
 62
   250
 10
5.26152
 20
1.58796
 30
0.0
 11
5.26064
 21
1.58928
 31
0.0
  0
LINE
  8
0
  6
CONTINUOUS
 62
   250
 10
5.26064
 20
1.58928
 30
0.0
 11
5.25976
 21
1.59016
 31
0.0
  0
LINE
  8
0
  6
CONTINUOUS
 62
   250
 10
5.26504
 20
1.59192
 30
0.0
 11
5.26768
 21
1.59192
 31
0.0
  0
LINE
  8
0
  6
CONTINUOUS
 62
   250
 10
5.27164
 20
1.58752
 30
0.0
 11
5.27164
 21
1.5994
 31
0.0
  0
LINE
  8
0
  6
CONTINUOUS
 62
   250
 10
5.27164
 20
1.5994
 30
0.0
 11
5.27956
 21
1.58752
 31
0.0
  0
LINE
  8
0
  6
CONTINUOUS
 62
   250
 10
5.27956
 20
1.58752
 30
0.0
 11
5.27956
 21
1.5994
 31
0.0
  0
LINE
  8
0
  6
CONTINUOUS
 62
   250
 10
5.28396
 20
1.5994
 30
0.0
 11
5.28396
 21
1.58752
 31
0.0
  0
LINE
  8
0
  6
CONTINUOUS
 62
   250
 10
5.28792
 20
1.58752
 30
0.0
 11
5.28968
 21
1.58796
 31
0.0
  0
LINE
  8
0
  6
CONTINUOUS
 62
   250
 10
5.28968
 20
1.58796
 30
0.0
 11
5.291
 21
1.58928
 31
0.0
  0
LINE
  8
0
  6
CONTINUOUS
 62
   250
 10
5.291
 20
1.58928
 30
0.0
 11
5.29144
 21
1.59016
 31
0.0
  0
LINE
  8
0
  6
CONTINUOUS
 62
   250
 10
5.29144
 20
1.59016
 30
0.0
 11
5.29188
 21
1.59192
 31
0.0
  0
LINE
  8
0
  6
CONTINUOUS
 62
   250
 10
5.29188
 20
1.59192
 30
0.0
 11
5.29188
 21
1.59456
 31
0.0
  0
LINE
  8
0
  6
CONTINUOUS
 62
   250
 10
5.29188
 20
1.59456
 30
0.0
 11
5.29144
 21
1.59632
 31
0.0
  0
LINE
  8
0
  6
CONTINUOUS
 62
   250
 10
5.29144
 20
1.59632
 30
0.0
 11
5.291
 21
1.59764
 31
0.0
  0
LINE
  8
0
  6
CONTINUOUS
 62
   250
 10
5.291
 20
1.59764
 30
0.0
 11
5.28968
 21
1.59852
 31
0.0
  0
LINE
  8
0
  6
CONTINUOUS
 62
   250
 10
5.28968
 20
1.59852
 30
0.0
 11
5.28792
 21
1.5994
 31
0.0
  0
LINE
  8
0
  6
CONTINUOUS
 62
   250
 10
5.28792
 20
1.5994
 30
0.0
 11
5.28396
 21
1.5994
 31
0.0
  0
LINE
  8
0
  6
CONTINUOUS
 62
   250
 10
5.28396
 20
1.58752
 30
0.0
 11
5.28792
 21
1.58752
 31
0.0
  0
LINE
  8
0
  6
CONTINUOUS
 62
   250
 10
5.19332
 20
1.3728
 30
0.0
 11
5.19332
 21
1.34508
 31
0.0
  0
LINE
  8
0
  6
CONTINUOUS
 62
   250
 10
5.01424
 20
1.45112
 30
0.0
 11
4.93724
 21
1.45112
 31
0.0
  0
LINE
  8
0
  6
CONTINUOUS
 62
   250
 10
4.94648
 20
1.45684
 30
0.0
 11
4.94648
 21
1.46872
 31
0.0
  0
LINE
  8
0
  6
CONTINUOUS
 62
   250
 10
4.94648
 20
1.46872
 30
0.0
 11
4.95044
 21
1.46872
 31
0.0
  0
LINE
  8
0
  6
CONTINUOUS
 62
   250
 10
4.95044
 20
1.46872
 30
0.0
 11
4.9522
 21
1.46784
 31
0.0
  0
LINE
  8
0
  6
CONTINUOUS
 62
   250
 10
4.9522
 20
1.46784
 30
0.0
 11
4.95308
 21
1.46696
 31
0.0
  0
LINE
  8
0
  6
CONTINUOUS
 62
   250
 10
4.95308
 20
1.46696
 30
0.0
 11
4.95396
 21
1.46564
 31
0.0
  0
LINE
  8
0
  6
CONTINUOUS
 62
   250
 10
4.95396
 20
1.46564
 30
0.0
 11
4.9544
 21
1.46432
 31
0.0
  0
LINE
  8
0
  6
CONTINUOUS
 62
   250
 10
4.9544
 20
1.46432
 30
0.0
 11
4.9544
 21
1.46124
 31
0.0
  0
LINE
  8
0
  6
CONTINUOUS
 62
   250
 10
4.9544
 20
1.46124
 30
0.0
 11
4.95396
 21
1.45992
 31
0.0
  0
LINE
  8
0
  6
CONTINUOUS
 62
   250
 10
4.95396
 20
1.45992
 30
0.0
 11
4.95308
 21
1.4586
 31
0.0
  0
LINE
  8
0
  6
CONTINUOUS
 62
   250
 10
4.95308
 20
1.4586
 30
0.0
 11
4.9522
 21
1.45728
 31
0.0
  0
LINE
  8
0
  6
CONTINUOUS
 62
   250
 10
4.9522
 20
1.45728
 30
0.0
 11
4.95044
 21
1.45684
 31
0.0
  0
LINE
  8
0
  6
CONTINUOUS
 62
   250
 10
4.95044
 20
1.45684
 30
0.0
 11
4.94648
 21
1.45684
 31
0.0
  0
LINE
  8
0
  6
CONTINUOUS
 62
   250
 10
4.95836
 20
1.45684
 30
0.0
 11
4.95836
 21
1.46872
 31
0.0
  0
LINE
  8
0
  6
CONTINUOUS
 62
   250
 10
4.96408
 20
1.46652
 30
0.0
 11
4.96496
 21
1.46696
 31
0.0
  0
LINE
  8
0
  6
CONTINUOUS
 62
   250
 10
4.96496
 20
1.46696
 30
0.0
 11
4.96672
 21
1.46872
 31
0.0
  0
LINE
  8
0
  6
CONTINUOUS
 62
   250
 10
4.96672
 20
1.46872
 30
0.0
 11
4.96672
 21
1.45684
 31
0.0
  0
LINE
  8
0
  6
CONTINUOUS
 62
   250
 10
4.98344
 20
1.45684
 30
0.0
 11
4.98344
 21
1.46872
 31
0.0
  0
LINE
  8
0
  6
CONTINUOUS
 62
   250
 10
4.98344
 20
1.46872
 30
0.0
 11
4.98696
 21
1.46872
 31
0.0
  0
LINE
  8
0
  6
CONTINUOUS
 62
   250
 10
4.98696
 20
1.46872
 30
0.0
 11
4.98872
 21
1.46784
 31
0.0
  0
LINE
  8
0
  6
CONTINUOUS
 62
   250
 10
4.98872
 20
1.46784
 30
0.0
 11
4.99004
 21
1.46696
 31
0.0
  0
LINE
  8
0
  6
CONTINUOUS
 62
   250
 10
4.99004
 20
1.46696
 30
0.0
 11
4.99048
 21
1.46564
 31
0.0
  0
LINE
  8
0
  6
CONTINUOUS
 62
   250
 10
4.99048
 20
1.46564
 30
0.0
 11
4.99136
 21
1.46432
 31
0.0
  0
LINE
  8
0
  6
CONTINUOUS
 62
   250
 10
4.99136
 20
1.46432
 30
0.0
 11
4.99136
 21
1.46124
 31
0.0
  0
LINE
  8
0
  6
CONTINUOUS
 62
   250
 10
4.99136
 20
1.46124
 30
0.0
 11
4.99048
 21
1.45992
 31
0.0
  0
LINE
  8
0
  6
CONTINUOUS
 62
   250
 10
4.99048
 20
1.45992
 30
0.0
 11
4.99004
 21
1.4586
 31
0.0
  0
LINE
  8
0
  6
CONTINUOUS
 62
   250
 10
4.99004
 20
1.4586
 30
0.0
 11
4.98872
 21
1.45728
 31
0.0
  0
LINE
  8
0
  6
CONTINUOUS
 62
   250
 10
4.98872
 20
1.45728
 30
0.0
 11
4.98696
 21
1.45684
 31
0.0
  0
LINE
  8
0
  6
CONTINUOUS
 62
   250
 10
4.98696
 20
1.45684
 30
0.0
 11
4.98344
 21
1.45684
 31
0.0
  0
LINE
  8
0
  6
CONTINUOUS
 62
   250
 10
4.99532
 20
1.45684
 30
0.0
 11
4.99532
 21
1.46872
 31
0.0
  0
LINE
  8
0
  6
CONTINUOUS
 62
   250
 10
5.00016
 20
1.4674
 30
0.0
 11
5.0006
 21
1.46784
 31
0.0
  0
LINE
  8
0
  6
CONTINUOUS
 62
   250
 10
5.0006
 20
1.46784
 30
0.0
 11
5.00192
 21
1.46872
 31
0.0
  0
LINE
  8
0
  6
CONTINUOUS
 62
   250
 10
5.00192
 20
1.46872
 30
0.0
 11
5.00412
 21
1.46872
 31
0.0
  0
LINE
  8
0
  6
CONTINUOUS
 62
   250
 10
5.00412
 20
1.46872
 30
0.0
 11
5.00544
 21
1.46784
 31
0.0
  0
LINE
  8
0
  6
CONTINUOUS
 62
   250
 10
5.00544
 20
1.46784
 30
0.0
 11
5.00588
 21
1.4674
 31
0.0
  0
LINE
  8
0
  6
CONTINUOUS
 62
   250
 10
5.00588
 20
1.4674
 30
0.0
 11
5.00632
 21
1.46652
 31
0.0
  0
LINE
  8
0
  6
CONTINUOUS
 62
   250
 10
5.00632
 20
1.46652
 30
0.0
 11
5.00632
 21
1.4652
 31
0.0
  0
LINE
  8
0
  6
CONTINUOUS
 62
   250
 10
5.00632
 20
1.4652
 30
0.0
 11
5.00588
 21
1.46432
 31
0.0
  0
LINE
  8
0
  6
CONTINUOUS
 62
   250
 10
5.00588
 20
1.46432
 30
0.0
 11
5.00456
 21
1.46256
 31
0.0
  0
LINE
  8
0
  6
CONTINUOUS
 62
   250
 10
5.00456
 20
1.46256
 30
0.0
 11
4.99884
 21
1.45684
 31
0.0
  0
LINE
  8
0
  6
CONTINUOUS
 62
   250
 10
4.99884
 20
1.45684
 30
0.0
 11
5.00676
 21
1.45684
 31
0.0
  0
LINE
  8
0
  6
CONTINUOUS
 62
   250
 10
4.99972
 20
1.46564
 30
0.0
 11
4.99972
 21
1.46652
 31
0.0
  0
LINE
  8
0
  6
CONTINUOUS
 62
   250
 10
4.99972
 20
1.46652
 30
0.0
 11
5.00016
 21
1.4674
 31
0.0
  0
LINE
  8
0
  6
CONTINUOUS
 62
   250
 10
5.10356
 20
1.45112
 30
0.0
 11
5.18056
 21
1.45112
 31
0.0
  0
LINE
  8
0
  6
CONTINUOUS
 62
   250
 10
5.2074
 20
1.45684
 30
0.0
 11
5.2074
 21
1.46872
 31
0.0
  0
LINE
  8
0
  6
CONTINUOUS
 62
   250
 10
5.21136
 20
1.46872
 30
0.0
 11
5.20344
 21
1.46872
 31
0.0
  0
LINE
  8
0
  6
CONTINUOUS
 62
   250
 10
5.21488
 20
1.4674
 30
0.0
 11
5.21532
 21
1.46784
 31
0.0
  0
LINE
  8
0
  6
CONTINUOUS
 62
   250
 10
5.21532
 20
1.46784
 30
0.0
 11
5.21664
 21
1.46872
 31
0.0
  0
LINE
  8
0
  6
CONTINUOUS
 62
   250
 10
5.21664
 20
1.46872
 30
0.0
 11
5.21884
 21
1.46872
 31
0.0
  0
LINE
  8
0
  6
CONTINUOUS
 62
   250
 10
5.21884
 20
1.46872
 30
0.0
 11
5.21972
 21
1.46784
 31
0.0
  0
LINE
  8
0
  6
CONTINUOUS
 62
   250
 10
5.21972
 20
1.46784
 30
0.0
 11
5.2206
 21
1.4674
 31
0.0
  0
LINE
  8
0
  6
CONTINUOUS
 62
   250
 10
5.2206
 20
1.4674
 30
0.0
 11
5.22104
 21
1.46652
 31
0.0
  0
LINE
  8
0
  6
CONTINUOUS
 62
   250
 10
5.22104
 20
1.46652
 30
0.0
 11
5.22104
 21
1.4652
 31
0.0
  0
LINE
  8
0
  6
CONTINUOUS
 62
   250
 10
5.22104
 20
1.4652
 30
0.0
 11
5.2206
 21
1.46432
 31
0.0
  0
LINE
  8
0
  6
CONTINUOUS
 62
   250
 10
5.2206
 20
1.46432
 30
0.0
 11
5.21928
 21
1.46256
 31
0.0
  0
LINE
  8
0
  6
CONTINUOUS
 62
   250
 10
5.21928
 20
1.46256
 30
0.0
 11
5.21356
 21
1.45684
 31
0.0
  0
LINE
  8
0
  6
CONTINUOUS
 62
   250
 10
5.21356
 20
1.45684
 30
0.0
 11
5.22148
 21
1.45684
 31
0.0
  0
LINE
  8
0
  6
CONTINUOUS
 62
   250
 10
5.21444
 20
1.46564
 30
0.0
 11
5.21444
 21
1.46652
 31
0.0
  0
LINE
  8
0
  6
CONTINUOUS
 62
   250
 10
5.21444
 20
1.46652
 30
0.0
 11
5.21488
 21
1.4674
 31
0.0
  0
LINE
  8
0
  6
CONTINUOUS
 62
   250
 10
5.24172
 20
1.46872
 30
0.0
 11
5.24964
 21
1.46872
 31
0.0
  0
LINE
  8
0
  6
CONTINUOUS
 62
   250
 10
5.24568
 20
1.46872
 30
0.0
 11
5.24568
 21
1.45684
 31
0.0
  0
LINE
  8
0
  6
CONTINUOUS
 62
   250
 10
5.25272
 20
1.46564
 30
0.0
 11
5.25272
 21
1.46652
 31
0.0
  0
LINE
  8
0
  6
CONTINUOUS
 62
   250
 10
5.25272
 20
1.46652
 30
0.0
 11
5.25316
 21
1.4674
 31
0.0
  0
LINE
  8
0
  6
CONTINUOUS
 62
   250
 10
5.25316
 20
1.4674
 30
0.0
 11
5.2536
 21
1.46784
 31
0.0
  0
LINE
  8
0
  6
CONTINUOUS
 62
   250
 10
5.2536
 20
1.46784
 30
0.0
 11
5.25492
 21
1.46872
 31
0.0
  0
LINE
  8
0
  6
CONTINUOUS
 62
   250
 10
5.25492
 20
1.46872
 30
0.0
 11
5.25712
 21
1.46872
 31
0.0
  0
LINE
  8
0
  6
CONTINUOUS
 62
   250
 10
5.25712
 20
1.46872
 30
0.0
 11
5.258
 21
1.46784
 31
0.0
  0
LINE
  8
0
  6
CONTINUOUS
 62
   250
 10
5.258
 20
1.46784
 30
0.0
 11
5.25844
 21
1.4674
 31
0.0
  0
LINE
  8
0
  6
CONTINUOUS
 62
   250
 10
5.25844
 20
1.4674
 30
0.0
 11
5.25932
 21
1.46652
 31
0.0
  0
LINE
  8
0
  6
CONTINUOUS
 62
   250
 10
5.25932
 20
1.46652
 30
0.0
 11
5.25932
 21
1.4652
 31
0.0
  0
LINE
  8
0
  6
CONTINUOUS
 62
   250
 10
5.25932
 20
1.4652
 30
0.0
 11
5.25844
 21
1.46432
 31
0.0
  0
LINE
  8
0
  6
CONTINUOUS
 62
   250
 10
5.25844
 20
1.46432
 30
0.0
 11
5.25756
 21
1.46256
 31
0.0
  0
LINE
  8
0
  6
CONTINUOUS
 62
   250
 10
5.25756
 20
1.46256
 30
0.0
 11
5.25184
 21
1.45684
 31
0.0
  0
LINE
  8
0
  6
CONTINUOUS
 62
   250
 10
5.25184
 20
1.45684
 30
0.0
 11
5.25976
 21
1.45684
 31
0.0
  0
LINE
  8
0
  6
CONTINUOUS
 62
   250
 10
5.26988
 20
1.45112
 30
0.0
 11
5.34688
 21
1.45112
 31
0.0
  0
LINE
  8
0
  6
CONTINUOUS
 62
   250
 10
5.2976
 20
1.4586
 30
0.0
 11
5.29628
 21
1.45728
 31
0.0
  0
LINE
  8
0
  6
CONTINUOUS
 62
   250
 10
5.29628
 20
1.45728
 30
0.0
 11
5.29452
 21
1.45684
 31
0.0
  0
LINE
  8
0
  6
CONTINUOUS
 62
   250
 10
5.29452
 20
1.45684
 30
0.0
 11
5.2932
 21
1.45684
 31
0.0
  0
LINE
  8
0
  6
CONTINUOUS
 62
   250
 10
5.2932
 20
1.45684
 30
0.0
 11
5.29144
 21
1.45728
 31
0.0
  0
LINE
  8
0
  6
CONTINUOUS
 62
   250
 10
5.29144
 20
1.45728
 30
0.0
 11
5.29056
 21
1.45816
 31
0.0
  0
LINE
  8
0
  6
CONTINUOUS
 62
   250
 10
5.29056
 20
1.45816
 30
0.0
 11
5.29012
 21
1.45904
 31
0.0
  0
LINE
  8
0
  6
CONTINUOUS
 62
   250
 10
5.2976
 20
1.4586
 30
0.0
 11
5.29804
 21
1.46036
 31
0.0
  0
LINE
  8
0
  6
CONTINUOUS
 62
   250
 10
5.29804
 20
1.46036
 30
0.0
 11
5.29804
 21
1.46124
 31
0.0
  0
LINE
  8
0
  6
CONTINUOUS
 62
   250
 10
5.29804
 20
1.46124
 30
0.0
 11
5.2976
 21
1.463
 31
0.0
  0
LINE
  8
0
  6
CONTINUOUS
 62
   250
 10
5.2976
 20
1.463
 30
0.0
 11
5.29672
 21
1.46344
 31
0.0
  0
LINE
  8
0
  6
CONTINUOUS
 62
   250
 10
5.29672
 20
1.46344
 30
0.0
 11
5.29584
 21
1.46432
 31
0.0
  0
LINE
  8
0
  6
CONTINUOUS
 62
   250
 10
5.29584
 20
1.46432
 30
0.0
 11
5.29408
 21
1.46432
 31
0.0
  0
LINE
  8
0
  6
CONTINUOUS
 62
   250
 10
5.29408
 20
1.46432
 30
0.0
 11
5.2976
 21
1.46872
 31
0.0
  0
LINE
  8
0
  6
CONTINUOUS
 62
   250
 10
5.2976
 20
1.46872
 30
0.0
 11
5.29144
 21
1.46872
 31
0.0
  0
LINE
  8
0
  6
CONTINUOUS
 62
   250
 10
5.28792
 20
1.46872
 30
0.0
 11
5.28
 21
1.46872
 31
0.0
  0
LINE
  8
0
  6
CONTINUOUS
 62
   250
 10
5.28396
 20
1.46872
 30
0.0
 11
5.28396
 21
1.45684
 31
0.0
  0
LINE
  8
0
  6
CONTINUOUS
 62
   250
 10
5.32268
 20
1.45684
 30
0.0
 11
5.32268
 21
1.46872
 31
0.0
  0
LINE
  8
0
  6
CONTINUOUS
 62
   250
 10
5.31872
 20
1.46872
 30
0.0
 11
5.32664
 21
1.46872
 31
0.0
  0
LINE
  8
0
  6
CONTINUOUS
 62
   250
 10
5.32972
 20
1.46872
 30
0.0
 11
5.33588
 21
1.46872
 31
0.0
  0
LINE
  8
0
  6
CONTINUOUS
 62
   250
 10
5.33588
 20
1.46872
 30
0.0
 11
5.33236
 21
1.46432
 31
0.0
  0
LINE
  8
0
  6
CONTINUOUS
 62
   250
 10
5.33236
 20
1.46432
 30
0.0
 11
5.33412
 21
1.46432
 31
0.0
  0
LINE
  8
0
  6
CONTINUOUS
 62
   250
 10
5.33412
 20
1.46432
 30
0.0
 11
5.33544
 21
1.46344
 31
0.0
  0
LINE
  8
0
  6
CONTINUOUS
 62
   250
 10
5.33544
 20
1.46344
 30
0.0
 11
5.33588
 21
1.463
 31
0.0
  0
LINE
  8
0
  6
CONTINUOUS
 62
   250
 10
5.33588
 20
1.463
 30
0.0
 11
5.33676
 21
1.46124
 31
0.0
  0
LINE
  8
0
  6
CONTINUOUS
 62
   250
 10
5.33676
 20
1.46124
 30
0.0
 11
5.33676
 21
1.46036
 31
0.0
  0
LINE
  8
0
  6
CONTINUOUS
 62
   250
 10
5.33676
 20
1.46036
 30
0.0
 11
5.33588
 21
1.4586
 31
0.0
  0
LINE
  8
0
  6
CONTINUOUS
 62
   250
 10
5.33588
 20
1.4586
 30
0.0
 11
5.335
 21
1.45728
 31
0.0
  0
LINE
  8
0
  6
CONTINUOUS
 62
   250
 10
5.335
 20
1.45728
 30
0.0
 11
5.33324
 21
1.45684
 31
0.0
  0
LINE
  8
0
  6
CONTINUOUS
 62
   250
 10
5.33324
 20
1.45684
 30
0.0
 11
5.33148
 21
1.45684
 31
0.0
  0
LINE
  8
0
  6
CONTINUOUS
 62
   250
 10
5.33148
 20
1.45684
 30
0.0
 11
5.32972
 21
1.45728
 31
0.0
  0
LINE
  8
0
  6
CONTINUOUS
 62
   250
 10
5.32972
 20
1.45728
 30
0.0
 11
5.32928
 21
1.45816
 31
0.0
  0
LINE
  8
0
  6
CONTINUOUS
 62
   250
 10
5.32928
 20
1.45816
 30
0.0
 11
5.32884
 21
1.45904
 31
0.0
  0
LINE
  8
0
  6
CONTINUOUS
 62
   250
 10
4.895
 20
1.46212
 30
0.0
 11
4.89588
 21
1.46388
 31
0.0
  0
LINE
  8
0
  6
CONTINUOUS
 62
   250
 10
4.89588
 20
1.46388
 30
0.0
 11
4.89676
 21
1.46476
 31
0.0
  0
LINE
  8
0
  6
CONTINUOUS
 62
   250
 10
4.89676
 20
1.46476
 30
0.0
 11
4.89676
 21
1.46608
 31
0.0
  0
LINE
  8
0
  6
CONTINUOUS
 62
   250
 10
4.89676
 20
1.46608
 30
0.0
 11
4.89588
 21
1.46696
 31
0.0
  0
LINE
  8
0
  6
CONTINUOUS
 62
   250
 10
4.89588
 20
1.46696
 30
0.0
 11
4.89544
 21
1.46784
 31
0.0
  0
LINE
  8
0
  6
CONTINUOUS
 62
   250
 10
4.89544
 20
1.46784
 30
0.0
 11
4.89456
 21
1.46828
 31
0.0
  0
LINE
  8
0
  6
CONTINUOUS
 62
   250
 10
4.89456
 20
1.46828
 30
0.0
 11
4.89192
 21
1.46828
 31
0.0
  0
LINE
  8
0
  6
CONTINUOUS
 62
   250
 10
4.89192
 20
1.46828
 30
0.0
 11
4.89104
 21
1.46784
 31
0.0
  0
LINE
  8
0
  6
CONTINUOUS
 62
   250
 10
4.89104
 20
1.46784
 30
0.0
 11
4.8906
 21
1.46696
 31
0.0
  0
LINE
  8
0
  6
CONTINUOUS
 62
   250
 10
4.8906
 20
1.46696
 30
0.0
 11
4.88972
 21
1.46608
 31
0.0
  0
LINE
  8
0
  6
CONTINUOUS
 62
   250
 10
4.88972
 20
1.46608
 30
0.0
 11
4.88972
 21
1.46564
 31
0.0
  0
LINE
  8
0
  6
CONTINUOUS
 62
   250
 10
4.895
 20
1.46212
 30
0.0
 11
4.88928
 21
1.4564
 31
0.0
  0
LINE
  8
0
  6
CONTINUOUS
 62
   250
 10
4.88928
 20
1.4564
 30
0.0
 11
4.8972
 21
1.4564
 31
0.0
  0
LINE
  8
0
  6
CONTINUOUS
 62
   250
 10
4.90072
 20
1.46036
 30
0.0
 11
4.90908
 21
1.46036
 31
0.0
  0
LINE
  8
0
  6
CONTINUOUS
 62
   250
 10
4.906
 20
1.4564
 30
0.0
 11
4.906
 21
1.46828
 31
0.0
  0
LINE
  8
0
  6
CONTINUOUS
 62
   250
 10
4.906
 20
1.46828
 30
0.0
 11
4.90072
 21
1.46036
 31
0.0
  0
LINE
  8
0
  6
CONTINUOUS
 62
   250
 10
4.9214
 20
1.46256
 30
0.0
 11
4.93284
 21
1.46256
 31
0.0
  0
LINE
  8
0
  6
CONTINUOUS
 62
   250
 10
4.87696
 20
1.46256
 30
0.0
 11
4.86552
 21
1.46256
 31
0.0
  0
LINE
  8
0
  6
CONTINUOUS
 62
   250
 10
4.87124
 20
1.46828
 30
0.0
 11
4.87124
 21
1.45684
 31
0.0
  0
LINE
  8
0
  6
CONTINUOUS
 62
   250
 10
4.88928
 20
1.52768
 30
0.0
 11
4.90116
 21
1.52328
 31
0.0
  0
LINE
  8
0
  6
CONTINUOUS
 62
   250
 10
4.8972
 20
1.52504
 30
0.0
 11
4.8972
 21
1.53076
 31
0.0
  0
LINE
  8
0
  6
CONTINUOUS
 62
   250
 10
4.90116
 20
1.53252
 30
0.0
 11
4.88928
 21
1.52768
 31
0.0
  0
LINE
  8
0
  6
CONTINUOUS
 62
   250
 10
4.88928
 20
1.56376
 30
0.0
 11
4.90116
 21
1.56376
 31
0.0
  0
LINE
  8
0
  6
CONTINUOUS
 62
   250
 10
4.90116
 20
1.56376
 30
0.0
 11
4.90116
 21
1.56904
 31
0.0
  0
LINE
  8
0
  6
CONTINUOUS
 62
   250
 10
4.90116
 20
1.56904
 30
0.0
 11
4.90028
 21
1.5708
 31
0.0
  0
LINE
  8
0
  6
CONTINUOUS
 62
   250
 10
4.90028
 20
1.5708
 30
0.0
 11
4.89984
 21
1.57124
 31
0.0
  0
LINE
  8
0
  6
CONTINUOUS
 62
   250
 10
4.89984
 20
1.57124
 30
0.0
 11
4.89852
 21
1.57168
 31
0.0
  0
LINE
  8
0
  6
CONTINUOUS
 62
   250
 10
4.89852
 20
1.57168
 30
0.0
 11
4.8972
 21
1.57168
 31
0.0
  0
LINE
  8
0
  6
CONTINUOUS
 62
   250
 10
4.8972
 20
1.57168
 30
0.0
 11
4.89588
 21
1.57124
 31
0.0
  0
LINE
  8
0
  6
CONTINUOUS
 62
   250
 10
4.89588
 20
1.57124
 30
0.0
 11
4.89544
 21
1.5708
 31
0.0
  0
LINE
  8
0
  6
CONTINUOUS
 62
   250
 10
4.89544
 20
1.5708
 30
0.0
 11
4.895
 21
1.56904
 31
0.0
  0
LINE
  8
0
  6
CONTINUOUS
 62
   250
 10
4.895
 20
1.56904
 30
0.0
 11
4.89412
 21
1.5708
 31
0.0
  0
LINE
  8
0
  6
CONTINUOUS
 62
   250
 10
4.89412
 20
1.5708
 30
0.0
 11
4.89368
 21
1.57124
 31
0.0
  0
LINE
  8
0
  6
CONTINUOUS
 62
   250
 10
4.89368
 20
1.57124
 30
0.0
 11
4.89236
 21
1.57168
 31
0.0
  0
LINE
  8
0
  6
CONTINUOUS
 62
   250
 10
4.89236
 20
1.57168
 30
0.0
 11
4.89148
 21
1.57168
 31
0.0
  0
LINE
  8
0
  6
CONTINUOUS
 62
   250
 10
4.89148
 20
1.57168
 30
0.0
 11
4.89016
 21
1.57124
 31
0.0
  0
LINE
  8
0
  6
CONTINUOUS
 62
   250
 10
4.89016
 20
1.57124
 30
0.0
 11
4.88972
 21
1.5708
 31
0.0
  0
LINE
  8
0
  6
CONTINUOUS
 62
   250
 10
4.88972
 20
1.5708
 30
0.0
 11
4.88928
 21
1.56904
 31
0.0
  0
LINE
  8
0
  6
CONTINUOUS
 62
   250
 10
4.88928
 20
1.56904
 30
0.0
 11
4.88928
 21
1.56376
 31
0.0
  0
LINE
  8
0
  6
CONTINUOUS
 62
   250
 10
4.895
 20
1.56376
 30
0.0
 11
4.895
 21
1.56904
 31
0.0
  0
LINE
  8
0
  6
CONTINUOUS
 62
   250
 10
4.80304
 20
1.58708
 30
0.0
 11
4.77488
 21
1.58708
 31
0.0
  0
LINE
  8
0
  6
CONTINUOUS
 62
   250
 10
4.77488
 20
1.51052
 30
0.0
 11
4.80304
 21
1.51052
 31
0.0
  0
LINE
  8
0
  6
CONTINUOUS
 62
   250
 10
4.86112
 20
1.37588
 30
0.0
 11
4.86112
 21
1.34508
 31
0.0
  0
LINE
  8
0
  6
CONTINUOUS
 62
   250
 10
4.82636
 20
1.31604
 30
0.0
 11
4.82636
 21
1.2672
 31
0.0
  0
LINE
  8
0
  6
CONTINUOUS
 62
   250
 10
4.82636
 20
1.2672
 30
0.0
 11
4.82416
 21
1.26676
 31
0.0
  0
LINE
  8
0
  6
CONTINUOUS
 62
   250
 10
4.82416
 20
1.26676
 30
0.0
 11
4.8224
 21
1.26588
 31
0.0
  0
LINE
  8
0
  6
CONTINUOUS
 62
   250
 10
4.8224
 20
1.26588
 30
0.0
 11
4.82108
 21
1.26456
 31
0.0
  0
LINE
  8
0
  6
CONTINUOUS
 62
   250
 10
4.82108
 20
1.26456
 30
0.0
 11
4.81976
 21
1.26324
 31
0.0
  0
LINE
  8
0
  6
CONTINUOUS
 62
   250
 10
4.81976
 20
1.26324
 30
0.0
 11
4.81888
 21
1.26104
 31
0.0
  0
LINE
  8
0
  6
CONTINUOUS
 62
   250
 10
4.81888
 20
1.26104
 30
0.0
 11
4.81844
 21
1.25928
 31
0.0
  0
LINE
  8
0
  6
CONTINUOUS
 62
   250
 10
4.81844
 20
1.25928
 30
0.0
 11
4.81888
 21
1.25752
 31
0.0
  0
LINE
  8
0
  6
CONTINUOUS
 62
   250
 10
4.81888
 20
1.25752
 30
0.0
 11
4.81976
 21
1.25532
 31
0.0
  0
LINE
  8
0
  6
CONTINUOUS
 62
   250
 10
4.81976
 20
1.25532
 30
0.0
 11
4.82108
 21
1.254
 31
0.0
  0
LINE
  8
0
  6
CONTINUOUS
 62
   250
 10
4.82108
 20
1.254
 30
0.0
 11
4.8224
 21
1.25268
 31
0.0
  0
LINE
  8
0
  6
CONTINUOUS
 62
   250
 10
4.8224
 20
1.25268
 30
0.0
 11
4.82416
 21
1.2518
 31
0.0
  0
LINE
  8
0
  6
CONTINUOUS
 62
   250
 10
4.82416
 20
1.2518
 30
0.0
 11
4.82636
 21
1.2518
 31
0.0
  0
LINE
  8
0
  6
CONTINUOUS
 62
   250
 10
4.82636
 20
1.2518
 30
0.0
 11
4.82636
 21
1.22144
 31
0.0
  0
LINE
  8
0
  6
CONTINUOUS
 62
   250
 10
4.7938
 20
1.25356
 30
0.0
 11
4.7938
 21
1.26544
 31
0.0
  0
LINE
  8
0
  6
CONTINUOUS
 62
   250
 10
4.7938
 20
1.26544
 30
0.0
 11
4.78852
 21
1.25752
 31
0.0
  0
LINE
  8
0
  6
CONTINUOUS
 62
   250
 10
4.78852
 20
1.25752
 30
0.0
 11
4.79644
 21
1.25752
 31
0.0
  0
LINE
  8
0
  6
CONTINUOUS
 62
   250
 10
4.78368
 20
1.25972
 30
0.0
 11
4.78192
 21
1.25884
 31
0.0
  0
LINE
  8
0
  6
CONTINUOUS
 62
   250
 10
4.78192
 20
1.25884
 30
0.0
 11
4.77708
 21
1.25884
 31
0.0
  0
LINE
  8
0
  6
CONTINUOUS
 62
   250
 10
4.77708
 20
1.25356
 30
0.0
 11
4.77708
 21
1.26544
 31
0.0
  0
LINE
  8
0
  6
CONTINUOUS
 62
   250
 10
4.77708
 20
1.26544
 30
0.0
 11
4.78192
 21
1.26544
 31
0.0
  0
LINE
  8
0
  6
CONTINUOUS
 62
   250
 10
4.78192
 20
1.26544
 30
0.0
 11
4.78368
 21
1.26456
 31
0.0
  0
LINE
  8
0
  6
CONTINUOUS
 62
   250
 10
4.78368
 20
1.26456
 30
0.0
 11
4.78412
 21
1.26412
 31
0.0
  0
LINE
  8
0
  6
CONTINUOUS
 62
   250
 10
4.78412
 20
1.26412
 30
0.0
 11
4.785
 21
1.2628
 31
0.0
  0
LINE
  8
0
  6
CONTINUOUS
 62
   250
 10
4.785
 20
1.2628
 30
0.0
 11
4.785
 21
1.26104
 31
0.0
  0
LINE
  8
0
  6
CONTINUOUS
 62
   250
 10
4.785
 20
1.26104
 30
0.0
 11
4.78412
 21
1.26016
 31
0.0
  0
LINE
  8
0
  6
CONTINUOUS
 62
   250
 10
4.78412
 20
1.26016
 30
0.0
 11
4.78368
 21
1.25972
 31
0.0
  0
LINE
  8
0
  6
CONTINUOUS
 62
   250
 10
4.77224
 20
1.2562
 30
0.0
 11
4.7718
 21
1.25444
 31
0.0
  0
LINE
  8
0
  6
CONTINUOUS
 62
   250
 10
4.7718
 20
1.25444
 30
0.0
 11
4.77136
 21
1.254
 31
0.0
  0
LINE
  8
0
  6
CONTINUOUS
 62
   250
 10
4.77136
 20
1.254
 30
0.0
 11
4.77004
 21
1.25356
 31
0.0
  0
LINE
  8
0
  6
CONTINUOUS
 62
   250
 10
4.77004
 20
1.25356
 30
0.0
 11
4.76916
 21
1.25356
 31
0.0
  0
LINE
  8
0
  6
CONTINUOUS
 62
   250
 10
4.76916
 20
1.25356
 30
0.0
 11
4.76784
 21
1.254
 31
0.0
  0
LINE
  8
0
  6
CONTINUOUS
 62
   250
 10
4.76784
 20
1.254
 30
0.0
 11
4.7674
 21
1.25444
 31
0.0
  0
LINE
  8
0
  6
CONTINUOUS
 62
   250
 10
4.7674
 20
1.25444
 30
0.0
 11
4.76696
 21
1.2562
 31
0.0
  0
LINE
  8
0
  6
CONTINUOUS
 62
   250
 10
4.76696
 20
1.2562
 30
0.0
 11
4.76696
 21
1.25752
 31
0.0
  0
LINE
  8
0
  6
CONTINUOUS
 62
   250
 10
4.77224
 20
1.2562
 30
0.0
 11
4.77224
 21
1.26544
 31
0.0
  0
LINE
  8
0
  6
CONTINUOUS
 62
   250
 10
4.74276
 20
1.26456
 30
0.0
 11
4.741
 21
1.26588
 31
0.0
  0
LINE
  8
0
  6
CONTINUOUS
 62
   250
 10
4.741
 20
1.26588
 30
0.0
 11
4.73924
 21
1.26676
 31
0.0
  0
LINE
  8
0
  6
CONTINUOUS
 62
   250
 10
4.73924
 20
1.26676
 30
0.0
 11
4.73704
 21
1.2672
 31
0.0
  0
LINE
  8
0
  6
CONTINUOUS
 62
   250
 10
4.73704
 20
1.2672
 30
0.0
 11
4.73528
 21
1.26676
 31
0.0
  0
LINE
  8
0
  6
CONTINUOUS
 62
   250
 10
4.73528
 20
1.26676
 30
0.0
 11
4.73352
 21
1.26588
 31
0.0
  0
LINE
  8
0
  6
CONTINUOUS
 62
   250
 10
4.73352
 20
1.26588
 30
0.0
 11
4.73176
 21
1.26456
 31
0.0
  0
LINE
  8
0
  6
CONTINUOUS
 62
   250
 10
4.73176
 20
1.26456
 30
0.0
 11
4.73044
 21
1.26324
 31
0.0
  0
LINE
  8
0
  6
CONTINUOUS
 62
   250
 10
4.73044
 20
1.26324
 30
0.0
 11
4.73
 21
1.26104
 31
0.0
  0
LINE
  8
0
  6
CONTINUOUS
 62
   250
 10
4.73
 20
1.26104
 30
0.0
 11
4.72956
 21
1.25928
 31
0.0
  0
LINE
  8
0
  6
CONTINUOUS
 62
   250
 10
4.72956
 20
1.25928
 30
0.0
 11
4.73
 21
1.25752
 31
0.0
  0
LINE
  8
0
  6
CONTINUOUS
 62
   250
 10
4.73
 20
1.25752
 30
0.0
 11
4.73044
 21
1.25532
 31
0.0
  0
LINE
  8
0
  6
CONTINUOUS
 62
   250
 10
4.73044
 20
1.25532
 30
0.0
 11
4.73176
 21
1.254
 31
0.0
  0
LINE
  8
0
  6
CONTINUOUS
 62
   250
 10
4.73176
 20
1.254
 30
0.0
 11
4.73352
 21
1.25268
 31
0.0
  0
LINE
  8
0
  6
CONTINUOUS
 62
   250
 10
4.73352
 20
1.25268
 30
0.0
 11
4.73528
 21
1.2518
 31
0.0
  0
LINE
  8
0
  6
CONTINUOUS
 62
   250
 10
4.73528
 20
1.2518
 30
0.0
 11
4.73704
 21
1.2518
 31
0.0
  0
LINE
  8
0
  6
CONTINUOUS
 62
   250
 10
4.73704
 20
1.2518
 30
0.0
 11
4.73924
 21
1.2518
 31
0.0
  0
LINE
  8
0
  6
CONTINUOUS
 62
   250
 10
4.73924
 20
1.2518
 30
0.0
 11
4.741
 21
1.25268
 31
0.0
  0
LINE
  8
0
  6
CONTINUOUS
 62
   250
 10
4.741
 20
1.25268
 30
0.0
 11
4.74276
 21
1.254
 31
0.0
  0
LINE
  8
0
  6
CONTINUOUS
 62
   250
 10
4.74276
 20
1.254
 30
0.0
 11
4.74408
 21
1.25532
 31
0.0
  0
LINE
  8
0
  6
CONTINUOUS
 62
   250
 10
4.74408
 20
1.25532
 30
0.0
 11
4.74452
 21
1.25752
 31
0.0
  0
LINE
  8
0
  6
CONTINUOUS
 62
   250
 10
4.74452
 20
1.25752
 30
0.0
 11
4.74496
 21
1.25928
 31
0.0
  0
LINE
  8
0
  6
CONTINUOUS
 62
   250
 10
4.74496
 20
1.25928
 30
0.0
 11
4.74452
 21
1.26104
 31
0.0
  0
LINE
  8
0
  6
CONTINUOUS
 62
   250
 10
4.74452
 20
1.26104
 30
0.0
 11
4.74408
 21
1.26324
 31
0.0
  0
LINE
  8
0
  6
CONTINUOUS
 62
   250
 10
4.74408
 20
1.26324
 30
0.0
 11
4.74276
 21
1.26456
 31
0.0
  0
LINE
  8
0
  6
CONTINUOUS
 62
   250
 10
4.73704
 20
1.2672
 30
0.0
 11
4.73704
 21
1.31604
 31
0.0
  0
LINE
  8
0
  6
CONTINUOUS
 62
   250
 10
4.73704
 20
1.2518
 30
0.0
 11
4.73704
 21
1.22144
 31
0.0
  0
LINE
  8
0
  6
CONTINUOUS
 62
   250
 10
4.4198
 20
1.2298
 30
0.0
 11
4.4198
 21
1.34596
 31
0.0
  0
LINE
  8
0
  6
CONTINUOUS
 62
   250
 10
5.03448
 20
1.4564
 30
0.0
 11
5.03448
 21
1.46828
 31
0.0
  0
LINE
  8
0
  6
CONTINUOUS
 62
   250
 10
5.03448
 20
1.46828
 30
0.0
 11
5.03844
 21
1.46828
 31
0.0
  0
LINE
  8
0
  6
CONTINUOUS
 62
   250
 10
5.03844
 20
1.46828
 30
0.0
 11
5.0402
 21
1.46784
 31
0.0
  0
LINE
  8
0
  6
CONTINUOUS
 62
   250
 10
5.0402
 20
1.46784
 30
0.0
 11
5.04108
 21
1.46652
 31
0.0
  0
LINE
  8
0
  6
CONTINUOUS
 62
   250
 10
5.04108
 20
1.46652
 30
0.0
 11
5.04196
 21
1.46564
 31
0.0
  0
LINE
  8
0
  6
CONTINUOUS
 62
   250
 10
5.04196
 20
1.46564
 30
0.0
 11
5.0424
 21
1.46388
 31
0.0
  0
LINE
  8
0
  6
CONTINUOUS
 62
   250
 10
5.0424
 20
1.46388
 30
0.0
 11
5.0424
 21
1.46124
 31
0.0
  0
LINE
  8
0
  6
CONTINUOUS
 62
   250
 10
5.0424
 20
1.46124
 30
0.0
 11
5.04196
 21
1.45948
 31
0.0
  0
LINE
  8
0
  6
CONTINUOUS
 62
   250
 10
5.04196
 20
1.45948
 30
0.0
 11
5.04108
 21
1.45816
 31
0.0
  0
LINE
  8
0
  6
CONTINUOUS
 62
   250
 10
5.04108
 20
1.45816
 30
0.0
 11
5.0402
 21
1.45684
 31
0.0
  0
LINE
  8
0
  6
CONTINUOUS
 62
   250
 10
5.0402
 20
1.45684
 30
0.0
 11
5.03844
 21
1.4564
 31
0.0
  0
LINE
  8
0
  6
CONTINUOUS
 62
   250
 10
5.03844
 20
1.4564
 30
0.0
 11
5.03448
 21
1.4564
 31
0.0
  0
LINE
  8
0
  6
CONTINUOUS
 62
   250
 10
5.04636
 20
1.4564
 30
0.0
 11
5.04636
 21
1.46828
 31
0.0
  0
LINE
  8
0
  6
CONTINUOUS
 62
   250
 10
5.05164
 20
1.46828
 30
0.0
 11
5.05736
 21
1.46828
 31
0.0
  0
LINE
  8
0
  6
CONTINUOUS
 62
   250
 10
5.05736
 20
1.46828
 30
0.0
 11
5.05428
 21
1.46388
 31
0.0
  0
LINE
  8
0
  6
CONTINUOUS
 62
   250
 10
5.05428
 20
1.46388
 30
0.0
 11
5.05604
 21
1.46388
 31
0.0
  0
LINE
  8
0
  6
CONTINUOUS
 62
   250
 10
5.05604
 20
1.46388
 30
0.0
 11
5.05692
 21
1.46344
 31
0.0
  0
LINE
  8
0
  6
CONTINUOUS
 62
   250
 10
5.05692
 20
1.46344
 30
0.0
 11
5.05736
 21
1.46256
 31
0.0
  0
LINE
  8
0
  6
CONTINUOUS
 62
   250
 10
5.05736
 20
1.46256
 30
0.0
 11
5.05824
 21
1.46124
 31
0.0
  0
LINE
  8
0
  6
CONTINUOUS
 62
   250
 10
5.05824
 20
1.46124
 30
0.0
 11
5.05824
 21
1.45992
 31
0.0
  0
LINE
  8
0
  6
CONTINUOUS
 62
   250
 10
5.05824
 20
1.45992
 30
0.0
 11
5.05736
 21
1.45816
 31
0.0
  0
LINE
  8
0
  6
CONTINUOUS
 62
   250
 10
5.05736
 20
1.45816
 30
0.0
 11
5.05648
 21
1.45684
 31
0.0
  0
LINE
  8
0
  6
CONTINUOUS
 62
   250
 10
5.05648
 20
1.45684
 30
0.0
 11
5.05472
 21
1.4564
 31
0.0
  0
LINE
  8
0
  6
CONTINUOUS
 62
   250
 10
5.05472
 20
1.4564
 30
0.0
 11
5.05296
 21
1.4564
 31
0.0
  0
LINE
  8
0
  6
CONTINUOUS
 62
   250
 10
5.05296
 20
1.4564
 30
0.0
 11
5.05164
 21
1.45684
 31
0.0
  0
LINE
  8
0
  6
CONTINUOUS
 62
   250
 10
5.05164
 20
1.45684
 30
0.0
 11
5.05076
 21
1.45772
 31
0.0
  0
LINE
  8
0
  6
CONTINUOUS
 62
   250
 10
5.05076
 20
1.45772
 30
0.0
 11
5.05032
 21
1.4586
 31
0.0
  0
LINE
  8
0
  6
CONTINUOUS
 62
   250
 10
5.06968
 20
1.45948
 30
0.0
 11
5.07012
 21
1.45816
 31
0.0
  0
LINE
  8
0
  6
CONTINUOUS
 62
   250
 10
5.07012
 20
1.45816
 30
0.0
 11
5.07144
 21
1.45684
 31
0.0
  0
LINE
  8
0
  6
CONTINUOUS
 62
   250
 10
5.07144
 20
1.45684
 30
0.0
 11
5.07232
 21
1.4564
 31
0.0
  0
LINE
  8
0
  6
CONTINUOUS
 62
   250
 10
5.07232
 20
1.4564
 30
0.0
 11
5.07452
 21
1.4564
 31
0.0
  0
LINE
  8
0
  6
CONTINUOUS
 62
   250
 10
5.07452
 20
1.4564
 30
0.0
 11
5.07584
 21
1.45684
 31
0.0
  0
LINE
  8
0
  6
CONTINUOUS
 62
   250
 10
5.07584
 20
1.45684
 30
0.0
 11
5.07716
 21
1.45816
 31
0.0
  0
LINE
  8
0
  6
CONTINUOUS
 62
   250
 10
5.07716
 20
1.45816
 30
0.0
 11
5.0776
 21
1.45948
 31
0.0
  0
LINE
  8
0
  6
CONTINUOUS
 62
   250
 10
5.0776
 20
1.45948
 30
0.0
 11
5.07804
 21
1.46124
 31
0.0
  0
LINE
  8
0
  6
CONTINUOUS
 62
   250
 10
5.07804
 20
1.46124
 30
0.0
 11
5.07804
 21
1.46388
 31
0.0
  0
LINE
  8
0
  6
CONTINUOUS
 62
   250
 10
5.07804
 20
1.46388
 30
0.0
 11
5.0776
 21
1.46564
 31
0.0
  0
LINE
  8
0
  6
CONTINUOUS
 62
   250
 10
5.0776
 20
1.46564
 30
0.0
 11
5.07716
 21
1.46652
 31
0.0
  0
LINE
  8
0
  6
CONTINUOUS
 62
   250
 10
5.07716
 20
1.46652
 30
0.0
 11
5.07584
 21
1.46784
 31
0.0
  0
LINE
  8
0
  6
CONTINUOUS
 62
   250
 10
5.07584
 20
1.46784
 30
0.0
 11
5.07452
 21
1.46828
 31
0.0
  0
LINE
  8
0
  6
CONTINUOUS
 62
   250
 10
5.07452
 20
1.46828
 30
0.0
 11
5.07232
 21
1.46828
 31
0.0
  0
LINE
  8
0
  6
CONTINUOUS
 62
   250
 10
5.07232
 20
1.46828
 30
0.0
 11
5.07144
 21
1.46784
 31
0.0
  0
LINE
  8
0
  6
CONTINUOUS
 62
   250
 10
5.07144
 20
1.46784
 30
0.0
 11
5.07012
 21
1.46652
 31
0.0
  0
LINE
  8
0
  6
CONTINUOUS
 62
   250
 10
5.07012
 20
1.46652
 30
0.0
 11
5.06968
 21
1.46564
 31
0.0
  0
LINE
  8
0
  6
CONTINUOUS
 62
   250
 10
5.06968
 20
1.46564
 30
0.0
 11
5.06924
 21
1.46388
 31
0.0
  0
LINE
  8
0
  6
CONTINUOUS
 62
   250
 10
5.06924
 20
1.46388
 30
0.0
 11
5.06924
 21
1.46124
 31
0.0
  0
LINE
  8
0
  6
CONTINUOUS
 62
   250
 10
5.06924
 20
1.46124
 30
0.0
 11
5.06968
 21
1.45948
 31
0.0
  0
LINE
  8
0
  6
CONTINUOUS
 62
   250
 10
5.08464
 20
1.4564
 30
0.0
 11
5.08024
 21
1.46828
 31
0.0
  0
LINE
  8
0
  6
CONTINUOUS
 62
   250
 10
5.08948
 20
1.46828
 30
0.0
 11
5.08464
 21
1.4564
 31
0.0
  0
LINE
  8
0
  6
CONTINUOUS
 62
   250
 10
5.09212
 20
1.4564
 30
0.0
 11
5.09212
 21
1.46828
 31
0.0
  0
LINE
  8
0
  6
CONTINUOUS
 62
   250
 10
5.09212
 20
1.46828
 30
0.0
 11
5.0974
 21
1.46828
 31
0.0
  0
LINE
  8
0
  6
CONTINUOUS
 62
   250
 10
5.0974
 20
1.46828
 30
0.0
 11
5.09872
 21
1.46784
 31
0.0
  0
LINE
  8
0
  6
CONTINUOUS
 62
   250
 10
5.09872
 20
1.46784
 30
0.0
 11
5.0996
 21
1.46696
 31
0.0
  0
LINE
  8
0
  6
CONTINUOUS
 62
   250
 10
5.0996
 20
1.46696
 30
0.0
 11
5.10004
 21
1.46608
 31
0.0
  0
LINE
  8
0
  6
CONTINUOUS
 62
   250
 10
5.10004
 20
1.46608
 30
0.0
 11
5.10004
 21
1.46476
 31
0.0
  0
LINE
  8
0
  6
CONTINUOUS
 62
   250
 10
5.10004
 20
1.46476
 30
0.0
 11
5.0996
 21
1.46388
 31
0.0
  0
LINE
  8
0
  6
CONTINUOUS
 62
   250
 10
5.0996
 20
1.46388
 30
0.0
 11
5.09872
 21
1.46344
 31
0.0
  0
LINE
  8
0
  6
CONTINUOUS
 62
   250
 10
5.09872
 20
1.46344
 30
0.0
 11
5.0974
 21
1.46256
 31
0.0
  0
LINE
  8
0
  6
CONTINUOUS
 62
   250
 10
5.0974
 20
1.46256
 30
0.0
 11
5.09212
 21
1.46256
 31
0.0
  0
LINE
  8
0
  6
CONTINUOUS
 62
   250
 10
5.09608
 20
1.46256
 30
0.0
 11
5.10004
 21
1.4564
 31
0.0
  0
LINE
  8
0
  6
CONTINUOUS
 62
   250
 10
5.1194
 20
1.4564
 30
0.0
 11
5.1194
 21
1.46828
 31
0.0
  0
LINE
  8
0
  6
CONTINUOUS
 62
   250
 10
5.11544
 20
1.46828
 30
0.0
 11
5.12336
 21
1.46828
 31
0.0
  0
LINE
  8
0
  6
CONTINUOUS
 62
   250
 10
5.12732
 20
1.46608
 30
0.0
 11
5.12864
 21
1.46652
 31
0.0
  0
LINE
  8
0
  6
CONTINUOUS
 62
   250
 10
5.12864
 20
1.46652
 30
0.0
 11
5.1304
 21
1.46828
 31
0.0
  0
LINE
  8
0
  6
CONTINUOUS
 62
   250
 10
5.1304
 20
1.46828
 30
0.0
 11
5.1304
 21
1.4564
 31
0.0
  0
LINE
  8
0
  6
CONTINUOUS
 62
   250
 10
5.15812
 20
1.4564
 30
0.0
 11
5.15812
 21
1.46828
 31
0.0
  0
LINE
  8
0
  6
CONTINUOUS
 62
   250
 10
5.16208
 20
1.46828
 30
0.0
 11
5.15416
 21
1.46828
 31
0.0
  0
LINE
  8
0
  6
CONTINUOUS
 62
   250
 10
5.16604
 20
1.46608
 30
0.0
 11
5.16692
 21
1.46652
 31
0.0
  0
LINE
  8
0
  6
CONTINUOUS
 62
   250
 10
5.16692
 20
1.46652
 30
0.0
 11
5.16868
 21
1.46828
 31
0.0
  0
LINE
  8
0
  6
CONTINUOUS
 62
   250
 10
5.16868
 20
1.46828
 30
0.0
 11
5.16868
 21
1.4564
 31
0.0
  0
LINE
  8
0
  6
CONTINUOUS
 62
   250
 10
5.64344
 20
1.73228
 30
0.0
 11
5.6496
 21
1.73228
 31
0.0
  0
LINE
  8
0
  6
CONTINUOUS
 62
   250
 10
5.6496
 20
1.77012
 30
0.0
 11
5.64344
 21
1.77012
 31
0.0
  0
ENDSEC
  0
EOF
