  0
SECTION
  2
HEADER
  9
$ACADVER
  1
AC1009
  9
$INSBASE
 10
0.0
 20
0.0
 30
0.0
  9
$EXTMIN
 10
2.64616
 20
1.1946
 30
0.0
  9
$EXTMAX
 10
3.94592
 20
1.89508
 30
0.0
  9
$LIMMIN
 10
0.0
 20
0.0
  9
$LIMMAX
 10
12.0
 20
9.0
  9
$ORTHOMODE
 70
     0
  9
$REGENMODE
 70
     1
  9
$FILLMODE
 70
     1
  9
$QTEXTMODE
 70
     0
  9
$MIRRTEXT
 70
     1
  9
$DRAGMODE
 70
     2
  9
$LTSCALE
 40
0.044
  9
$OSMODE
 70
     0
  9
$ATTMODE
 70
     1
  9
$TEXTSIZE
 40
0.2
  9
$TRACEWID
 40
0.05
  9
$TEXTSTYLE
  7
STANDARD
  9
$CLAYER
  8
0
  9
$CELTYPE
  6
BYLAYER
  9
$CECOLOR
 62
   256
  9
$DIMSCALE
 40
1.0
  9
$DIMASZ
 40
0.18
  9
$DIMEXO
 40
0.0625
  9
$DIMDLI
 40
0.38
  9
$DIMRND
 40
0.0
  9
$DIMDLE
 40
0.0
  9
$DIMEXE
 40
0.18
  9
$DIMTP
 40
0.0
  9
$DIMTM
 40
0.0
  9
$DIMTXT
 40
0.18
  9
$DIMCEN
 40
0.09
  9
$DIMTSZ
 40
0.0
  9
$DIMTOL
 70
     0
  9
$DIMLIM
 70
     0
  9
$DIMTIH
 70
     1
  9
$DIMTOH
 70
     1
  9
$DIMSE1
 70
     0
  9
$DIMSE2
 70
     0
  9
$DIMTAD
 70
     0
  9
$DIMZIN
 70
     0
  9
$DIMBLK
  1

  9
$DIMASO
 70
     1
  9
$DIMSHO
 70
     1
  9
$DIMPOST
  1

  9
$DIMAPOST
  1

  9
$DIMALT
 70
     0
  9
$DIMALTD
 70
     2
  9
$DIMALTF
 40
25.4
  9
$DIMLFAC
 40
1.0
  9
$DIMTOFL
 70
     0
  9
$DIMTVP
 40
0.0
  9
$DIMTIX
 70
     0
  9
$DIMSOXD
 70
     0
  9
$DIMSAH
 70
     0
  9
$DIMBLK1
  1

  9
$DIMBLK2
  1

  9
$DIMSTYLE
  2
*UNNAMED
  9
$DIMCLRD
 70
     0
  9
$DIMCLRE
 70
     0
  9
$DIMCLRT
 70
     0
  9
$DIMTFAC
 40
1.0
  9
$DIMGAP
 40
0.09
  9
$LUNITS
 70
     2
  9
$LUPREC
 70
     4
  9
$SKETCHINC
 40
0.1
  9
$FILLETRAD
 40
0.0
  9
$AUNITS
 70
     0
  9
$AUPREC
 70
     0
  9
$MENU
  1
acad
  9
$ELEVATION
 40
0.0
  9
$PELEVATION
 40
0.0
  9
$THICKNESS
 40
0.0
  9
$LIMCHECK
 70
     0
  9
$BLIPMODE
 70
     0
  9
$CHAMFERA
 40
0.0
  9
$CHAMFERB
 40
0.0
  9
$SKPOLY
 70
     0
  9
$TDCREATE
 40
2451092.590155324
  9
$TDUPDATE
 40
2451092.590155324
  9
$TDINDWG
 40
0.0000000000
  9
$TDUSRTIMER
 40
0.0000000000
  9
$USRTIMER
 70
     1
  9
$ANGBASE
 50
0.0
  9
$ANGDIR
 70
     0
  9
$PDMODE
 70
    35
  9
$PDSIZE
 40
0.0352
  9
$PLINEWID
 40
0.0
  9
$COORDS
 70
     1
  9
$SPLFRAME
 70
     0
  9
$SPLINETYPE
 70
     6
  9
$SPLINESEGS
 70
     8
  9
$ATTDIA
 70
     0
  9
$ATTREQ
 70
     1
  9
$HANDLING
 70
     0
  9
$HANDSEED
  5
0
  9
$SURFTAB1
 70
     6
  9
$SURFTAB2
 70
     6
  9
$SURFTYPE
 70
     6
  9
$SURFU
 70
     6
  9
$SURFV
 70
     6
  9
$UCSNAME
  2

  9
$UCSORG
 10
0.0
 20
0.0
 30
0.0
  9
$UCSXDIR
 10
1.0
 20
0.0
 30
0.0
  9
$UCSYDIR
 10
0.0
 20
1.0
 30
0.0
  9
$PUCSNAME
  2

  9
$PUCSORG
 10
0.0
 20
0.0
 30
0.0
  9
$PUCSXDIR
 10
1.0
 20
0.0
 30
0.0
  9
$PUCSYDIR
 10
0.0
 20
1.0
 30
0.0
  9
$USERI1
 70
     0
  9
$USERI2
 70
     0
  9
$USERI3
 70
     0
  9
$USERI4
 70
     0
  9
$USERI5
 70
     0
  9
$USERR1
 40
0.0
  9
$USERR2
 40
0.0
  9
$USERR3
 40
0.0
  9
$USERR4
 40
0.0
  9
$USERR5
 40
0.0
  9
$WORLDVIEW
 70
     1
  9
$SHADEDGE
 70
     3
  9
$SHADEDIF
 70
    70
  9
$TILEMODE
 70
     1
  9
$MAXACTVP
 70
    16
  9
$PINSBASE
 10
0.0
 20
0.0
 30
0.0
  9
$PLIMCHECK
 70
     0
  9
$PEXTMIN
 10
1.000000E+20
 20
1.000000E+20
 30
1.000000E+20
  9
$PEXTMAX
 10
-1.000000E+20
 20
-1.000000E+20
 30
-1.000000E+20
  9
$PLIMMIN
 10
0.0
 20
0.0
  9
$PLIMMAX
 10
12.0
 20
9.0
  9
$UNITMODE
 70
     0
  9
$VISRETAIN
 70
     0
  9
$PLINEGEN
 70
     0
  9
$PSLTSCALE
 70
     1
  9
$TREEDEPTH
 70
  3020
  9
$DWGCODEPAGE
  3
ascii
  0
ENDSEC
  0
SECTION
  2
TABLES
  0
TABLE
  2
VPORT
 70
     2
  0
VPORT
  2
*ACTIVE
 70
     0
 10
0.0
 20
0.0
 11
1.0
 21
1.0
 12
6.243341
 22
4.5
 13
0.0
 23
0.0
 14
1.0
 24
1.0
 15
0.0
 25
0.0
 16
0.0
 26
0.0
 36
1.0
 17
0.0
 27
0.0
 37
0.0
 40
9.0
 41
1.387409
 42
50.0
 43
0.0
 44
0.0
 50
0.0
 51
0.0
 71
     0
 72
   100
 73
     1
 74
     1
 75
     0
 76
     0
 77
     0
 78
     0
  0
ENDTAB
  0
TABLE
  2
LTYPE
 70
    10
  0
LTYPE
  2
CONTINUOUS
 70
    64
  3
Solid line
 72
    65
 73
     0
 40
0.0
  0
LTYPE
  2
DASHED
 70
    64
  3
__ __ __ __ __ __ __ __ __ __ __ __ __ __ __
 72
    65
 73
     2
 40
0.00033
 49
0.00022
 49
-0.00011
  0
LTYPE
  2
HIDDEN
 70
    64
  3
 _ _ _ _ _ _ _ _ _ _ _ _ _ _ _ _ _ _ _ _ _ _
 72
    65
 73
     2
 40
0.000165
 49
0.00011
 49
-0.000055
  0
LTYPE
  2
CENTER
 70
    64
  3
____ _ ____ _ ____ _ ____ _ ____ _ ____ _ ____
 72
    65
 73
     4
 40
0.00088
 49
0.00055
 49
-0.00011
 49
0.00011
 49
-0.00011
  0
LTYPE
  2
PHANTOM
 70
    64
  3
_____ _ _ _____ _ _ _____ _ _ _____ _ _ ____
 72
    65
 73
     6
 40
0.0011
 49
0.00055
 49
-0.00011
 49
0.00011
 49
-0.00011
 49
0.00011
 49
-0.00011
  0
LTYPE
  2
DOT
 70
    64
  3
...............................................
 72
    65
 73
     2
 40
0.00011
 49
0.0
 49
-0.00011
  0
LTYPE
  2
DASHDOT
 70
    64
  3
__ . __ . __ . __ . __ . __ . __ . __ . __ . __
 72
    65
 73
     4
 40
0.00044
 49
0.00022
 49
-0.00011
 49
0.0
 49
-0.00011
  0
LTYPE
  2
BORDER
 70
    64
  3
__ __ . __ __ . __ __ . __ __ . __ __ . __ __
 72
    65
 73
     6
 40
0.00077
 49
0.00022
 49
-0.00011
 49
0.00022
 49
-0.00011
 49
0.0
 49
-0.00011
  0
LTYPE
  2
DIVIDE
 70
    64
  3
__ . . __ . . __ . . __ . . __ . . __ . . __
 72
    65
 73
     6
 40
0.00055
 49
0.00022
 49
-0.00011
 49
0.0
 49
-0.00011
 49
0.0
 49
-0.00011
  0
LTYPE
  2
DOTDOT
 70
    64
  3
 . .  . .  . .  . .  . .  . . 
 72
    65
 73
     5
 40
0.000242
 49
-0.00011
 49
0.0
 49
-0.00011
 49
0.0
 49
-0.00011
  0
ENDTAB
  0
TABLE
  2
LAYER
 70
     3
  0
LAYER
  2
0
 70
    64
 62
     7
  6
CONTINUOUS
  0
LAYER
  2
FOREGROUND
 70
    64
 62
     7
  6
CONTINUOUS
  0
LAYER
  2
BACKGROUND
 70
    65
 62
    -7
  6
CONTINUOUS
  0
ENDTAB
  0
TABLE
  2
STYLE
 70
     1
  0
STYLE
  2
STANDARD
 70
     0
 40
0.0
 41
1.0
 50
0.0
 71
     0
 42
0.2
  3
txt
  4

  0
ENDTAB
  0
TABLE
  2
VIEW
 70
     0
  0
ENDTAB
  0
TABLE
  2
UCS
 70
     0
  0
ENDTAB
  0
TABLE
  2
APPID
 70
     1
  0
APPID
  2
ACAD
 70
    64
  0
ENDTAB
  0
TABLE
  2
DIMSTYLE
 70
     0
  0
ENDTAB
  0
ENDSEC
  0
SECTION
  2
BLOCKS
  0
ENDSEC
  0
SECTION
  2
ENTITIES
  0
LINE
  8
0
  6
CONTINUOUS
 62
   250
 10
3.7444
 20
1.3772
 30
0.0
 11
3.7818
 21
1.4146
 31
0.0
  0
LINE
  8
0
  6
CONTINUOUS
 62
   250
 10
3.75496
 20
1.44188
 30
0.0
 11
3.71756
 21
1.40404
 31
0.0
  0
LINE
  8
0
  6
CONTINUOUS
 62
   250
 10
3.64848
 20
1.54616
 30
0.0
 11
3.64848
 21
1.55056
 31
0.0
  0
LINE
  8
0
  6
CONTINUOUS
 62
   250
 10
3.64848
 20
1.55056
 30
0.0
 11
3.6476
 21
1.55452
 31
0.0
  0
LINE
  8
0
  6
CONTINUOUS
 62
   250
 10
3.6476
 20
1.55452
 30
0.0
 11
3.64628
 21
1.55892
 31
0.0
  0
LINE
  8
0
  6
CONTINUOUS
 62
   250
 10
3.64628
 20
1.55892
 30
0.0
 11
3.64496
 21
1.56288
 31
0.0
  0
LINE
  8
0
  6
CONTINUOUS
 62
   250
 10
3.64496
 20
1.56288
 30
0.0
 11
3.64276
 21
1.56684
 31
0.0
  0
LINE
  8
0
  6
CONTINUOUS
 62
   250
 10
3.64276
 20
1.56684
 30
0.0
 11
3.64012
 21
1.57036
 31
0.0
  0
LINE
  8
0
  6
CONTINUOUS
 62
   250
 10
3.64012
 20
1.57036
 30
0.0
 11
3.63704
 21
1.57388
 31
0.0
  0
LINE
  8
0
  6
CONTINUOUS
 62
   250
 10
3.63704
 20
1.57388
 30
0.0
 11
3.63396
 21
1.57652
 31
0.0
  0
LINE
  8
0
  6
CONTINUOUS
 62
   250
 10
3.63396
 20
1.57652
 30
0.0
 11
3.63
 21
1.57916
 31
0.0
  0
LINE
  8
0
  6
CONTINUOUS
 62
   250
 10
3.63
 20
1.57916
 30
0.0
 11
3.62648
 21
1.58136
 31
0.0
  0
LINE
  8
0
  6
CONTINUOUS
 62
   250
 10
3.62648
 20
1.58136
 30
0.0
 11
3.62208
 21
1.58312
 31
0.0
  0
LINE
  8
0
  6
CONTINUOUS
 62
   250
 10
3.62208
 20
1.58312
 30
0.0
 11
3.61812
 21
1.58444
 31
0.0
  0
LINE
  8
0
  6
CONTINUOUS
 62
   250
 10
3.61812
 20
1.58444
 30
0.0
 11
3.61372
 21
1.58488
 31
0.0
  0
LINE
  8
0
  6
CONTINUOUS
 62
   250
 10
3.61372
 20
1.58488
 30
0.0
 11
3.60932
 21
1.58532
 31
0.0
  0
LINE
  8
0
  6
CONTINUOUS
 62
   250
 10
3.60932
 20
1.58532
 30
0.0
 11
3.60492
 21
1.58488
 31
0.0
  0
LINE
  8
0
  6
CONTINUOUS
 62
   250
 10
3.60492
 20
1.58488
 30
0.0
 11
3.60052
 21
1.58444
 31
0.0
  0
LINE
  8
0
  6
CONTINUOUS
 62
   250
 10
3.60052
 20
1.58444
 30
0.0
 11
3.59656
 21
1.58312
 31
0.0
  0
LINE
  8
0
  6
CONTINUOUS
 62
   250
 10
3.59656
 20
1.58312
 30
0.0
 11
3.59216
 21
1.58136
 31
0.0
  0
LINE
  8
0
  6
CONTINUOUS
 62
   250
 10
3.59216
 20
1.58136
 30
0.0
 11
3.5882
 21
1.57916
 31
0.0
  0
LINE
  8
0
  6
CONTINUOUS
 62
   250
 10
3.5882
 20
1.57916
 30
0.0
 11
3.58468
 21
1.57652
 31
0.0
  0
LINE
  8
0
  6
CONTINUOUS
 62
   250
 10
3.58468
 20
1.57652
 30
0.0
 11
3.5816
 21
1.57388
 31
0.0
  0
LINE
  8
0
  6
CONTINUOUS
 62
   250
 10
3.5816
 20
1.57388
 30
0.0
 11
3.57852
 21
1.57036
 31
0.0
  0
LINE
  8
0
  6
CONTINUOUS
 62
   250
 10
3.57852
 20
1.57036
 30
0.0
 11
3.57588
 21
1.56684
 31
0.0
  0
LINE
  8
0
  6
CONTINUOUS
 62
   250
 10
3.57588
 20
1.56684
 30
0.0
 11
3.57368
 21
1.56288
 31
0.0
  0
LINE
  8
0
  6
CONTINUOUS
 62
   250
 10
3.57368
 20
1.56288
 30
0.0
 11
3.57236
 21
1.55892
 31
0.0
  0
LINE
  8
0
  6
CONTINUOUS
 62
   250
 10
3.57236
 20
1.55892
 30
0.0
 11
3.57104
 21
1.55452
 31
0.0
  0
LINE
  8
0
  6
CONTINUOUS
 62
   250
 10
3.57104
 20
1.55452
 30
0.0
 11
3.57016
 21
1.55056
 31
0.0
  0
LINE
  8
0
  6
CONTINUOUS
 62
   250
 10
3.57016
 20
1.55056
 30
0.0
 11
3.57016
 21
1.54616
 31
0.0
  0
LINE
  8
0
  6
CONTINUOUS
 62
   250
 10
3.57016
 20
1.54616
 30
0.0
 11
3.57016
 21
1.54176
 31
0.0
  0
LINE
  8
0
  6
CONTINUOUS
 62
   250
 10
3.57016
 20
1.54176
 30
0.0
 11
3.57104
 21
1.53736
 31
0.0
  0
LINE
  8
0
  6
CONTINUOUS
 62
   250
 10
3.57104
 20
1.53736
 30
0.0
 11
3.57236
 21
1.53296
 31
0.0
  0
LINE
  8
0
  6
CONTINUOUS
 62
   250
 10
3.57236
 20
1.53296
 30
0.0
 11
3.57368
 21
1.529
 31
0.0
  0
LINE
  8
0
  6
CONTINUOUS
 62
   250
 10
3.57368
 20
1.529
 30
0.0
 11
3.57588
 21
1.52504
 31
0.0
  0
LINE
  8
0
  6
CONTINUOUS
 62
   250
 10
3.57588
 20
1.52504
 30
0.0
 11
3.57852
 21
1.52152
 31
0.0
  0
LINE
  8
0
  6
CONTINUOUS
 62
   250
 10
3.57852
 20
1.52152
 30
0.0
 11
3.5816
 21
1.518
 31
0.0
  0
LINE
  8
0
  6
CONTINUOUS
 62
   250
 10
3.5816
 20
1.518
 30
0.0
 11
3.58468
 21
1.51536
 31
0.0
  0
LINE
  8
0
  6
CONTINUOUS
 62
   250
 10
3.58468
 20
1.51536
 30
0.0
 11
3.5882
 21
1.51272
 31
0.0
  0
LINE
  8
0
  6
CONTINUOUS
 62
   250
 10
3.5882
 20
1.51272
 30
0.0
 11
3.59216
 21
1.51052
 31
0.0
  0
LINE
  8
0
  6
CONTINUOUS
 62
   250
 10
3.59216
 20
1.51052
 30
0.0
 11
3.59656
 21
1.50876
 31
0.0
  0
LINE
  8
0
  6
CONTINUOUS
 62
   250
 10
3.59656
 20
1.50876
 30
0.0
 11
3.60052
 21
1.50788
 31
0.0
  0
LINE
  8
0
  6
CONTINUOUS
 62
   250
 10
3.60052
 20
1.50788
 30
0.0
 11
3.60492
 21
1.507
 31
0.0
  0
LINE
  8
0
  6
CONTINUOUS
 62
   250
 10
3.60492
 20
1.507
 30
0.0
 11
3.60932
 21
1.50656
 31
0.0
  0
LINE
  8
0
  6
CONTINUOUS
 62
   250
 10
3.60932
 20
1.50656
 30
0.0
 11
3.61372
 21
1.507
 31
0.0
  0
LINE
  8
0
  6
CONTINUOUS
 62
   250
 10
3.61372
 20
1.507
 30
0.0
 11
3.61812
 21
1.50788
 31
0.0
  0
LINE
  8
0
  6
CONTINUOUS
 62
   250
 10
3.61812
 20
1.50788
 30
0.0
 11
3.62208
 21
1.50876
 31
0.0
  0
LINE
  8
0
  6
CONTINUOUS
 62
   250
 10
3.62208
 20
1.50876
 30
0.0
 11
3.62648
 21
1.51052
 31
0.0
  0
LINE
  8
0
  6
CONTINUOUS
 62
   250
 10
3.62648
 20
1.51052
 30
0.0
 11
3.63
 21
1.51272
 31
0.0
  0
LINE
  8
0
  6
CONTINUOUS
 62
   250
 10
3.63
 20
1.51272
 30
0.0
 11
3.63396
 21
1.51536
 31
0.0
  0
LINE
  8
0
  6
CONTINUOUS
 62
   250
 10
3.63396
 20
1.51536
 30
0.0
 11
3.63704
 21
1.518
 31
0.0
  0
LINE
  8
0
  6
CONTINUOUS
 62
   250
 10
3.63704
 20
1.518
 30
0.0
 11
3.64012
 21
1.52152
 31
0.0
  0
LINE
  8
0
  6
CONTINUOUS
 62
   250
 10
3.64012
 20
1.52152
 30
0.0
 11
3.64276
 21
1.52504
 31
0.0
  0
LINE
  8
0
  6
CONTINUOUS
 62
   250
 10
3.64276
 20
1.52504
 30
0.0
 11
3.64496
 21
1.529
 31
0.0
  0
LINE
  8
0
  6
CONTINUOUS
 62
   250
 10
3.64496
 20
1.529
 30
0.0
 11
3.64628
 21
1.53296
 31
0.0
  0
LINE
  8
0
  6
CONTINUOUS
 62
   250
 10
3.64628
 20
1.53296
 30
0.0
 11
3.6476
 21
1.53736
 31
0.0
  0
LINE
  8
0
  6
CONTINUOUS
 62
   250
 10
3.6476
 20
1.53736
 30
0.0
 11
3.64848
 21
1.54176
 31
0.0
  0
LINE
  8
0
  6
CONTINUOUS
 62
   250
 10
3.64848
 20
1.54176
 30
0.0
 11
3.64848
 21
1.54616
 31
0.0
  0
LINE
  8
0
  6
CONTINUOUS
 62
   250
 10
3.88388
 20
1.749
 30
0.0
 11
3.88388
 21
1.75692
 31
0.0
  0
LINE
  8
0
  6
CONTINUOUS
 62
   250
 10
3.88388
 20
1.75692
 30
0.0
 11
3.91248
 21
1.75692
 31
0.0
  0
LINE
  8
0
  6
CONTINUOUS
 62
   250
 10
3.91248
 20
1.75692
 30
0.0
 11
3.91248
 21
1.88056
 31
0.0
  0
LINE
  8
0
  6
CONTINUOUS
 62
   250
 10
3.91248
 20
1.88056
 30
0.0
 11
2.7258
 21
1.88056
 31
0.0
  0
LINE
  8
0
  6
CONTINUOUS
 62
   250
 10
2.7258
 20
1.88056
 30
0.0
 11
2.7258
 21
1.3618
 31
0.0
  0
LINE
  8
0
  6
CONTINUOUS
 62
   250
 10
2.7258
 20
1.3464
 30
0.0
 11
2.7258
 21
1.20868
 31
0.0
  0
LINE
  8
0
  6
CONTINUOUS
 62
   250
 10
2.7258
 20
1.20868
 30
0.0
 11
3.91248
 21
1.20868
 31
0.0
  0
LINE
  8
0
  6
CONTINUOUS
 62
   250
 10
3.91248
 20
1.20868
 30
0.0
 11
3.91248
 21
1.2628
 31
0.0
  0
LINE
  8
0
  6
CONTINUOUS
 62
   250
 10
3.91248
 20
1.2628
 30
0.0
 11
3.88388
 21
1.2628
 31
0.0
  0
LINE
  8
0
  6
CONTINUOUS
 62
   250
 10
3.88388
 20
1.2628
 30
0.0
 11
3.88388
 21
1.27072
 31
0.0
  0
LINE
  8
0
  6
CONTINUOUS
 62
   250
 10
3.88388
 20
1.27072
 30
0.0
 11
3.91248
 21
1.27072
 31
0.0
  0
LINE
  8
0
  6
CONTINUOUS
 62
   250
 10
3.91248
 20
1.27072
 30
0.0
 11
3.91248
 21
1.749
 31
0.0
  0
LINE
  8
0
  6
CONTINUOUS
 62
   250
 10
3.91248
 20
1.749
 30
0.0
 11
3.88388
 21
1.749
 31
0.0
  0
LINE
  8
0
  6
CONTINUOUS
 62
   250
 10
3.91556
 20
1.7534
 30
0.0
 11
3.91556
 21
1.7644
 31
0.0
  0
LINE
  8
0
  6
CONTINUOUS
 62
   250
 10
3.91556
 20
1.7644
 30
0.0
 11
3.94592
 21
1.7644
 31
0.0
  0
LINE
  8
0
  6
CONTINUOUS
 62
   250
 10
3.94592
 20
1.7644
 30
0.0
 11
3.94592
 21
1.78376
 31
0.0
  0
LINE
  8
0
  6
CONTINUOUS
 62
   250
 10
3.94592
 20
1.78376
 30
0.0
 11
3.91556
 21
1.78376
 31
0.0
  0
LINE
  8
0
  6
CONTINUOUS
 62
   250
 10
3.91556
 20
1.78376
 30
0.0
 11
3.91556
 21
1.7952
 31
0.0
  0
LINE
  8
0
  6
CONTINUOUS
 62
   250
 10
3.91556
 20
1.7952
 30
0.0
 11
3.92656
 21
1.7952
 31
0.0
  0
LINE
  8
0
  6
CONTINUOUS
 62
   250
 10
3.92656
 20
1.7952
 30
0.0
 11
3.92656
 21
1.89508
 31
0.0
  0
LINE
  8
0
  6
CONTINUOUS
 62
   250
 10
3.92656
 20
1.89508
 30
0.0
 11
2.71128
 21
1.89508
 31
0.0
  0
LINE
  8
0
  6
CONTINUOUS
 62
   250
 10
2.71128
 20
1.89508
 30
0.0
 11
2.71128
 21
1.87352
 31
0.0
  0
LINE
  8
0
  6
CONTINUOUS
 62
   250
 10
2.71128
 20
1.87352
 30
0.0
 11
2.66508
 21
1.87352
 31
0.0
  0
LINE
  8
0
  6
CONTINUOUS
 62
   250
 10
2.66508
 20
1.87352
 30
0.0
 11
2.66508
 21
1.7952
 31
0.0
  0
LINE
  8
0
  6
CONTINUOUS
 62
   250
 10
2.66508
 20
1.7952
 30
0.0
 11
2.67652
 21
1.7952
 31
0.0
  0
LINE
  8
0
  6
CONTINUOUS
 62
   250
 10
2.67652
 20
1.7952
 30
0.0
 11
2.67652
 21
1.78376
 31
0.0
  0
LINE
  8
0
  6
CONTINUOUS
 62
   250
 10
2.67652
 20
1.78376
 30
0.0
 11
2.64616
 21
1.78376
 31
0.0
  0
LINE
  8
0
  6
CONTINUOUS
 62
   250
 10
2.64616
 20
1.78376
 30
0.0
 11
2.64616
 21
1.7644
 31
0.0
  0
LINE
  8
0
  6
CONTINUOUS
 62
   250
 10
2.64616
 20
1.7644
 30
0.0
 11
2.67652
 21
1.7644
 31
0.0
  0
LINE
  8
0
  6
CONTINUOUS
 62
   250
 10
2.67652
 20
1.7644
 30
0.0
 11
2.67652
 21
1.7534
 31
0.0
  0
LINE
  8
0
  6
CONTINUOUS
 62
   250
 10
2.67652
 20
1.7534
 30
0.0
 11
2.66508
 21
1.7534
 31
0.0
  0
LINE
  8
0
  6
CONTINUOUS
 62
   250
 10
2.66508
 20
1.7534
 30
0.0
 11
2.66508
 21
1.32396
 31
0.0
  0
LINE
  8
0
  6
CONTINUOUS
 62
   250
 10
2.66508
 20
1.32396
 30
0.0
 11
2.67652
 21
1.32396
 31
0.0
  0
LINE
  8
0
  6
CONTINUOUS
 62
   250
 10
2.67652
 20
1.32396
 30
0.0
 11
2.67652
 21
1.31252
 31
0.0
  0
LINE
  8
0
  6
CONTINUOUS
 62
   250
 10
2.67652
 20
1.31252
 30
0.0
 11
2.64616
 21
1.31252
 31
0.0
  0
LINE
  8
0
  6
CONTINUOUS
 62
   250
 10
2.64616
 20
1.31252
 30
0.0
 11
2.64616
 21
1.2936
 31
0.0
  0
LINE
  8
0
  6
CONTINUOUS
 62
   250
 10
2.64616
 20
1.2936
 30
0.0
 11
2.67652
 21
1.2936
 31
0.0
  0
LINE
  8
0
  6
CONTINUOUS
 62
   250
 10
2.67652
 20
1.2936
 30
0.0
 11
2.67652
 21
1.28216
 31
0.0
  0
LINE
  8
0
  6
CONTINUOUS
 62
   250
 10
2.67652
 20
1.28216
 30
0.0
 11
2.66508
 21
1.28216
 31
0.0
  0
LINE
  8
0
  6
CONTINUOUS
 62
   250
 10
2.66508
 20
1.28216
 30
0.0
 11
2.66508
 21
1.21572
 31
0.0
  0
LINE
  8
0
  6
CONTINUOUS
 62
   250
 10
2.66508
 20
1.21572
 30
0.0
 11
2.71128
 21
1.21572
 31
0.0
  0
LINE
  8
0
  6
CONTINUOUS
 62
   250
 10
2.71128
 20
1.21572
 30
0.0
 11
2.71128
 21
1.1946
 31
0.0
  0
LINE
  8
0
  6
CONTINUOUS
 62
   250
 10
2.71128
 20
1.1946
 30
0.0
 11
3.92656
 21
1.1946
 31
0.0
  0
LINE
  8
0
  6
CONTINUOUS
 62
   250
 10
3.92656
 20
1.1946
 30
0.0
 11
3.92656
 21
1.28216
 31
0.0
  0
LINE
  8
0
  6
CONTINUOUS
 62
   250
 10
3.92656
 20
1.28216
 30
0.0
 11
3.91556
 21
1.28216
 31
0.0
  0
LINE
  8
0
  6
CONTINUOUS
 62
   250
 10
3.91556
 20
1.28216
 30
0.0
 11
3.91556
 21
1.2936
 31
0.0
  0
LINE
  8
0
  6
CONTINUOUS
 62
   250
 10
3.91556
 20
1.2936
 30
0.0
 11
3.94592
 21
1.2936
 31
0.0
  0
LINE
  8
0
  6
CONTINUOUS
 62
   250
 10
3.94592
 20
1.2936
 30
0.0
 11
3.94592
 21
1.31252
 31
0.0
  0
LINE
  8
0
  6
CONTINUOUS
 62
   250
 10
3.94592
 20
1.31252
 30
0.0
 11
3.91556
 21
1.31252
 31
0.0
  0
LINE
  8
0
  6
CONTINUOUS
 62
   250
 10
3.91556
 20
1.31252
 30
0.0
 11
3.91556
 21
1.32396
 31
0.0
  0
LINE
  8
0
  6
CONTINUOUS
 62
   250
 10
3.91556
 20
1.32396
 30
0.0
 11
3.92656
 21
1.32396
 31
0.0
  0
LINE
  8
0
  6
CONTINUOUS
 62
   250
 10
3.92656
 20
1.32396
 30
0.0
 11
3.92656
 21
1.7534
 31
0.0
  0
LINE
  8
0
  6
CONTINUOUS
 62
   250
 10
3.92656
 20
1.7534
 30
0.0
 11
3.91556
 21
1.7534
 31
0.0
  0
LINE
  8
0
  6
CONTINUOUS
 62
   250
 10
3.92656
 20
1.89508
 30
0.0
 11
2.71128
 21
1.89508
 31
0.0
  0
LINE
  8
0
  6
CONTINUOUS
 62
   250
 10
2.7258
 20
1.85944
 30
0.0
 11
2.67916
 21
1.85944
 31
0.0
  0
LINE
  8
0
  6
CONTINUOUS
 62
   250
 10
2.67916
 20
1.85944
 30
0.0
 11
2.67916
 21
1.3618
 31
0.0
  0
LINE
  8
0
  6
CONTINUOUS
 62
   250
 10
2.67916
 20
1.3618
 30
0.0
 11
2.80808
 21
1.3618
 31
0.0
  0
LINE
  8
0
  6
CONTINUOUS
 62
   250
 10
2.80808
 20
1.3618
 30
0.0
 11
2.80808
 21
1.3464
 31
0.0
  0
LINE
  8
0
  6
CONTINUOUS
 62
   250
 10
2.80808
 20
1.3464
 30
0.0
 11
2.67916
 21
1.3464
 31
0.0
  0
LINE
  8
0
  6
CONTINUOUS
 62
   250
 10
2.67916
 20
1.24432
 30
0.0
 11
2.66508
 21
1.24432
 31
0.0
  0
LINE
  8
0
  6
CONTINUOUS
 62
   250
 10
2.67916
 20
1.23024
 30
0.0
 11
2.7258
 21
1.23024
 31
0.0
  0
LINE
  8
0
  6
CONTINUOUS
 62
   250
 10
2.84724
 20
1.3772
 30
0.0
 11
2.80984
 21
1.4146
 31
0.0
  0
LINE
  8
0
  6
CONTINUOUS
 62
   250
 10
2.83668
 20
1.44188
 30
0.0
 11
2.87408
 21
1.40404
 31
0.0
  0
LINE
  8
0
  6
CONTINUOUS
 62
   250
 10
2.8204
 20
1.53648
 30
0.0
 11
2.82216
 21
1.53868
 31
0.0
  0
LINE
  8
0
  6
CONTINUOUS
 62
   250
 10
2.82216
 20
1.53868
 30
0.0
 11
2.82348
 21
1.54088
 31
0.0
  0
LINE
  8
0
  6
CONTINUOUS
 62
   250
 10
2.82348
 20
1.54088
 30
0.0
 11
2.82436
 21
1.54352
 31
0.0
  0
LINE
  8
0
  6
CONTINUOUS
 62
   250
 10
2.82436
 20
1.54352
 30
0.0
 11
2.82436
 21
1.54616
 31
0.0
  0
LINE
  8
0
  6
CONTINUOUS
 62
   250
 10
2.82436
 20
1.54616
 30
0.0
 11
2.82436
 21
1.5488
 31
0.0
  0
LINE
  8
0
  6
CONTINUOUS
 62
   250
 10
2.82436
 20
1.5488
 30
0.0
 11
2.82348
 21
1.551
 31
0.0
  0
LINE
  8
0
  6
CONTINUOUS
 62
   250
 10
2.82348
 20
1.551
 30
0.0
 11
2.82216
 21
1.5532
 31
0.0
  0
LINE
  8
0
  6
CONTINUOUS
 62
   250
 10
2.82216
 20
1.5532
 30
0.0
 11
2.8204
 21
1.5554
 31
0.0
  0
LINE
  8
0
  6
CONTINUOUS
 62
   250
 10
2.8204
 20
1.5554
 30
0.0
 11
2.81864
 21
1.55716
 31
0.0
  0
LINE
  8
0
  6
CONTINUOUS
 62
   250
 10
2.81864
 20
1.55716
 30
0.0
 11
2.816
 21
1.55804
 31
0.0
  0
LINE
  8
0
  6
CONTINUOUS
 62
   250
 10
2.816
 20
1.55804
 30
0.0
 11
2.8138
 21
1.55892
 31
0.0
  0
LINE
  8
0
  6
CONTINUOUS
 62
   250
 10
2.8138
 20
1.55892
 30
0.0
 11
2.81116
 21
1.55936
 31
0.0
  0
LINE
  8
0
  6
CONTINUOUS
 62
   250
 10
2.81116
 20
1.55936
 30
0.0
 11
2.80852
 21
1.55892
 31
0.0
  0
LINE
  8
0
  6
CONTINUOUS
 62
   250
 10
2.80852
 20
1.55892
 30
0.0
 11
2.80588
 21
1.55804
 31
0.0
  0
LINE
  8
0
  6
CONTINUOUS
 62
   250
 10
2.80588
 20
1.55804
 30
0.0
 11
2.80368
 21
1.55716
 31
0.0
  0
LINE
  8
0
  6
CONTINUOUS
 62
   250
 10
2.80368
 20
1.55716
 30
0.0
 11
2.80192
 21
1.5554
 31
0.0
  0
LINE
  8
0
  6
CONTINUOUS
 62
   250
 10
2.80192
 20
1.5554
 30
0.0
 11
2.80016
 21
1.5532
 31
0.0
  0
LINE
  8
0
  6
CONTINUOUS
 62
   250
 10
2.80016
 20
1.5532
 30
0.0
 11
2.79884
 21
1.551
 31
0.0
  0
LINE
  8
0
  6
CONTINUOUS
 62
   250
 10
2.79884
 20
1.551
 30
0.0
 11
2.79796
 21
1.5488
 31
0.0
  0
LINE
  8
0
  6
CONTINUOUS
 62
   250
 10
2.79796
 20
1.5488
 30
0.0
 11
2.79796
 21
1.54616
 31
0.0
  0
LINE
  8
0
  6
CONTINUOUS
 62
   250
 10
2.79796
 20
1.54616
 30
0.0
 11
2.79796
 21
1.54352
 31
0.0
  0
LINE
  8
0
  6
CONTINUOUS
 62
   250
 10
2.79796
 20
1.54352
 30
0.0
 11
2.79884
 21
1.54088
 31
0.0
  0
LINE
  8
0
  6
CONTINUOUS
 62
   250
 10
2.79884
 20
1.54088
 30
0.0
 11
2.80016
 21
1.53868
 31
0.0
  0
LINE
  8
0
  6
CONTINUOUS
 62
   250
 10
2.80016
 20
1.53868
 30
0.0
 11
2.80192
 21
1.53648
 31
0.0
  0
LINE
  8
0
  6
CONTINUOUS
 62
   250
 10
2.80192
 20
1.53648
 30
0.0
 11
2.80368
 21
1.53472
 31
0.0
  0
LINE
  8
0
  6
CONTINUOUS
 62
   250
 10
2.80368
 20
1.53472
 30
0.0
 11
2.80588
 21
1.53384
 31
0.0
  0
LINE
  8
0
  6
CONTINUOUS
 62
   250
 10
2.80588
 20
1.53384
 30
0.0
 11
2.80852
 21
1.53296
 31
0.0
  0
LINE
  8
0
  6
CONTINUOUS
 62
   250
 10
2.80852
 20
1.53296
 30
0.0
 11
2.81116
 21
1.53252
 31
0.0
  0
LINE
  8
0
  6
CONTINUOUS
 62
   250
 10
2.81116
 20
1.53252
 30
0.0
 11
2.8138
 21
1.53296
 31
0.0
  0
LINE
  8
0
  6
CONTINUOUS
 62
   250
 10
2.8138
 20
1.53296
 30
0.0
 11
2.816
 21
1.53384
 31
0.0
  0
LINE
  8
0
  6
CONTINUOUS
 62
   250
 10
2.816
 20
1.53384
 30
0.0
 11
2.81864
 21
1.53472
 31
0.0
  0
LINE
  8
0
  6
CONTINUOUS
 62
   250
 10
2.81864
 20
1.53472
 30
0.0
 11
2.8204
 21
1.53648
 31
0.0
  0
LINE
  8
0
  6
CONTINUOUS
 62
   250
 10
2.94404
 20
1.53736
 30
0.0
 11
2.94536
 21
1.53296
 31
0.0
  0
LINE
  8
0
  6
CONTINUOUS
 62
   250
 10
2.94536
 20
1.53296
 30
0.0
 11
2.94668
 21
1.529
 31
0.0
  0
LINE
  8
0
  6
CONTINUOUS
 62
   250
 10
2.94668
 20
1.529
 30
0.0
 11
2.94888
 21
1.52504
 31
0.0
  0
LINE
  8
0
  6
CONTINUOUS
 62
   250
 10
2.94888
 20
1.52504
 30
0.0
 11
2.95152
 21
1.52152
 31
0.0
  0
LINE
  8
0
  6
CONTINUOUS
 62
   250
 10
2.95152
 20
1.52152
 30
0.0
 11
2.9546
 21
1.518
 31
0.0
  0
LINE
  8
0
  6
CONTINUOUS
 62
   250
 10
2.9546
 20
1.518
 30
0.0
 11
2.95768
 21
1.51536
 31
0.0
  0
LINE
  8
0
  6
CONTINUOUS
 62
   250
 10
2.95768
 20
1.51536
 30
0.0
 11
2.96164
 21
1.51272
 31
0.0
  0
LINE
  8
0
  6
CONTINUOUS
 62
   250
 10
2.96164
 20
1.51272
 30
0.0
 11
2.96516
 21
1.51052
 31
0.0
  0
LINE
  8
0
  6
CONTINUOUS
 62
   250
 10
2.96516
 20
1.51052
 30
0.0
 11
2.96956
 21
1.50876
 31
0.0
  0
LINE
  8
0
  6
CONTINUOUS
 62
   250
 10
2.96956
 20
1.50876
 30
0.0
 11
2.97352
 21
1.50788
 31
0.0
  0
LINE
  8
0
  6
CONTINUOUS
 62
   250
 10
2.97352
 20
1.50788
 30
0.0
 11
2.97792
 21
1.507
 31
0.0
  0
LINE
  8
0
  6
CONTINUOUS
 62
   250
 10
2.97792
 20
1.507
 30
0.0
 11
2.98232
 21
1.50656
 31
0.0
  0
LINE
  8
0
  6
CONTINUOUS
 62
   250
 10
2.98232
 20
1.50656
 30
0.0
 11
2.98672
 21
1.507
 31
0.0
  0
LINE
  8
0
  6
CONTINUOUS
 62
   250
 10
2.98672
 20
1.507
 30
0.0
 11
2.99112
 21
1.50788
 31
0.0
  0
LINE
  8
0
  6
CONTINUOUS
 62
   250
 10
2.99112
 20
1.50788
 30
0.0
 11
2.99552
 21
1.50876
 31
0.0
  0
LINE
  8
0
  6
CONTINUOUS
 62
   250
 10
2.99552
 20
1.50876
 30
0.0
 11
2.99948
 21
1.51052
 31
0.0
  0
LINE
  8
0
  6
CONTINUOUS
 62
   250
 10
2.99948
 20
1.51052
 30
0.0
 11
3.00344
 21
1.51272
 31
0.0
  0
LINE
  8
0
  6
CONTINUOUS
 62
   250
 10
3.00344
 20
1.51272
 30
0.0
 11
3.00696
 21
1.51536
 31
0.0
  0
LINE
  8
0
  6
CONTINUOUS
 62
   250
 10
3.00696
 20
1.51536
 30
0.0
 11
3.01048
 21
1.518
 31
0.0
  0
LINE
  8
0
  6
CONTINUOUS
 62
   250
 10
3.01048
 20
1.518
 30
0.0
 11
3.01312
 21
1.52152
 31
0.0
  0
LINE
  8
0
  6
CONTINUOUS
 62
   250
 10
3.01312
 20
1.52152
 30
0.0
 11
3.01576
 21
1.52504
 31
0.0
  0
LINE
  8
0
  6
CONTINUOUS
 62
   250
 10
3.01576
 20
1.52504
 30
0.0
 11
3.01796
 21
1.529
 31
0.0
  0
LINE
  8
0
  6
CONTINUOUS
 62
   250
 10
3.01796
 20
1.529
 30
0.0
 11
3.01972
 21
1.53296
 31
0.0
  0
LINE
  8
0
  6
CONTINUOUS
 62
   250
 10
3.01972
 20
1.53296
 30
0.0
 11
3.0206
 21
1.53736
 31
0.0
  0
LINE
  8
0
  6
CONTINUOUS
 62
   250
 10
3.0206
 20
1.53736
 30
0.0
 11
3.02148
 21
1.54176
 31
0.0
  0
LINE
  8
0
  6
CONTINUOUS
 62
   250
 10
3.02148
 20
1.54176
 30
0.0
 11
3.02192
 21
1.54616
 31
0.0
  0
LINE
  8
0
  6
CONTINUOUS
 62
   250
 10
3.02192
 20
1.54616
 30
0.0
 11
3.02148
 21
1.55056
 31
0.0
  0
LINE
  8
0
  6
CONTINUOUS
 62
   250
 10
3.02148
 20
1.55056
 30
0.0
 11
3.0206
 21
1.55452
 31
0.0
  0
LINE
  8
0
  6
CONTINUOUS
 62
   250
 10
3.0206
 20
1.55452
 30
0.0
 11
3.01972
 21
1.55892
 31
0.0
  0
LINE
  8
0
  6
CONTINUOUS
 62
   250
 10
3.01972
 20
1.55892
 30
0.0
 11
3.01796
 21
1.56288
 31
0.0
  0
LINE
  8
0
  6
CONTINUOUS
 62
   250
 10
3.01796
 20
1.56288
 30
0.0
 11
3.01576
 21
1.56684
 31
0.0
  0
LINE
  8
0
  6
CONTINUOUS
 62
   250
 10
3.01576
 20
1.56684
 30
0.0
 11
3.01312
 21
1.57036
 31
0.0
  0
LINE
  8
0
  6
CONTINUOUS
 62
   250
 10
3.01312
 20
1.57036
 30
0.0
 11
3.01048
 21
1.57388
 31
0.0
  0
LINE
  8
0
  6
CONTINUOUS
 62
   250
 10
3.01048
 20
1.57388
 30
0.0
 11
3.00696
 21
1.57652
 31
0.0
  0
LINE
  8
0
  6
CONTINUOUS
 62
   250
 10
3.00696
 20
1.57652
 30
0.0
 11
3.00344
 21
1.57916
 31
0.0
  0
LINE
  8
0
  6
CONTINUOUS
 62
   250
 10
3.00344
 20
1.57916
 30
0.0
 11
2.99948
 21
1.58136
 31
0.0
  0
LINE
  8
0
  6
CONTINUOUS
 62
   250
 10
2.99948
 20
1.58136
 30
0.0
 11
2.99552
 21
1.58312
 31
0.0
  0
LINE
  8
0
  6
CONTINUOUS
 62
   250
 10
2.99552
 20
1.58312
 30
0.0
 11
2.99112
 21
1.58444
 31
0.0
  0
LINE
  8
0
  6
CONTINUOUS
 62
   250
 10
2.99112
 20
1.58444
 30
0.0
 11
2.98672
 21
1.58488
 31
0.0
  0
LINE
  8
0
  6
CONTINUOUS
 62
   250
 10
2.98672
 20
1.58488
 30
0.0
 11
2.98232
 21
1.58532
 31
0.0
  0
LINE
  8
0
  6
CONTINUOUS
 62
   250
 10
2.98232
 20
1.58532
 30
0.0
 11
2.97792
 21
1.58488
 31
0.0
  0
LINE
  8
0
  6
CONTINUOUS
 62
   250
 10
2.97792
 20
1.58488
 30
0.0
 11
2.97352
 21
1.58444
 31
0.0
  0
LINE
  8
0
  6
CONTINUOUS
 62
   250
 10
2.97352
 20
1.58444
 30
0.0
 11
2.96956
 21
1.58312
 31
0.0
  0
LINE
  8
0
  6
CONTINUOUS
 62
   250
 10
2.96956
 20
1.58312
 30
0.0
 11
2.96516
 21
1.58136
 31
0.0
  0
LINE
  8
0
  6
CONTINUOUS
 62
   250
 10
2.96516
 20
1.58136
 30
0.0
 11
2.96164
 21
1.57916
 31
0.0
  0
LINE
  8
0
  6
CONTINUOUS
 62
   250
 10
2.96164
 20
1.57916
 30
0.0
 11
2.95768
 21
1.57652
 31
0.0
  0
LINE
  8
0
  6
CONTINUOUS
 62
   250
 10
2.95768
 20
1.57652
 30
0.0
 11
2.9546
 21
1.57388
 31
0.0
  0
LINE
  8
0
  6
CONTINUOUS
 62
   250
 10
2.9546
 20
1.57388
 30
0.0
 11
2.95152
 21
1.57036
 31
0.0
  0
LINE
  8
0
  6
CONTINUOUS
 62
   250
 10
2.95152
 20
1.57036
 30
0.0
 11
2.94888
 21
1.56684
 31
0.0
  0
LINE
  8
0
  6
CONTINUOUS
 62
   250
 10
2.94888
 20
1.56684
 30
0.0
 11
2.94668
 21
1.56288
 31
0.0
  0
LINE
  8
0
  6
CONTINUOUS
 62
   250
 10
2.94668
 20
1.56288
 30
0.0
 11
2.94536
 21
1.55892
 31
0.0
  0
LINE
  8
0
  6
CONTINUOUS
 62
   250
 10
2.94536
 20
1.55892
 30
0.0
 11
2.94404
 21
1.55452
 31
0.0
  0
LINE
  8
0
  6
CONTINUOUS
 62
   250
 10
2.94404
 20
1.55452
 30
0.0
 11
2.94316
 21
1.55056
 31
0.0
  0
LINE
  8
0
  6
CONTINUOUS
 62
   250
 10
2.94316
 20
1.55056
 30
0.0
 11
2.94316
 21
1.54616
 31
0.0
  0
LINE
  8
0
  6
CONTINUOUS
 62
   250
 10
2.94316
 20
1.54616
 30
0.0
 11
2.94316
 21
1.54176
 31
0.0
  0
LINE
  8
0
  6
CONTINUOUS
 62
   250
 10
2.94316
 20
1.54176
 30
0.0
 11
2.94404
 21
1.53736
 31
0.0
  0
LINE
  8
0
  6
CONTINUOUS
 62
   250
 10
3.04216
 20
1.53692
 30
0.0
 11
3.04128
 21
1.53516
 31
0.0
  0
LINE
  8
0
  6
CONTINUOUS
 62
   250
 10
3.04128
 20
1.53516
 30
0.0
 11
3.0404
 21
1.53296
 31
0.0
  0
LINE
  8
0
  6
CONTINUOUS
 62
   250
 10
3.0404
 20
1.53296
 30
0.0
 11
3.03996
 21
1.53076
 31
0.0
  0
LINE
  8
0
  6
CONTINUOUS
 62
   250
 10
3.03996
 20
1.53076
 30
0.0
 11
3.0404
 21
1.52856
 31
0.0
  0
LINE
  8
0
  6
CONTINUOUS
 62
   250
 10
3.0404
 20
1.52856
 30
0.0
 11
3.04128
 21
1.5268
 31
0.0
  0
LINE
  8
0
  6
CONTINUOUS
 62
   250
 10
3.04128
 20
1.5268
 30
0.0
 11
3.04216
 21
1.5246
 31
0.0
  0
LINE
  8
0
  6
CONTINUOUS
 62
   250
 10
3.04216
 20
1.5246
 30
0.0
 11
3.04392
 21
1.52328
 31
0.0
  0
LINE
  8
0
  6
CONTINUOUS
 62
   250
 10
3.04392
 20
1.52328
 30
0.0
 11
3.04568
 21
1.5224
 31
0.0
  0
LINE
  8
0
  6
CONTINUOUS
 62
   250
 10
3.04568
 20
1.5224
 30
0.0
 11
3.04744
 21
1.52152
 31
0.0
  0
LINE
  8
0
  6
CONTINUOUS
 62
   250
 10
3.04744
 20
1.52152
 30
0.0
 11
3.04964
 21
1.52108
 31
0.0
  0
LINE
  8
0
  6
CONTINUOUS
 62
   250
 10
3.04964
 20
1.52108
 30
0.0
 11
3.05184
 21
1.52152
 31
0.0
  0
LINE
  8
0
  6
CONTINUOUS
 62
   250
 10
3.05184
 20
1.52152
 30
0.0
 11
3.05404
 21
1.5224
 31
0.0
  0
LINE
  8
0
  6
CONTINUOUS
 62
   250
 10
3.05404
 20
1.5224
 30
0.0
 11
3.0558
 21
1.52328
 31
0.0
  0
LINE
  8
0
  6
CONTINUOUS
 62
   250
 10
3.0558
 20
1.52328
 30
0.0
 11
3.05756
 21
1.5246
 31
0.0
  0
LINE
  8
0
  6
CONTINUOUS
 62
   250
 10
3.05756
 20
1.5246
 30
0.0
 11
3.05844
 21
1.5268
 31
0.0
  0
LINE
  8
0
  6
CONTINUOUS
 62
   250
 10
3.05844
 20
1.5268
 30
0.0
 11
3.05932
 21
1.52856
 31
0.0
  0
LINE
  8
0
  6
CONTINUOUS
 62
   250
 10
3.05932
 20
1.52856
 30
0.0
 11
3.05932
 21
1.53076
 31
0.0
  0
LINE
  8
0
  6
CONTINUOUS
 62
   250
 10
3.05932
 20
1.53076
 30
0.0
 11
3.05932
 21
1.53296
 31
0.0
  0
LINE
  8
0
  6
CONTINUOUS
 62
   250
 10
3.05932
 20
1.53296
 30
0.0
 11
3.05844
 21
1.53516
 31
0.0
  0
LINE
  8
0
  6
CONTINUOUS
 62
   250
 10
3.05844
 20
1.53516
 30
0.0
 11
3.05756
 21
1.53692
 31
0.0
  0
LINE
  8
0
  6
CONTINUOUS
 62
   250
 10
3.05756
 20
1.53692
 30
0.0
 11
3.0558
 21
1.53824
 31
0.0
  0
LINE
  8
0
  6
CONTINUOUS
 62
   250
 10
3.0558
 20
1.53824
 30
0.0
 11
3.05404
 21
1.53956
 31
0.0
  0
LINE
  8
0
  6
CONTINUOUS
 62
   250
 10
3.05404
 20
1.53956
 30
0.0
 11
3.05184
 21
1.54044
 31
0.0
  0
LINE
  8
0
  6
CONTINUOUS
 62
   250
 10
3.05184
 20
1.54044
 30
0.0
 11
3.04964
 21
1.54044
 31
0.0
  0
LINE
  8
0
  6
CONTINUOUS
 62
   250
 10
3.04964
 20
1.54044
 30
0.0
 11
3.04744
 21
1.54044
 31
0.0
  0
LINE
  8
0
  6
CONTINUOUS
 62
   250
 10
3.04744
 20
1.54044
 30
0.0
 11
3.04568
 21
1.53956
 31
0.0
  0
LINE
  8
0
  6
CONTINUOUS
 62
   250
 10
3.04568
 20
1.53956
 30
0.0
 11
3.04392
 21
1.53824
 31
0.0
  0
LINE
  8
0
  6
CONTINUOUS
 62
   250
 10
3.04392
 20
1.53824
 30
0.0
 11
3.04216
 21
1.53692
 31
0.0
  0
LINE
  8
0
  6
CONTINUOUS
 62
   250
 10
3.04964
 20
1.54044
 30
0.0
 11
3.04964
 21
1.52108
 31
0.0
  0
LINE
  8
0
  6
CONTINUOUS
 62
   250
 10
3.06328
 20
1.5114
 30
0.0
 11
3.07516
 21
1.5114
 31
0.0
  0
LINE
  8
0
  6
CONTINUOUS
 62
   250
 10
3.03512
 20
1.5114
 30
0.0
 11
3.03512
 21
1.5884
 31
0.0
  0
LINE
  8
0
  6
CONTINUOUS
 62
   250
 10
3.04392
 20
1.57652
 30
0.0
 11
3.04216
 21
1.57476
 31
0.0
  0
LINE
  8
0
  6
CONTINUOUS
 62
   250
 10
3.04216
 20
1.57476
 30
0.0
 11
3.04128
 21
1.573
 31
0.0
  0
LINE
  8
0
  6
CONTINUOUS
 62
   250
 10
3.04128
 20
1.573
 30
0.0
 11
3.0404
 21
1.5708
 31
0.0
  0
LINE
  8
0
  6
CONTINUOUS
 62
   250
 10
3.0404
 20
1.5708
 30
0.0
 11
3.03996
 21
1.56904
 31
0.0
  0
LINE
  8
0
  6
CONTINUOUS
 62
   250
 10
3.03996
 20
1.56904
 30
0.0
 11
3.0404
 21
1.5664
 31
0.0
  0
LINE
  8
0
  6
CONTINUOUS
 62
   250
 10
3.0404
 20
1.5664
 30
0.0
 11
3.04128
 21
1.56464
 31
0.0
  0
LINE
  8
0
  6
CONTINUOUS
 62
   250
 10
3.04128
 20
1.56464
 30
0.0
 11
3.04216
 21
1.56288
 31
0.0
  0
LINE
  8
0
  6
CONTINUOUS
 62
   250
 10
3.04216
 20
1.56288
 30
0.0
 11
3.04392
 21
1.56112
 31
0.0
  0
LINE
  8
0
  6
CONTINUOUS
 62
   250
 10
3.04392
 20
1.56112
 30
0.0
 11
3.04568
 21
1.56024
 31
0.0
  0
LINE
  8
0
  6
CONTINUOUS
 62
   250
 10
3.04568
 20
1.56024
 30
0.0
 11
3.04744
 21
1.55936
 31
0.0
  0
LINE
  8
0
  6
CONTINUOUS
 62
   250
 10
3.04744
 20
1.55936
 30
0.0
 11
3.04964
 21
1.55892
 31
0.0
  0
LINE
  8
0
  6
CONTINUOUS
 62
   250
 10
3.04964
 20
1.55892
 30
0.0
 11
3.05184
 21
1.55936
 31
0.0
  0
LINE
  8
0
  6
CONTINUOUS
 62
   250
 10
3.05184
 20
1.55936
 30
0.0
 11
3.05404
 21
1.56024
 31
0.0
  0
LINE
  8
0
  6
CONTINUOUS
 62
   250
 10
3.05404
 20
1.56024
 30
0.0
 11
3.0558
 21
1.56112
 31
0.0
  0
LINE
  8
0
  6
CONTINUOUS
 62
   250
 10
3.0558
 20
1.56112
 30
0.0
 11
3.05756
 21
1.56288
 31
0.0
  0
LINE
  8
0
  6
CONTINUOUS
 62
   250
 10
3.05756
 20
1.56288
 30
0.0
 11
3.05844
 21
1.56464
 31
0.0
  0
LINE
  8
0
  6
CONTINUOUS
 62
   250
 10
3.05844
 20
1.56464
 30
0.0
 11
3.05932
 21
1.5664
 31
0.0
  0
LINE
  8
0
  6
CONTINUOUS
 62
   250
 10
3.05932
 20
1.5664
 30
0.0
 11
3.05932
 21
1.56904
 31
0.0
  0
LINE
  8
0
  6
CONTINUOUS
 62
   250
 10
3.05932
 20
1.56904
 30
0.0
 11
3.05932
 21
1.5708
 31
0.0
  0
LINE
  8
0
  6
CONTINUOUS
 62
   250
 10
3.05932
 20
1.5708
 30
0.0
 11
3.05844
 21
1.573
 31
0.0
  0
LINE
  8
0
  6
CONTINUOUS
 62
   250
 10
3.05844
 20
1.573
 30
0.0
 11
3.05756
 21
1.57476
 31
0.0
  0
LINE
  8
0
  6
CONTINUOUS
 62
   250
 10
3.05756
 20
1.57476
 30
0.0
 11
3.0558
 21
1.57652
 31
0.0
  0
LINE
  8
0
  6
CONTINUOUS
 62
   250
 10
3.0558
 20
1.57652
 30
0.0
 11
3.05404
 21
1.5774
 31
0.0
  0
LINE
  8
0
  6
CONTINUOUS
 62
   250
 10
3.05404
 20
1.5774
 30
0.0
 11
3.05184
 21
1.57828
 31
0.0
  0
LINE
  8
0
  6
CONTINUOUS
 62
   250
 10
3.05184
 20
1.57828
 30
0.0
 11
3.04964
 21
1.57828
 31
0.0
  0
LINE
  8
0
  6
CONTINUOUS
 62
   250
 10
3.04964
 20
1.57828
 30
0.0
 11
3.04744
 21
1.57828
 31
0.0
  0
LINE
  8
0
  6
CONTINUOUS
 62
   250
 10
3.04744
 20
1.57828
 30
0.0
 11
3.04568
 21
1.5774
 31
0.0
  0
LINE
  8
0
  6
CONTINUOUS
 62
   250
 10
3.04568
 20
1.5774
 30
0.0
 11
3.04392
 21
1.57652
 31
0.0
  0
LINE
  8
0
  6
CONTINUOUS
 62
   250
 10
3.03996
 20
1.56904
 30
0.0
 11
3.05932
 21
1.56904
 31
0.0
  0
LINE
  8
0
  6
CONTINUOUS
 62
   250
 10
3.06328
 20
1.5884
 30
0.0
 11
3.07516
 21
1.5884
 31
0.0
  0
LINE
  8
0
  6
CONTINUOUS
 62
   250
 10
3.1416
 20
1.5884
 30
0.0
 11
3.1416
 21
1.5114
 31
0.0
  0
LINE
  8
0
  6
CONTINUOUS
 62
   250
 10
3.35104
 20
1.606
 30
0.0
 11
3.42804
 21
1.606
 31
0.0
  0
LINE
  8
0
  6
CONTINUOUS
 62
   250
 10
3.42804
 20
1.67552
 30
0.0
 11
3.42804
 21
1.71248
 31
0.0
  0
LINE
  8
0
  6
CONTINUOUS
 62
   250
 10
3.42804
 20
1.71248
 30
0.0
 11
3.35104
 21
1.71248
 31
0.0
  0
LINE
  8
0
  6
CONTINUOUS
 62
   250
 10
3.35104
 20
1.71248
 30
0.0
 11
3.35104
 21
1.66364
 31
0.0
  0
LINE
  8
0
  6
CONTINUOUS
 62
   250
 10
3.36248
 20
1.6918
 30
0.0
 11
3.36424
 21
1.69004
 31
0.0
  0
LINE
  8
0
  6
CONTINUOUS
 62
   250
 10
3.36424
 20
1.69004
 30
0.0
 11
3.366
 21
1.68916
 31
0.0
  0
LINE
  8
0
  6
CONTINUOUS
 62
   250
 10
3.366
 20
1.68916
 30
0.0
 11
3.3682
 21
1.68828
 31
0.0
  0
LINE
  8
0
  6
CONTINUOUS
 62
   250
 10
3.3682
 20
1.68828
 30
0.0
 11
3.36996
 21
1.68828
 31
0.0
  0
LINE
  8
0
  6
CONTINUOUS
 62
   250
 10
3.36996
 20
1.68828
 30
0.0
 11
3.3726
 21
1.68828
 31
0.0
  0
LINE
  8
0
  6
CONTINUOUS
 62
   250
 10
3.3726
 20
1.68828
 30
0.0
 11
3.37436
 21
1.68916
 31
0.0
  0
LINE
  8
0
  6
CONTINUOUS
 62
   250
 10
3.37436
 20
1.68916
 30
0.0
 11
3.37656
 21
1.69004
 31
0.0
  0
LINE
  8
0
  6
CONTINUOUS
 62
   250
 10
3.37656
 20
1.69004
 30
0.0
 11
3.37788
 21
1.6918
 31
0.0
  0
LINE
  8
0
  6
CONTINUOUS
 62
   250
 10
3.37788
 20
1.6918
 30
0.0
 11
3.37876
 21
1.69356
 31
0.0
  0
LINE
  8
0
  6
CONTINUOUS
 62
   250
 10
3.37876
 20
1.69356
 30
0.0
 11
3.37964
 21
1.69576
 31
0.0
  0
LINE
  8
0
  6
CONTINUOUS
 62
   250
 10
3.37964
 20
1.69576
 30
0.0
 11
3.38008
 21
1.69796
 31
0.0
  0
LINE
  8
0
  6
CONTINUOUS
 62
   250
 10
3.38008
 20
1.69796
 30
0.0
 11
3.37964
 21
1.69972
 31
0.0
  0
LINE
  8
0
  6
CONTINUOUS
 62
   250
 10
3.37964
 20
1.69972
 30
0.0
 11
3.37876
 21
1.70192
 31
0.0
  0
LINE
  8
0
  6
CONTINUOUS
 62
   250
 10
3.37876
 20
1.70192
 30
0.0
 11
3.37788
 21
1.70368
 31
0.0
  0
LINE
  8
0
  6
CONTINUOUS
 62
   250
 10
3.37788
 20
1.70368
 30
0.0
 11
3.37656
 21
1.70544
 31
0.0
  0
LINE
  8
0
  6
CONTINUOUS
 62
   250
 10
3.37656
 20
1.70544
 30
0.0
 11
3.37436
 21
1.70632
 31
0.0
  0
LINE
  8
0
  6
CONTINUOUS
 62
   250
 10
3.37436
 20
1.70632
 30
0.0
 11
3.3726
 21
1.7072
 31
0.0
  0
LINE
  8
0
  6
CONTINUOUS
 62
   250
 10
3.3726
 20
1.7072
 30
0.0
 11
3.36996
 21
1.7072
 31
0.0
  0
LINE
  8
0
  6
CONTINUOUS
 62
   250
 10
3.36996
 20
1.7072
 30
0.0
 11
3.3682
 21
1.7072
 31
0.0
  0
LINE
  8
0
  6
CONTINUOUS
 62
   250
 10
3.3682
 20
1.7072
 30
0.0
 11
3.366
 21
1.70632
 31
0.0
  0
LINE
  8
0
  6
CONTINUOUS
 62
   250
 10
3.366
 20
1.70632
 30
0.0
 11
3.36424
 21
1.70544
 31
0.0
  0
LINE
  8
0
  6
CONTINUOUS
 62
   250
 10
3.36424
 20
1.70544
 30
0.0
 11
3.36248
 21
1.70368
 31
0.0
  0
LINE
  8
0
  6
CONTINUOUS
 62
   250
 10
3.36248
 20
1.70368
 30
0.0
 11
3.3616
 21
1.70192
 31
0.0
  0
LINE
  8
0
  6
CONTINUOUS
 62
   250
 10
3.3616
 20
1.70192
 30
0.0
 11
3.36072
 21
1.69972
 31
0.0
  0
LINE
  8
0
  6
CONTINUOUS
 62
   250
 10
3.36072
 20
1.69972
 30
0.0
 11
3.36072
 21
1.69796
 31
0.0
  0
LINE
  8
0
  6
CONTINUOUS
 62
   250
 10
3.36072
 20
1.69796
 30
0.0
 11
3.36072
 21
1.69576
 31
0.0
  0
LINE
  8
0
  6
CONTINUOUS
 62
   250
 10
3.36072
 20
1.69576
 30
0.0
 11
3.3616
 21
1.69356
 31
0.0
  0
LINE
  8
0
  6
CONTINUOUS
 62
   250
 10
3.3616
 20
1.69356
 30
0.0
 11
3.36248
 21
1.6918
 31
0.0
  0
LINE
  8
0
  6
CONTINUOUS
 62
   250
 10
3.36072
 20
1.69796
 30
0.0
 11
3.38008
 21
1.69796
 31
0.0
  0
LINE
  8
0
  6
CONTINUOUS
 62
   250
 10
3.39944
 20
1.69796
 30
0.0
 11
3.39944
 21
1.69576
 31
0.0
  0
LINE
  8
0
  6
CONTINUOUS
 62
   250
 10
3.39944
 20
1.69576
 30
0.0
 11
3.39988
 21
1.69356
 31
0.0
  0
LINE
  8
0
  6
CONTINUOUS
 62
   250
 10
3.39988
 20
1.69356
 30
0.0
 11
3.4012
 21
1.6918
 31
0.0
  0
LINE
  8
0
  6
CONTINUOUS
 62
   250
 10
3.4012
 20
1.6918
 30
0.0
 11
3.40296
 21
1.69004
 31
0.0
  0
LINE
  8
0
  6
CONTINUOUS
 62
   250
 10
3.40296
 20
1.69004
 30
0.0
 11
3.40472
 21
1.68916
 31
0.0
  0
LINE
  8
0
  6
CONTINUOUS
 62
   250
 10
3.40472
 20
1.68916
 30
0.0
 11
3.40692
 21
1.68828
 31
0.0
  0
LINE
  8
0
  6
CONTINUOUS
 62
   250
 10
3.40692
 20
1.68828
 30
0.0
 11
3.40868
 21
1.68828
 31
0.0
  0
LINE
  8
0
  6
CONTINUOUS
 62
   250
 10
3.40868
 20
1.68828
 30
0.0
 11
3.41088
 21
1.68828
 31
0.0
  0
LINE
  8
0
  6
CONTINUOUS
 62
   250
 10
3.41088
 20
1.68828
 30
0.0
 11
3.41308
 21
1.68916
 31
0.0
  0
LINE
  8
0
  6
CONTINUOUS
 62
   250
 10
3.41308
 20
1.68916
 30
0.0
 11
3.41484
 21
1.69004
 31
0.0
  0
LINE
  8
0
  6
CONTINUOUS
 62
   250
 10
3.41484
 20
1.69004
 30
0.0
 11
3.4166
 21
1.6918
 31
0.0
  0
LINE
  8
0
  6
CONTINUOUS
 62
   250
 10
3.4166
 20
1.6918
 30
0.0
 11
3.41748
 21
1.69356
 31
0.0
  0
LINE
  8
0
  6
CONTINUOUS
 62
   250
 10
3.41748
 20
1.69356
 30
0.0
 11
3.41836
 21
1.69576
 31
0.0
  0
LINE
  8
0
  6
CONTINUOUS
 62
   250
 10
3.41836
 20
1.69576
 30
0.0
 11
3.41836
 21
1.69796
 31
0.0
  0
LINE
  8
0
  6
CONTINUOUS
 62
   250
 10
3.41836
 20
1.69796
 30
0.0
 11
3.41836
 21
1.69972
 31
0.0
  0
LINE
  8
0
  6
CONTINUOUS
 62
   250
 10
3.41836
 20
1.69972
 30
0.0
 11
3.41748
 21
1.70192
 31
0.0
  0
LINE
  8
0
  6
CONTINUOUS
 62
   250
 10
3.41748
 20
1.70192
 30
0.0
 11
3.4166
 21
1.70368
 31
0.0
  0
LINE
  8
0
  6
CONTINUOUS
 62
   250
 10
3.4166
 20
1.70368
 30
0.0
 11
3.41484
 21
1.70544
 31
0.0
  0
LINE
  8
0
  6
CONTINUOUS
 62
   250
 10
3.41484
 20
1.70544
 30
0.0
 11
3.41308
 21
1.70632
 31
0.0
  0
LINE
  8
0
  6
CONTINUOUS
 62
   250
 10
3.41308
 20
1.70632
 30
0.0
 11
3.41088
 21
1.7072
 31
0.0
  0
LINE
  8
0
  6
CONTINUOUS
 62
   250
 10
3.41088
 20
1.7072
 30
0.0
 11
3.40868
 21
1.7072
 31
0.0
  0
LINE
  8
0
  6
CONTINUOUS
 62
   250
 10
3.40868
 20
1.7072
 30
0.0
 11
3.40692
 21
1.7072
 31
0.0
  0
LINE
  8
0
  6
CONTINUOUS
 62
   250
 10
3.40692
 20
1.7072
 30
0.0
 11
3.40472
 21
1.70632
 31
0.0
  0
LINE
  8
0
  6
CONTINUOUS
 62
   250
 10
3.40472
 20
1.70632
 30
0.0
 11
3.40296
 21
1.70544
 31
0.0
  0
LINE
  8
0
  6
CONTINUOUS
 62
   250
 10
3.40296
 20
1.70544
 30
0.0
 11
3.4012
 21
1.70368
 31
0.0
  0
LINE
  8
0
  6
CONTINUOUS
 62
   250
 10
3.4012
 20
1.70368
 30
0.0
 11
3.39988
 21
1.70192
 31
0.0
  0
LINE
  8
0
  6
CONTINUOUS
 62
   250
 10
3.39988
 20
1.70192
 30
0.0
 11
3.39944
 21
1.69972
 31
0.0
  0
LINE
  8
0
  6
CONTINUOUS
 62
   250
 10
3.39944
 20
1.69972
 30
0.0
 11
3.39944
 21
1.69796
 31
0.0
  0
LINE
  8
0
  6
CONTINUOUS
 62
   250
 10
3.40868
 20
1.7072
 30
0.0
 11
3.40868
 21
1.68828
 31
0.0
  0
LINE
  8
0
  6
CONTINUOUS
 62
   250
 10
3.46676
 20
1.3662
 30
0.0
 11
3.46544
 21
1.36444
 31
0.0
  0
LINE
  8
0
  6
CONTINUOUS
 62
   250
 10
3.46544
 20
1.36444
 30
0.0
 11
3.465
 21
1.36224
 31
0.0
  0
LINE
  8
0
  6
CONTINUOUS
 62
   250
 10
3.465
 20
1.36224
 30
0.0
 11
3.46456
 21
1.36004
 31
0.0
  0
LINE
  8
0
  6
CONTINUOUS
 62
   250
 10
3.46456
 20
1.36004
 30
0.0
 11
3.465
 21
1.35784
 31
0.0
  0
LINE
  8
0
  6
CONTINUOUS
 62
   250
 10
3.465
 20
1.35784
 30
0.0
 11
3.46544
 21
1.35564
 31
0.0
  0
LINE
  8
0
  6
CONTINUOUS
 62
   250
 10
3.46544
 20
1.35564
 30
0.0
 11
3.46676
 21
1.35388
 31
0.0
  0
LINE
  8
0
  6
CONTINUOUS
 62
   250
 10
3.46676
 20
1.35388
 30
0.0
 11
3.46808
 21
1.35256
 31
0.0
  0
LINE
  8
0
  6
CONTINUOUS
 62
   250
 10
3.46808
 20
1.35256
 30
0.0
 11
3.46984
 21
1.35124
 31
0.0
  0
LINE
  8
0
  6
CONTINUOUS
 62
   250
 10
3.46984
 20
1.35124
 30
0.0
 11
3.47204
 21
1.3508
 31
0.0
  0
LINE
  8
0
  6
CONTINUOUS
 62
   250
 10
3.47204
 20
1.3508
 30
0.0
 11
3.47424
 21
1.35036
 31
0.0
  0
LINE
  8
0
  6
CONTINUOUS
 62
   250
 10
3.47424
 20
1.35036
 30
0.0
 11
3.47644
 21
1.3508
 31
0.0
  0
LINE
  8
0
  6
CONTINUOUS
 62
   250
 10
3.47644
 20
1.3508
 30
0.0
 11
3.4782
 21
1.35124
 31
0.0
  0
LINE
  8
0
  6
CONTINUOUS
 62
   250
 10
3.4782
 20
1.35124
 30
0.0
 11
3.4804
 21
1.35256
 31
0.0
  0
LINE
  8
0
  6
CONTINUOUS
 62
   250
 10
3.4804
 20
1.35256
 30
0.0
 11
3.48172
 21
1.35388
 31
0.0
  0
LINE
  8
0
  6
CONTINUOUS
 62
   250
 10
3.48172
 20
1.35388
 30
0.0
 11
3.48304
 21
1.35564
 31
0.0
  0
LINE
  8
0
  6
CONTINUOUS
 62
   250
 10
3.48304
 20
1.35564
 30
0.0
 11
3.48348
 21
1.35784
 31
0.0
  0
LINE
  8
0
  6
CONTINUOUS
 62
   250
 10
3.48348
 20
1.35784
 30
0.0
 11
3.48392
 21
1.36004
 31
0.0
  0
LINE
  8
0
  6
CONTINUOUS
 62
   250
 10
3.48392
 20
1.36004
 30
0.0
 11
3.48348
 21
1.36224
 31
0.0
  0
LINE
  8
0
  6
CONTINUOUS
 62
   250
 10
3.48348
 20
1.36224
 30
0.0
 11
3.48304
 21
1.36444
 31
0.0
  0
LINE
  8
0
  6
CONTINUOUS
 62
   250
 10
3.48304
 20
1.36444
 30
0.0
 11
3.48172
 21
1.3662
 31
0.0
  0
LINE
  8
0
  6
CONTINUOUS
 62
   250
 10
3.48172
 20
1.3662
 30
0.0
 11
3.4804
 21
1.36752
 31
0.0
  0
LINE
  8
0
  6
CONTINUOUS
 62
   250
 10
3.4804
 20
1.36752
 30
0.0
 11
3.4782
 21
1.36884
 31
0.0
  0
LINE
  8
0
  6
CONTINUOUS
 62
   250
 10
3.4782
 20
1.36884
 30
0.0
 11
3.47644
 21
1.36928
 31
0.0
  0
LINE
  8
0
  6
CONTINUOUS
 62
   250
 10
3.47644
 20
1.36928
 30
0.0
 11
3.47424
 21
1.36972
 31
0.0
  0
LINE
  8
0
  6
CONTINUOUS
 62
   250
 10
3.47424
 20
1.36972
 30
0.0
 11
3.47204
 21
1.36928
 31
0.0
  0
LINE
  8
0
  6
CONTINUOUS
 62
   250
 10
3.47204
 20
1.36928
 30
0.0
 11
3.46984
 21
1.36884
 31
0.0
  0
LINE
  8
0
  6
CONTINUOUS
 62
   250
 10
3.46984
 20
1.36884
 30
0.0
 11
3.46808
 21
1.36752
 31
0.0
  0
LINE
  8
0
  6
CONTINUOUS
 62
   250
 10
3.46808
 20
1.36752
 30
0.0
 11
3.46676
 21
1.3662
 31
0.0
  0
LINE
  8
0
  6
CONTINUOUS
 62
   250
 10
3.47424
 20
1.36972
 30
0.0
 11
3.47424
 21
1.35036
 31
0.0
  0
LINE
  8
0
  6
CONTINUOUS
 62
   250
 10
3.45488
 20
1.34552
 30
0.0
 11
3.60888
 21
1.34552
 31
0.0
  0
LINE
  8
0
  6
CONTINUOUS
 62
   250
 10
3.60888
 20
1.34552
 30
0.0
 11
3.60888
 21
1.452
 31
0.0
  0
LINE
  8
0
  6
CONTINUOUS
 62
   250
 10
3.53144
 20
1.452
 30
0.0
 11
3.53144
 21
1.38468
 31
0.0
  0
LINE
  8
0
  6
CONTINUOUS
 62
   250
 10
3.51956
 20
1.3662
 30
0.0
 11
3.51824
 21
1.36752
 31
0.0
  0
LINE
  8
0
  6
CONTINUOUS
 62
   250
 10
3.51824
 20
1.36752
 30
0.0
 11
3.51648
 21
1.36884
 31
0.0
  0
LINE
  8
0
  6
CONTINUOUS
 62
   250
 10
3.51648
 20
1.36884
 30
0.0
 11
3.51428
 21
1.36928
 31
0.0
  0
LINE
  8
0
  6
CONTINUOUS
 62
   250
 10
3.51428
 20
1.36928
 30
0.0
 11
3.51208
 21
1.36972
 31
0.0
  0
LINE
  8
0
  6
CONTINUOUS
 62
   250
 10
3.51208
 20
1.36972
 30
0.0
 11
3.50988
 21
1.36928
 31
0.0
  0
LINE
  8
0
  6
CONTINUOUS
 62
   250
 10
3.50988
 20
1.36928
 30
0.0
 11
3.50812
 21
1.36884
 31
0.0
  0
LINE
  8
0
  6
CONTINUOUS
 62
   250
 10
3.50812
 20
1.36884
 30
0.0
 11
3.50636
 21
1.36752
 31
0.0
  0
LINE
  8
0
  6
CONTINUOUS
 62
   250
 10
3.50636
 20
1.36752
 30
0.0
 11
3.5046
 21
1.3662
 31
0.0
  0
LINE
  8
0
  6
CONTINUOUS
 62
   250
 10
3.5046
 20
1.3662
 30
0.0
 11
3.50328
 21
1.36444
 31
0.0
  0
LINE
  8
0
  6
CONTINUOUS
 62
   250
 10
3.50328
 20
1.36444
 30
0.0
 11
3.50284
 21
1.36224
 31
0.0
  0
LINE
  8
0
  6
CONTINUOUS
 62
   250
 10
3.50284
 20
1.36224
 30
0.0
 11
3.5024
 21
1.36004
 31
0.0
  0
LINE
  8
0
  6
CONTINUOUS
 62
   250
 10
3.5024
 20
1.36004
 30
0.0
 11
3.50284
 21
1.35784
 31
0.0
  0
LINE
  8
0
  6
CONTINUOUS
 62
   250
 10
3.50284
 20
1.35784
 30
0.0
 11
3.50328
 21
1.35564
 31
0.0
  0
LINE
  8
0
  6
CONTINUOUS
 62
   250
 10
3.50328
 20
1.35564
 30
0.0
 11
3.5046
 21
1.35388
 31
0.0
  0
LINE
  8
0
  6
CONTINUOUS
 62
   250
 10
3.5046
 20
1.35388
 30
0.0
 11
3.50636
 21
1.35256
 31
0.0
  0
LINE
  8
0
  6
CONTINUOUS
 62
   250
 10
3.50636
 20
1.35256
 30
0.0
 11
3.50812
 21
1.35124
 31
0.0
  0
LINE
  8
0
  6
CONTINUOUS
 62
   250
 10
3.50812
 20
1.35124
 30
0.0
 11
3.50988
 21
1.3508
 31
0.0
  0
LINE
  8
0
  6
CONTINUOUS
 62
   250
 10
3.50988
 20
1.3508
 30
0.0
 11
3.51208
 21
1.35036
 31
0.0
  0
LINE
  8
0
  6
CONTINUOUS
 62
   250
 10
3.51208
 20
1.35036
 30
0.0
 11
3.51428
 21
1.3508
 31
0.0
  0
LINE
  8
0
  6
CONTINUOUS
 62
   250
 10
3.51428
 20
1.3508
 30
0.0
 11
3.51648
 21
1.35124
 31
0.0
  0
LINE
  8
0
  6
CONTINUOUS
 62
   250
 10
3.51648
 20
1.35124
 30
0.0
 11
3.51824
 21
1.35256
 31
0.0
  0
LINE
  8
0
  6
CONTINUOUS
 62
   250
 10
3.51824
 20
1.35256
 30
0.0
 11
3.51956
 21
1.35388
 31
0.0
  0
LINE
  8
0
  6
CONTINUOUS
 62
   250
 10
3.51956
 20
1.35388
 30
0.0
 11
3.52088
 21
1.35564
 31
0.0
  0
LINE
  8
0
  6
CONTINUOUS
 62
   250
 10
3.52088
 20
1.35564
 30
0.0
 11
3.52176
 21
1.35784
 31
0.0
  0
LINE
  8
0
  6
CONTINUOUS
 62
   250
 10
3.52176
 20
1.35784
 30
0.0
 11
3.52176
 21
1.36004
 31
0.0
  0
LINE
  8
0
  6
CONTINUOUS
 62
   250
 10
3.52176
 20
1.36004
 30
0.0
 11
3.52176
 21
1.36224
 31
0.0
  0
LINE
  8
0
  6
CONTINUOUS
 62
   250
 10
3.52176
 20
1.36224
 30
0.0
 11
3.52088
 21
1.36444
 31
0.0
  0
LINE
  8
0
  6
CONTINUOUS
 62
   250
 10
3.52088
 20
1.36444
 30
0.0
 11
3.51956
 21
1.3662
 31
0.0
  0
LINE
  8
0
  6
CONTINUOUS
 62
   250
 10
3.52176
 20
1.36004
 30
0.0
 11
3.5024
 21
1.36004
 31
0.0
  0
LINE
  8
0
  6
CONTINUOUS
 62
   250
 10
3.54112
 20
1.36004
 30
0.0
 11
3.54156
 21
1.35784
 31
0.0
  0
LINE
  8
0
  6
CONTINUOUS
 62
   250
 10
3.54156
 20
1.35784
 30
0.0
 11
3.542
 21
1.35564
 31
0.0
  0
LINE
  8
0
  6
CONTINUOUS
 62
   250
 10
3.542
 20
1.35564
 30
0.0
 11
3.54332
 21
1.35388
 31
0.0
  0
LINE
  8
0
  6
CONTINUOUS
 62
   250
 10
3.54332
 20
1.35388
 30
0.0
 11
3.54464
 21
1.35256
 31
0.0
  0
LINE
  8
0
  6
CONTINUOUS
 62
   250
 10
3.54464
 20
1.35256
 30
0.0
 11
3.5464
 21
1.35124
 31
0.0
  0
LINE
  8
0
  6
CONTINUOUS
 62
   250
 10
3.5464
 20
1.35124
 30
0.0
 11
3.5486
 21
1.3508
 31
0.0
  0
LINE
  8
0
  6
CONTINUOUS
 62
   250
 10
3.5486
 20
1.3508
 30
0.0
 11
3.5508
 21
1.35036
 31
0.0
  0
LINE
  8
0
  6
CONTINUOUS
 62
   250
 10
3.5508
 20
1.35036
 30
0.0
 11
3.553
 21
1.3508
 31
0.0
  0
LINE
  8
0
  6
CONTINUOUS
 62
   250
 10
3.553
 20
1.3508
 30
0.0
 11
3.5552
 21
1.35124
 31
0.0
  0
LINE
  8
0
  6
CONTINUOUS
 62
   250
 10
3.5552
 20
1.35124
 30
0.0
 11
3.55696
 21
1.35256
 31
0.0
  0
LINE
  8
0
  6
CONTINUOUS
 62
   250
 10
3.55696
 20
1.35256
 30
0.0
 11
3.55828
 21
1.35388
 31
0.0
  0
LINE
  8
0
  6
CONTINUOUS
 62
   250
 10
3.55828
 20
1.35388
 30
0.0
 11
3.5596
 21
1.35564
 31
0.0
  0
LINE
  8
0
  6
CONTINUOUS
 62
   250
 10
3.5596
 20
1.35564
 30
0.0
 11
3.56004
 21
1.35784
 31
0.0
  0
LINE
  8
0
  6
CONTINUOUS
 62
   250
 10
3.56004
 20
1.35784
 30
0.0
 11
3.56048
 21
1.36004
 31
0.0
  0
LINE
  8
0
  6
CONTINUOUS
 62
   250
 10
3.56048
 20
1.36004
 30
0.0
 11
3.56004
 21
1.36224
 31
0.0
  0
LINE
  8
0
  6
CONTINUOUS
 62
   250
 10
3.56004
 20
1.36224
 30
0.0
 11
3.5596
 21
1.36444
 31
0.0
  0
LINE
  8
0
  6
CONTINUOUS
 62
   250
 10
3.5596
 20
1.36444
 30
0.0
 11
3.55828
 21
1.3662
 31
0.0
  0
LINE
  8
0
  6
CONTINUOUS
 62
   250
 10
3.55828
 20
1.3662
 30
0.0
 11
3.55696
 21
1.36752
 31
0.0
  0
LINE
  8
0
  6
CONTINUOUS
 62
   250
 10
3.55696
 20
1.36752
 30
0.0
 11
3.5552
 21
1.36884
 31
0.0
  0
LINE
  8
0
  6
CONTINUOUS
 62
   250
 10
3.5552
 20
1.36884
 30
0.0
 11
3.553
 21
1.36928
 31
0.0
  0
LINE
  8
0
  6
CONTINUOUS
 62
   250
 10
3.553
 20
1.36928
 30
0.0
 11
3.5508
 21
1.36972
 31
0.0
  0
LINE
  8
0
  6
CONTINUOUS
 62
   250
 10
3.5508
 20
1.36972
 30
0.0
 11
3.5486
 21
1.36928
 31
0.0
  0
LINE
  8
0
  6
CONTINUOUS
 62
   250
 10
3.5486
 20
1.36928
 30
0.0
 11
3.5464
 21
1.36884
 31
0.0
  0
LINE
  8
0
  6
CONTINUOUS
 62
   250
 10
3.5464
 20
1.36884
 30
0.0
 11
3.54464
 21
1.36752
 31
0.0
  0
LINE
  8
0
  6
CONTINUOUS
 62
   250
 10
3.54464
 20
1.36752
 30
0.0
 11
3.54332
 21
1.3662
 31
0.0
  0
LINE
  8
0
  6
CONTINUOUS
 62
   250
 10
3.54332
 20
1.3662
 30
0.0
 11
3.542
 21
1.36444
 31
0.0
  0
LINE
  8
0
  6
CONTINUOUS
 62
   250
 10
3.542
 20
1.36444
 30
0.0
 11
3.54156
 21
1.36224
 31
0.0
  0
LINE
  8
0
  6
CONTINUOUS
 62
   250
 10
3.54156
 20
1.36224
 30
0.0
 11
3.54112
 21
1.36004
 31
0.0
  0
LINE
  8
0
  6
CONTINUOUS
 62
   250
 10
3.54112
 20
1.36004
 30
0.0
 11
3.56048
 21
1.36004
 31
0.0
  0
LINE
  8
0
  6
CONTINUOUS
 62
   250
 10
3.57984
 20
1.36004
 30
0.0
 11
3.57984
 21
1.35784
 31
0.0
  0
LINE
  8
0
  6
CONTINUOUS
 62
   250
 10
3.57984
 20
1.35784
 30
0.0
 11
3.58072
 21
1.35564
 31
0.0
  0
LINE
  8
0
  6
CONTINUOUS
 62
   250
 10
3.58072
 20
1.35564
 30
0.0
 11
3.58204
 21
1.35388
 31
0.0
  0
LINE
  8
0
  6
CONTINUOUS
 62
   250
 10
3.58204
 20
1.35388
 30
0.0
 11
3.58336
 21
1.35256
 31
0.0
  0
LINE
  8
0
  6
CONTINUOUS
 62
   250
 10
3.58336
 20
1.35256
 30
0.0
 11
3.58512
 21
1.35124
 31
0.0
  0
LINE
  8
0
  6
CONTINUOUS
 62
   250
 10
3.58512
 20
1.35124
 30
0.0
 11
3.58732
 21
1.3508
 31
0.0
  0
LINE
  8
0
  6
CONTINUOUS
 62
   250
 10
3.58732
 20
1.3508
 30
0.0
 11
3.58952
 21
1.35036
 31
0.0
  0
LINE
  8
0
  6
CONTINUOUS
 62
   250
 10
3.58952
 20
1.35036
 30
0.0
 11
3.59172
 21
1.3508
 31
0.0
  0
LINE
  8
0
  6
CONTINUOUS
 62
   250
 10
3.59172
 20
1.3508
 30
0.0
 11
3.59348
 21
1.35124
 31
0.0
  0
LINE
  8
0
  6
CONTINUOUS
 62
   250
 10
3.59348
 20
1.35124
 30
0.0
 11
3.59524
 21
1.35256
 31
0.0
  0
LINE
  8
0
  6
CONTINUOUS
 62
   250
 10
3.59524
 20
1.35256
 30
0.0
 11
3.597
 21
1.35388
 31
0.0
  0
LINE
  8
0
  6
CONTINUOUS
 62
   250
 10
3.597
 20
1.35388
 30
0.0
 11
3.59788
 21
1.35564
 31
0.0
  0
LINE
  8
0
  6
CONTINUOUS
 62
   250
 10
3.59788
 20
1.35564
 30
0.0
 11
3.59876
 21
1.35784
 31
0.0
  0
LINE
  8
0
  6
CONTINUOUS
 62
   250
 10
3.59876
 20
1.35784
 30
0.0
 11
3.5992
 21
1.36004
 31
0.0
  0
LINE
  8
0
  6
CONTINUOUS
 62
   250
 10
3.5992
 20
1.36004
 30
0.0
 11
3.59876
 21
1.36224
 31
0.0
  0
LINE
  8
0
  6
CONTINUOUS
 62
   250
 10
3.59876
 20
1.36224
 30
0.0
 11
3.59788
 21
1.36444
 31
0.0
  0
LINE
  8
0
  6
CONTINUOUS
 62
   250
 10
3.59788
 20
1.36444
 30
0.0
 11
3.597
 21
1.3662
 31
0.0
  0
LINE
  8
0
  6
CONTINUOUS
 62
   250
 10
3.597
 20
1.3662
 30
0.0
 11
3.59524
 21
1.36752
 31
0.0
  0
LINE
  8
0
  6
CONTINUOUS
 62
   250
 10
3.59524
 20
1.36752
 30
0.0
 11
3.59348
 21
1.36884
 31
0.0
  0
LINE
  8
0
  6
CONTINUOUS
 62
   250
 10
3.59348
 20
1.36884
 30
0.0
 11
3.59172
 21
1.36928
 31
0.0
  0
LINE
  8
0
  6
CONTINUOUS
 62
   250
 10
3.59172
 20
1.36928
 30
0.0
 11
3.58952
 21
1.36972
 31
0.0
  0
LINE
  8
0
  6
CONTINUOUS
 62
   250
 10
3.58952
 20
1.36972
 30
0.0
 11
3.58732
 21
1.36928
 31
0.0
  0
LINE
  8
0
  6
CONTINUOUS
 62
   250
 10
3.58732
 20
1.36928
 30
0.0
 11
3.58512
 21
1.36884
 31
0.0
  0
LINE
  8
0
  6
CONTINUOUS
 62
   250
 10
3.58512
 20
1.36884
 30
0.0
 11
3.58336
 21
1.36752
 31
0.0
  0
LINE
  8
0
  6
CONTINUOUS
 62
   250
 10
3.58336
 20
1.36752
 30
0.0
 11
3.58204
 21
1.3662
 31
0.0
  0
LINE
  8
0
  6
CONTINUOUS
 62
   250
 10
3.58204
 20
1.3662
 30
0.0
 11
3.58072
 21
1.36444
 31
0.0
  0
LINE
  8
0
  6
CONTINUOUS
 62
   250
 10
3.58072
 20
1.36444
 30
0.0
 11
3.57984
 21
1.36224
 31
0.0
  0
LINE
  8
0
  6
CONTINUOUS
 62
   250
 10
3.57984
 20
1.36224
 30
0.0
 11
3.57984
 21
1.36004
 31
0.0
  0
LINE
  8
0
  6
CONTINUOUS
 62
   250
 10
3.58952
 20
1.35036
 30
0.0
 11
3.58952
 21
1.36972
 31
0.0
  0
LINE
  8
0
  6
CONTINUOUS
 62
   250
 10
3.53144
 20
1.452
 30
0.0
 11
3.45488
 21
1.452
 31
0.0
  0
LINE
  8
0
  6
CONTINUOUS
 62
   250
 10
3.45488
 20
1.452
 30
0.0
 11
3.45488
 21
1.38468
 31
0.0
  0
LINE
  8
0
  6
CONTINUOUS
 62
   250
 10
3.43024
 20
1.3662
 30
0.0
 11
3.42892
 21
1.36752
 31
0.0
  0
LINE
  8
0
  6
CONTINUOUS
 62
   250
 10
3.42892
 20
1.36752
 30
0.0
 11
3.42672
 21
1.36884
 31
0.0
  0
LINE
  8
0
  6
CONTINUOUS
 62
   250
 10
3.42672
 20
1.36884
 30
0.0
 11
3.42496
 21
1.36928
 31
0.0
  0
LINE
  8
0
  6
CONTINUOUS
 62
   250
 10
3.42496
 20
1.36928
 30
0.0
 11
3.42276
 21
1.36972
 31
0.0
  0
LINE
  8
0
  6
CONTINUOUS
 62
   250
 10
3.42276
 20
1.36972
 30
0.0
 11
3.42056
 21
1.36928
 31
0.0
  0
LINE
  8
0
  6
CONTINUOUS
 62
   250
 10
3.42056
 20
1.36928
 30
0.0
 11
3.41836
 21
1.36884
 31
0.0
  0
LINE
  8
0
  6
CONTINUOUS
 62
   250
 10
3.41836
 20
1.36884
 30
0.0
 11
3.4166
 21
1.36752
 31
0.0
  0
LINE
  8
0
  6
CONTINUOUS
 62
   250
 10
3.4166
 20
1.36752
 30
0.0
 11
3.41528
 21
1.3662
 31
0.0
  0
LINE
  8
0
  6
CONTINUOUS
 62
   250
 10
3.41528
 20
1.3662
 30
0.0
 11
3.41396
 21
1.36444
 31
0.0
  0
LINE
  8
0
  6
CONTINUOUS
 62
   250
 10
3.41396
 20
1.36444
 30
0.0
 11
3.41352
 21
1.36224
 31
0.0
  0
LINE
  8
0
  6
CONTINUOUS
 62
   250
 10
3.41352
 20
1.36224
 30
0.0
 11
3.41308
 21
1.36004
 31
0.0
  0
LINE
  8
0
  6
CONTINUOUS
 62
   250
 10
3.41308
 20
1.36004
 30
0.0
 11
3.41352
 21
1.35784
 31
0.0
  0
LINE
  8
0
  6
CONTINUOUS
 62
   250
 10
3.41352
 20
1.35784
 30
0.0
 11
3.41396
 21
1.35564
 31
0.0
  0
LINE
  8
0
  6
CONTINUOUS
 62
   250
 10
3.41396
 20
1.35564
 30
0.0
 11
3.41528
 21
1.35388
 31
0.0
  0
LINE
  8
0
  6
CONTINUOUS
 62
   250
 10
3.41528
 20
1.35388
 30
0.0
 11
3.4166
 21
1.35256
 31
0.0
  0
LINE
  8
0
  6
CONTINUOUS
 62
   250
 10
3.4166
 20
1.35256
 30
0.0
 11
3.41836
 21
1.35124
 31
0.0
  0
LINE
  8
0
  6
CONTINUOUS
 62
   250
 10
3.41836
 20
1.35124
 30
0.0
 11
3.42056
 21
1.3508
 31
0.0
  0
LINE
  8
0
  6
CONTINUOUS
 62
   250
 10
3.42056
 20
1.3508
 30
0.0
 11
3.42276
 21
1.35036
 31
0.0
  0
LINE
  8
0
  6
CONTINUOUS
 62
   250
 10
3.42276
 20
1.35036
 30
0.0
 11
3.42496
 21
1.3508
 31
0.0
  0
LINE
  8
0
  6
CONTINUOUS
 62
   250
 10
3.42496
 20
1.3508
 30
0.0
 11
3.42672
 21
1.35124
 31
0.0
  0
LINE
  8
0
  6
CONTINUOUS
 62
   250
 10
3.42672
 20
1.35124
 30
0.0
 11
3.42892
 21
1.35256
 31
0.0
  0
LINE
  8
0
  6
CONTINUOUS
 62
   250
 10
3.42892
 20
1.35256
 30
0.0
 11
3.43024
 21
1.35388
 31
0.0
  0
LINE
  8
0
  6
CONTINUOUS
 62
   250
 10
3.43024
 20
1.35388
 30
0.0
 11
3.43156
 21
1.35564
 31
0.0
  0
LINE
  8
0
  6
CONTINUOUS
 62
   250
 10
3.43156
 20
1.35564
 30
0.0
 11
3.432
 21
1.35784
 31
0.0
  0
LINE
  8
0
  6
CONTINUOUS
 62
   250
 10
3.432
 20
1.35784
 30
0.0
 11
3.43244
 21
1.36004
 31
0.0
  0
LINE
  8
0
  6
CONTINUOUS
 62
   250
 10
3.43244
 20
1.36004
 30
0.0
 11
3.432
 21
1.36224
 31
0.0
  0
LINE
  8
0
  6
CONTINUOUS
 62
   250
 10
3.432
 20
1.36224
 30
0.0
 11
3.43156
 21
1.36444
 31
0.0
  0
LINE
  8
0
  6
CONTINUOUS
 62
   250
 10
3.43156
 20
1.36444
 30
0.0
 11
3.43024
 21
1.3662
 31
0.0
  0
LINE
  8
0
  6
CONTINUOUS
 62
   250
 10
3.42276
 20
1.36972
 30
0.0
 11
3.42276
 21
1.35036
 31
0.0
  0
LINE
  8
0
  6
CONTINUOUS
 62
   250
 10
3.44212
 20
1.34552
 30
0.0
 11
3.28812
 21
1.34552
 31
0.0
  0
LINE
  8
0
  6
CONTINUOUS
 62
   250
 10
3.28812
 20
1.34552
 30
0.0
 11
3.28812
 21
1.38468
 31
0.0
  0
LINE
  8
0
  6
CONTINUOUS
 62
   250
 10
3.3
 20
1.3662
 30
0.0
 11
3.29868
 21
1.36444
 31
0.0
  0
LINE
  8
0
  6
CONTINUOUS
 62
   250
 10
3.29868
 20
1.36444
 30
0.0
 11
3.29824
 21
1.36224
 31
0.0
  0
LINE
  8
0
  6
CONTINUOUS
 62
   250
 10
3.29824
 20
1.36224
 30
0.0
 11
3.2978
 21
1.36004
 31
0.0
  0
LINE
  8
0
  6
CONTINUOUS
 62
   250
 10
3.2978
 20
1.36004
 30
0.0
 11
3.29824
 21
1.35784
 31
0.0
  0
LINE
  8
0
  6
CONTINUOUS
 62
   250
 10
3.29824
 20
1.35784
 30
0.0
 11
3.29868
 21
1.35564
 31
0.0
  0
LINE
  8
0
  6
CONTINUOUS
 62
   250
 10
3.29868
 20
1.35564
 30
0.0
 11
3.3
 21
1.35388
 31
0.0
  0
LINE
  8
0
  6
CONTINUOUS
 62
   250
 10
3.3
 20
1.35388
 30
0.0
 11
3.30176
 21
1.35256
 31
0.0
  0
LINE
  8
0
  6
CONTINUOUS
 62
   250
 10
3.30176
 20
1.35256
 30
0.0
 11
3.30352
 21
1.35124
 31
0.0
  0
LINE
  8
0
  6
CONTINUOUS
 62
   250
 10
3.30352
 20
1.35124
 30
0.0
 11
3.30528
 21
1.3508
 31
0.0
  0
LINE
  8
0
  6
CONTINUOUS
 62
   250
 10
3.30528
 20
1.3508
 30
0.0
 11
3.30748
 21
1.35036
 31
0.0
  0
LINE
  8
0
  6
CONTINUOUS
 62
   250
 10
3.30748
 20
1.35036
 30
0.0
 11
3.30968
 21
1.3508
 31
0.0
  0
LINE
  8
0
  6
CONTINUOUS
 62
   250
 10
3.30968
 20
1.3508
 30
0.0
 11
3.31188
 21
1.35124
 31
0.0
  0
LINE
  8
0
  6
CONTINUOUS
 62
   250
 10
3.31188
 20
1.35124
 30
0.0
 11
3.31364
 21
1.35256
 31
0.0
  0
LINE
  8
0
  6
CONTINUOUS
 62
   250
 10
3.31364
 20
1.35256
 30
0.0
 11
3.31496
 21
1.35388
 31
0.0
  0
LINE
  8
0
  6
CONTINUOUS
 62
   250
 10
3.31496
 20
1.35388
 30
0.0
 11
3.31628
 21
1.35564
 31
0.0
  0
LINE
  8
0
  6
CONTINUOUS
 62
   250
 10
3.31628
 20
1.35564
 30
0.0
 11
3.31716
 21
1.35784
 31
0.0
  0
LINE
  8
0
  6
CONTINUOUS
 62
   250
 10
3.31716
 20
1.35784
 30
0.0
 11
3.31716
 21
1.36004
 31
0.0
  0
LINE
  8
0
  6
CONTINUOUS
 62
   250
 10
3.31716
 20
1.36004
 30
0.0
 11
3.31716
 21
1.36224
 31
0.0
  0
LINE
  8
0
  6
CONTINUOUS
 62
   250
 10
3.31716
 20
1.36224
 30
0.0
 11
3.31628
 21
1.36444
 31
0.0
  0
LINE
  8
0
  6
CONTINUOUS
 62
   250
 10
3.31628
 20
1.36444
 30
0.0
 11
3.31496
 21
1.3662
 31
0.0
  0
LINE
  8
0
  6
CONTINUOUS
 62
   250
 10
3.31496
 20
1.3662
 30
0.0
 11
3.31364
 21
1.36752
 31
0.0
  0
LINE
  8
0
  6
CONTINUOUS
 62
   250
 10
3.31364
 20
1.36752
 30
0.0
 11
3.31188
 21
1.36884
 31
0.0
  0
LINE
  8
0
  6
CONTINUOUS
 62
   250
 10
3.31188
 20
1.36884
 30
0.0
 11
3.30968
 21
1.36928
 31
0.0
  0
LINE
  8
0
  6
CONTINUOUS
 62
   250
 10
3.30968
 20
1.36928
 30
0.0
 11
3.30748
 21
1.36972
 31
0.0
  0
LINE
  8
0
  6
CONTINUOUS
 62
   250
 10
3.30748
 20
1.36972
 30
0.0
 11
3.30528
 21
1.36928
 31
0.0
  0
LINE
  8
0
  6
CONTINUOUS
 62
   250
 10
3.30528
 20
1.36928
 30
0.0
 11
3.30352
 21
1.36884
 31
0.0
  0
LINE
  8
0
  6
CONTINUOUS
 62
   250
 10
3.30352
 20
1.36884
 30
0.0
 11
3.30176
 21
1.36752
 31
0.0
  0
LINE
  8
0
  6
CONTINUOUS
 62
   250
 10
3.30176
 20
1.36752
 30
0.0
 11
3.3
 21
1.3662
 31
0.0
  0
LINE
  8
0
  6
CONTINUOUS
 62
   250
 10
3.30748
 20
1.36972
 30
0.0
 11
3.30748
 21
1.35036
 31
0.0
  0
LINE
  8
0
  6
CONTINUOUS
 62
   250
 10
3.33784
 20
1.35388
 30
0.0
 11
3.3396
 21
1.35256
 31
0.0
  0
LINE
  8
0
  6
CONTINUOUS
 62
   250
 10
3.3396
 20
1.35256
 30
0.0
 11
3.34136
 21
1.35124
 31
0.0
  0
LINE
  8
0
  6
CONTINUOUS
 62
   250
 10
3.34136
 20
1.35124
 30
0.0
 11
3.34356
 21
1.3508
 31
0.0
  0
LINE
  8
0
  6
CONTINUOUS
 62
   250
 10
3.34356
 20
1.3508
 30
0.0
 11
3.34532
 21
1.35036
 31
0.0
  0
LINE
  8
0
  6
CONTINUOUS
 62
   250
 10
3.34532
 20
1.35036
 30
0.0
 11
3.34752
 21
1.3508
 31
0.0
  0
LINE
  8
0
  6
CONTINUOUS
 62
   250
 10
3.34752
 20
1.3508
 30
0.0
 11
3.34972
 21
1.35124
 31
0.0
  0
LINE
  8
0
  6
CONTINUOUS
 62
   250
 10
3.34972
 20
1.35124
 30
0.0
 11
3.35148
 21
1.35256
 31
0.0
  0
LINE
  8
0
  6
CONTINUOUS
 62
   250
 10
3.35148
 20
1.35256
 30
0.0
 11
3.3528
 21
1.35388
 31
0.0
  0
LINE
  8
0
  6
CONTINUOUS
 62
   250
 10
3.3528
 20
1.35388
 30
0.0
 11
3.35412
 21
1.35564
 31
0.0
  0
LINE
  8
0
  6
CONTINUOUS
 62
   250
 10
3.35412
 20
1.35564
 30
0.0
 11
3.355
 21
1.35784
 31
0.0
  0
LINE
  8
0
  6
CONTINUOUS
 62
   250
 10
3.355
 20
1.35784
 30
0.0
 11
3.355
 21
1.36004
 31
0.0
  0
LINE
  8
0
  6
CONTINUOUS
 62
   250
 10
3.355
 20
1.36004
 30
0.0
 11
3.355
 21
1.36224
 31
0.0
  0
LINE
  8
0
  6
CONTINUOUS
 62
   250
 10
3.355
 20
1.36224
 30
0.0
 11
3.35412
 21
1.36444
 31
0.0
  0
LINE
  8
0
  6
CONTINUOUS
 62
   250
 10
3.35412
 20
1.36444
 30
0.0
 11
3.3528
 21
1.3662
 31
0.0
  0
LINE
  8
0
  6
CONTINUOUS
 62
   250
 10
3.3528
 20
1.3662
 30
0.0
 11
3.35148
 21
1.36752
 31
0.0
  0
LINE
  8
0
  6
CONTINUOUS
 62
   250
 10
3.35148
 20
1.36752
 30
0.0
 11
3.34972
 21
1.36884
 31
0.0
  0
LINE
  8
0
  6
CONTINUOUS
 62
   250
 10
3.34972
 20
1.36884
 30
0.0
 11
3.34752
 21
1.36928
 31
0.0
  0
LINE
  8
0
  6
CONTINUOUS
 62
   250
 10
3.34752
 20
1.36928
 30
0.0
 11
3.34532
 21
1.36972
 31
0.0
  0
LINE
  8
0
  6
CONTINUOUS
 62
   250
 10
3.34532
 20
1.36972
 30
0.0
 11
3.34356
 21
1.36928
 31
0.0
  0
LINE
  8
0
  6
CONTINUOUS
 62
   250
 10
3.34356
 20
1.36928
 30
0.0
 11
3.34136
 21
1.36884
 31
0.0
  0
LINE
  8
0
  6
CONTINUOUS
 62
   250
 10
3.34136
 20
1.36884
 30
0.0
 11
3.3396
 21
1.36752
 31
0.0
  0
LINE
  8
0
  6
CONTINUOUS
 62
   250
 10
3.3396
 20
1.36752
 30
0.0
 11
3.33784
 21
1.3662
 31
0.0
  0
LINE
  8
0
  6
CONTINUOUS
 62
   250
 10
3.33784
 20
1.3662
 30
0.0
 11
3.33696
 21
1.36444
 31
0.0
  0
LINE
  8
0
  6
CONTINUOUS
 62
   250
 10
3.33696
 20
1.36444
 30
0.0
 11
3.33608
 21
1.36224
 31
0.0
  0
LINE
  8
0
  6
CONTINUOUS
 62
   250
 10
3.33608
 20
1.36224
 30
0.0
 11
3.33564
 21
1.36004
 31
0.0
  0
LINE
  8
0
  6
CONTINUOUS
 62
   250
 10
3.33564
 20
1.36004
 30
0.0
 11
3.33608
 21
1.35784
 31
0.0
  0
LINE
  8
0
  6
CONTINUOUS
 62
   250
 10
3.33608
 20
1.35784
 30
0.0
 11
3.33696
 21
1.35564
 31
0.0
  0
LINE
  8
0
  6
CONTINUOUS
 62
   250
 10
3.33696
 20
1.35564
 30
0.0
 11
3.33784
 21
1.35388
 31
0.0
  0
LINE
  8
0
  6
CONTINUOUS
 62
   250
 10
3.33564
 20
1.36004
 30
0.0
 11
3.355
 21
1.36004
 31
0.0
  0
LINE
  8
0
  6
CONTINUOUS
 62
   250
 10
3.37436
 20
1.36004
 30
0.0
 11
3.3748
 21
1.35784
 31
0.0
  0
LINE
  8
0
  6
CONTINUOUS
 62
   250
 10
3.3748
 20
1.35784
 30
0.0
 11
3.37524
 21
1.35564
 31
0.0
  0
LINE
  8
0
  6
CONTINUOUS
 62
   250
 10
3.37524
 20
1.35564
 30
0.0
 11
3.37656
 21
1.35388
 31
0.0
  0
LINE
  8
0
  6
CONTINUOUS
 62
   250
 10
3.37656
 20
1.35388
 30
0.0
 11
3.37832
 21
1.35256
 31
0.0
  0
LINE
  8
0
  6
CONTINUOUS
 62
   250
 10
3.37832
 20
1.35256
 30
0.0
 11
3.38008
 21
1.35124
 31
0.0
  0
LINE
  8
0
  6
CONTINUOUS
 62
   250
 10
3.38008
 20
1.35124
 30
0.0
 11
3.38184
 21
1.3508
 31
0.0
  0
LINE
  8
0
  6
CONTINUOUS
 62
   250
 10
3.38184
 20
1.3508
 30
0.0
 11
3.38404
 21
1.35036
 31
0.0
  0
LINE
  8
0
  6
CONTINUOUS
 62
   250
 10
3.38404
 20
1.35036
 30
0.0
 11
3.38624
 21
1.3508
 31
0.0
  0
LINE
  8
0
  6
CONTINUOUS
 62
   250
 10
3.38624
 20
1.3508
 30
0.0
 11
3.38844
 21
1.35124
 31
0.0
  0
LINE
  8
0
  6
CONTINUOUS
 62
   250
 10
3.38844
 20
1.35124
 30
0.0
 11
3.3902
 21
1.35256
 31
0.0
  0
LINE
  8
0
  6
CONTINUOUS
 62
   250
 10
3.3902
 20
1.35256
 30
0.0
 11
3.39152
 21
1.35388
 31
0.0
  0
LINE
  8
0
  6
CONTINUOUS
 62
   250
 10
3.39152
 20
1.35388
 30
0.0
 11
3.39284
 21
1.35564
 31
0.0
  0
LINE
  8
0
  6
CONTINUOUS
 62
   250
 10
3.39284
 20
1.35564
 30
0.0
 11
3.39328
 21
1.35784
 31
0.0
  0
LINE
  8
0
  6
CONTINUOUS
 62
   250
 10
3.39328
 20
1.35784
 30
0.0
 11
3.39372
 21
1.36004
 31
0.0
  0
LINE
  8
0
  6
CONTINUOUS
 62
   250
 10
3.39372
 20
1.36004
 30
0.0
 11
3.39328
 21
1.36224
 31
0.0
  0
LINE
  8
0
  6
CONTINUOUS
 62
   250
 10
3.39328
 20
1.36224
 30
0.0
 11
3.39284
 21
1.36444
 31
0.0
  0
LINE
  8
0
  6
CONTINUOUS
 62
   250
 10
3.39284
 20
1.36444
 30
0.0
 11
3.39152
 21
1.3662
 31
0.0
  0
LINE
  8
0
  6
CONTINUOUS
 62
   250
 10
3.39152
 20
1.3662
 30
0.0
 11
3.3902
 21
1.36752
 31
0.0
  0
LINE
  8
0
  6
CONTINUOUS
 62
   250
 10
3.3902
 20
1.36752
 30
0.0
 11
3.38844
 21
1.36884
 31
0.0
  0
LINE
  8
0
  6
CONTINUOUS
 62
   250
 10
3.38844
 20
1.36884
 30
0.0
 11
3.38624
 21
1.36928
 31
0.0
  0
LINE
  8
0
  6
CONTINUOUS
 62
   250
 10
3.38624
 20
1.36928
 30
0.0
 11
3.38404
 21
1.36972
 31
0.0
  0
LINE
  8
0
  6
CONTINUOUS
 62
   250
 10
3.38404
 20
1.36972
 30
0.0
 11
3.38184
 21
1.36928
 31
0.0
  0
LINE
  8
0
  6
CONTINUOUS
 62
   250
 10
3.38184
 20
1.36928
 30
0.0
 11
3.38008
 21
1.36884
 31
0.0
  0
LINE
  8
0
  6
CONTINUOUS
 62
   250
 10
3.38008
 20
1.36884
 30
0.0
 11
3.37832
 21
1.36752
 31
0.0
  0
LINE
  8
0
  6
CONTINUOUS
 62
   250
 10
3.37832
 20
1.36752
 30
0.0
 11
3.37656
 21
1.3662
 31
0.0
  0
LINE
  8
0
  6
CONTINUOUS
 62
   250
 10
3.37656
 20
1.3662
 30
0.0
 11
3.37524
 21
1.36444
 31
0.0
  0
LINE
  8
0
  6
CONTINUOUS
 62
   250
 10
3.37524
 20
1.36444
 30
0.0
 11
3.3748
 21
1.36224
 31
0.0
  0
LINE
  8
0
  6
CONTINUOUS
 62
   250
 10
3.3748
 20
1.36224
 30
0.0
 11
3.37436
 21
1.36004
 31
0.0
  0
LINE
  8
0
  6
CONTINUOUS
 62
   250
 10
3.37436
 20
1.36004
 30
0.0
 11
3.39372
 21
1.36004
 31
0.0
  0
LINE
  8
0
  6
CONTINUOUS
 62
   250
 10
3.36468
 20
1.38468
 30
0.0
 11
3.36468
 21
1.452
 31
0.0
  0
LINE
  8
0
  6
CONTINUOUS
 62
   250
 10
3.36468
 20
1.452
 30
0.0
 11
3.28812
 21
1.452
 31
0.0
  0
LINE
  8
0
  6
CONTINUOUS
 62
   250
 10
3.26348
 20
1.3662
 30
0.0
 11
3.26216
 21
1.36752
 31
0.0
  0
LINE
  8
0
  6
CONTINUOUS
 62
   250
 10
3.26216
 20
1.36752
 30
0.0
 11
3.25996
 21
1.36884
 31
0.0
  0
LINE
  8
0
  6
CONTINUOUS
 62
   250
 10
3.25996
 20
1.36884
 30
0.0
 11
3.2582
 21
1.36928
 31
0.0
  0
LINE
  8
0
  6
CONTINUOUS
 62
   250
 10
3.2582
 20
1.36928
 30
0.0
 11
3.256
 21
1.36972
 31
0.0
  0
LINE
  8
0
  6
CONTINUOUS
 62
   250
 10
3.256
 20
1.36972
 30
0.0
 11
3.2538
 21
1.36928
 31
0.0
  0
LINE
  8
0
  6
CONTINUOUS
 62
   250
 10
3.2538
 20
1.36928
 30
0.0
 11
3.2516
 21
1.36884
 31
0.0
  0
LINE
  8
0
  6
CONTINUOUS
 62
   250
 10
3.2516
 20
1.36884
 30
0.0
 11
3.24984
 21
1.36752
 31
0.0
  0
LINE
  8
0
  6
CONTINUOUS
 62
   250
 10
3.24984
 20
1.36752
 30
0.0
 11
3.24852
 21
1.3662
 31
0.0
  0
LINE
  8
0
  6
CONTINUOUS
 62
   250
 10
3.24852
 20
1.3662
 30
0.0
 11
3.2472
 21
1.36444
 31
0.0
  0
LINE
  8
0
  6
CONTINUOUS
 62
   250
 10
3.2472
 20
1.36444
 30
0.0
 11
3.24676
 21
1.36224
 31
0.0
  0
LINE
  8
0
  6
CONTINUOUS
 62
   250
 10
3.24676
 20
1.36224
 30
0.0
 11
3.24632
 21
1.36004
 31
0.0
  0
LINE
  8
0
  6
CONTINUOUS
 62
   250
 10
3.24632
 20
1.36004
 30
0.0
 11
3.24676
 21
1.35784
 31
0.0
  0
LINE
  8
0
  6
CONTINUOUS
 62
   250
 10
3.24676
 20
1.35784
 30
0.0
 11
3.2472
 21
1.35564
 31
0.0
  0
LINE
  8
0
  6
CONTINUOUS
 62
   250
 10
3.2472
 20
1.35564
 30
0.0
 11
3.24852
 21
1.35388
 31
0.0
  0
LINE
  8
0
  6
CONTINUOUS
 62
   250
 10
3.24852
 20
1.35388
 30
0.0
 11
3.24984
 21
1.35256
 31
0.0
  0
LINE
  8
0
  6
CONTINUOUS
 62
   250
 10
3.24984
 20
1.35256
 30
0.0
 11
3.2516
 21
1.35124
 31
0.0
  0
LINE
  8
0
  6
CONTINUOUS
 62
   250
 10
3.2516
 20
1.35124
 30
0.0
 11
3.2538
 21
1.3508
 31
0.0
  0
LINE
  8
0
  6
CONTINUOUS
 62
   250
 10
3.2538
 20
1.3508
 30
0.0
 11
3.256
 21
1.35036
 31
0.0
  0
LINE
  8
0
  6
CONTINUOUS
 62
   250
 10
3.256
 20
1.35036
 30
0.0
 11
3.2582
 21
1.3508
 31
0.0
  0
LINE
  8
0
  6
CONTINUOUS
 62
   250
 10
3.2582
 20
1.3508
 30
0.0
 11
3.25996
 21
1.35124
 31
0.0
  0
LINE
  8
0
  6
CONTINUOUS
 62
   250
 10
3.25996
 20
1.35124
 30
0.0
 11
3.26216
 21
1.35256
 31
0.0
  0
LINE
  8
0
  6
CONTINUOUS
 62
   250
 10
3.26216
 20
1.35256
 30
0.0
 11
3.26348
 21
1.35388
 31
0.0
  0
LINE
  8
0
  6
CONTINUOUS
 62
   250
 10
3.26348
 20
1.35388
 30
0.0
 11
3.2648
 21
1.35564
 31
0.0
  0
LINE
  8
0
  6
CONTINUOUS
 62
   250
 10
3.2648
 20
1.35564
 30
0.0
 11
3.26524
 21
1.35784
 31
0.0
  0
LINE
  8
0
  6
CONTINUOUS
 62
   250
 10
3.26524
 20
1.35784
 30
0.0
 11
3.26568
 21
1.36004
 31
0.0
  0
LINE
  8
0
  6
CONTINUOUS
 62
   250
 10
3.26568
 20
1.36004
 30
0.0
 11
3.26524
 21
1.36224
 31
0.0
  0
LINE
  8
0
  6
CONTINUOUS
 62
   250
 10
3.26524
 20
1.36224
 30
0.0
 11
3.2648
 21
1.36444
 31
0.0
  0
LINE
  8
0
  6
CONTINUOUS
 62
   250
 10
3.2648
 20
1.36444
 30
0.0
 11
3.26348
 21
1.3662
 31
0.0
  0
LINE
  8
0
  6
CONTINUOUS
 62
   250
 10
3.256
 20
1.36972
 30
0.0
 11
3.256
 21
1.35036
 31
0.0
  0
LINE
  8
0
  6
CONTINUOUS
 62
   250
 10
3.27536
 20
1.34552
 30
0.0
 11
3.12136
 21
1.34552
 31
0.0
  0
LINE
  8
0
  6
CONTINUOUS
 62
   250
 10
3.13324
 20
1.35388
 30
0.0
 11
3.13456
 21
1.35256
 31
0.0
  0
LINE
  8
0
  6
CONTINUOUS
 62
   250
 10
3.13456
 20
1.35256
 30
0.0
 11
3.13676
 21
1.35124
 31
0.0
  0
LINE
  8
0
  6
CONTINUOUS
 62
   250
 10
3.13676
 20
1.35124
 30
0.0
 11
3.13852
 21
1.3508
 31
0.0
  0
LINE
  8
0
  6
CONTINUOUS
 62
   250
 10
3.13852
 20
1.3508
 30
0.0
 11
3.14116
 21
1.35036
 31
0.0
  0
LINE
  8
0
  6
CONTINUOUS
 62
   250
 10
3.14116
 20
1.35036
 30
0.0
 11
3.14292
 21
1.3508
 31
0.0
  0
LINE
  8
0
  6
CONTINUOUS
 62
   250
 10
3.14292
 20
1.3508
 30
0.0
 11
3.14512
 21
1.35124
 31
0.0
  0
LINE
  8
0
  6
CONTINUOUS
 62
   250
 10
3.14512
 20
1.35124
 30
0.0
 11
3.14688
 21
1.35256
 31
0.0
  0
LINE
  8
0
  6
CONTINUOUS
 62
   250
 10
3.14688
 20
1.35256
 30
0.0
 11
3.14864
 21
1.35388
 31
0.0
  0
LINE
  8
0
  6
CONTINUOUS
 62
   250
 10
3.14864
 20
1.35388
 30
0.0
 11
3.14952
 21
1.35564
 31
0.0
  0
LINE
  8
0
  6
CONTINUOUS
 62
   250
 10
3.14952
 20
1.35564
 30
0.0
 11
3.1504
 21
1.35784
 31
0.0
  0
LINE
  8
0
  6
CONTINUOUS
 62
   250
 10
3.1504
 20
1.35784
 30
0.0
 11
3.1504
 21
1.36004
 31
0.0
  0
LINE
  8
0
  6
CONTINUOUS
 62
   250
 10
3.1504
 20
1.36004
 30
0.0
 11
3.1504
 21
1.36224
 31
0.0
  0
LINE
  8
0
  6
CONTINUOUS
 62
   250
 10
3.1504
 20
1.36224
 30
0.0
 11
3.14952
 21
1.36444
 31
0.0
  0
LINE
  8
0
  6
CONTINUOUS
 62
   250
 10
3.14952
 20
1.36444
 30
0.0
 11
3.14864
 21
1.3662
 31
0.0
  0
LINE
  8
0
  6
CONTINUOUS
 62
   250
 10
3.14864
 20
1.3662
 30
0.0
 11
3.14688
 21
1.36752
 31
0.0
  0
LINE
  8
0
  6
CONTINUOUS
 62
   250
 10
3.14688
 20
1.36752
 30
0.0
 11
3.14512
 21
1.36884
 31
0.0
  0
LINE
  8
0
  6
CONTINUOUS
 62
   250
 10
3.14512
 20
1.36884
 30
0.0
 11
3.14292
 21
1.36928
 31
0.0
  0
LINE
  8
0
  6
CONTINUOUS
 62
   250
 10
3.14292
 20
1.36928
 30
0.0
 11
3.14116
 21
1.36972
 31
0.0
  0
LINE
  8
0
  6
CONTINUOUS
 62
   250
 10
3.14116
 20
1.36972
 30
0.0
 11
3.13852
 21
1.36928
 31
0.0
  0
LINE
  8
0
  6
CONTINUOUS
 62
   250
 10
3.13852
 20
1.36928
 30
0.0
 11
3.13676
 21
1.36884
 31
0.0
  0
LINE
  8
0
  6
CONTINUOUS
 62
   250
 10
3.13676
 20
1.36884
 30
0.0
 11
3.13456
 21
1.36752
 31
0.0
  0
LINE
  8
0
  6
CONTINUOUS
 62
   250
 10
3.13456
 20
1.36752
 30
0.0
 11
3.13324
 21
1.3662
 31
0.0
  0
LINE
  8
0
  6
CONTINUOUS
 62
   250
 10
3.13324
 20
1.3662
 30
0.0
 11
3.13236
 21
1.36444
 31
0.0
  0
LINE
  8
0
  6
CONTINUOUS
 62
   250
 10
3.13236
 20
1.36444
 30
0.0
 11
3.13148
 21
1.36224
 31
0.0
  0
LINE
  8
0
  6
CONTINUOUS
 62
   250
 10
3.13148
 20
1.36224
 30
0.0
 11
3.13104
 21
1.36004
 31
0.0
  0
LINE
  8
0
  6
CONTINUOUS
 62
   250
 10
3.13104
 20
1.36004
 30
0.0
 11
3.13148
 21
1.35784
 31
0.0
  0
LINE
  8
0
  6
CONTINUOUS
 62
   250
 10
3.13148
 20
1.35784
 30
0.0
 11
3.13236
 21
1.35564
 31
0.0
  0
LINE
  8
0
  6
CONTINUOUS
 62
   250
 10
3.13236
 20
1.35564
 30
0.0
 11
3.13324
 21
1.35388
 31
0.0
  0
LINE
  8
0
  6
CONTINUOUS
 62
   250
 10
3.14116
 20
1.35036
 30
0.0
 11
3.14116
 21
1.36972
 31
0.0
  0
LINE
  8
0
  6
CONTINUOUS
 62
   250
 10
3.12136
 20
1.37632
 30
0.0
 11
3.12136
 21
1.452
 31
0.0
  0
LINE
  8
0
  6
CONTINUOUS
 62
   250
 10
3.12136
 20
1.452
 30
0.0
 11
3.19792
 21
1.452
 31
0.0
  0
LINE
  8
0
  6
CONTINUOUS
 62
   250
 10
3.19792
 20
1.452
 30
0.0
 11
3.19792
 21
1.37632
 31
0.0
  0
LINE
  8
0
  6
CONTINUOUS
 62
   250
 10
3.18648
 20
1.3662
 30
0.0
 11
3.18472
 21
1.36752
 31
0.0
  0
LINE
  8
0
  6
CONTINUOUS
 62
   250
 10
3.18472
 20
1.36752
 30
0.0
 11
3.18296
 21
1.36884
 31
0.0
  0
LINE
  8
0
  6
CONTINUOUS
 62
   250
 10
3.18296
 20
1.36884
 30
0.0
 11
3.1812
 21
1.36928
 31
0.0
  0
LINE
  8
0
  6
CONTINUOUS
 62
   250
 10
3.1812
 20
1.36928
 30
0.0
 11
3.17856
 21
1.36972
 31
0.0
  0
LINE
  8
0
  6
CONTINUOUS
 62
   250
 10
3.17856
 20
1.36972
 30
0.0
 11
3.17636
 21
1.36928
 31
0.0
  0
LINE
  8
0
  6
CONTINUOUS
 62
   250
 10
3.17636
 20
1.36928
 30
0.0
 11
3.1746
 21
1.36884
 31
0.0
  0
LINE
  8
0
  6
CONTINUOUS
 62
   250
 10
3.1746
 20
1.36884
 30
0.0
 11
3.17284
 21
1.36752
 31
0.0
  0
LINE
  8
0
  6
CONTINUOUS
 62
   250
 10
3.17284
 20
1.36752
 30
0.0
 11
3.17108
 21
1.3662
 31
0.0
  0
LINE
  8
0
  6
CONTINUOUS
 62
   250
 10
3.17108
 20
1.3662
 30
0.0
 11
3.1702
 21
1.36444
 31
0.0
  0
LINE
  8
0
  6
CONTINUOUS
 62
   250
 10
3.1702
 20
1.36444
 30
0.0
 11
3.16932
 21
1.36224
 31
0.0
  0
LINE
  8
0
  6
CONTINUOUS
 62
   250
 10
3.16932
 20
1.36224
 30
0.0
 11
3.16932
 21
1.36004
 31
0.0
  0
LINE
  8
0
  6
CONTINUOUS
 62
   250
 10
3.16932
 20
1.36004
 30
0.0
 11
3.16932
 21
1.35784
 31
0.0
  0
LINE
  8
0
  6
CONTINUOUS
 62
   250
 10
3.16932
 20
1.35784
 30
0.0
 11
3.1702
 21
1.35564
 31
0.0
  0
LINE
  8
0
  6
CONTINUOUS
 62
   250
 10
3.1702
 20
1.35564
 30
0.0
 11
3.17108
 21
1.35388
 31
0.0
  0
LINE
  8
0
  6
CONTINUOUS
 62
   250
 10
3.17108
 20
1.35388
 30
0.0
 11
3.17284
 21
1.35256
 31
0.0
  0
LINE
  8
0
  6
CONTINUOUS
 62
   250
 10
3.17284
 20
1.35256
 30
0.0
 11
3.1746
 21
1.35124
 31
0.0
  0
LINE
  8
0
  6
CONTINUOUS
 62
   250
 10
3.1746
 20
1.35124
 30
0.0
 11
3.17636
 21
1.3508
 31
0.0
  0
LINE
  8
0
  6
CONTINUOUS
 62
   250
 10
3.17636
 20
1.3508
 30
0.0
 11
3.17856
 21
1.35036
 31
0.0
  0
LINE
  8
0
  6
CONTINUOUS
 62
   250
 10
3.17856
 20
1.35036
 30
0.0
 11
3.1812
 21
1.3508
 31
0.0
  0
LINE
  8
0
  6
CONTINUOUS
 62
   250
 10
3.1812
 20
1.3508
 30
0.0
 11
3.18296
 21
1.35124
 31
0.0
  0
LINE
  8
0
  6
CONTINUOUS
 62
   250
 10
3.18296
 20
1.35124
 30
0.0
 11
3.18472
 21
1.35256
 31
0.0
  0
LINE
  8
0
  6
CONTINUOUS
 62
   250
 10
3.18472
 20
1.35256
 30
0.0
 11
3.18648
 21
1.35388
 31
0.0
  0
LINE
  8
0
  6
CONTINUOUS
 62
   250
 10
3.18648
 20
1.35388
 30
0.0
 11
3.18736
 21
1.35564
 31
0.0
  0
LINE
  8
0
  6
CONTINUOUS
 62
   250
 10
3.18736
 20
1.35564
 30
0.0
 11
3.18824
 21
1.35784
 31
0.0
  0
LINE
  8
0
  6
CONTINUOUS
 62
   250
 10
3.18824
 20
1.35784
 30
0.0
 11
3.18868
 21
1.36004
 31
0.0
  0
LINE
  8
0
  6
CONTINUOUS
 62
   250
 10
3.18868
 20
1.36004
 30
0.0
 11
3.18824
 21
1.36224
 31
0.0
  0
LINE
  8
0
  6
CONTINUOUS
 62
   250
 10
3.18824
 20
1.36224
 30
0.0
 11
3.18736
 21
1.36444
 31
0.0
  0
LINE
  8
0
  6
CONTINUOUS
 62
   250
 10
3.18736
 20
1.36444
 30
0.0
 11
3.18648
 21
1.3662
 31
0.0
  0
LINE
  8
0
  6
CONTINUOUS
 62
   250
 10
3.18868
 20
1.36004
 30
0.0
 11
3.16932
 21
1.36004
 31
0.0
  0
LINE
  8
0
  6
CONTINUOUS
 62
   250
 10
3.2076
 20
1.36004
 30
0.0
 11
3.20804
 21
1.35784
 31
0.0
  0
LINE
  8
0
  6
CONTINUOUS
 62
   250
 10
3.20804
 20
1.35784
 30
0.0
 11
3.20892
 21
1.35564
 31
0.0
  0
LINE
  8
0
  6
CONTINUOUS
 62
   250
 10
3.20892
 20
1.35564
 30
0.0
 11
3.2098
 21
1.35388
 31
0.0
  0
LINE
  8
0
  6
CONTINUOUS
 62
   250
 10
3.2098
 20
1.35388
 30
0.0
 11
3.21156
 21
1.35256
 31
0.0
  0
LINE
  8
0
  6
CONTINUOUS
 62
   250
 10
3.21156
 20
1.35256
 30
0.0
 11
3.21332
 21
1.35124
 31
0.0
  0
LINE
  8
0
  6
CONTINUOUS
 62
   250
 10
3.21332
 20
1.35124
 30
0.0
 11
3.21508
 21
1.3508
 31
0.0
  0
LINE
  8
0
  6
CONTINUOUS
 62
   250
 10
3.21508
 20
1.3508
 30
0.0
 11
3.21728
 21
1.35036
 31
0.0
  0
LINE
  8
0
  6
CONTINUOUS
 62
   250
 10
3.21728
 20
1.35036
 30
0.0
 11
3.21948
 21
1.3508
 31
0.0
  0
LINE
  8
0
  6
CONTINUOUS
 62
   250
 10
3.21948
 20
1.3508
 30
0.0
 11
3.22168
 21
1.35124
 31
0.0
  0
LINE
  8
0
  6
CONTINUOUS
 62
   250
 10
3.22168
 20
1.35124
 30
0.0
 11
3.22344
 21
1.35256
 31
0.0
  0
LINE
  8
0
  6
CONTINUOUS
 62
   250
 10
3.22344
 20
1.35256
 30
0.0
 11
3.2252
 21
1.35388
 31
0.0
  0
LINE
  8
0
  6
CONTINUOUS
 62
   250
 10
3.2252
 20
1.35388
 30
0.0
 11
3.22608
 21
1.35564
 31
0.0
  0
LINE
  8
0
  6
CONTINUOUS
 62
   250
 10
3.22608
 20
1.35564
 30
0.0
 11
3.22696
 21
1.35784
 31
0.0
  0
LINE
  8
0
  6
CONTINUOUS
 62
   250
 10
3.22696
 20
1.35784
 30
0.0
 11
3.22696
 21
1.36004
 31
0.0
  0
LINE
  8
0
  6
CONTINUOUS
 62
   250
 10
3.22696
 20
1.36004
 30
0.0
 11
3.22696
 21
1.36224
 31
0.0
  0
LINE
  8
0
  6
CONTINUOUS
 62
   250
 10
3.22696
 20
1.36224
 30
0.0
 11
3.22608
 21
1.36444
 31
0.0
  0
LINE
  8
0
  6
CONTINUOUS
 62
   250
 10
3.22608
 20
1.36444
 30
0.0
 11
3.2252
 21
1.3662
 31
0.0
  0
LINE
  8
0
  6
CONTINUOUS
 62
   250
 10
3.2252
 20
1.3662
 30
0.0
 11
3.22344
 21
1.36752
 31
0.0
  0
LINE
  8
0
  6
CONTINUOUS
 62
   250
 10
3.22344
 20
1.36752
 30
0.0
 11
3.22168
 21
1.36884
 31
0.0
  0
LINE
  8
0
  6
CONTINUOUS
 62
   250
 10
3.22168
 20
1.36884
 30
0.0
 11
3.21948
 21
1.36928
 31
0.0
  0
LINE
  8
0
  6
CONTINUOUS
 62
   250
 10
3.21948
 20
1.36928
 30
0.0
 11
3.21728
 21
1.36972
 31
0.0
  0
LINE
  8
0
  6
CONTINUOUS
 62
   250
 10
3.21728
 20
1.36972
 30
0.0
 11
3.21508
 21
1.36928
 31
0.0
  0
LINE
  8
0
  6
CONTINUOUS
 62
   250
 10
3.21508
 20
1.36928
 30
0.0
 11
3.21332
 21
1.36884
 31
0.0
  0
LINE
  8
0
  6
CONTINUOUS
 62
   250
 10
3.21332
 20
1.36884
 30
0.0
 11
3.21156
 21
1.36752
 31
0.0
  0
LINE
  8
0
  6
CONTINUOUS
 62
   250
 10
3.21156
 20
1.36752
 30
0.0
 11
3.2098
 21
1.3662
 31
0.0
  0
LINE
  8
0
  6
CONTINUOUS
 62
   250
 10
3.2098
 20
1.3662
 30
0.0
 11
3.20892
 21
1.36444
 31
0.0
  0
LINE
  8
0
  6
CONTINUOUS
 62
   250
 10
3.20892
 20
1.36444
 30
0.0
 11
3.20804
 21
1.36224
 31
0.0
  0
LINE
  8
0
  6
CONTINUOUS
 62
   250
 10
3.20804
 20
1.36224
 30
0.0
 11
3.2076
 21
1.36004
 31
0.0
  0
LINE
  8
0
  6
CONTINUOUS
 62
   250
 10
3.2076
 20
1.36004
 30
0.0
 11
3.22696
 21
1.36004
 31
0.0
  0
LINE
  8
0
  6
CONTINUOUS
 62
   250
 10
3.27536
 20
1.38468
 30
0.0
 11
3.27536
 21
1.452
 31
0.0
  0
LINE
  8
0
  6
CONTINUOUS
 62
   250
 10
3.44212
 20
1.452
 30
0.0
 11
3.44212
 21
1.38468
 31
0.0
  0
LINE
  8
0
  6
CONTINUOUS
 62
   250
 10
3.33784
 20
1.606
 30
0.0
 11
3.26084
 21
1.606
 31
0.0
  0
LINE
  8
0
  6
CONTINUOUS
 62
   250
 10
3.26084
 20
1.67552
 30
0.0
 11
3.26084
 21
1.71248
 31
0.0
  0
LINE
  8
0
  6
CONTINUOUS
 62
   250
 10
3.26084
 20
1.71248
 30
0.0
 11
3.33784
 21
1.71248
 31
0.0
  0
LINE
  8
0
  6
CONTINUOUS
 62
   250
 10
3.33784
 20
1.71248
 30
0.0
 11
3.33784
 21
1.67552
 31
0.0
  0
LINE
  8
0
  6
CONTINUOUS
 62
   250
 10
3.35104
 20
1.67552
 30
0.0
 11
3.35104
 21
1.71248
 31
0.0
  0
LINE
  8
0
  6
CONTINUOUS
 62
   250
 10
3.3264
 20
1.70368
 30
0.0
 11
3.32464
 21
1.70544
 31
0.0
  0
LINE
  8
0
  6
CONTINUOUS
 62
   250
 10
3.32464
 20
1.70544
 30
0.0
 11
3.32288
 21
1.70632
 31
0.0
  0
LINE
  8
0
  6
CONTINUOUS
 62
   250
 10
3.32288
 20
1.70632
 30
0.0
 11
3.32068
 21
1.7072
 31
0.0
  0
LINE
  8
0
  6
CONTINUOUS
 62
   250
 10
3.32068
 20
1.7072
 30
0.0
 11
3.31892
 21
1.7072
 31
0.0
  0
LINE
  8
0
  6
CONTINUOUS
 62
   250
 10
3.31892
 20
1.7072
 30
0.0
 11
3.31628
 21
1.7072
 31
0.0
  0
LINE
  8
0
  6
CONTINUOUS
 62
   250
 10
3.31628
 20
1.7072
 30
0.0
 11
3.31452
 21
1.70632
 31
0.0
  0
LINE
  8
0
  6
CONTINUOUS
 62
   250
 10
3.31452
 20
1.70632
 30
0.0
 11
3.31276
 21
1.70544
 31
0.0
  0
LINE
  8
0
  6
CONTINUOUS
 62
   250
 10
3.31276
 20
1.70544
 30
0.0
 11
3.311
 21
1.70368
 31
0.0
  0
LINE
  8
0
  6
CONTINUOUS
 62
   250
 10
3.311
 20
1.70368
 30
0.0
 11
3.31012
 21
1.70192
 31
0.0
  0
LINE
  8
0
  6
CONTINUOUS
 62
   250
 10
3.31012
 20
1.70192
 30
0.0
 11
3.30924
 21
1.69972
 31
0.0
  0
LINE
  8
0
  6
CONTINUOUS
 62
   250
 10
3.30924
 20
1.69972
 30
0.0
 11
3.3088
 21
1.69796
 31
0.0
  0
LINE
  8
0
  6
CONTINUOUS
 62
   250
 10
3.3088
 20
1.69796
 30
0.0
 11
3.30924
 21
1.69576
 31
0.0
  0
LINE
  8
0
  6
CONTINUOUS
 62
   250
 10
3.30924
 20
1.69576
 30
0.0
 11
3.31012
 21
1.69356
 31
0.0
  0
LINE
  8
0
  6
CONTINUOUS
 62
   250
 10
3.31012
 20
1.69356
 30
0.0
 11
3.311
 21
1.6918
 31
0.0
  0
LINE
  8
0
  6
CONTINUOUS
 62
   250
 10
3.311
 20
1.6918
 30
0.0
 11
3.31276
 21
1.69004
 31
0.0
  0
LINE
  8
0
  6
CONTINUOUS
 62
   250
 10
3.31276
 20
1.69004
 30
0.0
 11
3.31452
 21
1.68916
 31
0.0
  0
LINE
  8
0
  6
CONTINUOUS
 62
   250
 10
3.31452
 20
1.68916
 30
0.0
 11
3.31628
 21
1.68828
 31
0.0
  0
LINE
  8
0
  6
CONTINUOUS
 62
   250
 10
3.31628
 20
1.68828
 30
0.0
 11
3.31892
 21
1.68828
 31
0.0
  0
LINE
  8
0
  6
CONTINUOUS
 62
   250
 10
3.31892
 20
1.68828
 30
0.0
 11
3.32068
 21
1.68828
 31
0.0
  0
LINE
  8
0
  6
CONTINUOUS
 62
   250
 10
3.32068
 20
1.68828
 30
0.0
 11
3.32288
 21
1.68916
 31
0.0
  0
LINE
  8
0
  6
CONTINUOUS
 62
   250
 10
3.32288
 20
1.68916
 30
0.0
 11
3.32464
 21
1.69004
 31
0.0
  0
LINE
  8
0
  6
CONTINUOUS
 62
   250
 10
3.32464
 20
1.69004
 30
0.0
 11
3.3264
 21
1.6918
 31
0.0
  0
LINE
  8
0
  6
CONTINUOUS
 62
   250
 10
3.3264
 20
1.6918
 30
0.0
 11
3.32728
 21
1.69356
 31
0.0
  0
LINE
  8
0
  6
CONTINUOUS
 62
   250
 10
3.32728
 20
1.69356
 30
0.0
 11
3.32816
 21
1.69576
 31
0.0
  0
LINE
  8
0
  6
CONTINUOUS
 62
   250
 10
3.32816
 20
1.69576
 30
0.0
 11
3.32816
 21
1.69796
 31
0.0
  0
LINE
  8
0
  6
CONTINUOUS
 62
   250
 10
3.32816
 20
1.69796
 30
0.0
 11
3.32816
 21
1.69972
 31
0.0
  0
LINE
  8
0
  6
CONTINUOUS
 62
   250
 10
3.32816
 20
1.69972
 30
0.0
 11
3.32728
 21
1.70192
 31
0.0
  0
LINE
  8
0
  6
CONTINUOUS
 62
   250
 10
3.32728
 20
1.70192
 30
0.0
 11
3.3264
 21
1.70368
 31
0.0
  0
LINE
  8
0
  6
CONTINUOUS
 62
   250
 10
3.32068
 20
1.7072
 30
0.0
 11
3.32068
 21
1.68828
 31
0.0
  0
LINE
  8
0
  6
CONTINUOUS
 62
   250
 10
3.28592
 20
1.69004
 30
0.0
 11
3.28768
 21
1.6918
 31
0.0
  0
LINE
  8
0
  6
CONTINUOUS
 62
   250
 10
3.28768
 20
1.6918
 30
0.0
 11
3.28856
 21
1.69356
 31
0.0
  0
LINE
  8
0
  6
CONTINUOUS
 62
   250
 10
3.28856
 20
1.69356
 30
0.0
 11
3.28944
 21
1.69576
 31
0.0
  0
LINE
  8
0
  6
CONTINUOUS
 62
   250
 10
3.28944
 20
1.69576
 30
0.0
 11
3.28988
 21
1.69796
 31
0.0
  0
LINE
  8
0
  6
CONTINUOUS
 62
   250
 10
3.28988
 20
1.69796
 30
0.0
 11
3.28944
 21
1.69972
 31
0.0
  0
LINE
  8
0
  6
CONTINUOUS
 62
   250
 10
3.28944
 20
1.69972
 30
0.0
 11
3.28856
 21
1.70192
 31
0.0
  0
LINE
  8
0
  6
CONTINUOUS
 62
   250
 10
3.28856
 20
1.70192
 30
0.0
 11
3.28768
 21
1.70368
 31
0.0
  0
LINE
  8
0
  6
CONTINUOUS
 62
   250
 10
3.28768
 20
1.70368
 30
0.0
 11
3.28592
 21
1.70544
 31
0.0
  0
LINE
  8
0
  6
CONTINUOUS
 62
   250
 10
3.28592
 20
1.70544
 30
0.0
 11
3.28416
 21
1.70632
 31
0.0
  0
LINE
  8
0
  6
CONTINUOUS
 62
   250
 10
3.28416
 20
1.70632
 30
0.0
 11
3.2824
 21
1.7072
 31
0.0
  0
LINE
  8
0
  6
CONTINUOUS
 62
   250
 10
3.2824
 20
1.7072
 30
0.0
 11
3.2802
 21
1.7072
 31
0.0
  0
LINE
  8
0
  6
CONTINUOUS
 62
   250
 10
3.2802
 20
1.7072
 30
0.0
 11
3.278
 21
1.7072
 31
0.0
  0
LINE
  8
0
  6
CONTINUOUS
 62
   250
 10
3.278
 20
1.7072
 30
0.0
 11
3.2758
 21
1.70632
 31
0.0
  0
LINE
  8
0
  6
CONTINUOUS
 62
   250
 10
3.2758
 20
1.70632
 30
0.0
 11
3.27404
 21
1.70544
 31
0.0
  0
LINE
  8
0
  6
CONTINUOUS
 62
   250
 10
3.27404
 20
1.70544
 30
0.0
 11
3.27272
 21
1.70368
 31
0.0
  0
LINE
  8
0
  6
CONTINUOUS
 62
   250
 10
3.27272
 20
1.70368
 30
0.0
 11
3.2714
 21
1.70192
 31
0.0
  0
LINE
  8
0
  6
CONTINUOUS
 62
   250
 10
3.2714
 20
1.70192
 30
0.0
 11
3.27052
 21
1.69972
 31
0.0
  0
LINE
  8
0
  6
CONTINUOUS
 62
   250
 10
3.27052
 20
1.69972
 30
0.0
 11
3.27052
 21
1.69796
 31
0.0
  0
LINE
  8
0
  6
CONTINUOUS
 62
   250
 10
3.27052
 20
1.69796
 30
0.0
 11
3.27052
 21
1.69576
 31
0.0
  0
LINE
  8
0
  6
CONTINUOUS
 62
   250
 10
3.27052
 20
1.69576
 30
0.0
 11
3.2714
 21
1.69356
 31
0.0
  0
LINE
  8
0
  6
CONTINUOUS
 62
   250
 10
3.2714
 20
1.69356
 30
0.0
 11
3.27272
 21
1.6918
 31
0.0
  0
LINE
  8
0
  6
CONTINUOUS
 62
   250
 10
3.27272
 20
1.6918
 30
0.0
 11
3.27404
 21
1.69004
 31
0.0
  0
LINE
  8
0
  6
CONTINUOUS
 62
   250
 10
3.27404
 20
1.69004
 30
0.0
 11
3.2758
 21
1.68916
 31
0.0
  0
LINE
  8
0
  6
CONTINUOUS
 62
   250
 10
3.2758
 20
1.68916
 30
0.0
 11
3.278
 21
1.68828
 31
0.0
  0
LINE
  8
0
  6
CONTINUOUS
 62
   250
 10
3.278
 20
1.68828
 30
0.0
 11
3.2802
 21
1.68828
 31
0.0
  0
LINE
  8
0
  6
CONTINUOUS
 62
   250
 10
3.2802
 20
1.68828
 30
0.0
 11
3.2824
 21
1.68828
 31
0.0
  0
LINE
  8
0
  6
CONTINUOUS
 62
   250
 10
3.2824
 20
1.68828
 30
0.0
 11
3.28416
 21
1.68916
 31
0.0
  0
LINE
  8
0
  6
CONTINUOUS
 62
   250
 10
3.28416
 20
1.68916
 30
0.0
 11
3.28592
 21
1.69004
 31
0.0
  0
LINE
  8
0
  6
CONTINUOUS
 62
   250
 10
3.28988
 20
1.69796
 30
0.0
 11
3.27052
 21
1.69796
 31
0.0
  0
LINE
  8
0
  6
CONTINUOUS
 62
   250
 10
3.23884
 20
1.69796
 30
0.0
 11
3.23884
 21
1.69972
 31
0.0
  0
LINE
  8
0
  6
CONTINUOUS
 62
   250
 10
3.23884
 20
1.69972
 30
0.0
 11
3.23796
 21
1.70192
 31
0.0
  0
LINE
  8
0
  6
CONTINUOUS
 62
   250
 10
3.23796
 20
1.70192
 30
0.0
 11
3.23664
 21
1.70368
 31
0.0
  0
LINE
  8
0
  6
CONTINUOUS
 62
   250
 10
3.23664
 20
1.70368
 30
0.0
 11
3.23532
 21
1.70544
 31
0.0
  0
LINE
  8
0
  6
CONTINUOUS
 62
   250
 10
3.23532
 20
1.70544
 30
0.0
 11
3.23356
 21
1.70632
 31
0.0
  0
LINE
  8
0
  6
CONTINUOUS
 62
   250
 10
3.23356
 20
1.70632
 30
0.0
 11
3.23136
 21
1.7072
 31
0.0
  0
LINE
  8
0
  6
CONTINUOUS
 62
   250
 10
3.23136
 20
1.7072
 30
0.0
 11
3.22916
 21
1.7072
 31
0.0
  0
LINE
  8
0
  6
CONTINUOUS
 62
   250
 10
3.22916
 20
1.7072
 30
0.0
 11
3.22696
 21
1.7072
 31
0.0
  0
LINE
  8
0
  6
CONTINUOUS
 62
   250
 10
3.22696
 20
1.7072
 30
0.0
 11
3.2252
 21
1.70632
 31
0.0
  0
LINE
  8
0
  6
CONTINUOUS
 62
   250
 10
3.2252
 20
1.70632
 30
0.0
 11
3.223
 21
1.70544
 31
0.0
  0
LINE
  8
0
  6
CONTINUOUS
 62
   250
 10
3.223
 20
1.70544
 30
0.0
 11
3.22168
 21
1.70368
 31
0.0
  0
LINE
  8
0
  6
CONTINUOUS
 62
   250
 10
3.22168
 20
1.70368
 30
0.0
 11
3.22036
 21
1.70192
 31
0.0
  0
LINE
  8
0
  6
CONTINUOUS
 62
   250
 10
3.22036
 20
1.70192
 30
0.0
 11
3.21992
 21
1.69972
 31
0.0
  0
LINE
  8
0
  6
CONTINUOUS
 62
   250
 10
3.21992
 20
1.69972
 30
0.0
 11
3.21948
 21
1.69796
 31
0.0
  0
LINE
  8
0
  6
CONTINUOUS
 62
   250
 10
3.21948
 20
1.69796
 30
0.0
 11
3.21992
 21
1.69576
 31
0.0
  0
LINE
  8
0
  6
CONTINUOUS
 62
   250
 10
3.21992
 20
1.69576
 30
0.0
 11
3.22036
 21
1.69356
 31
0.0
  0
LINE
  8
0
  6
CONTINUOUS
 62
   250
 10
3.22036
 20
1.69356
 30
0.0
 11
3.22168
 21
1.6918
 31
0.0
  0
LINE
  8
0
  6
CONTINUOUS
 62
   250
 10
3.22168
 20
1.6918
 30
0.0
 11
3.223
 21
1.69004
 31
0.0
  0
LINE
  8
0
  6
CONTINUOUS
 62
   250
 10
3.223
 20
1.69004
 30
0.0
 11
3.2252
 21
1.68916
 31
0.0
  0
LINE
  8
0
  6
CONTINUOUS
 62
   250
 10
3.2252
 20
1.68916
 30
0.0
 11
3.22696
 21
1.68828
 31
0.0
  0
LINE
  8
0
  6
CONTINUOUS
 62
   250
 10
3.22696
 20
1.68828
 30
0.0
 11
3.22916
 21
1.68828
 31
0.0
  0
LINE
  8
0
  6
CONTINUOUS
 62
   250
 10
3.22916
 20
1.68828
 30
0.0
 11
3.23136
 21
1.68828
 31
0.0
  0
LINE
  8
0
  6
CONTINUOUS
 62
   250
 10
3.23136
 20
1.68828
 30
0.0
 11
3.23356
 21
1.68916
 31
0.0
  0
LINE
  8
0
  6
CONTINUOUS
 62
   250
 10
3.23356
 20
1.68916
 30
0.0
 11
3.23532
 21
1.69004
 31
0.0
  0
LINE
  8
0
  6
CONTINUOUS
 62
   250
 10
3.23532
 20
1.69004
 30
0.0
 11
3.23664
 21
1.6918
 31
0.0
  0
LINE
  8
0
  6
CONTINUOUS
 62
   250
 10
3.23664
 20
1.6918
 30
0.0
 11
3.23796
 21
1.69356
 31
0.0
  0
LINE
  8
0
  6
CONTINUOUS
 62
   250
 10
3.23796
 20
1.69356
 30
0.0
 11
3.23884
 21
1.69576
 31
0.0
  0
LINE
  8
0
  6
CONTINUOUS
 62
   250
 10
3.23884
 20
1.69576
 30
0.0
 11
3.23884
 21
1.69796
 31
0.0
  0
LINE
  8
0
  6
CONTINUOUS
 62
   250
 10
3.23092
 20
1.7072
 30
0.0
 11
3.23092
 21
1.68828
 31
0.0
  0
LINE
  8
0
  6
CONTINUOUS
 62
   250
 10
3.24852
 20
1.68212
 30
0.0
 11
3.24852
 21
1.67552
 31
0.0
  0
LINE
  8
0
  6
CONTINUOUS
 62
   250
 10
3.24852
 20
1.71248
 30
0.0
 11
3.17152
 21
1.71248
 31
0.0
  0
LINE
  8
0
  6
CONTINUOUS
 62
   250
 10
3.17152
 20
1.71248
 30
0.0
 11
3.17152
 21
1.67552
 31
0.0
  0
LINE
  8
0
  6
CONTINUOUS
 62
   250
 10
3.18296
 20
1.6918
 30
0.0
 11
3.18472
 21
1.69004
 31
0.0
  0
LINE
  8
0
  6
CONTINUOUS
 62
   250
 10
3.18472
 20
1.69004
 30
0.0
 11
3.18648
 21
1.68916
 31
0.0
  0
LINE
  8
0
  6
CONTINUOUS
 62
   250
 10
3.18648
 20
1.68916
 30
0.0
 11
3.18868
 21
1.68828
 31
0.0
  0
LINE
  8
0
  6
CONTINUOUS
 62
   250
 10
3.18868
 20
1.68828
 30
0.0
 11
3.19044
 21
1.68828
 31
0.0
  0
LINE
  8
0
  6
CONTINUOUS
 62
   250
 10
3.19044
 20
1.68828
 30
0.0
 11
3.19264
 21
1.68828
 31
0.0
  0
LINE
  8
0
  6
CONTINUOUS
 62
   250
 10
3.19264
 20
1.68828
 30
0.0
 11
3.19484
 21
1.68916
 31
0.0
  0
LINE
  8
0
  6
CONTINUOUS
 62
   250
 10
3.19484
 20
1.68916
 30
0.0
 11
3.1966
 21
1.69004
 31
0.0
  0
LINE
  8
0
  6
CONTINUOUS
 62
   250
 10
3.1966
 20
1.69004
 30
0.0
 11
3.19792
 21
1.6918
 31
0.0
  0
LINE
  8
0
  6
CONTINUOUS
 62
   250
 10
3.19792
 20
1.6918
 30
0.0
 11
3.19924
 21
1.69356
 31
0.0
  0
LINE
  8
0
  6
CONTINUOUS
 62
   250
 10
3.19924
 20
1.69356
 30
0.0
 11
3.20012
 21
1.69576
 31
0.0
  0
LINE
  8
0
  6
CONTINUOUS
 62
   250
 10
3.20012
 20
1.69576
 30
0.0
 11
3.20012
 21
1.69796
 31
0.0
  0
LINE
  8
0
  6
CONTINUOUS
 62
   250
 10
3.20012
 20
1.69796
 30
0.0
 11
3.20012
 21
1.69972
 31
0.0
  0
LINE
  8
0
  6
CONTINUOUS
 62
   250
 10
3.20012
 20
1.69972
 30
0.0
 11
3.19924
 21
1.70192
 31
0.0
  0
LINE
  8
0
  6
CONTINUOUS
 62
   250
 10
3.19924
 20
1.70192
 30
0.0
 11
3.19792
 21
1.70368
 31
0.0
  0
LINE
  8
0
  6
CONTINUOUS
 62
   250
 10
3.19792
 20
1.70368
 30
0.0
 11
3.1966
 21
1.70544
 31
0.0
  0
LINE
  8
0
  6
CONTINUOUS
 62
   250
 10
3.1966
 20
1.70544
 30
0.0
 11
3.19484
 21
1.70632
 31
0.0
  0
LINE
  8
0
  6
CONTINUOUS
 62
   250
 10
3.19484
 20
1.70632
 30
0.0
 11
3.19264
 21
1.7072
 31
0.0
  0
LINE
  8
0
  6
CONTINUOUS
 62
   250
 10
3.19264
 20
1.7072
 30
0.0
 11
3.19044
 21
1.7072
 31
0.0
  0
LINE
  8
0
  6
CONTINUOUS
 62
   250
 10
3.19044
 20
1.7072
 30
0.0
 11
3.18868
 21
1.7072
 31
0.0
  0
LINE
  8
0
  6
CONTINUOUS
 62
   250
 10
3.18868
 20
1.7072
 30
0.0
 11
3.18648
 21
1.70632
 31
0.0
  0
LINE
  8
0
  6
CONTINUOUS
 62
   250
 10
3.18648
 20
1.70632
 30
0.0
 11
3.18472
 21
1.70544
 31
0.0
  0
LINE
  8
0
  6
CONTINUOUS
 62
   250
 10
3.18472
 20
1.70544
 30
0.0
 11
3.18296
 21
1.70368
 31
0.0
  0
LINE
  8
0
  6
CONTINUOUS
 62
   250
 10
3.18296
 20
1.70368
 30
0.0
 11
3.18164
 21
1.70192
 31
0.0
  0
LINE
  8
0
  6
CONTINUOUS
 62
   250
 10
3.18164
 20
1.70192
 30
0.0
 11
3.1812
 21
1.69972
 31
0.0
  0
LINE
  8
0
  6
CONTINUOUS
 62
   250
 10
3.1812
 20
1.69972
 30
0.0
 11
3.1812
 21
1.69796
 31
0.0
  0
LINE
  8
0
  6
CONTINUOUS
 62
   250
 10
3.1812
 20
1.69796
 30
0.0
 11
3.1812
 21
1.69576
 31
0.0
  0
LINE
  8
0
  6
CONTINUOUS
 62
   250
 10
3.1812
 20
1.69576
 30
0.0
 11
3.18164
 21
1.69356
 31
0.0
  0
LINE
  8
0
  6
CONTINUOUS
 62
   250
 10
3.18164
 20
1.69356
 30
0.0
 11
3.18296
 21
1.6918
 31
0.0
  0
LINE
  8
0
  6
CONTINUOUS
 62
   250
 10
3.1812
 20
1.69796
 30
0.0
 11
3.20012
 21
1.69796
 31
0.0
  0
LINE
  8
0
  6
CONTINUOUS
 62
   250
 10
3.17152
 20
1.606
 30
0.0
 11
3.24852
 21
1.606
 31
0.0
  0
LINE
  8
0
  6
CONTINUOUS
 62
   250
 10
3.1768
 20
1.58268
 30
0.0
 11
3.1746
 21
1.58268
 31
0.0
  0
LINE
  8
0
  6
CONTINUOUS
 62
   250
 10
3.1746
 20
1.58268
 30
0.0
 11
3.17284
 21
1.5818
 31
0.0
  0
LINE
  8
0
  6
CONTINUOUS
 62
   250
 10
3.17284
 20
1.5818
 30
0.0
 11
3.17152
 21
1.58048
 31
0.0
  0
LINE
  8
0
  6
CONTINUOUS
 62
   250
 10
3.17152
 20
1.58048
 30
0.0
 11
3.1702
 21
1.57916
 31
0.0
  0
LINE
  8
0
  6
CONTINUOUS
 62
   250
 10
3.1702
 20
1.57916
 30
0.0
 11
3.16932
 21
1.57696
 31
0.0
  0
LINE
  8
0
  6
CONTINUOUS
 62
   250
 10
3.16932
 20
1.57696
 30
0.0
 11
3.16888
 21
1.5752
 31
0.0
  0
LINE
  8
0
  6
CONTINUOUS
 62
   250
 10
3.16888
 20
1.5752
 30
0.0
 11
3.16888
 21
1.4828
 31
0.0
  0
LINE
  8
0
  6
CONTINUOUS
 62
   250
 10
3.16888
 20
1.4828
 30
0.0
 11
3.16932
 21
1.48104
 31
0.0
  0
LINE
  8
0
  6
CONTINUOUS
 62
   250
 10
3.16932
 20
1.48104
 30
0.0
 11
3.1702
 21
1.47884
 31
0.0
  0
LINE
  8
0
  6
CONTINUOUS
 62
   250
 10
3.1702
 20
1.47884
 30
0.0
 11
3.17152
 21
1.47752
 31
0.0
  0
LINE
  8
0
  6
CONTINUOUS
 62
   250
 10
3.17152
 20
1.47752
 30
0.0
 11
3.17284
 21
1.4762
 31
0.0
  0
LINE
  8
0
  6
CONTINUOUS
 62
   250
 10
3.17284
 20
1.4762
 30
0.0
 11
3.1746
 21
1.47532
 31
0.0
  0
LINE
  8
0
  6
CONTINUOUS
 62
   250
 10
3.1746
 20
1.47532
 30
0.0
 11
3.1768
 21
1.47532
 31
0.0
  0
LINE
  8
0
  6
CONTINUOUS
 62
   250
 10
3.1768
 20
1.47532
 30
0.0
 11
3.54948
 21
1.47532
 31
0.0
  0
LINE
  8
0
  6
CONTINUOUS
 62
   250
 10
3.54948
 20
1.47532
 30
0.0
 11
3.55168
 21
1.47532
 31
0.0
  0
LINE
  8
0
  6
CONTINUOUS
 62
   250
 10
3.55168
 20
1.47532
 30
0.0
 11
3.55344
 21
1.4762
 31
0.0
  0
LINE
  8
0
  6
CONTINUOUS
 62
   250
 10
3.55344
 20
1.4762
 30
0.0
 11
3.5552
 21
1.47752
 31
0.0
  0
LINE
  8
0
  6
CONTINUOUS
 62
   250
 10
3.5552
 20
1.47752
 30
0.0
 11
3.55608
 21
1.47884
 31
0.0
  0
LINE
  8
0
  6
CONTINUOUS
 62
   250
 10
3.55608
 20
1.47884
 30
0.0
 11
3.55696
 21
1.48104
 31
0.0
  0
LINE
  8
0
  6
CONTINUOUS
 62
   250
 10
3.55696
 20
1.48104
 30
0.0
 11
3.5574
 21
1.4828
 31
0.0
  0
LINE
  8
0
  6
CONTINUOUS
 62
   250
 10
3.5574
 20
1.4828
 30
0.0
 11
3.5574
 21
1.5752
 31
0.0
  0
LINE
  8
0
  6
CONTINUOUS
 62
   250
 10
3.5574
 20
1.5752
 30
0.0
 11
3.55696
 21
1.57696
 31
0.0
  0
LINE
  8
0
  6
CONTINUOUS
 62
   250
 10
3.55696
 20
1.57696
 30
0.0
 11
3.55608
 21
1.57916
 31
0.0
  0
LINE
  8
0
  6
CONTINUOUS
 62
   250
 10
3.55608
 20
1.57916
 30
0.0
 11
3.5552
 21
1.58048
 31
0.0
  0
LINE
  8
0
  6
CONTINUOUS
 62
   250
 10
3.5552
 20
1.58048
 30
0.0
 11
3.55344
 21
1.5818
 31
0.0
  0
LINE
  8
0
  6
CONTINUOUS
 62
   250
 10
3.55344
 20
1.5818
 30
0.0
 11
3.55168
 21
1.58268
 31
0.0
  0
LINE
  8
0
  6
CONTINUOUS
 62
   250
 10
3.55168
 20
1.58268
 30
0.0
 11
3.54948
 21
1.58268
 31
0.0
  0
LINE
  8
0
  6
CONTINUOUS
 62
   250
 10
3.54948
 20
1.58268
 30
0.0
 11
3.1768
 21
1.58268
 31
0.0
  0
LINE
  8
0
  6
CONTINUOUS
 62
   250
 10
3.00696
 20
1.57652
 30
0.0
 11
3.00696
 21
1.51536
 31
0.0
  0
LINE
  8
0
  6
CONTINUOUS
 62
   250
 10
2.97308
 20
1.529
 30
0.0
 11
2.97132
 21
1.53076
 31
0.0
  0
LINE
  8
0
  6
CONTINUOUS
 62
   250
 10
2.97132
 20
1.53076
 30
0.0
 11
2.97
 21
1.5334
 31
0.0
  0
LINE
  8
0
  6
CONTINUOUS
 62
   250
 10
2.97
 20
1.5334
 30
0.0
 11
2.96912
 21
1.53604
 31
0.0
  0
LINE
  8
0
  6
CONTINUOUS
 62
   250
 10
2.96912
 20
1.53604
 30
0.0
 11
2.96912
 21
1.53824
 31
0.0
  0
LINE
  8
0
  6
CONTINUOUS
 62
   250
 10
2.97308
 20
1.529
 30
0.0
 11
2.97484
 21
1.52724
 31
0.0
  0
LINE
  8
0
  6
CONTINUOUS
 62
   250
 10
2.97484
 20
1.52724
 30
0.0
 11
2.97748
 21
1.52592
 31
0.0
  0
LINE
  8
0
  6
CONTINUOUS
 62
   250
 10
2.97748
 20
1.52592
 30
0.0
 11
2.97968
 21
1.52548
 31
0.0
  0
LINE
  8
0
  6
CONTINUOUS
 62
   250
 10
2.97968
 20
1.52548
 30
0.0
 11
2.98232
 21
1.52504
 31
0.0
  0
LINE
  8
0
  6
CONTINUOUS
 62
   250
 10
2.98232
 20
1.52504
 30
0.0
 11
2.98496
 21
1.52548
 31
0.0
  0
LINE
  8
0
  6
CONTINUOUS
 62
   250
 10
2.98496
 20
1.52548
 30
0.0
 11
2.9876
 21
1.52592
 31
0.0
  0
LINE
  8
0
  6
CONTINUOUS
 62
   250
 10
2.9876
 20
1.52592
 30
0.0
 11
2.9898
 21
1.52724
 31
0.0
  0
LINE
  8
0
  6
CONTINUOUS
 62
   250
 10
2.9898
 20
1.52724
 30
0.0
 11
2.99156
 21
1.529
 31
0.0
  0
LINE
  8
0
  6
CONTINUOUS
 62
   250
 10
2.99156
 20
1.529
 30
0.0
 11
2.99332
 21
1.53076
 31
0.0
  0
LINE
  8
0
  6
CONTINUOUS
 62
   250
 10
2.99332
 20
1.53076
 30
0.0
 11
2.99464
 21
1.5334
 31
0.0
  0
LINE
  8
0
  6
CONTINUOUS
 62
   250
 10
2.99464
 20
1.5334
 30
0.0
 11
2.99552
 21
1.5356
 31
0.0
  0
LINE
  8
0
  6
CONTINUOUS
 62
   250
 10
2.99552
 20
1.5356
 30
0.0
 11
2.99552
 21
1.53824
 31
0.0
  0
LINE
  8
0
  6
CONTINUOUS
 62
   250
 10
2.99552
 20
1.53824
 30
0.0
 11
2.99552
 21
1.55364
 31
0.0
  0
LINE
  8
0
  6
CONTINUOUS
 62
   250
 10
2.99552
 20
1.55364
 30
0.0
 11
2.99552
 21
1.55628
 31
0.0
  0
LINE
  8
0
  6
CONTINUOUS
 62
   250
 10
2.99552
 20
1.55628
 30
0.0
 11
2.99464
 21
1.55848
 31
0.0
  0
LINE
  8
0
  6
CONTINUOUS
 62
   250
 10
2.99464
 20
1.55848
 30
0.0
 11
2.99332
 21
1.56112
 31
0.0
  0
LINE
  8
0
  6
CONTINUOUS
 62
   250
 10
2.99332
 20
1.56112
 30
0.0
 11
2.99156
 21
1.56288
 31
0.0
  0
LINE
  8
0
  6
CONTINUOUS
 62
   250
 10
2.99156
 20
1.56288
 30
0.0
 11
2.9898
 21
1.56464
 31
0.0
  0
LINE
  8
0
  6
CONTINUOUS
 62
   250
 10
2.9898
 20
1.56464
 30
0.0
 11
2.9876
 21
1.56596
 31
0.0
  0
LINE
  8
0
  6
CONTINUOUS
 62
   250
 10
2.9876
 20
1.56596
 30
0.0
 11
2.98496
 21
1.5664
 31
0.0
  0
LINE
  8
0
  6
CONTINUOUS
 62
   250
 10
2.98496
 20
1.5664
 30
0.0
 11
2.98232
 21
1.56684
 31
0.0
  0
LINE
  8
0
  6
CONTINUOUS
 62
   250
 10
2.98232
 20
1.56684
 30
0.0
 11
2.97968
 21
1.5664
 31
0.0
  0
LINE
  8
0
  6
CONTINUOUS
 62
   250
 10
2.97968
 20
1.5664
 30
0.0
 11
2.97748
 21
1.56596
 31
0.0
  0
LINE
  8
0
  6
CONTINUOUS
 62
   250
 10
2.97748
 20
1.56596
 30
0.0
 11
2.97484
 21
1.56464
 31
0.0
  0
LINE
  8
0
  6
CONTINUOUS
 62
   250
 10
2.97484
 20
1.56464
 30
0.0
 11
2.97308
 21
1.56288
 31
0.0
  0
LINE
  8
0
  6
CONTINUOUS
 62
   250
 10
2.97308
 20
1.56288
 30
0.0
 11
2.97132
 21
1.56112
 31
0.0
  0
LINE
  8
0
  6
CONTINUOUS
 62
   250
 10
2.97132
 20
1.56112
 30
0.0
 11
2.97
 21
1.55848
 31
0.0
  0
LINE
  8
0
  6
CONTINUOUS
 62
   250
 10
2.97
 20
1.55848
 30
0.0
 11
2.96912
 21
1.55628
 31
0.0
  0
LINE
  8
0
  6
CONTINUOUS
 62
   250
 10
2.96912
 20
1.55628
 30
0.0
 11
2.96912
 21
1.55364
 31
0.0
  0
LINE
  8
0
  6
CONTINUOUS
 62
   250
 10
2.96912
 20
1.55364
 30
0.0
 11
2.96912
 21
1.53824
 31
0.0
  0
LINE
  8
0
  6
CONTINUOUS
 62
   250
 10
2.99728
 20
1.31648
 30
0.0
 11
3.0866
 21
1.31648
 31
0.0
  0
LINE
  8
0
  6
CONTINUOUS
 62
   250
 10
3.0866
 20
1.26764
 30
0.0
 11
3.0888
 21
1.2672
 31
0.0
  0
LINE
  8
0
  6
CONTINUOUS
 62
   250
 10
3.0888
 20
1.2672
 30
0.0
 11
3.09056
 21
1.26632
 31
0.0
  0
LINE
  8
0
  6
CONTINUOUS
 62
   250
 10
3.09056
 20
1.26632
 30
0.0
 11
3.09232
 21
1.265
 31
0.0
  0
LINE
  8
0
  6
CONTINUOUS
 62
   250
 10
3.09232
 20
1.265
 30
0.0
 11
3.0932
 21
1.26368
 31
0.0
  0
LINE
  8
0
  6
CONTINUOUS
 62
   250
 10
3.0932
 20
1.26368
 30
0.0
 11
3.09408
 21
1.26148
 31
0.0
  0
LINE
  8
0
  6
CONTINUOUS
 62
   250
 10
3.09408
 20
1.26148
 30
0.0
 11
3.09452
 21
1.25972
 31
0.0
  0
LINE
  8
0
  6
CONTINUOUS
 62
   250
 10
3.09452
 20
1.25972
 30
0.0
 11
3.09408
 21
1.25752
 31
0.0
  0
LINE
  8
0
  6
CONTINUOUS
 62
   250
 10
3.09408
 20
1.25752
 30
0.0
 11
3.0932
 21
1.25576
 31
0.0
  0
LINE
  8
0
  6
CONTINUOUS
 62
   250
 10
3.0932
 20
1.25576
 30
0.0
 11
3.09232
 21
1.25444
 31
0.0
  0
LINE
  8
0
  6
CONTINUOUS
 62
   250
 10
3.09232
 20
1.25444
 30
0.0
 11
3.09056
 21
1.25312
 31
0.0
  0
LINE
  8
0
  6
CONTINUOUS
 62
   250
 10
3.09056
 20
1.25312
 30
0.0
 11
3.0888
 21
1.25224
 31
0.0
  0
LINE
  8
0
  6
CONTINUOUS
 62
   250
 10
3.0888
 20
1.25224
 30
0.0
 11
3.0866
 21
1.2518
 31
0.0
  0
LINE
  8
0
  6
CONTINUOUS
 62
   250
 10
3.22696
 20
1.23244
 30
0.0
 11
3.51208
 21
1.23244
 31
0.0
  0
LINE
  8
0
  6
CONTINUOUS
 62
   250
 10
3.51208
 20
1.23244
 30
0.0
 11
3.51208
 21
1.27424
 31
0.0
  0
LINE
  8
0
  6
CONTINUOUS
 62
   250
 10
3.51208
 20
1.27424
 30
0.0
 11
3.22696
 21
1.27424
 31
0.0
  0
LINE
  8
0
  6
CONTINUOUS
 62
   250
 10
3.22696
 20
1.27424
 30
0.0
 11
3.22696
 21
1.23244
 31
0.0
  0
LINE
  8
0
  6
CONTINUOUS
 62
   250
 10
2.77904
 20
1.22144
 30
0.0
 11
2.77904
 21
1.25532
 31
0.0
  0
LINE
  8
0
  6
CONTINUOUS
 62
   250
 10
2.77904
 20
1.25532
 30
0.0
 11
2.77904
 21
1.25752
 31
0.0
  0
LINE
  8
0
  6
CONTINUOUS
 62
   250
 10
2.77904
 20
1.25752
 30
0.0
 11
2.77816
 21
1.25928
 31
0.0
  0
LINE
  8
0
  6
CONTINUOUS
 62
   250
 10
2.77816
 20
1.25928
 30
0.0
 11
2.77684
 21
1.2606
 31
0.0
  0
LINE
  8
0
  6
CONTINUOUS
 62
   250
 10
2.77684
 20
1.2606
 30
0.0
 11
2.77552
 21
1.26192
 31
0.0
  0
LINE
  8
0
  6
CONTINUOUS
 62
   250
 10
2.77552
 20
1.26192
 30
0.0
 11
2.77332
 21
1.2628
 31
0.0
  0
LINE
  8
0
  6
CONTINUOUS
 62
   250
 10
2.77332
 20
1.2628
 30
0.0
 11
2.77156
 21
1.2628
 31
0.0
  0
LINE
  8
0
  6
CONTINUOUS
 62
   250
 10
2.77156
 20
1.2628
 30
0.0
 11
2.7258
 21
1.2628
 31
0.0
  0
LINE
  8
0
  6
CONTINUOUS
 62
   250
 10
2.7258
 20
1.33936
 30
0.0
 11
2.81336
 21
1.33936
 31
0.0
  0
LINE
  8
0
  6
CONTINUOUS
 62
   250
 10
2.81336
 20
1.33936
 30
0.0
 11
2.81512
 21
1.3398
 31
0.0
  0
LINE
  8
0
  6
CONTINUOUS
 62
   250
 10
2.81512
 20
1.3398
 30
0.0
 11
2.81688
 21
1.34024
 31
0.0
  0
LINE
  8
0
  6
CONTINUOUS
 62
   250
 10
2.81688
 20
1.34024
 30
0.0
 11
2.81864
 21
1.34156
 31
0.0
  0
LINE
  8
0
  6
CONTINUOUS
 62
   250
 10
2.81864
 20
1.34156
 30
0.0
 11
2.81952
 21
1.34332
 31
0.0
  0
LINE
  8
0
  6
CONTINUOUS
 62
   250
 10
2.81952
 20
1.34332
 30
0.0
 11
2.8204
 21
1.34508
 31
0.0
  0
LINE
  8
0
  6
CONTINUOUS
 62
   250
 10
2.8204
 20
1.34508
 30
0.0
 11
2.82084
 21
1.34684
 31
0.0
  0
LINE
  8
0
  6
CONTINUOUS
 62
   250
 10
2.82084
 20
1.34684
 30
0.0
 11
2.82084
 21
1.36136
 31
0.0
  0
LINE
  8
0
  6
CONTINUOUS
 62
   250
 10
2.82084
 20
1.36136
 30
0.0
 11
2.8204
 21
1.36356
 31
0.0
  0
LINE
  8
0
  6
CONTINUOUS
 62
   250
 10
2.8204
 20
1.36356
 30
0.0
 11
2.81952
 21
1.36532
 31
0.0
  0
LINE
  8
0
  6
CONTINUOUS
 62
   250
 10
2.81952
 20
1.36532
 30
0.0
 11
2.81864
 21
1.36708
 31
0.0
  0
LINE
  8
0
  6
CONTINUOUS
 62
   250
 10
2.81864
 20
1.36708
 30
0.0
 11
2.81688
 21
1.36796
 31
0.0
  0
LINE
  8
0
  6
CONTINUOUS
 62
   250
 10
2.81688
 20
1.36796
 30
0.0
 11
2.81512
 21
1.36884
 31
0.0
  0
LINE
  8
0
  6
CONTINUOUS
 62
   250
 10
2.81512
 20
1.36884
 30
0.0
 11
2.81336
 21
1.36928
 31
0.0
  0
LINE
  8
0
  6
CONTINUOUS
 62
   250
 10
2.81336
 20
1.36928
 30
0.0
 11
2.7258
 21
1.36928
 31
0.0
  0
LINE
  8
0
  6
CONTINUOUS
 62
   250
 10
2.70952
 20
1.50832
 30
0.0
 11
2.67916
 21
1.50832
 31
0.0
  0
LINE
  8
0
  6
CONTINUOUS
 62
   250
 10
2.70952
 20
1.50832
 30
0.0
 11
2.70952
 21
1.584
 31
0.0
  0
LINE
  8
0
  6
CONTINUOUS
 62
   250
 10
2.70952
 20
1.584
 30
0.0
 11
2.67916
 21
1.584
 31
0.0
  0
LINE
  8
0
  6
CONTINUOUS
 62
   250
 10
2.77156
 20
1.63944
 30
0.0
 11
2.77156
 21
1.6764
 31
0.0
  0
LINE
  8
0
  6
CONTINUOUS
 62
   250
 10
2.77156
 20
1.6764
 30
0.0
 11
2.80852
 21
1.6764
 31
0.0
  0
LINE
  8
0
  6
CONTINUOUS
 62
   250
 10
2.80852
 20
1.6764
 30
0.0
 11
2.80852
 21
1.63944
 31
0.0
  0
LINE
  8
0
  6
CONTINUOUS
 62
   250
 10
2.80852
 20
1.63944
 30
0.0
 11
2.77156
 21
1.63944
 31
0.0
  0
LINE
  8
0
  6
CONTINUOUS
 62
   250
 10
2.78168
 20
1.65088
 30
0.0
 11
2.78344
 21
1.64912
 31
0.0
  0
LINE
  8
0
  6
CONTINUOUS
 62
   250
 10
2.78344
 20
1.64912
 30
0.0
 11
2.78564
 21
1.6478
 31
0.0
  0
LINE
  8
0
  6
CONTINUOUS
 62
   250
 10
2.78564
 20
1.6478
 30
0.0
 11
2.78784
 21
1.64692
 31
0.0
  0
LINE
  8
0
  6
CONTINUOUS
 62
   250
 10
2.78784
 20
1.64692
 30
0.0
 11
2.79004
 21
1.64692
 31
0.0
  0
LINE
  8
0
  6
CONTINUOUS
 62
   250
 10
2.79004
 20
1.64692
 30
0.0
 11
2.79268
 21
1.64692
 31
0.0
  0
LINE
  8
0
  6
CONTINUOUS
 62
   250
 10
2.79268
 20
1.64692
 30
0.0
 11
2.79488
 21
1.6478
 31
0.0
  0
LINE
  8
0
  6
CONTINUOUS
 62
   250
 10
2.79488
 20
1.6478
 30
0.0
 11
2.79664
 21
1.64912
 31
0.0
  0
LINE
  8
0
  6
CONTINUOUS
 62
   250
 10
2.79664
 20
1.64912
 30
0.0
 11
2.7984
 21
1.65088
 31
0.0
  0
LINE
  8
0
  6
CONTINUOUS
 62
   250
 10
2.7984
 20
1.65088
 30
0.0
 11
2.79972
 21
1.65308
 31
0.0
  0
LINE
  8
0
  6
CONTINUOUS
 62
   250
 10
2.79972
 20
1.65308
 30
0.0
 11
2.8006
 21
1.65528
 31
0.0
  0
LINE
  8
0
  6
CONTINUOUS
 62
   250
 10
2.8006
 20
1.65528
 30
0.0
 11
2.80104
 21
1.65748
 31
0.0
  0
LINE
  8
0
  6
CONTINUOUS
 62
   250
 10
2.80104
 20
1.65748
 30
0.0
 11
2.8006
 21
1.65968
 31
0.0
  0
LINE
  8
0
  6
CONTINUOUS
 62
   250
 10
2.8006
 20
1.65968
 30
0.0
 11
2.79972
 21
1.66232
 31
0.0
  0
LINE
  8
0
  6
CONTINUOUS
 62
   250
 10
2.79972
 20
1.66232
 30
0.0
 11
2.7984
 21
1.66408
 31
0.0
  0
LINE
  8
0
  6
CONTINUOUS
 62
   250
 10
2.7984
 20
1.66408
 30
0.0
 11
2.79664
 21
1.66584
 31
0.0
  0
LINE
  8
0
  6
CONTINUOUS
 62
   250
 10
2.79664
 20
1.66584
 30
0.0
 11
2.79488
 21
1.66716
 31
0.0
  0
LINE
  8
0
  6
CONTINUOUS
 62
   250
 10
2.79488
 20
1.66716
 30
0.0
 11
2.79268
 21
1.6676
 31
0.0
  0
LINE
  8
0
  6
CONTINUOUS
 62
   250
 10
2.79268
 20
1.6676
 30
0.0
 11
2.79004
 21
1.66804
 31
0.0
  0
LINE
  8
0
  6
CONTINUOUS
 62
   250
 10
2.79004
 20
1.66804
 30
0.0
 11
2.78784
 21
1.6676
 31
0.0
  0
LINE
  8
0
  6
CONTINUOUS
 62
   250
 10
2.78784
 20
1.6676
 30
0.0
 11
2.78564
 21
1.66716
 31
0.0
  0
LINE
  8
0
  6
CONTINUOUS
 62
   250
 10
2.78564
 20
1.66716
 30
0.0
 11
2.78344
 21
1.66584
 31
0.0
  0
LINE
  8
0
  6
CONTINUOUS
 62
   250
 10
2.78344
 20
1.66584
 30
0.0
 11
2.78168
 21
1.66408
 31
0.0
  0
LINE
  8
0
  6
CONTINUOUS
 62
   250
 10
2.78168
 20
1.66408
 30
0.0
 11
2.7808
 21
1.66232
 31
0.0
  0
LINE
  8
0
  6
CONTINUOUS
 62
   250
 10
2.7808
 20
1.66232
 30
0.0
 11
2.77992
 21
1.65968
 31
0.0
  0
LINE
  8
0
  6
CONTINUOUS
 62
   250
 10
2.77992
 20
1.65968
 30
0.0
 11
2.77948
 21
1.65748
 31
0.0
  0
LINE
  8
0
  6
CONTINUOUS
 62
   250
 10
2.77948
 20
1.65748
 30
0.0
 11
2.77992
 21
1.65528
 31
0.0
  0
LINE
  8
0
  6
CONTINUOUS
 62
   250
 10
2.77992
 20
1.65528
 30
0.0
 11
2.7808
 21
1.65308
 31
0.0
  0
LINE
  8
0
  6
CONTINUOUS
 62
   250
 10
2.7808
 20
1.65308
 30
0.0
 11
2.78168
 21
1.65088
 31
0.0
  0
LINE
  8
0
  6
CONTINUOUS
 62
   250
 10
2.783
 20
1.65748
 30
0.0
 11
2.79752
 21
1.65748
 31
0.0
  0
LINE
  8
0
  6
CONTINUOUS
 62
   250
 10
2.79004
 20
1.66496
 30
0.0
 11
2.79004
 21
1.65
 31
0.0
  0
LINE
  8
0
  6
CONTINUOUS
 62
   250
 10
2.77684
 20
1.82864
 30
0.0
 11
2.77816
 21
1.8304
 31
0.0
  0
LINE
  8
0
  6
CONTINUOUS
 62
   250
 10
2.77816
 20
1.8304
 30
0.0
 11
2.77904
 21
1.83216
 31
0.0
  0
LINE
  8
0
  6
CONTINUOUS
 62
   250
 10
2.77904
 20
1.83216
 30
0.0
 11
2.77904
 21
1.83392
 31
0.0
  0
LINE
  8
0
  6
CONTINUOUS
 62
   250
 10
2.77904
 20
1.83392
 30
0.0
 11
2.77904
 21
1.8678
 31
0.0
  0
LINE
  8
0
  6
CONTINUOUS
 62
   250
 10
2.77904
 20
1.8678
 30
0.0
 11
3.90632
 21
1.8678
 31
0.0
  0
LINE
  8
0
  6
CONTINUOUS
 62
   250
 10
3.90632
 20
1.8678
 30
0.0
 11
3.90632
 21
1.75692
 31
0.0
  0
LINE
  8
0
  6
CONTINUOUS
 62
   250
 10
3.90632
 20
1.749
 30
0.0
 11
3.90632
 21
1.27072
 31
0.0
  0
LINE
  8
0
  6
CONTINUOUS
 62
   250
 10
3.90632
 20
1.2628
 30
0.0
 11
3.90632
 21
1.22144
 31
0.0
  0
LINE
  8
0
  6
CONTINUOUS
 62
   250
 10
3.90632
 20
1.22144
 30
0.0
 11
2.77904
 21
1.22144
 31
0.0
  0
LINE
  8
0
  6
CONTINUOUS
 62
   250
 10
2.81424
 20
1.3816
 30
0.0
 11
2.81732
 21
1.37896
 31
0.0
  0
LINE
  8
0
  6
CONTINUOUS
 62
   250
 10
2.81732
 20
1.37896
 30
0.0
 11
2.82128
 21
1.37632
 31
0.0
  0
LINE
  8
0
  6
CONTINUOUS
 62
   250
 10
2.82128
 20
1.37632
 30
0.0
 11
2.8248
 21
1.37412
 31
0.0
  0
LINE
  8
0
  6
CONTINUOUS
 62
   250
 10
2.8248
 20
1.37412
 30
0.0
 11
2.8292
 21
1.37236
 31
0.0
  0
LINE
  8
0
  6
CONTINUOUS
 62
   250
 10
2.8292
 20
1.37236
 30
0.0
 11
2.83316
 21
1.37104
 31
0.0
  0
LINE
  8
0
  6
CONTINUOUS
 62
   250
 10
2.83316
 20
1.37104
 30
0.0
 11
2.83756
 21
1.3706
 31
0.0
  0
LINE
  8
0
  6
CONTINUOUS
 62
   250
 10
2.83756
 20
1.3706
 30
0.0
 11
2.84196
 21
1.37016
 31
0.0
  0
LINE
  8
0
  6
CONTINUOUS
 62
   250
 10
2.84196
 20
1.37016
 30
0.0
 11
2.84636
 21
1.3706
 31
0.0
  0
LINE
  8
0
  6
CONTINUOUS
 62
   250
 10
2.84636
 20
1.3706
 30
0.0
 11
2.85076
 21
1.37104
 31
0.0
  0
LINE
  8
0
  6
CONTINUOUS
 62
   250
 10
2.85076
 20
1.37104
 30
0.0
 11
2.85516
 21
1.37236
 31
0.0
  0
LINE
  8
0
  6
CONTINUOUS
 62
   250
 10
2.85516
 20
1.37236
 30
0.0
 11
2.85912
 21
1.37412
 31
0.0
  0
LINE
  8
0
  6
CONTINUOUS
 62
   250
 10
2.85912
 20
1.37412
 30
0.0
 11
2.86308
 21
1.37632
 31
0.0
  0
LINE
  8
0
  6
CONTINUOUS
 62
   250
 10
2.86308
 20
1.37632
 30
0.0
 11
2.8666
 21
1.37896
 31
0.0
  0
LINE
  8
0
  6
CONTINUOUS
 62
   250
 10
2.8666
 20
1.37896
 30
0.0
 11
2.86968
 21
1.3816
 31
0.0
  0
LINE
  8
0
  6
CONTINUOUS
 62
   250
 10
2.86968
 20
1.3816
 30
0.0
 11
2.87276
 21
1.38512
 31
0.0
  0
LINE
  8
0
  6
CONTINUOUS
 62
   250
 10
2.87276
 20
1.38512
 30
0.0
 11
2.8754
 21
1.38864
 31
0.0
  0
LINE
  8
0
  6
CONTINUOUS
 62
   250
 10
2.8754
 20
1.38864
 30
0.0
 11
2.8776
 21
1.3926
 31
0.0
  0
LINE
  8
0
  6
CONTINUOUS
 62
   250
 10
2.8776
 20
1.3926
 30
0.0
 11
2.87892
 21
1.39656
 31
0.0
  0
LINE
  8
0
  6
CONTINUOUS
 62
   250
 10
2.87892
 20
1.39656
 30
0.0
 11
2.88024
 21
1.40096
 31
0.0
  0
LINE
  8
0
  6
CONTINUOUS
 62
   250
 10
2.88024
 20
1.40096
 30
0.0
 11
2.88112
 21
1.40536
 31
0.0
  0
LINE
  8
0
  6
CONTINUOUS
 62
   250
 10
2.88112
 20
1.40536
 30
0.0
 11
2.88156
 21
1.40932
 31
0.0
  0
LINE
  8
0
  6
CONTINUOUS
 62
   250
 10
2.88156
 20
1.40932
 30
0.0
 11
2.88112
 21
1.41416
 31
0.0
  0
LINE
  8
0
  6
CONTINUOUS
 62
   250
 10
2.88112
 20
1.41416
 30
0.0
 11
2.88024
 21
1.41812
 31
0.0
  0
LINE
  8
0
  6
CONTINUOUS
 62
   250
 10
2.88024
 20
1.41812
 30
0.0
 11
2.87892
 21
1.42252
 31
0.0
  0
LINE
  8
0
  6
CONTINUOUS
 62
   250
 10
2.87892
 20
1.42252
 30
0.0
 11
2.8776
 21
1.42648
 31
0.0
  0
LINE
  8
0
  6
CONTINUOUS
 62
   250
 10
2.8776
 20
1.42648
 30
0.0
 11
2.8754
 21
1.43044
 31
0.0
  0
LINE
  8
0
  6
CONTINUOUS
 62
   250
 10
2.8754
 20
1.43044
 30
0.0
 11
2.87276
 21
1.43396
 31
0.0
  0
LINE
  8
0
  6
CONTINUOUS
 62
   250
 10
2.87276
 20
1.43396
 30
0.0
 11
2.86968
 21
1.43748
 31
0.0
  0
LINE
  8
0
  6
CONTINUOUS
 62
   250
 10
2.86968
 20
1.43748
 30
0.0
 11
2.8666
 21
1.44056
 31
0.0
  0
LINE
  8
0
  6
CONTINUOUS
 62
   250
 10
2.8666
 20
1.44056
 30
0.0
 11
2.86308
 21
1.44276
 31
0.0
  0
LINE
  8
0
  6
CONTINUOUS
 62
   250
 10
2.86308
 20
1.44276
 30
0.0
 11
2.85912
 21
1.44496
 31
0.0
  0
LINE
  8
0
  6
CONTINUOUS
 62
   250
 10
2.85912
 20
1.44496
 30
0.0
 11
2.85516
 21
1.44672
 31
0.0
  0
LINE
  8
0
  6
CONTINUOUS
 62
   250
 10
2.85516
 20
1.44672
 30
0.0
 11
2.85076
 21
1.44804
 31
0.0
  0
LINE
  8
0
  6
CONTINUOUS
 62
   250
 10
2.85076
 20
1.44804
 30
0.0
 11
2.84636
 21
1.44892
 31
0.0
  0
LINE
  8
0
  6
CONTINUOUS
 62
   250
 10
2.84636
 20
1.44892
 30
0.0
 11
2.84196
 21
1.44892
 31
0.0
  0
LINE
  8
0
  6
CONTINUOUS
 62
   250
 10
2.84196
 20
1.44892
 30
0.0
 11
2.83756
 21
1.44892
 31
0.0
  0
LINE
  8
0
  6
CONTINUOUS
 62
   250
 10
2.83756
 20
1.44892
 30
0.0
 11
2.83316
 21
1.44804
 31
0.0
  0
LINE
  8
0
  6
CONTINUOUS
 62
   250
 10
2.83316
 20
1.44804
 30
0.0
 11
2.8292
 21
1.44672
 31
0.0
  0
LINE
  8
0
  6
CONTINUOUS
 62
   250
 10
2.8292
 20
1.44672
 30
0.0
 11
2.8248
 21
1.44496
 31
0.0
  0
LINE
  8
0
  6
CONTINUOUS
 62
   250
 10
2.8248
 20
1.44496
 30
0.0
 11
2.82128
 21
1.44276
 31
0.0
  0
LINE
  8
0
  6
CONTINUOUS
 62
   250
 10
2.82128
 20
1.44276
 30
0.0
 11
2.81732
 21
1.44056
 31
0.0
  0
LINE
  8
0
  6
CONTINUOUS
 62
   250
 10
2.81732
 20
1.44056
 30
0.0
 11
2.81424
 21
1.43748
 31
0.0
  0
LINE
  8
0
  6
CONTINUOUS
 62
   250
 10
2.81424
 20
1.43748
 30
0.0
 11
2.81116
 21
1.43396
 31
0.0
  0
LINE
  8
0
  6
CONTINUOUS
 62
   250
 10
2.81116
 20
1.43396
 30
0.0
 11
2.80896
 21
1.43044
 31
0.0
  0
LINE
  8
0
  6
CONTINUOUS
 62
   250
 10
2.80896
 20
1.43044
 30
0.0
 11
2.80676
 21
1.42648
 31
0.0
  0
LINE
  8
0
  6
CONTINUOUS
 62
   250
 10
2.80676
 20
1.42648
 30
0.0
 11
2.805
 21
1.42252
 31
0.0
  0
LINE
  8
0
  6
CONTINUOUS
 62
   250
 10
2.805
 20
1.42252
 30
0.0
 11
2.80368
 21
1.41812
 31
0.0
  0
LINE
  8
0
  6
CONTINUOUS
 62
   250
 10
2.80368
 20
1.41812
 30
0.0
 11
2.8028
 21
1.41416
 31
0.0
  0
LINE
  8
0
  6
CONTINUOUS
 62
   250
 10
2.8028
 20
1.41416
 30
0.0
 11
2.8028
 21
1.40932
 31
0.0
  0
LINE
  8
0
  6
CONTINUOUS
 62
   250
 10
2.8028
 20
1.40932
 30
0.0
 11
2.8028
 21
1.40536
 31
0.0
  0
LINE
  8
0
  6
CONTINUOUS
 62
   250
 10
2.8028
 20
1.40536
 30
0.0
 11
2.80368
 21
1.40096
 31
0.0
  0
LINE
  8
0
  6
CONTINUOUS
 62
   250
 10
2.80368
 20
1.40096
 30
0.0
 11
2.805
 21
1.39656
 31
0.0
  0
LINE
  8
0
  6
CONTINUOUS
 62
   250
 10
2.805
 20
1.39656
 30
0.0
 11
2.80676
 21
1.3926
 31
0.0
  0
LINE
  8
0
  6
CONTINUOUS
 62
   250
 10
2.80676
 20
1.3926
 30
0.0
 11
2.80896
 21
1.38864
 31
0.0
  0
LINE
  8
0
  6
CONTINUOUS
 62
   250
 10
2.80896
 20
1.38864
 30
0.0
 11
2.81116
 21
1.38512
 31
0.0
  0
LINE
  8
0
  6
CONTINUOUS
 62
   250
 10
2.81116
 20
1.38512
 30
0.0
 11
2.81424
 21
1.3816
 31
0.0
  0
LINE
  8
0
  6
CONTINUOUS
 62
   250
 10
2.77684
 20
1.82864
 30
0.0
 11
2.77552
 21
1.82776
 31
0.0
  0
LINE
  8
0
  6
CONTINUOUS
 62
   250
 10
2.77552
 20
1.82776
 30
0.0
 11
2.77332
 21
1.82688
 31
0.0
  0
LINE
  8
0
  6
CONTINUOUS
 62
   250
 10
2.77332
 20
1.82688
 30
0.0
 11
2.77156
 21
1.82644
 31
0.0
  0
LINE
  8
0
  6
CONTINUOUS
 62
   250
 10
2.77156
 20
1.82644
 30
0.0
 11
2.7258
 21
1.82644
 31
0.0
  0
LINE
  8
0
  6
CONTINUOUS
 62
   250
 10
2.67916
 20
1.84536
 30
0.0
 11
2.66508
 21
1.84536
 31
0.0
  0
LINE
  8
0
  6
CONTINUOUS
 62
   250
 10
2.805
 20
1.42296
 30
0.0
 11
2.80632
 21
1.41988
 31
0.0
  0
LINE
  8
0
  6
CONTINUOUS
 62
   250
 10
2.80632
 20
1.41988
 30
0.0
 11
2.80764
 21
1.41724
 31
0.0
  0
LINE
  8
0
  6
CONTINUOUS
 62
   250
 10
2.80764
 20
1.41724
 30
0.0
 11
2.80984
 21
1.4146
 31
0.0
  0
LINE
  8
0
  6
CONTINUOUS
 62
   250
 10
2.80368
 20
1.4014
 30
0.0
 11
2.83404
 21
1.37104
 31
0.0
  0
LINE
  8
0
  6
CONTINUOUS
 62
   250
 10
2.87892
 20
1.39612
 30
0.0
 11
2.8776
 21
1.3992
 31
0.0
  0
LINE
  8
0
  6
CONTINUOUS
 62
   250
 10
2.8776
 20
1.3992
 30
0.0
 11
2.87584
 21
1.40184
 31
0.0
  0
LINE
  8
0
  6
CONTINUOUS
 62
   250
 10
2.87584
 20
1.40184
 30
0.0
 11
2.87364
 21
1.40448
 31
0.0
  0
LINE
  8
0
  6
CONTINUOUS
 62
   250
 10
2.88068
 20
1.41724
 30
0.0
 11
2.84988
 21
1.44804
 31
0.0
  0
LINE
  8
0
  6
CONTINUOUS
 62
   250
 10
2.83668
 20
1.44188
 30
0.0
 11
2.83404
 21
1.44408
 31
0.0
  0
LINE
  8
0
  6
CONTINUOUS
 62
   250
 10
2.83404
 20
1.44408
 30
0.0
 11
2.8314
 21
1.4454
 31
0.0
  0
LINE
  8
0
  6
CONTINUOUS
 62
   250
 10
2.8314
 20
1.4454
 30
0.0
 11
2.82832
 21
1.44672
 31
0.0
  0
LINE
  8
0
  6
CONTINUOUS
 62
   250
 10
2.84724
 20
1.3772
 30
0.0
 11
2.84944
 21
1.37544
 31
0.0
  0
LINE
  8
0
  6
CONTINUOUS
 62
   250
 10
2.84944
 20
1.37544
 30
0.0
 11
2.85252
 21
1.37368
 31
0.0
  0
LINE
  8
0
  6
CONTINUOUS
 62
   250
 10
2.85252
 20
1.37368
 30
0.0
 11
2.85516
 21
1.37236
 31
0.0
  0
LINE
  8
0
  6
CONTINUOUS
 62
   250
 10
3.58468
 20
1.51536
 30
0.0
 11
3.58468
 21
1.57652
 31
0.0
  0
LINE
  8
0
  6
CONTINUOUS
 62
   250
 10
3.59964
 20
1.56288
 30
0.0
 11
3.59832
 21
1.56112
 31
0.0
  0
LINE
  8
0
  6
CONTINUOUS
 62
   250
 10
3.59832
 20
1.56112
 30
0.0
 11
3.597
 21
1.55848
 31
0.0
  0
LINE
  8
0
  6
CONTINUOUS
 62
   250
 10
3.597
 20
1.55848
 30
0.0
 11
3.59612
 21
1.55628
 31
0.0
  0
LINE
  8
0
  6
CONTINUOUS
 62
   250
 10
3.59612
 20
1.55628
 30
0.0
 11
3.59612
 21
1.55364
 31
0.0
  0
LINE
  8
0
  6
CONTINUOUS
 62
   250
 10
3.59612
 20
1.55364
 30
0.0
 11
3.59612
 21
1.53824
 31
0.0
  0
LINE
  8
0
  6
CONTINUOUS
 62
   250
 10
3.59612
 20
1.53824
 30
0.0
 11
3.59612
 21
1.53604
 31
0.0
  0
LINE
  8
0
  6
CONTINUOUS
 62
   250
 10
3.59612
 20
1.53604
 30
0.0
 11
3.597
 21
1.5334
 31
0.0
  0
LINE
  8
0
  6
CONTINUOUS
 62
   250
 10
3.597
 20
1.5334
 30
0.0
 11
3.59832
 21
1.53076
 31
0.0
  0
LINE
  8
0
  6
CONTINUOUS
 62
   250
 10
3.59832
 20
1.53076
 30
0.0
 11
3.59964
 21
1.529
 31
0.0
  0
LINE
  8
0
  6
CONTINUOUS
 62
   250
 10
3.59964
 20
1.529
 30
0.0
 11
3.60184
 21
1.52724
 31
0.0
  0
LINE
  8
0
  6
CONTINUOUS
 62
   250
 10
3.60184
 20
1.52724
 30
0.0
 11
3.60404
 21
1.52592
 31
0.0
  0
LINE
  8
0
  6
CONTINUOUS
 62
   250
 10
3.60404
 20
1.52592
 30
0.0
 11
3.60668
 21
1.52548
 31
0.0
  0
LINE
  8
0
  6
CONTINUOUS
 62
   250
 10
3.60668
 20
1.52548
 30
0.0
 11
3.60932
 21
1.52504
 31
0.0
  0
LINE
  8
0
  6
CONTINUOUS
 62
   250
 10
3.60932
 20
1.52504
 30
0.0
 11
3.61196
 21
1.52548
 31
0.0
  0
LINE
  8
0
  6
CONTINUOUS
 62
   250
 10
3.61196
 20
1.52548
 30
0.0
 11
3.61416
 21
1.52592
 31
0.0
  0
LINE
  8
0
  6
CONTINUOUS
 62
   250
 10
3.61416
 20
1.52592
 30
0.0
 11
3.6168
 21
1.52724
 31
0.0
  0
LINE
  8
0
  6
CONTINUOUS
 62
   250
 10
3.6168
 20
1.52724
 30
0.0
 11
3.61856
 21
1.529
 31
0.0
  0
LINE
  8
0
  6
CONTINUOUS
 62
   250
 10
3.61856
 20
1.529
 30
0.0
 11
3.62032
 21
1.53076
 31
0.0
  0
LINE
  8
0
  6
CONTINUOUS
 62
   250
 10
3.62032
 20
1.53076
 30
0.0
 11
3.62164
 21
1.5334
 31
0.0
  0
LINE
  8
0
  6
CONTINUOUS
 62
   250
 10
3.62164
 20
1.5334
 30
0.0
 11
3.62252
 21
1.5356
 31
0.0
  0
LINE
  8
0
  6
CONTINUOUS
 62
   250
 10
3.62252
 20
1.5356
 30
0.0
 11
3.62252
 21
1.53824
 31
0.0
  0
LINE
  8
0
  6
CONTINUOUS
 62
   250
 10
3.62252
 20
1.53824
 30
0.0
 11
3.62252
 21
1.55364
 31
0.0
  0
LINE
  8
0
  6
CONTINUOUS
 62
   250
 10
3.62252
 20
1.55364
 30
0.0
 11
3.62252
 21
1.55628
 31
0.0
  0
LINE
  8
0
  6
CONTINUOUS
 62
   250
 10
3.62252
 20
1.55628
 30
0.0
 11
3.62164
 21
1.55848
 31
0.0
  0
LINE
  8
0
  6
CONTINUOUS
 62
   250
 10
3.62164
 20
1.55848
 30
0.0
 11
3.62032
 21
1.56112
 31
0.0
  0
LINE
  8
0
  6
CONTINUOUS
 62
   250
 10
3.62032
 20
1.56112
 30
0.0
 11
3.61856
 21
1.56288
 31
0.0
  0
LINE
  8
0
  6
CONTINUOUS
 62
   250
 10
3.61856
 20
1.56288
 30
0.0
 11
3.6168
 21
1.56464
 31
0.0
  0
LINE
  8
0
  6
CONTINUOUS
 62
   250
 10
3.6168
 20
1.56464
 30
0.0
 11
3.61416
 21
1.56596
 31
0.0
  0
LINE
  8
0
  6
CONTINUOUS
 62
   250
 10
3.61416
 20
1.56596
 30
0.0
 11
3.61196
 21
1.5664
 31
0.0
  0
LINE
  8
0
  6
CONTINUOUS
 62
   250
 10
3.61196
 20
1.5664
 30
0.0
 11
3.60932
 21
1.56684
 31
0.0
  0
LINE
  8
0
  6
CONTINUOUS
 62
   250
 10
3.60932
 20
1.56684
 30
0.0
 11
3.60668
 21
1.5664
 31
0.0
  0
LINE
  8
0
  6
CONTINUOUS
 62
   250
 10
3.60668
 20
1.5664
 30
0.0
 11
3.60404
 21
1.56596
 31
0.0
  0
LINE
  8
0
  6
CONTINUOUS
 62
   250
 10
3.60404
 20
1.56596
 30
0.0
 11
3.60184
 21
1.56464
 31
0.0
  0
LINE
  8
0
  6
CONTINUOUS
 62
   250
 10
3.60184
 20
1.56464
 30
0.0
 11
3.59964
 21
1.56288
 31
0.0
  0
LINE
  8
0
  6
CONTINUOUS
 62
   250
 10
3.55696
 20
1.606
 30
0.0
 11
3.55696
 21
1.71248
 31
0.0
  0
LINE
  8
0
  6
CONTINUOUS
 62
   250
 10
3.55696
 20
1.71248
 30
0.0
 11
3.4782
 21
1.71248
 31
0.0
  0
LINE
  8
0
  6
CONTINUOUS
 62
   250
 10
3.4782
 20
1.71248
 30
0.0
 11
3.4782
 21
1.66936
 31
0.0
  0
LINE
  8
0
  6
CONTINUOUS
 62
   250
 10
3.53012
 20
1.6918
 30
0.0
 11
3.53144
 21
1.69004
 31
0.0
  0
LINE
  8
0
  6
CONTINUOUS
 62
   250
 10
3.53144
 20
1.69004
 30
0.0
 11
3.53364
 21
1.68916
 31
0.0
  0
LINE
  8
0
  6
CONTINUOUS
 62
   250
 10
3.53364
 20
1.68916
 30
0.0
 11
3.5354
 21
1.68828
 31
0.0
  0
LINE
  8
0
  6
CONTINUOUS
 62
   250
 10
3.5354
 20
1.68828
 30
0.0
 11
3.5376
 21
1.68828
 31
0.0
  0
LINE
  8
0
  6
CONTINUOUS
 62
   250
 10
3.5376
 20
1.68828
 30
0.0
 11
3.5398
 21
1.68828
 31
0.0
  0
LINE
  8
0
  6
CONTINUOUS
 62
   250
 10
3.5398
 20
1.68828
 30
0.0
 11
3.542
 21
1.68916
 31
0.0
  0
LINE
  8
0
  6
CONTINUOUS
 62
   250
 10
3.542
 20
1.68916
 30
0.0
 11
3.54376
 21
1.69004
 31
0.0
  0
LINE
  8
0
  6
CONTINUOUS
 62
   250
 10
3.54376
 20
1.69004
 30
0.0
 11
3.54508
 21
1.6918
 31
0.0
  0
LINE
  8
0
  6
CONTINUOUS
 62
   250
 10
3.54508
 20
1.6918
 30
0.0
 11
3.5464
 21
1.69356
 31
0.0
  0
LINE
  8
0
  6
CONTINUOUS
 62
   250
 10
3.5464
 20
1.69356
 30
0.0
 11
3.54684
 21
1.69576
 31
0.0
  0
LINE
  8
0
  6
CONTINUOUS
 62
   250
 10
3.54684
 20
1.69576
 30
0.0
 11
3.54728
 21
1.69796
 31
0.0
  0
LINE
  8
0
  6
CONTINUOUS
 62
   250
 10
3.54728
 20
1.69796
 30
0.0
 11
3.54684
 21
1.69972
 31
0.0
  0
LINE
  8
0
  6
CONTINUOUS
 62
   250
 10
3.54684
 20
1.69972
 30
0.0
 11
3.5464
 21
1.70192
 31
0.0
  0
LINE
  8
0
  6
CONTINUOUS
 62
   250
 10
3.5464
 20
1.70192
 30
0.0
 11
3.54508
 21
1.70368
 31
0.0
  0
LINE
  8
0
  6
CONTINUOUS
 62
   250
 10
3.54508
 20
1.70368
 30
0.0
 11
3.54376
 21
1.70544
 31
0.0
  0
LINE
  8
0
  6
CONTINUOUS
 62
   250
 10
3.54376
 20
1.70544
 30
0.0
 11
3.542
 21
1.70632
 31
0.0
  0
LINE
  8
0
  6
CONTINUOUS
 62
   250
 10
3.542
 20
1.70632
 30
0.0
 11
3.5398
 21
1.7072
 31
0.0
  0
LINE
  8
0
  6
CONTINUOUS
 62
   250
 10
3.5398
 20
1.7072
 30
0.0
 11
3.5376
 21
1.7072
 31
0.0
  0
LINE
  8
0
  6
CONTINUOUS
 62
   250
 10
3.5376
 20
1.7072
 30
0.0
 11
3.5354
 21
1.7072
 31
0.0
  0
LINE
  8
0
  6
CONTINUOUS
 62
   250
 10
3.5354
 20
1.7072
 30
0.0
 11
3.53364
 21
1.70632
 31
0.0
  0
LINE
  8
0
  6
CONTINUOUS
 62
   250
 10
3.53364
 20
1.70632
 30
0.0
 11
3.53144
 21
1.70544
 31
0.0
  0
LINE
  8
0
  6
CONTINUOUS
 62
   250
 10
3.53144
 20
1.70544
 30
0.0
 11
3.53012
 21
1.70368
 31
0.0
  0
LINE
  8
0
  6
CONTINUOUS
 62
   250
 10
3.53012
 20
1.70368
 30
0.0
 11
3.5288
 21
1.70192
 31
0.0
  0
LINE
  8
0
  6
CONTINUOUS
 62
   250
 10
3.5288
 20
1.70192
 30
0.0
 11
3.52836
 21
1.69972
 31
0.0
  0
LINE
  8
0
  6
CONTINUOUS
 62
   250
 10
3.52836
 20
1.69972
 30
0.0
 11
3.52792
 21
1.69796
 31
0.0
  0
LINE
  8
0
  6
CONTINUOUS
 62
   250
 10
3.52792
 20
1.69796
 30
0.0
 11
3.52836
 21
1.69576
 31
0.0
  0
LINE
  8
0
  6
CONTINUOUS
 62
   250
 10
3.52836
 20
1.69576
 30
0.0
 11
3.5288
 21
1.69356
 31
0.0
  0
LINE
  8
0
  6
CONTINUOUS
 62
   250
 10
3.5288
 20
1.69356
 30
0.0
 11
3.53012
 21
1.6918
 31
0.0
  0
LINE
  8
0
  6
CONTINUOUS
 62
   250
 10
3.50636
 20
1.6918
 30
0.0
 11
3.50504
 21
1.69004
 31
0.0
  0
LINE
  8
0
  6
CONTINUOUS
 62
   250
 10
3.50504
 20
1.69004
 30
0.0
 11
3.50328
 21
1.68916
 31
0.0
  0
LINE
  8
0
  6
CONTINUOUS
 62
   250
 10
3.50328
 20
1.68916
 30
0.0
 11
3.50108
 21
1.68828
 31
0.0
  0
LINE
  8
0
  6
CONTINUOUS
 62
   250
 10
3.50108
 20
1.68828
 30
0.0
 11
3.49888
 21
1.68828
 31
0.0
  0
LINE
  8
0
  6
CONTINUOUS
 62
   250
 10
3.49888
 20
1.68828
 30
0.0
 11
3.49712
 21
1.68828
 31
0.0
  0
LINE
  8
0
  6
CONTINUOUS
 62
   250
 10
3.49712
 20
1.68828
 30
0.0
 11
3.49492
 21
1.68916
 31
0.0
  0
LINE
  8
0
  6
CONTINUOUS
 62
   250
 10
3.49492
 20
1.68916
 30
0.0
 11
3.49316
 21
1.69004
 31
0.0
  0
LINE
  8
0
  6
CONTINUOUS
 62
   250
 10
3.49316
 20
1.69004
 30
0.0
 11
3.4914
 21
1.6918
 31
0.0
  0
LINE
  8
0
  6
CONTINUOUS
 62
   250
 10
3.4914
 20
1.6918
 30
0.0
 11
3.49052
 21
1.69356
 31
0.0
  0
LINE
  8
0
  6
CONTINUOUS
 62
   250
 10
3.49052
 20
1.69356
 30
0.0
 11
3.48964
 21
1.69576
 31
0.0
  0
LINE
  8
0
  6
CONTINUOUS
 62
   250
 10
3.48964
 20
1.69576
 30
0.0
 11
3.48964
 21
1.69796
 31
0.0
  0
LINE
  8
0
  6
CONTINUOUS
 62
   250
 10
3.48964
 20
1.69796
 30
0.0
 11
3.50856
 21
1.69796
 31
0.0
  0
LINE
  8
0
  6
CONTINUOUS
 62
   250
 10
3.50856
 20
1.69796
 30
0.0
 11
3.50856
 21
1.69972
 31
0.0
  0
LINE
  8
0
  6
CONTINUOUS
 62
   250
 10
3.50856
 20
1.69972
 30
0.0
 11
3.50768
 21
1.70192
 31
0.0
  0
LINE
  8
0
  6
CONTINUOUS
 62
   250
 10
3.50768
 20
1.70192
 30
0.0
 11
3.50636
 21
1.70368
 31
0.0
  0
LINE
  8
0
  6
CONTINUOUS
 62
   250
 10
3.50636
 20
1.70368
 30
0.0
 11
3.50504
 21
1.70544
 31
0.0
  0
LINE
  8
0
  6
CONTINUOUS
 62
   250
 10
3.50504
 20
1.70544
 30
0.0
 11
3.50328
 21
1.70632
 31
0.0
  0
LINE
  8
0
  6
CONTINUOUS
 62
   250
 10
3.50328
 20
1.70632
 30
0.0
 11
3.50108
 21
1.7072
 31
0.0
  0
LINE
  8
0
  6
CONTINUOUS
 62
   250
 10
3.50108
 20
1.7072
 30
0.0
 11
3.49888
 21
1.7072
 31
0.0
  0
LINE
  8
0
  6
CONTINUOUS
 62
   250
 10
3.49888
 20
1.7072
 30
0.0
 11
3.49712
 21
1.7072
 31
0.0
  0
LINE
  8
0
  6
CONTINUOUS
 62
   250
 10
3.49712
 20
1.7072
 30
0.0
 11
3.49492
 21
1.70632
 31
0.0
  0
LINE
  8
0
  6
CONTINUOUS
 62
   250
 10
3.49492
 20
1.70632
 30
0.0
 11
3.49316
 21
1.70544
 31
0.0
  0
LINE
  8
0
  6
CONTINUOUS
 62
   250
 10
3.49316
 20
1.70544
 30
0.0
 11
3.4914
 21
1.70368
 31
0.0
  0
LINE
  8
0
  6
CONTINUOUS
 62
   250
 10
3.4914
 20
1.70368
 30
0.0
 11
3.49052
 21
1.70192
 31
0.0
  0
LINE
  8
0
  6
CONTINUOUS
 62
   250
 10
3.49052
 20
1.70192
 30
0.0
 11
3.48964
 21
1.69972
 31
0.0
  0
LINE
  8
0
  6
CONTINUOUS
 62
   250
 10
3.48964
 20
1.69972
 30
0.0
 11
3.48964
 21
1.69796
 31
0.0
  0
LINE
  8
0
  6
CONTINUOUS
 62
   250
 10
3.50856
 20
1.69796
 30
0.0
 11
3.50856
 21
1.69576
 31
0.0
  0
LINE
  8
0
  6
CONTINUOUS
 62
   250
 10
3.50856
 20
1.69576
 30
0.0
 11
3.50768
 21
1.69356
 31
0.0
  0
LINE
  8
0
  6
CONTINUOUS
 62
   250
 10
3.50768
 20
1.69356
 30
0.0
 11
3.50636
 21
1.6918
 31
0.0
  0
LINE
  8
0
  6
CONTINUOUS
 62
   250
 10
3.5376
 20
1.68828
 30
0.0
 11
3.5376
 21
1.7072
 31
0.0
  0
LINE
  8
0
  6
CONTINUOUS
 62
   250
 10
3.4782
 20
1.67552
 30
0.0
 11
3.4782
 21
1.66364
 31
0.0
  0
LINE
  8
0
  6
CONTINUOUS
 62
   250
 10
3.4782
 20
1.66364
 30
0.0
 11
3.4782
 21
1.606
 31
0.0
  0
LINE
  8
0
  6
CONTINUOUS
 62
   250
 10
3.4782
 20
1.606
 30
0.0
 11
3.4782
 21
1.66364
 31
0.0
  0
LINE
  8
0
  6
CONTINUOUS
 62
   250
 10
3.42804
 20
1.66364
 30
0.0
 11
3.42804
 21
1.606
 31
0.0
  0
LINE
  8
0
  6
CONTINUOUS
 62
   250
 10
3.4782
 20
1.606
 30
0.0
 11
3.51604
 21
1.606
 31
0.0
  0
LINE
  8
0
  6
CONTINUOUS
 62
   250
 10
3.51604
 20
1.606
 30
0.0
 11
3.55696
 21
1.606
 31
0.0
  0
LINE
  8
0
  6
CONTINUOUS
 62
   250
 10
3.60932
 20
1.628
 30
0.0
 11
3.60932
 21
1.6456
 31
0.0
  0
LINE
  8
0
  6
CONTINUOUS
 62
   250
 10
3.60932
 20
1.6456
 30
0.0
 11
3.66872
 21
1.6456
 31
0.0
  0
LINE
  8
0
  6
CONTINUOUS
 62
   250
 10
3.66872
 20
1.6456
 30
0.0
 11
3.66872
 21
1.628
 31
0.0
  0
LINE
  8
0
  6
CONTINUOUS
 62
   250
 10
3.66872
 20
1.628
 30
0.0
 11
3.60932
 21
1.628
 31
0.0
  0
LINE
  8
0
  6
CONTINUOUS
 62
   250
 10
3.42804
 20
1.66364
 30
0.0
 11
3.42804
 21
1.67552
 31
0.0
  0
LINE
  8
0
  6
CONTINUOUS
 62
   250
 10
3.35104
 20
1.68212
 30
0.0
 11
3.35104
 21
1.606
 31
0.0
  0
LINE
  8
0
  6
CONTINUOUS
 62
   250
 10
3.35104
 20
1.606
 30
0.0
 11
3.35104
 21
1.66364
 31
0.0
  0
LINE
  8
0
  6
CONTINUOUS
 62
   250
 10
3.33784
 20
1.66364
 30
0.0
 11
3.33784
 21
1.606
 31
0.0
  0
LINE
  8
0
  6
CONTINUOUS
 62
   250
 10
3.33784
 20
1.66364
 30
0.0
 11
3.33784
 21
1.67552
 31
0.0
  0
LINE
  8
0
  6
CONTINUOUS
 62
   250
 10
3.26084
 20
1.68212
 30
0.0
 11
3.26084
 21
1.66364
 31
0.0
  0
LINE
  8
0
  6
CONTINUOUS
 62
   250
 10
3.26084
 20
1.66364
 30
0.0
 11
3.26084
 21
1.606
 31
0.0
  0
LINE
  8
0
  6
CONTINUOUS
 62
   250
 10
3.24852
 20
1.606
 30
0.0
 11
3.24852
 21
1.66364
 31
0.0
  0
LINE
  8
0
  6
CONTINUOUS
 62
   250
 10
3.24852
 20
1.66364
 30
0.0
 11
3.24852
 21
1.66936
 31
0.0
  0
LINE
  8
0
  6
CONTINUOUS
 62
   250
 10
3.24852
 20
1.66936
 30
0.0
 11
3.24852
 21
1.67552
 31
0.0
  0
LINE
  8
0
  6
CONTINUOUS
 62
   250
 10
3.17152
 20
1.68212
 30
0.0
 11
3.17152
 21
1.606
 31
0.0
  0
LINE
  8
0
  6
CONTINUOUS
 62
   250
 10
3.1416
 20
1.5884
 30
0.0
 11
3.07516
 21
1.5884
 31
0.0
  0
LINE
  8
0
  6
CONTINUOUS
 62
   250
 10
3.07516
 20
1.5114
 30
0.0
 11
3.1416
 21
1.5114
 31
0.0
  0
LINE
  8
0
  6
CONTINUOUS
 62
   250
 10
3.19792
 20
1.38468
 30
0.0
 11
3.19792
 21
1.34552
 31
0.0
  0
LINE
  8
0
  6
CONTINUOUS
 62
   250
 10
3.27536
 20
1.34552
 30
0.0
 11
3.27536
 21
1.38468
 31
0.0
  0
LINE
  8
0
  6
CONTINUOUS
 62
   250
 10
3.28812
 20
1.37368
 30
0.0
 11
3.28812
 21
1.452
 31
0.0
  0
LINE
  8
0
  6
CONTINUOUS
 62
   250
 10
3.36468
 20
1.38468
 30
0.0
 11
3.36468
 21
1.34552
 31
0.0
  0
LINE
  8
0
  6
CONTINUOUS
 62
   250
 10
3.44212
 20
1.34552
 30
0.0
 11
3.44212
 21
1.38468
 31
0.0
  0
LINE
  8
0
  6
CONTINUOUS
 62
   250
 10
3.45488
 20
1.38468
 30
0.0
 11
3.45488
 21
1.37368
 31
0.0
  0
LINE
  8
0
  6
CONTINUOUS
 62
   250
 10
3.53144
 20
1.38468
 30
0.0
 11
3.53144
 21
1.34552
 31
0.0
  0
LINE
  8
0
  6
CONTINUOUS
 62
   250
 10
3.72196
 20
1.3816
 30
0.0
 11
3.72504
 21
1.37896
 31
0.0
  0
LINE
  8
0
  6
CONTINUOUS
 62
   250
 10
3.72504
 20
1.37896
 30
0.0
 11
3.729
 21
1.37632
 31
0.0
  0
LINE
  8
0
  6
CONTINUOUS
 62
   250
 10
3.729
 20
1.37632
 30
0.0
 11
3.73252
 21
1.37412
 31
0.0
  0
LINE
  8
0
  6
CONTINUOUS
 62
   250
 10
3.73252
 20
1.37412
 30
0.0
 11
3.73648
 21
1.37236
 31
0.0
  0
LINE
  8
0
  6
CONTINUOUS
 62
   250
 10
3.73648
 20
1.37236
 30
0.0
 11
3.74088
 21
1.37104
 31
0.0
  0
LINE
  8
0
  6
CONTINUOUS
 62
   250
 10
3.74088
 20
1.37104
 30
0.0
 11
3.74528
 21
1.3706
 31
0.0
  0
LINE
  8
0
  6
CONTINUOUS
 62
   250
 10
3.74528
 20
1.3706
 30
0.0
 11
3.74968
 21
1.37016
 31
0.0
  0
LINE
  8
0
  6
CONTINUOUS
 62
   250
 10
3.74968
 20
1.37016
 30
0.0
 11
3.75408
 21
1.3706
 31
0.0
  0
LINE
  8
0
  6
CONTINUOUS
 62
   250
 10
3.75408
 20
1.3706
 30
0.0
 11
3.75848
 21
1.37104
 31
0.0
  0
LINE
  8
0
  6
CONTINUOUS
 62
   250
 10
3.75848
 20
1.37104
 30
0.0
 11
3.76288
 21
1.37236
 31
0.0
  0
LINE
  8
0
  6
CONTINUOUS
 62
   250
 10
3.76288
 20
1.37236
 30
0.0
 11
3.76684
 21
1.37412
 31
0.0
  0
LINE
  8
0
  6
CONTINUOUS
 62
   250
 10
3.76684
 20
1.37412
 30
0.0
 11
3.7708
 21
1.37632
 31
0.0
  0
LINE
  8
0
  6
CONTINUOUS
 62
   250
 10
3.7708
 20
1.37632
 30
0.0
 11
3.77432
 21
1.37896
 31
0.0
  0
LINE
  8
0
  6
CONTINUOUS
 62
   250
 10
3.77432
 20
1.37896
 30
0.0
 11
3.7774
 21
1.3816
 31
0.0
  0
LINE
  8
0
  6
CONTINUOUS
 62
   250
 10
3.7774
 20
1.3816
 30
0.0
 11
3.78048
 21
1.38512
 31
0.0
  0
LINE
  8
0
  6
CONTINUOUS
 62
   250
 10
3.78048
 20
1.38512
 30
0.0
 11
3.78312
 21
1.38864
 31
0.0
  0
LINE
  8
0
  6
CONTINUOUS
 62
   250
 10
3.78312
 20
1.38864
 30
0.0
 11
3.78532
 21
1.3926
 31
0.0
  0
LINE
  8
0
  6
CONTINUOUS
 62
   250
 10
3.78532
 20
1.3926
 30
0.0
 11
3.78708
 21
1.39656
 31
0.0
  0
LINE
  8
0
  6
CONTINUOUS
 62
   250
 10
3.78708
 20
1.39656
 30
0.0
 11
3.78796
 21
1.40096
 31
0.0
  0
LINE
  8
0
  6
CONTINUOUS
 62
   250
 10
3.78796
 20
1.40096
 30
0.0
 11
3.78884
 21
1.40536
 31
0.0
  0
LINE
  8
0
  6
CONTINUOUS
 62
   250
 10
3.78884
 20
1.40536
 30
0.0
 11
3.78884
 21
1.40932
 31
0.0
  0
LINE
  8
0
  6
CONTINUOUS
 62
   250
 10
3.78884
 20
1.40932
 30
0.0
 11
3.78884
 21
1.41416
 31
0.0
  0
LINE
  8
0
  6
CONTINUOUS
 62
   250
 10
3.78884
 20
1.41416
 30
0.0
 11
3.78796
 21
1.41812
 31
0.0
  0
LINE
  8
0
  6
CONTINUOUS
 62
   250
 10
3.78796
 20
1.41812
 30
0.0
 11
3.78708
 21
1.42252
 31
0.0
  0
LINE
  8
0
  6
CONTINUOUS
 62
   250
 10
3.78708
 20
1.42252
 30
0.0
 11
3.78532
 21
1.42648
 31
0.0
  0
LINE
  8
0
  6
CONTINUOUS
 62
   250
 10
3.78532
 20
1.42648
 30
0.0
 11
3.78312
 21
1.43044
 31
0.0
  0
LINE
  8
0
  6
CONTINUOUS
 62
   250
 10
3.78312
 20
1.43044
 30
0.0
 11
3.78048
 21
1.43396
 31
0.0
  0
LINE
  8
0
  6
CONTINUOUS
 62
   250
 10
3.78048
 20
1.43396
 30
0.0
 11
3.7774
 21
1.43748
 31
0.0
  0
LINE
  8
0
  6
CONTINUOUS
 62
   250
 10
3.7774
 20
1.43748
 30
0.0
 11
3.77432
 21
1.44056
 31
0.0
  0
LINE
  8
0
  6
CONTINUOUS
 62
   250
 10
3.77432
 20
1.44056
 30
0.0
 11
3.7708
 21
1.44276
 31
0.0
  0
LINE
  8
0
  6
CONTINUOUS
 62
   250
 10
3.7708
 20
1.44276
 30
0.0
 11
3.76684
 21
1.44496
 31
0.0
  0
LINE
  8
0
  6
CONTINUOUS
 62
   250
 10
3.76684
 20
1.44496
 30
0.0
 11
3.76288
 21
1.44672
 31
0.0
  0
LINE
  8
0
  6
CONTINUOUS
 62
   250
 10
3.76288
 20
1.44672
 30
0.0
 11
3.75848
 21
1.44804
 31
0.0
  0
LINE
  8
0
  6
CONTINUOUS
 62
   250
 10
3.75848
 20
1.44804
 30
0.0
 11
3.75408
 21
1.44892
 31
0.0
  0
LINE
  8
0
  6
CONTINUOUS
 62
   250
 10
3.75408
 20
1.44892
 30
0.0
 11
3.74968
 21
1.44892
 31
0.0
  0
LINE
  8
0
  6
CONTINUOUS
 62
   250
 10
3.74968
 20
1.44892
 30
0.0
 11
3.74528
 21
1.44892
 31
0.0
  0
LINE
  8
0
  6
CONTINUOUS
 62
   250
 10
3.74528
 20
1.44892
 30
0.0
 11
3.74088
 21
1.44804
 31
0.0
  0
LINE
  8
0
  6
CONTINUOUS
 62
   250
 10
3.74088
 20
1.44804
 30
0.0
 11
3.73648
 21
1.44672
 31
0.0
  0
LINE
  8
0
  6
CONTINUOUS
 62
   250
 10
3.73648
 20
1.44672
 30
0.0
 11
3.73252
 21
1.44496
 31
0.0
  0
LINE
  8
0
  6
CONTINUOUS
 62
   250
 10
3.73252
 20
1.44496
 30
0.0
 11
3.729
 21
1.44276
 31
0.0
  0
LINE
  8
0
  6
CONTINUOUS
 62
   250
 10
3.729
 20
1.44276
 30
0.0
 11
3.72504
 21
1.44056
 31
0.0
  0
LINE
  8
0
  6
CONTINUOUS
 62
   250
 10
3.72504
 20
1.44056
 30
0.0
 11
3.72196
 21
1.43748
 31
0.0
  0
LINE
  8
0
  6
CONTINUOUS
 62
   250
 10
3.72196
 20
1.43748
 30
0.0
 11
3.71888
 21
1.43396
 31
0.0
  0
LINE
  8
0
  6
CONTINUOUS
 62
   250
 10
3.71888
 20
1.43396
 30
0.0
 11
3.71668
 21
1.43044
 31
0.0
  0
LINE
  8
0
  6
CONTINUOUS
 62
   250
 10
3.71668
 20
1.43044
 30
0.0
 11
3.71448
 21
1.42648
 31
0.0
  0
LINE
  8
0
  6
CONTINUOUS
 62
   250
 10
3.71448
 20
1.42648
 30
0.0
 11
3.71272
 21
1.42252
 31
0.0
  0
LINE
  8
0
  6
CONTINUOUS
 62
   250
 10
3.71272
 20
1.42252
 30
0.0
 11
3.7114
 21
1.41812
 31
0.0
  0
LINE
  8
0
  6
CONTINUOUS
 62
   250
 10
3.7114
 20
1.41812
 30
0.0
 11
3.71052
 21
1.41416
 31
0.0
  0
LINE
  8
0
  6
CONTINUOUS
 62
   250
 10
3.71052
 20
1.41416
 30
0.0
 11
3.71052
 21
1.40932
 31
0.0
  0
LINE
  8
0
  6
CONTINUOUS
 62
   250
 10
3.71052
 20
1.40932
 30
0.0
 11
3.71052
 21
1.40536
 31
0.0
  0
LINE
  8
0
  6
CONTINUOUS
 62
   250
 10
3.71052
 20
1.40536
 30
0.0
 11
3.7114
 21
1.40096
 31
0.0
  0
LINE
  8
0
  6
CONTINUOUS
 62
   250
 10
3.7114
 20
1.40096
 30
0.0
 11
3.71272
 21
1.39656
 31
0.0
  0
LINE
  8
0
  6
CONTINUOUS
 62
   250
 10
3.71272
 20
1.39656
 30
0.0
 11
3.71448
 21
1.3926
 31
0.0
  0
LINE
  8
0
  6
CONTINUOUS
 62
   250
 10
3.71448
 20
1.3926
 30
0.0
 11
3.71668
 21
1.38864
 31
0.0
  0
LINE
  8
0
  6
CONTINUOUS
 62
   250
 10
3.71668
 20
1.38864
 30
0.0
 11
3.71888
 21
1.38512
 31
0.0
  0
LINE
  8
0
  6
CONTINUOUS
 62
   250
 10
3.71888
 20
1.38512
 30
0.0
 11
3.72196
 21
1.3816
 31
0.0
  0
LINE
  8
0
  6
CONTINUOUS
 62
   250
 10
3.71272
 20
1.39612
 30
0.0
 11
3.71404
 21
1.3992
 31
0.0
  0
LINE
  8
0
  6
CONTINUOUS
 62
   250
 10
3.71404
 20
1.3992
 30
0.0
 11
3.7158
 21
1.40184
 31
0.0
  0
LINE
  8
0
  6
CONTINUOUS
 62
   250
 10
3.7158
 20
1.40184
 30
0.0
 11
3.718
 21
1.40448
 31
0.0
  0
LINE
  8
0
  6
CONTINUOUS
 62
   250
 10
3.7114
 20
1.41724
 30
0.0
 11
3.7422
 21
1.44804
 31
0.0
  0
LINE
  8
0
  6
CONTINUOUS
 62
   250
 10
3.75496
 20
1.44188
 30
0.0
 11
3.7576
 21
1.44408
 31
0.0
  0
LINE
  8
0
  6
CONTINUOUS
 62
   250
 10
3.7576
 20
1.44408
 30
0.0
 11
3.76024
 21
1.4454
 31
0.0
  0
LINE
  8
0
  6
CONTINUOUS
 62
   250
 10
3.76024
 20
1.4454
 30
0.0
 11
3.76332
 21
1.44672
 31
0.0
  0
LINE
  8
0
  6
CONTINUOUS
 62
   250
 10
3.78664
 20
1.42296
 30
0.0
 11
3.78576
 21
1.41988
 31
0.0
  0
LINE
  8
0
  6
CONTINUOUS
 62
   250
 10
3.78576
 20
1.41988
 30
0.0
 11
3.784
 21
1.41724
 31
0.0
  0
LINE
  8
0
  6
CONTINUOUS
 62
   250
 10
3.784
 20
1.41724
 30
0.0
 11
3.7818
 21
1.4146
 31
0.0
  0
LINE
  8
0
  6
CONTINUOUS
 62
   250
 10
3.7884
 20
1.4014
 30
0.0
 11
3.7576
 21
1.37104
 31
0.0
  0
LINE
  8
0
  6
CONTINUOUS
 62
   250
 10
3.7444
 20
1.3772
 30
0.0
 11
3.7422
 21
1.37544
 31
0.0
  0
LINE
  8
0
  6
CONTINUOUS
 62
   250
 10
3.7422
 20
1.37544
 30
0.0
 11
3.73956
 21
1.37368
 31
0.0
  0
LINE
  8
0
  6
CONTINUOUS
 62
   250
 10
3.73956
 20
1.37368
 30
0.0
 11
3.73648
 21
1.37236
 31
0.0
  0
LINE
  8
0
  6
CONTINUOUS
 62
   250
 10
3.90632
 20
1.28568
 30
0.0
 11
3.91248
 21
1.28568
 31
0.0
  0
LINE
  8
0
  6
CONTINUOUS
 62
   250
 10
3.91248
 20
1.24784
 30
0.0
 11
3.90632
 21
1.24784
 31
0.0
  0
LINE
  8
0
  6
CONTINUOUS
 62
   250
 10
3.50064
 20
1.28568
 30
0.0
 11
3.49932
 21
1.28436
 31
0.0
  0
LINE
  8
0
  6
CONTINUOUS
 62
   250
 10
3.49932
 20
1.28436
 30
0.0
 11
3.498
 21
1.28392
 31
0.0
  0
LINE
  8
0
  6
CONTINUOUS
 62
   250
 10
3.498
 20
1.28392
 30
0.0
 11
3.49624
 21
1.28392
 31
0.0
  0
LINE
  8
0
  6
CONTINUOUS
 62
   250
 10
3.49624
 20
1.28392
 30
0.0
 11
3.49448
 21
1.28436
 31
0.0
  0
LINE
  8
0
  6
CONTINUOUS
 62
   250
 10
3.49448
 20
1.28436
 30
0.0
 11
3.4936
 21
1.28524
 31
0.0
  0
LINE
  8
0
  6
CONTINUOUS
 62
   250
 10
3.4936
 20
1.28524
 30
0.0
 11
3.49316
 21
1.28612
 31
0.0
  0
LINE
  8
0
  6
CONTINUOUS
 62
   250
 10
3.50064
 20
1.28568
 30
0.0
 11
3.50108
 21
1.28744
 31
0.0
  0
LINE
  8
0
  6
CONTINUOUS
 62
   250
 10
3.50108
 20
1.28744
 30
0.0
 11
3.50108
 21
1.28832
 31
0.0
  0
LINE
  8
0
  6
CONTINUOUS
 62
   250
 10
3.50108
 20
1.28832
 30
0.0
 11
3.50064
 21
1.29008
 31
0.0
  0
LINE
  8
0
  6
CONTINUOUS
 62
   250
 10
3.50064
 20
1.29008
 30
0.0
 11
3.5002
 21
1.29052
 31
0.0
  0
LINE
  8
0
  6
CONTINUOUS
 62
   250
 10
3.5002
 20
1.29052
 30
0.0
 11
3.49888
 21
1.2914
 31
0.0
  0
LINE
  8
0
  6
CONTINUOUS
 62
   250
 10
3.49888
 20
1.2914
 30
0.0
 11
3.49712
 21
1.2914
 31
0.0
  0
LINE
  8
0
  6
CONTINUOUS
 62
   250
 10
3.49712
 20
1.2914
 30
0.0
 11
3.50064
 21
1.2958
 31
0.0
  0
LINE
  8
0
  6
CONTINUOUS
 62
   250
 10
3.50064
 20
1.2958
 30
0.0
 11
3.49448
 21
1.2958
 31
0.0
  0
LINE
  8
0
  6
CONTINUOUS
 62
   250
 10
3.4892
 20
1.29448
 30
0.0
 11
3.48964
 21
1.2936
 31
0.0
  0
LINE
  8
0
  6
CONTINUOUS
 62
   250
 10
3.48964
 20
1.2936
 30
0.0
 11
3.48964
 21
1.29184
 31
0.0
  0
LINE
  8
0
  6
CONTINUOUS
 62
   250
 10
3.48964
 20
1.29184
 30
0.0
 11
3.4892
 21
1.29052
 31
0.0
  0
LINE
  8
0
  6
CONTINUOUS
 62
   250
 10
3.4892
 20
1.29052
 30
0.0
 11
3.48876
 21
1.29008
 31
0.0
  0
LINE
  8
0
  6
CONTINUOUS
 62
   250
 10
3.48876
 20
1.29008
 30
0.0
 11
3.487
 21
1.28964
 31
0.0
  0
LINE
  8
0
  6
CONTINUOUS
 62
   250
 10
3.487
 20
1.28964
 30
0.0
 11
3.48172
 21
1.28964
 31
0.0
  0
LINE
  8
0
  6
CONTINUOUS
 62
   250
 10
3.48172
 20
1.28392
 30
0.0
 11
3.48172
 21
1.2958
 31
0.0
  0
LINE
  8
0
  6
CONTINUOUS
 62
   250
 10
3.48172
 20
1.2958
 30
0.0
 11
3.487
 21
1.2958
 31
0.0
  0
LINE
  8
0
  6
CONTINUOUS
 62
   250
 10
3.487
 20
1.2958
 30
0.0
 11
3.48876
 21
1.29536
 31
0.0
  0
LINE
  8
0
  6
CONTINUOUS
 62
   250
 10
3.48876
 20
1.29536
 30
0.0
 11
3.4892
 21
1.29448
 31
0.0
  0
LINE
  8
0
  6
CONTINUOUS
 62
   250
 10
3.47732
 20
1.2958
 30
0.0
 11
3.47732
 21
1.287
 31
0.0
  0
LINE
  8
0
  6
CONTINUOUS
 62
   250
 10
3.47732
 20
1.287
 30
0.0
 11
3.47688
 21
1.28524
 31
0.0
  0
LINE
  8
0
  6
CONTINUOUS
 62
   250
 10
3.47688
 20
1.28524
 30
0.0
 11
3.47644
 21
1.28436
 31
0.0
  0
LINE
  8
0
  6
CONTINUOUS
 62
   250
 10
3.47644
 20
1.28436
 30
0.0
 11
3.47512
 21
1.28392
 31
0.0
  0
LINE
  8
0
  6
CONTINUOUS
 62
   250
 10
3.47512
 20
1.28392
 30
0.0
 11
3.47424
 21
1.28392
 31
0.0
  0
LINE
  8
0
  6
CONTINUOUS
 62
   250
 10
3.47424
 20
1.28392
 30
0.0
 11
3.47292
 21
1.28436
 31
0.0
  0
LINE
  8
0
  6
CONTINUOUS
 62
   250
 10
3.47292
 20
1.28436
 30
0.0
 11
3.47248
 21
1.28524
 31
0.0
  0
LINE
  8
0
  6
CONTINUOUS
 62
   250
 10
3.47248
 20
1.28524
 30
0.0
 11
3.4716
 21
1.287
 31
0.0
  0
LINE
  8
0
  6
CONTINUOUS
 62
   250
 10
3.4716
 20
1.287
 30
0.0
 11
3.4716
 21
1.28788
 31
0.0
  0
LINE
  8
0
  6
CONTINUOUS
 62
   250
 10
3.45488
 20
1.34552
 30
0.0
 11
3.45488
 21
1.37368
 31
0.0
  0
LINE
  8
0
  6
CONTINUOUS
 62
   250
 10
3.12136
 20
1.37632
 30
0.0
 11
3.12136
 21
1.34552
 31
0.0
  0
LINE
  8
0
  6
CONTINUOUS
 62
   250
 10
3.0866
 20
1.31648
 30
0.0
 11
3.0866
 21
1.26764
 31
0.0
  0
LINE
  8
0
  6
CONTINUOUS
 62
   250
 10
3.0866
 20
1.26764
 30
0.0
 11
3.08484
 21
1.2672
 31
0.0
  0
LINE
  8
0
  6
CONTINUOUS
 62
   250
 10
3.08484
 20
1.2672
 30
0.0
 11
3.08264
 21
1.26632
 31
0.0
  0
LINE
  8
0
  6
CONTINUOUS
 62
   250
 10
3.08264
 20
1.26632
 30
0.0
 11
3.08132
 21
1.265
 31
0.0
  0
LINE
  8
0
  6
CONTINUOUS
 62
   250
 10
3.08132
 20
1.265
 30
0.0
 11
3.08
 21
1.26368
 31
0.0
  0
LINE
  8
0
  6
CONTINUOUS
 62
   250
 10
3.08
 20
1.26368
 30
0.0
 11
3.07912
 21
1.26148
 31
0.0
  0
LINE
  8
0
  6
CONTINUOUS
 62
   250
 10
3.07912
 20
1.26148
 30
0.0
 11
3.07912
 21
1.25972
 31
0.0
  0
LINE
  8
0
  6
CONTINUOUS
 62
   250
 10
3.07912
 20
1.25972
 30
0.0
 11
3.07912
 21
1.25752
 31
0.0
  0
LINE
  8
0
  6
CONTINUOUS
 62
   250
 10
3.07912
 20
1.25752
 30
0.0
 11
3.08
 21
1.25576
 31
0.0
  0
LINE
  8
0
  6
CONTINUOUS
 62
   250
 10
3.08
 20
1.25576
 30
0.0
 11
3.08132
 21
1.25444
 31
0.0
  0
LINE
  8
0
  6
CONTINUOUS
 62
   250
 10
3.08132
 20
1.25444
 30
0.0
 11
3.08264
 21
1.25312
 31
0.0
  0
LINE
  8
0
  6
CONTINUOUS
 62
   250
 10
3.08264
 20
1.25312
 30
0.0
 11
3.08484
 21
1.25224
 31
0.0
  0
LINE
  8
0
  6
CONTINUOUS
 62
   250
 10
3.08484
 20
1.25224
 30
0.0
 11
3.0866
 21
1.2518
 31
0.0
  0
LINE
  8
0
  6
CONTINUOUS
 62
   250
 10
3.0866
 20
1.2518
 30
0.0
 11
3.0866
 21
1.22144
 31
0.0
  0
LINE
  8
0
  6
CONTINUOUS
 62
   250
 10
3.05404
 20
1.25356
 30
0.0
 11
3.05404
 21
1.26588
 31
0.0
  0
LINE
  8
0
  6
CONTINUOUS
 62
   250
 10
3.05404
 20
1.26588
 30
0.0
 11
3.04876
 21
1.25752
 31
0.0
  0
LINE
  8
0
  6
CONTINUOUS
 62
   250
 10
3.04876
 20
1.25752
 30
0.0
 11
3.05668
 21
1.25752
 31
0.0
  0
LINE
  8
0
  6
CONTINUOUS
 62
   250
 10
3.04392
 20
1.25972
 30
0.0
 11
3.04216
 21
1.25928
 31
0.0
  0
LINE
  8
0
  6
CONTINUOUS
 62
   250
 10
3.04216
 20
1.25928
 30
0.0
 11
3.03732
 21
1.25928
 31
0.0
  0
LINE
  8
0
  6
CONTINUOUS
 62
   250
 10
3.03732
 20
1.25356
 30
0.0
 11
3.03732
 21
1.26588
 31
0.0
  0
LINE
  8
0
  6
CONTINUOUS
 62
   250
 10
3.03732
 20
1.26588
 30
0.0
 11
3.04216
 21
1.26588
 31
0.0
  0
LINE
  8
0
  6
CONTINUOUS
 62
   250
 10
3.04216
 20
1.26588
 30
0.0
 11
3.04392
 21
1.265
 31
0.0
  0
LINE
  8
0
  6
CONTINUOUS
 62
   250
 10
3.04392
 20
1.265
 30
0.0
 11
3.04436
 21
1.26456
 31
0.0
  0
LINE
  8
0
  6
CONTINUOUS
 62
   250
 10
3.04436
 20
1.26456
 30
0.0
 11
3.04524
 21
1.26324
 31
0.0
  0
LINE
  8
0
  6
CONTINUOUS
 62
   250
 10
3.04524
 20
1.26324
 30
0.0
 11
3.04524
 21
1.26148
 31
0.0
  0
LINE
  8
0
  6
CONTINUOUS
 62
   250
 10
3.04524
 20
1.26148
 30
0.0
 11
3.04436
 21
1.2606
 31
0.0
  0
LINE
  8
0
  6
CONTINUOUS
 62
   250
 10
3.04436
 20
1.2606
 30
0.0
 11
3.04392
 21
1.25972
 31
0.0
  0
LINE
  8
0
  6
CONTINUOUS
 62
   250
 10
3.03248
 20
1.25664
 30
0.0
 11
3.03204
 21
1.25488
 31
0.0
  0
LINE
  8
0
  6
CONTINUOUS
 62
   250
 10
3.03204
 20
1.25488
 30
0.0
 11
3.0316
 21
1.25444
 31
0.0
  0
LINE
  8
0
  6
CONTINUOUS
 62
   250
 10
3.0316
 20
1.25444
 30
0.0
 11
3.03028
 21
1.25356
 31
0.0
  0
LINE
  8
0
  6
CONTINUOUS
 62
   250
 10
3.03028
 20
1.25356
 30
0.0
 11
3.0294
 21
1.25356
 31
0.0
  0
LINE
  8
0
  6
CONTINUOUS
 62
   250
 10
3.0294
 20
1.25356
 30
0.0
 11
3.02808
 21
1.25444
 31
0.0
  0
LINE
  8
0
  6
CONTINUOUS
 62
   250
 10
3.02808
 20
1.25444
 30
0.0
 11
3.02764
 21
1.25488
 31
0.0
  0
LINE
  8
0
  6
CONTINUOUS
 62
   250
 10
3.02764
 20
1.25488
 30
0.0
 11
3.0272
 21
1.25664
 31
0.0
  0
LINE
  8
0
  6
CONTINUOUS
 62
   250
 10
3.0272
 20
1.25664
 30
0.0
 11
3.0272
 21
1.25752
 31
0.0
  0
LINE
  8
0
  6
CONTINUOUS
 62
   250
 10
3.03248
 20
1.25664
 30
0.0
 11
3.03248
 21
1.26588
 31
0.0
  0
LINE
  8
0
  6
CONTINUOUS
 62
   250
 10
3.00256
 20
1.265
 30
0.0
 11
3.00124
 21
1.26632
 31
0.0
  0
LINE
  8
0
  6
CONTINUOUS
 62
   250
 10
3.00124
 20
1.26632
 30
0.0
 11
2.99948
 21
1.2672
 31
0.0
  0
LINE
  8
0
  6
CONTINUOUS
 62
   250
 10
2.99948
 20
1.2672
 30
0.0
 11
2.99728
 21
1.26764
 31
0.0
  0
LINE
  8
0
  6
CONTINUOUS
 62
   250
 10
2.99728
 20
1.26764
 30
0.0
 11
2.99552
 21
1.2672
 31
0.0
  0
LINE
  8
0
  6
CONTINUOUS
 62
   250
 10
2.99552
 20
1.2672
 30
0.0
 11
2.99332
 21
1.26632
 31
0.0
  0
LINE
  8
0
  6
CONTINUOUS
 62
   250
 10
2.99332
 20
1.26632
 30
0.0
 11
2.992
 21
1.265
 31
0.0
  0
LINE
  8
0
  6
CONTINUOUS
 62
   250
 10
2.992
 20
1.265
 30
0.0
 11
2.99068
 21
1.26368
 31
0.0
  0
LINE
  8
0
  6
CONTINUOUS
 62
   250
 10
2.99068
 20
1.26368
 30
0.0
 11
2.9898
 21
1.26148
 31
0.0
  0
LINE
  8
0
  6
CONTINUOUS
 62
   250
 10
2.9898
 20
1.26148
 30
0.0
 11
2.9898
 21
1.25972
 31
0.0
  0
LINE
  8
0
  6
CONTINUOUS
 62
   250
 10
2.9898
 20
1.25972
 30
0.0
 11
2.9898
 21
1.25752
 31
0.0
  0
LINE
  8
0
  6
CONTINUOUS
 62
   250
 10
2.9898
 20
1.25752
 30
0.0
 11
2.99068
 21
1.25576
 31
0.0
  0
LINE
  8
0
  6
CONTINUOUS
 62
   250
 10
2.99068
 20
1.25576
 30
0.0
 11
2.992
 21
1.25444
 31
0.0
  0
LINE
  8
0
  6
CONTINUOUS
 62
   250
 10
2.992
 20
1.25444
 30
0.0
 11
2.99332
 21
1.25312
 31
0.0
  0
LINE
  8
0
  6
CONTINUOUS
 62
   250
 10
2.99332
 20
1.25312
 30
0.0
 11
2.99552
 21
1.25224
 31
0.0
  0
LINE
  8
0
  6
CONTINUOUS
 62
   250
 10
2.99552
 20
1.25224
 30
0.0
 11
2.99728
 21
1.2518
 31
0.0
  0
LINE
  8
0
  6
CONTINUOUS
 62
   250
 10
2.99728
 20
1.2518
 30
0.0
 11
2.99948
 21
1.25224
 31
0.0
  0
LINE
  8
0
  6
CONTINUOUS
 62
   250
 10
2.99948
 20
1.25224
 30
0.0
 11
3.00124
 21
1.25312
 31
0.0
  0
LINE
  8
0
  6
CONTINUOUS
 62
   250
 10
3.00124
 20
1.25312
 30
0.0
 11
3.00256
 21
1.25444
 31
0.0
  0
LINE
  8
0
  6
CONTINUOUS
 62
   250
 10
3.00256
 20
1.25444
 30
0.0
 11
3.00388
 21
1.25576
 31
0.0
  0
LINE
  8
0
  6
CONTINUOUS
 62
   250
 10
3.00388
 20
1.25576
 30
0.0
 11
3.00476
 21
1.25752
 31
0.0
  0
LINE
  8
0
  6
CONTINUOUS
 62
   250
 10
3.00476
 20
1.25752
 30
0.0
 11
3.0052
 21
1.25972
 31
0.0
  0
LINE
  8
0
  6
CONTINUOUS
 62
   250
 10
3.0052
 20
1.25972
 30
0.0
 11
3.00476
 21
1.26148
 31
0.0
  0
LINE
  8
0
  6
CONTINUOUS
 62
   250
 10
3.00476
 20
1.26148
 30
0.0
 11
3.00388
 21
1.26368
 31
0.0
  0
LINE
  8
0
  6
CONTINUOUS
 62
   250
 10
3.00388
 20
1.26368
 30
0.0
 11
3.00256
 21
1.265
 31
0.0
  0
LINE
  8
0
  6
CONTINUOUS
 62
   250
 10
2.99728
 20
1.26764
 30
0.0
 11
2.99728
 21
1.31648
 31
0.0
  0
LINE
  8
0
  6
CONTINUOUS
 62
   250
 10
2.99728
 20
1.2518
 30
0.0
 11
2.99728
 21
1.22144
 31
0.0
  0
LINE
  8
0
  6
CONTINUOUS
 62
   250
 10
2.67916
 20
1.23024
 30
0.0
 11
2.67916
 21
1.3464
 31
0.0
  0
LINE
  8
0
  6
CONTINUOUS
 62
   250
 10
3.03512
 20
1.5114
 30
0.0
 11
3.06328
 21
1.5114
 31
0.0
  0
LINE
  8
0
  6
CONTINUOUS
 62
   250
 10
3.06328
 20
1.5884
 30
0.0
 11
3.03512
 21
1.5884
 31
0.0
  0
LINE
  8
0
  6
CONTINUOUS
 62
   250
 10
3.1504
 20
1.57168
 30
0.0
 11
3.15084
 21
1.57256
 31
0.0
  0
LINE
  8
0
  6
CONTINUOUS
 62
   250
 10
3.15084
 20
1.57256
 30
0.0
 11
3.15216
 21
1.573
 31
0.0
  0
LINE
  8
0
  6
CONTINUOUS
 62
   250
 10
3.15216
 20
1.573
 30
0.0
 11
3.15304
 21
1.573
 31
0.0
  0
LINE
  8
0
  6
CONTINUOUS
 62
   250
 10
3.15304
 20
1.573
 30
0.0
 11
3.15436
 21
1.57256
 31
0.0
  0
LINE
  8
0
  6
CONTINUOUS
 62
   250
 10
3.15436
 20
1.57256
 30
0.0
 11
3.1548
 21
1.57168
 31
0.0
  0
LINE
  8
0
  6
CONTINUOUS
 62
   250
 10
3.1548
 20
1.57168
 30
0.0
 11
3.15524
 21
1.56992
 31
0.0
  0
LINE
  8
0
  6
CONTINUOUS
 62
   250
 10
3.15524
 20
1.56992
 30
0.0
 11
3.15568
 21
1.57168
 31
0.0
  0
LINE
  8
0
  6
CONTINUOUS
 62
   250
 10
3.15568
 20
1.57168
 30
0.0
 11
3.15656
 21
1.57256
 31
0.0
  0
LINE
  8
0
  6
CONTINUOUS
 62
   250
 10
3.15656
 20
1.57256
 30
0.0
 11
3.15744
 21
1.573
 31
0.0
  0
LINE
  8
0
  6
CONTINUOUS
 62
   250
 10
3.15744
 20
1.573
 30
0.0
 11
3.1592
 21
1.573
 31
0.0
  0
LINE
  8
0
  6
CONTINUOUS
 62
   250
 10
3.1592
 20
1.573
 30
0.0
 11
3.16052
 21
1.57256
 31
0.0
  0
LINE
  8
0
  6
CONTINUOUS
 62
   250
 10
3.16052
 20
1.57256
 30
0.0
 11
3.16096
 21
1.57168
 31
0.0
  0
LINE
  8
0
  6
CONTINUOUS
 62
   250
 10
3.16096
 20
1.57168
 30
0.0
 11
3.16184
 21
1.56992
 31
0.0
  0
LINE
  8
0
  6
CONTINUOUS
 62
   250
 10
3.16184
 20
1.56992
 30
0.0
 11
3.16184
 21
1.56508
 31
0.0
  0
LINE
  8
0
  6
CONTINUOUS
 62
   250
 10
3.16184
 20
1.56508
 30
0.0
 11
3.14996
 21
1.56508
 31
0.0
  0
LINE
  8
0
  6
CONTINUOUS
 62
   250
 10
3.14996
 20
1.56508
 30
0.0
 11
3.14996
 21
1.56992
 31
0.0
  0
LINE
  8
0
  6
CONTINUOUS
 62
   250
 10
3.14996
 20
1.56992
 30
0.0
 11
3.1504
 21
1.57168
 31
0.0
  0
LINE
  8
0
  6
CONTINUOUS
 62
   250
 10
3.15524
 20
1.56992
 30
0.0
 11
3.15524
 21
1.56508
 31
0.0
  0
LINE
  8
0
  6
CONTINUOUS
 62
   250
 10
3.15744
 20
1.53164
 30
0.0
 11
3.15744
 21
1.52636
 31
0.0
  0
LINE
  8
0
  6
CONTINUOUS
 62
   250
 10
3.16184
 20
1.5246
 30
0.0
 11
3.14996
 21
1.529
 31
0.0
  0
LINE
  8
0
  6
CONTINUOUS
 62
   250
 10
3.14996
 20
1.529
 30
0.0
 11
3.16184
 21
1.5334
 31
0.0
  0
LINE
  8
0
  6
CONTINUOUS
 62
   250
 10
3.18912
 20
1.58884
 30
0.0
 11
3.18912
 21
1.60072
 31
0.0
  0
LINE
  8
0
  6
CONTINUOUS
 62
   250
 10
3.18912
 20
1.60072
 30
0.0
 11
3.1944
 21
1.60072
 31
0.0
  0
LINE
  8
0
  6
CONTINUOUS
 62
   250
 10
3.1944
 20
1.60072
 30
0.0
 11
3.19616
 21
1.59984
 31
0.0
  0
LINE
  8
0
  6
CONTINUOUS
 62
   250
 10
3.19616
 20
1.59984
 30
0.0
 11
3.1966
 21
1.5994
 31
0.0
  0
LINE
  8
0
  6
CONTINUOUS
 62
   250
 10
3.1966
 20
1.5994
 30
0.0
 11
3.19704
 21
1.59808
 31
0.0
  0
LINE
  8
0
  6
CONTINUOUS
 62
   250
 10
3.19704
 20
1.59808
 30
0.0
 11
3.19704
 21
1.5972
 31
0.0
  0
LINE
  8
0
  6
CONTINUOUS
 62
   250
 10
3.19704
 20
1.5972
 30
0.0
 11
3.1966
 21
1.59588
 31
0.0
  0
LINE
  8
0
  6
CONTINUOUS
 62
   250
 10
3.1966
 20
1.59588
 30
0.0
 11
3.19616
 21
1.59544
 31
0.0
  0
LINE
  8
0
  6
CONTINUOUS
 62
   250
 10
3.19616
 20
1.59544
 30
0.0
 11
3.1944
 21
1.595
 31
0.0
  0
LINE
  8
0
  6
CONTINUOUS
 62
   250
 10
3.1944
 20
1.595
 30
0.0
 11
3.18912
 21
1.595
 31
0.0
  0
LINE
  8
0
  6
CONTINUOUS
 62
   250
 10
3.19308
 20
1.595
 30
0.0
 11
3.19704
 21
1.58884
 31
0.0
  0
LINE
  8
0
  6
CONTINUOUS
 62
   250
 10
3.21772
 20
1.58884
 30
0.0
 11
3.212
 21
1.60072
 31
0.0
  0
LINE
  8
0
  6
CONTINUOUS
 62
   250
 10
3.223
 20
1.60072
 30
0.0
 11
3.21772
 21
1.58884
 31
0.0
  0
LINE
  8
0
  6
CONTINUOUS
 62
   250
 10
3.22872
 20
1.58884
 30
0.0
 11
3.223
 21
1.60072
 31
0.0
  0
LINE
  8
0
  6
CONTINUOUS
 62
   250
 10
3.234
 20
1.60072
 30
0.0
 11
3.22872
 21
1.58884
 31
0.0
  0
LINE
  8
0
  6
CONTINUOUS
 62
   250
 10
3.24852
 20
1.58884
 30
0.0
 11
3.24852
 21
1.60072
 31
0.0
  0
LINE
  8
0
  6
CONTINUOUS
 62
   250
 10
3.24852
 20
1.60072
 30
0.0
 11
3.245
 21
1.59896
 31
0.0
  0
LINE
  8
0
  6
CONTINUOUS
 62
   250
 10
3.245
 20
1.59896
 30
0.0
 11
3.2428
 21
1.59808
 31
0.0
  0
LINE
  8
0
  6
CONTINUOUS
 62
   250
 10
3.2626
 20
1.60072
 30
0.0
 11
3.26744
 21
1.58884
 31
0.0
  0
LINE
  8
0
  6
CONTINUOUS
 62
   250
 10
3.26744
 20
1.58884
 30
0.0
 11
3.27228
 21
1.60072
 31
0.0
  0
LINE
  8
0
  6
CONTINUOUS
 62
   250
 10
3.27228
 20
1.60072
 30
0.0
 11
3.27668
 21
1.58884
 31
0.0
  0
LINE
  8
0
  6
CONTINUOUS
 62
   250
 10
3.27668
 20
1.58884
 30
0.0
 11
3.28152
 21
1.60072
 31
0.0
  0
LINE
  8
0
  6
CONTINUOUS
 62
   250
 10
3.28812
 20
1.5994
 30
0.0
 11
3.289
 21
1.59984
 31
0.0
  0
LINE
  8
0
  6
CONTINUOUS
 62
   250
 10
3.289
 20
1.59984
 30
0.0
 11
3.29076
 21
1.60072
 31
0.0
  0
LINE
  8
0
  6
CONTINUOUS
 62
   250
 10
3.29076
 20
1.60072
 30
0.0
 11
3.29472
 21
1.60072
 31
0.0
  0
LINE
  8
0
  6
CONTINUOUS
 62
   250
 10
3.29472
 20
1.60072
 30
0.0
 11
3.29648
 21
1.59984
 31
0.0
  0
LINE
  8
0
  6
CONTINUOUS
 62
   250
 10
3.29648
 20
1.59984
 30
0.0
 11
3.29736
 21
1.5994
 31
0.0
  0
LINE
  8
0
  6
CONTINUOUS
 62
   250
 10
3.29736
 20
1.5994
 30
0.0
 11
3.29868
 21
1.59808
 31
0.0
  0
LINE
  8
0
  6
CONTINUOUS
 62
   250
 10
3.29868
 20
1.59808
 30
0.0
 11
3.29868
 21
1.5972
 31
0.0
  0
LINE
  8
0
  6
CONTINUOUS
 62
   250
 10
3.29868
 20
1.5972
 30
0.0
 11
3.29736
 21
1.59588
 31
0.0
  0
LINE
  8
0
  6
CONTINUOUS
 62
   250
 10
3.29736
 20
1.59588
 30
0.0
 11
3.2956
 21
1.59456
 31
0.0
  0
LINE
  8
0
  6
CONTINUOUS
 62
   250
 10
3.2956
 20
1.59456
 30
0.0
 11
3.28636
 21
1.58884
 31
0.0
  0
LINE
  8
0
  6
CONTINUOUS
 62
   250
 10
3.28636
 20
1.58884
 30
0.0
 11
3.29912
 21
1.58884
 31
0.0
  0
LINE
  8
0
  6
CONTINUOUS
 62
   250
 10
3.3154
 20
1.58884
 30
0.0
 11
3.3154
 21
1.595
 31
0.0
  0
LINE
  8
0
  6
CONTINUOUS
 62
   250
 10
3.3154
 20
1.595
 30
0.0
 11
3.3198
 21
1.60072
 31
0.0
  0
LINE
  8
0
  6
CONTINUOUS
 62
   250
 10
3.32376
 20
1.59808
 30
0.0
 11
3.32464
 21
1.59896
 31
0.0
  0
LINE
  8
0
  6
CONTINUOUS
 62
   250
 10
3.32464
 20
1.59896
 30
0.0
 11
3.3264
 21
1.60072
 31
0.0
  0
LINE
  8
0
  6
CONTINUOUS
 62
   250
 10
3.3264
 20
1.60072
 30
0.0
 11
3.3264
 21
1.58884
 31
0.0
  0
LINE
  8
0
  6
CONTINUOUS
 62
   250
 10
3.3154
 20
1.595
 30
0.0
 11
3.31056
 21
1.60072
 31
0.0
  0
LINE
  8
0
  6
CONTINUOUS
 62
   250
 10
3.28812
 20
1.5994
 30
0.0
 11
3.28724
 21
1.59808
 31
0.0
  0
LINE
  8
0
  6
CONTINUOUS
 62
   250
 10
3.28724
 20
1.59808
 30
0.0
 11
3.28724
 21
1.59764
 31
0.0
  0
LINE
  8
0
  6
CONTINUOUS
 62
   250
 10
3.36072
 20
1.60072
 30
0.0
 11
3.36512
 21
1.595
 31
0.0
  0
LINE
  8
0
  6
CONTINUOUS
 62
   250
 10
3.36512
 20
1.595
 30
0.0
 11
3.36512
 21
1.58884
 31
0.0
  0
LINE
  8
0
  6
CONTINUOUS
 62
   250
 10
3.36512
 20
1.595
 30
0.0
 11
3.36952
 21
1.60072
 31
0.0
  0
LINE
  8
0
  6
CONTINUOUS
 62
   250
 10
3.37348
 20
1.59984
 30
0.0
 11
3.3748
 21
1.60072
 31
0.0
  0
LINE
  8
0
  6
CONTINUOUS
 62
   250
 10
3.3748
 20
1.60072
 30
0.0
 11
3.377
 21
1.60072
 31
0.0
  0
LINE
  8
0
  6
CONTINUOUS
 62
   250
 10
3.377
 20
1.60072
 30
0.0
 11
3.37832
 21
1.59984
 31
0.0
  0
LINE
  8
0
  6
CONTINUOUS
 62
   250
 10
3.37832
 20
1.59984
 30
0.0
 11
3.37876
 21
1.5994
 31
0.0
  0
LINE
  8
0
  6
CONTINUOUS
 62
   250
 10
3.37876
 20
1.5994
 30
0.0
 11
3.3792
 21
1.59808
 31
0.0
  0
LINE
  8
0
  6
CONTINUOUS
 62
   250
 10
3.3792
 20
1.59808
 30
0.0
 11
3.3792
 21
1.5972
 31
0.0
  0
LINE
  8
0
  6
CONTINUOUS
 62
   250
 10
3.3792
 20
1.5972
 30
0.0
 11
3.37876
 21
1.59588
 31
0.0
  0
LINE
  8
0
  6
CONTINUOUS
 62
   250
 10
3.37876
 20
1.59588
 30
0.0
 11
3.37744
 21
1.59456
 31
0.0
  0
LINE
  8
0
  6
CONTINUOUS
 62
   250
 10
3.37744
 20
1.59456
 30
0.0
 11
3.37172
 21
1.58884
 31
0.0
  0
LINE
  8
0
  6
CONTINUOUS
 62
   250
 10
3.37172
 20
1.58884
 30
0.0
 11
3.37964
 21
1.58884
 31
0.0
  0
LINE
  8
0
  6
CONTINUOUS
 62
   250
 10
3.3726
 20
1.59764
 30
0.0
 11
3.3726
 21
1.59808
 31
0.0
  0
LINE
  8
0
  6
CONTINUOUS
 62
   250
 10
3.3726
 20
1.59808
 30
0.0
 11
3.37304
 21
1.5994
 31
0.0
  0
LINE
  8
0
  6
CONTINUOUS
 62
   250
 10
3.37304
 20
1.5994
 30
0.0
 11
3.37348
 21
1.59984
 31
0.0
  0
LINE
  8
0
  6
CONTINUOUS
 62
   250
 10
3.40692
 20
1.59984
 30
0.0
 11
3.4056
 21
1.59896
 31
0.0
  0
LINE
  8
0
  6
CONTINUOUS
 62
   250
 10
3.4056
 20
1.59896
 30
0.0
 11
3.40516
 21
1.59764
 31
0.0
  0
LINE
  8
0
  6
CONTINUOUS
 62
   250
 10
3.40516
 20
1.59764
 30
0.0
 11
3.40472
 21
1.59588
 31
0.0
  0
LINE
  8
0
  6
CONTINUOUS
 62
   250
 10
3.40472
 20
1.59588
 30
0.0
 11
3.40472
 21
1.59324
 31
0.0
  0
LINE
  8
0
  6
CONTINUOUS
 62
   250
 10
3.40472
 20
1.59324
 30
0.0
 11
3.40516
 21
1.59148
 31
0.0
  0
LINE
  8
0
  6
CONTINUOUS
 62
   250
 10
3.40516
 20
1.59148
 30
0.0
 11
3.4056
 21
1.5906
 31
0.0
  0
LINE
  8
0
  6
CONTINUOUS
 62
   250
 10
3.4056
 20
1.5906
 30
0.0
 11
3.40692
 21
1.58928
 31
0.0
  0
LINE
  8
0
  6
CONTINUOUS
 62
   250
 10
3.40692
 20
1.58928
 30
0.0
 11
3.4078
 21
1.58884
 31
0.0
  0
LINE
  8
0
  6
CONTINUOUS
 62
   250
 10
3.4078
 20
1.58884
 30
0.0
 11
3.41
 21
1.58884
 31
0.0
  0
LINE
  8
0
  6
CONTINUOUS
 62
   250
 10
3.41
 20
1.58884
 30
0.0
 11
3.41132
 21
1.58928
 31
0.0
  0
LINE
  8
0
  6
CONTINUOUS
 62
   250
 10
3.41132
 20
1.58928
 30
0.0
 11
3.41264
 21
1.5906
 31
0.0
  0
LINE
  8
0
  6
CONTINUOUS
 62
   250
 10
3.41264
 20
1.5906
 30
0.0
 11
3.41308
 21
1.59148
 31
0.0
  0
LINE
  8
0
  6
CONTINUOUS
 62
   250
 10
3.41308
 20
1.59148
 30
0.0
 11
3.41308
 21
1.59324
 31
0.0
  0
LINE
  8
0
  6
CONTINUOUS
 62
   250
 10
3.41308
 20
1.59324
 30
0.0
 11
3.41
 21
1.59324
 31
0.0
  0
LINE
  8
0
  6
CONTINUOUS
 62
   250
 10
3.41
 20
1.60072
 30
0.0
 11
3.4078
 21
1.60072
 31
0.0
  0
LINE
  8
0
  6
CONTINUOUS
 62
   250
 10
3.4078
 20
1.60072
 30
0.0
 11
3.40692
 21
1.59984
 31
0.0
  0
LINE
  8
0
  6
CONTINUOUS
 62
   250
 10
3.41
 20
1.60072
 30
0.0
 11
3.41132
 21
1.59984
 31
0.0
  0
LINE
  8
0
  6
CONTINUOUS
 62
   250
 10
3.41132
 20
1.59984
 30
0.0
 11
3.41264
 21
1.59896
 31
0.0
  0
LINE
  8
0
  6
CONTINUOUS
 62
   250
 10
3.41264
 20
1.59896
 30
0.0
 11
3.41308
 21
1.59764
 31
0.0
  0
LINE
  8
0
  6
CONTINUOUS
 62
   250
 10
3.48612
 20
1.5928
 30
0.0
 11
3.49184
 21
1.5928
 31
0.0
  0
LINE
  8
0
  6
CONTINUOUS
 62
   250
 10
3.4958
 20
1.59324
 30
0.0
 11
3.49624
 21
1.59148
 31
0.0
  0
LINE
  8
0
  6
CONTINUOUS
 62
   250
 10
3.49624
 20
1.59148
 30
0.0
 11
3.49668
 21
1.5906
 31
0.0
  0
LINE
  8
0
  6
CONTINUOUS
 62
   250
 10
3.49668
 20
1.5906
 30
0.0
 11
3.498
 21
1.58928
 31
0.0
  0
LINE
  8
0
  6
CONTINUOUS
 62
   250
 10
3.498
 20
1.58928
 30
0.0
 11
3.49888
 21
1.58884
 31
0.0
  0
LINE
  8
0
  6
CONTINUOUS
 62
   250
 10
3.49888
 20
1.58884
 30
0.0
 11
3.50108
 21
1.58884
 31
0.0
  0
LINE
  8
0
  6
CONTINUOUS
 62
   250
 10
3.50108
 20
1.58884
 30
0.0
 11
3.5024
 21
1.58928
 31
0.0
  0
LINE
  8
0
  6
CONTINUOUS
 62
   250
 10
3.5024
 20
1.58928
 30
0.0
 11
3.50372
 21
1.5906
 31
0.0
  0
LINE
  8
0
  6
CONTINUOUS
 62
   250
 10
3.50372
 20
1.5906
 30
0.0
 11
3.50416
 21
1.59148
 31
0.0
  0
LINE
  8
0
  6
CONTINUOUS
 62
   250
 10
3.50416
 20
1.59148
 30
0.0
 11
3.5046
 21
1.59324
 31
0.0
  0
LINE
  8
0
  6
CONTINUOUS
 62
   250
 10
3.5046
 20
1.59324
 30
0.0
 11
3.5046
 21
1.59588
 31
0.0
  0
LINE
  8
0
  6
CONTINUOUS
 62
   250
 10
3.5046
 20
1.59588
 30
0.0
 11
3.50416
 21
1.59764
 31
0.0
  0
LINE
  8
0
  6
CONTINUOUS
 62
   250
 10
3.50416
 20
1.59764
 30
0.0
 11
3.50372
 21
1.59896
 31
0.0
  0
LINE
  8
0
  6
CONTINUOUS
 62
   250
 10
3.50372
 20
1.59896
 30
0.0
 11
3.5024
 21
1.59984
 31
0.0
  0
LINE
  8
0
  6
CONTINUOUS
 62
   250
 10
3.5024
 20
1.59984
 30
0.0
 11
3.50108
 21
1.60072
 31
0.0
  0
LINE
  8
0
  6
CONTINUOUS
 62
   250
 10
3.50108
 20
1.60072
 30
0.0
 11
3.49888
 21
1.60072
 31
0.0
  0
LINE
  8
0
  6
CONTINUOUS
 62
   250
 10
3.49888
 20
1.60072
 30
0.0
 11
3.498
 21
1.59984
 31
0.0
  0
LINE
  8
0
  6
CONTINUOUS
 62
   250
 10
3.498
 20
1.59984
 30
0.0
 11
3.49668
 21
1.59896
 31
0.0
  0
LINE
  8
0
  6
CONTINUOUS
 62
   250
 10
3.49668
 20
1.59896
 30
0.0
 11
3.49624
 21
1.59764
 31
0.0
  0
LINE
  8
0
  6
CONTINUOUS
 62
   250
 10
3.49624
 20
1.59764
 30
0.0
 11
3.4958
 21
1.59588
 31
0.0
  0
LINE
  8
0
  6
CONTINUOUS
 62
   250
 10
3.4958
 20
1.59588
 30
0.0
 11
3.4958
 21
1.59324
 31
0.0
  0
LINE
  8
0
  6
CONTINUOUS
 62
   250
 10
3.4936
 20
1.58884
 30
0.0
 11
3.48876
 21
1.60072
 31
0.0
  0
LINE
  8
0
  6
CONTINUOUS
 62
   250
 10
3.48876
 20
1.60072
 30
0.0
 11
3.48436
 21
1.58884
 31
0.0
  0
LINE
  8
0
  6
CONTINUOUS
 62
   250
 10
3.51252
 20
1.58884
 30
0.0
 11
3.51252
 21
1.60072
 31
0.0
  0
LINE
  8
0
  6
CONTINUOUS
 62
   250
 10
3.51252
 20
1.60072
 30
0.0
 11
3.5112
 21
1.59896
 31
0.0
  0
LINE
  8
0
  6
CONTINUOUS
 62
   250
 10
3.5112
 20
1.59896
 30
0.0
 11
3.50988
 21
1.59808
 31
0.0
  0
LINE
  8
0
  6
CONTINUOUS
 62
   250
 10
3.52132
 20
1.59764
 30
0.0
 11
3.52088
 21
1.59588
 31
0.0
  0
LINE
  8
0
  6
CONTINUOUS
 62
   250
 10
3.52088
 20
1.59588
 30
0.0
 11
3.52088
 21
1.59324
 31
0.0
  0
LINE
  8
0
  6
CONTINUOUS
 62
   250
 10
3.52088
 20
1.59324
 30
0.0
 11
3.52132
 21
1.59148
 31
0.0
  0
LINE
  8
0
  6
CONTINUOUS
 62
   250
 10
3.52132
 20
1.59148
 30
0.0
 11
3.5222
 21
1.5906
 31
0.0
  0
LINE
  8
0
  6
CONTINUOUS
 62
   250
 10
3.5222
 20
1.5906
 30
0.0
 11
3.52308
 21
1.58928
 31
0.0
  0
LINE
  8
0
  6
CONTINUOUS
 62
   250
 10
3.52308
 20
1.58928
 30
0.0
 11
3.5244
 21
1.58884
 31
0.0
  0
LINE
  8
0
  6
CONTINUOUS
 62
   250
 10
3.5244
 20
1.58884
 30
0.0
 11
3.5266
 21
1.58884
 31
0.0
  0
LINE
  8
0
  6
CONTINUOUS
 62
   250
 10
3.5266
 20
1.58884
 30
0.0
 11
3.52792
 21
1.58928
 31
0.0
  0
LINE
  8
0
  6
CONTINUOUS
 62
   250
 10
3.52792
 20
1.58928
 30
0.0
 11
3.5288
 21
1.5906
 31
0.0
  0
LINE
  8
0
  6
CONTINUOUS
 62
   250
 10
3.5288
 20
1.5906
 30
0.0
 11
3.52968
 21
1.59148
 31
0.0
  0
LINE
  8
0
  6
CONTINUOUS
 62
   250
 10
3.52968
 20
1.59148
 30
0.0
 11
3.52968
 21
1.59324
 31
0.0
  0
LINE
  8
0
  6
CONTINUOUS
 62
   250
 10
3.52968
 20
1.59324
 30
0.0
 11
3.5266
 21
1.59324
 31
0.0
  0
LINE
  8
0
  6
CONTINUOUS
 62
   250
 10
3.5266
 20
1.60072
 30
0.0
 11
3.5244
 21
1.60072
 31
0.0
  0
LINE
  8
0
  6
CONTINUOUS
 62
   250
 10
3.5244
 20
1.60072
 30
0.0
 11
3.52308
 21
1.59984
 31
0.0
  0
LINE
  8
0
  6
CONTINUOUS
 62
   250
 10
3.52308
 20
1.59984
 30
0.0
 11
3.5222
 21
1.59896
 31
0.0
  0
LINE
  8
0
  6
CONTINUOUS
 62
   250
 10
3.5222
 20
1.59896
 30
0.0
 11
3.52132
 21
1.59764
 31
0.0
  0
LINE
  8
0
  6
CONTINUOUS
 62
   250
 10
3.5266
 20
1.60072
 30
0.0
 11
3.52792
 21
1.59984
 31
0.0
  0
LINE
  8
0
  6
CONTINUOUS
 62
   250
 10
3.52792
 20
1.59984
 30
0.0
 11
3.5288
 21
1.59896
 31
0.0
  0
LINE
  8
0
  6
CONTINUOUS
 62
   250
 10
3.5288
 20
1.59896
 30
0.0
 11
3.52968
 21
1.59764
 31
0.0
  0
LINE
  8
0
  6
CONTINUOUS
 62
   250
 10
3.5332
 20
1.60072
 30
0.0
 11
3.5332
 21
1.58884
 31
0.0
  0
LINE
  8
0
  6
CONTINUOUS
 62
   250
 10
3.54112
 20
1.58884
 30
0.0
 11
3.5332
 21
1.60072
 31
0.0
  0
LINE
  8
0
  6
CONTINUOUS
 62
   250
 10
3.54112
 20
1.60072
 30
0.0
 11
3.54112
 21
1.58884
 31
0.0
  0
LINE
  8
0
  6
CONTINUOUS
 62
   250
 10
3.54596
 20
1.58884
 30
0.0
 11
3.54596
 21
1.60072
 31
0.0
  0
LINE
  8
0
  6
CONTINUOUS
 62
   250
 10
3.54596
 20
1.60072
 30
0.0
 11
3.54992
 21
1.60072
 31
0.0
  0
LINE
  8
0
  6
CONTINUOUS
 62
   250
 10
3.54992
 20
1.60072
 30
0.0
 11
3.55168
 21
1.59984
 31
0.0
  0
LINE
  8
0
  6
CONTINUOUS
 62
   250
 10
3.55168
 20
1.59984
 30
0.0
 11
3.55256
 21
1.59896
 31
0.0
  0
LINE
  8
0
  6
CONTINUOUS
 62
   250
 10
3.55256
 20
1.59896
 30
0.0
 11
3.553
 21
1.59764
 31
0.0
  0
LINE
  8
0
  6
CONTINUOUS
 62
   250
 10
3.553
 20
1.59764
 30
0.0
 11
3.55388
 21
1.59588
 31
0.0
  0
LINE
  8
0
  6
CONTINUOUS
 62
   250
 10
3.55388
 20
1.59588
 30
0.0
 11
3.55388
 21
1.59324
 31
0.0
  0
LINE
  8
0
  6
CONTINUOUS
 62
   250
 10
3.55388
 20
1.59324
 30
0.0
 11
3.553
 21
1.59148
 31
0.0
  0
LINE
  8
0
  6
CONTINUOUS
 62
   250
 10
3.553
 20
1.59148
 30
0.0
 11
3.55256
 21
1.5906
 31
0.0
  0
LINE
  8
0
  6
CONTINUOUS
 62
   250
 10
3.55256
 20
1.5906
 30
0.0
 11
3.55168
 21
1.58928
 31
0.0
  0
LINE
  8
0
  6
CONTINUOUS
 62
   250
 10
3.55168
 20
1.58928
 30
0.0
 11
3.54992
 21
1.58884
 31
0.0
  0
LINE
  8
0
  6
CONTINUOUS
 62
   250
 10
3.54992
 20
1.58884
 30
0.0
 11
3.54596
 21
1.58884
 31
0.0
  0
LINE
  8
0
  6
CONTINUOUS
 62
   250
 10
3.61988
 20
1.61084
 30
0.0
 11
3.61856
 21
1.61172
 31
0.0
  0
LINE
  8
0
  6
CONTINUOUS
 62
   250
 10
3.61988
 20
1.61084
 30
0.0
 11
3.62164
 21
1.60996
 31
0.0
  0
LINE
  8
0
  6
CONTINUOUS
 62
   250
 10
3.62164
 20
1.60996
 30
0.0
 11
3.62384
 21
1.60996
 31
0.0
  0
LINE
  8
0
  6
CONTINUOUS
 62
   250
 10
3.62384
 20
1.60996
 30
0.0
 11
3.62516
 21
1.61084
 31
0.0
  0
LINE
  8
0
  6
CONTINUOUS
 62
   250
 10
3.62516
 20
1.61084
 30
0.0
 11
3.62648
 21
1.61172
 31
0.0
  0
LINE
  8
0
  6
CONTINUOUS
 62
   250
 10
3.62648
 20
1.61172
 30
0.0
 11
3.62648
 21
1.61348
 31
0.0
  0
LINE
  8
0
  6
CONTINUOUS
 62
   250
 10
3.62648
 20
1.61348
 30
0.0
 11
3.62604
 21
1.61436
 31
0.0
  0
LINE
  8
0
  6
CONTINUOUS
 62
   250
 10
3.62604
 20
1.61436
 30
0.0
 11
3.62516
 21
1.61524
 31
0.0
  0
LINE
  8
0
  6
CONTINUOUS
 62
   250
 10
3.62516
 20
1.61524
 30
0.0
 11
3.62428
 21
1.61568
 31
0.0
  0
LINE
  8
0
  6
CONTINUOUS
 62
   250
 10
3.62428
 20
1.61568
 30
0.0
 11
3.62076
 21
1.617
 31
0.0
  0
LINE
  8
0
  6
CONTINUOUS
 62
   250
 10
3.62076
 20
1.617
 30
0.0
 11
3.61988
 21
1.61744
 31
0.0
  0
LINE
  8
0
  6
CONTINUOUS
 62
   250
 10
3.61988
 20
1.61744
 30
0.0
 11
3.61944
 21
1.61788
 31
0.0
  0
LINE
  8
0
  6
CONTINUOUS
 62
   250
 10
3.61944
 20
1.61788
 30
0.0
 11
3.61856
 21
1.6192
 31
0.0
  0
LINE
  8
0
  6
CONTINUOUS
 62
   250
 10
3.61856
 20
1.6192
 30
0.0
 11
3.61856
 21
1.62008
 31
0.0
  0
LINE
  8
0
  6
CONTINUOUS
 62
   250
 10
3.61856
 20
1.62008
 30
0.0
 11
3.61988
 21
1.6214
 31
0.0
  0
LINE
  8
0
  6
CONTINUOUS
 62
   250
 10
3.61988
 20
1.6214
 30
0.0
 11
3.62164
 21
1.62184
 31
0.0
  0
LINE
  8
0
  6
CONTINUOUS
 62
   250
 10
3.62164
 20
1.62184
 30
0.0
 11
3.62384
 21
1.62184
 31
0.0
  0
LINE
  8
0
  6
CONTINUOUS
 62
   250
 10
3.62384
 20
1.62184
 30
0.0
 11
3.62516
 21
1.6214
 31
0.0
  0
LINE
  8
0
  6
CONTINUOUS
 62
   250
 10
3.62516
 20
1.6214
 30
0.0
 11
3.62648
 21
1.62008
 31
0.0
  0
LINE
  8
0
  6
CONTINUOUS
 62
   250
 10
3.62956
 20
1.62184
 30
0.0
 11
3.6322
 21
1.60996
 31
0.0
  0
LINE
  8
0
  6
CONTINUOUS
 62
   250
 10
3.6322
 20
1.60996
 30
0.0
 11
3.63484
 21
1.62184
 31
0.0
  0
LINE
  8
0
  6
CONTINUOUS
 62
   250
 10
3.63484
 20
1.62184
 30
0.0
 11
3.63792
 21
1.60996
 31
0.0
  0
LINE
  8
0
  6
CONTINUOUS
 62
   250
 10
3.63792
 20
1.60996
 30
0.0
 11
3.64056
 21
1.62184
 31
0.0
  0
LINE
  8
0
  6
CONTINUOUS
 62
   250
 10
3.64496
 20
1.61964
 30
0.0
 11
3.64628
 21
1.62008
 31
0.0
  0
LINE
  8
0
  6
CONTINUOUS
 62
   250
 10
3.64628
 20
1.62008
 30
0.0
 11
3.64804
 21
1.62184
 31
0.0
  0
LINE
  8
0
  6
CONTINUOUS
 62
   250
 10
3.64804
 20
1.62184
 30
0.0
 11
3.64804
 21
1.60996
 31
0.0
  0
LINE
  8
0
  6
CONTINUOUS
 62
   250
 10
3.65948
 20
1.60996
 30
0.0
 11
3.65948
 21
1.62184
 31
0.0
  0
LINE
  8
0
  6
CONTINUOUS
 62
   250
 10
3.65948
 20
1.62184
 30
0.0
 11
3.65772
 21
1.62008
 31
0.0
  0
LINE
  8
0
  6
CONTINUOUS
 62
   250
 10
3.65772
 20
1.62008
 30
0.0
 11
3.6564
 21
1.61964
 31
0.0
  0
LINE
  8
0
  6
CONTINUOUS
 62
   250
 10
3.59788
 20
1.4696
 30
0.0
 11
3.59436
 21
1.4652
 31
0.0
  0
LINE
  8
0
  6
CONTINUOUS
 62
   250
 10
3.59436
 20
1.4652
 30
0.0
 11
3.59612
 21
1.4652
 31
0.0
  0
LINE
  8
0
  6
CONTINUOUS
 62
   250
 10
3.59612
 20
1.4652
 30
0.0
 11
3.59744
 21
1.46432
 31
0.0
  0
LINE
  8
0
  6
CONTINUOUS
 62
   250
 10
3.59744
 20
1.46432
 30
0.0
 11
3.59788
 21
1.46388
 31
0.0
  0
LINE
  8
0
  6
CONTINUOUS
 62
   250
 10
3.59788
 20
1.46388
 30
0.0
 11
3.59832
 21
1.46212
 31
0.0
  0
LINE
  8
0
  6
CONTINUOUS
 62
   250
 10
3.59832
 20
1.46212
 30
0.0
 11
3.59832
 21
1.46124
 31
0.0
  0
LINE
  8
0
  6
CONTINUOUS
 62
   250
 10
3.59832
 20
1.46124
 30
0.0
 11
3.59788
 21
1.45948
 31
0.0
  0
LINE
  8
0
  6
CONTINUOUS
 62
   250
 10
3.59788
 20
1.45948
 30
0.0
 11
3.597
 21
1.45816
 31
0.0
  0
LINE
  8
0
  6
CONTINUOUS
 62
   250
 10
3.597
 20
1.45816
 30
0.0
 11
3.59524
 21
1.45772
 31
0.0
  0
LINE
  8
0
  6
CONTINUOUS
 62
   250
 10
3.59524
 20
1.45772
 30
0.0
 11
3.59348
 21
1.45772
 31
0.0
  0
LINE
  8
0
  6
CONTINUOUS
 62
   250
 10
3.59348
 20
1.45772
 30
0.0
 11
3.59172
 21
1.45816
 31
0.0
  0
LINE
  8
0
  6
CONTINUOUS
 62
   250
 10
3.59172
 20
1.45816
 30
0.0
 11
3.59128
 21
1.45904
 31
0.0
  0
LINE
  8
0
  6
CONTINUOUS
 62
   250
 10
3.59128
 20
1.45904
 30
0.0
 11
3.5904
 21
1.45992
 31
0.0
  0
LINE
  8
0
  6
CONTINUOUS
 62
   250
 10
3.58424
 20
1.45772
 30
0.0
 11
3.58424
 21
1.4696
 31
0.0
  0
LINE
  8
0
  6
CONTINUOUS
 62
   250
 10
3.58028
 20
1.4696
 30
0.0
 11
3.5882
 21
1.4696
 31
0.0
  0
LINE
  8
0
  6
CONTINUOUS
 62
   250
 10
3.59172
 20
1.4696
 30
0.0
 11
3.59788
 21
1.4696
 31
0.0
  0
LINE
  8
0
  6
CONTINUOUS
 62
   250
 10
3.60888
 20
1.452
 30
0.0
 11
3.53144
 21
1.452
 31
0.0
  0
LINE
  8
0
  6
CONTINUOUS
 62
   250
 10
3.52132
 20
1.45772
 30
0.0
 11
3.5134
 21
1.45772
 31
0.0
  0
LINE
  8
0
  6
CONTINUOUS
 62
   250
 10
3.5134
 20
1.45772
 30
0.0
 11
3.51912
 21
1.46344
 31
0.0
  0
LINE
  8
0
  6
CONTINUOUS
 62
   250
 10
3.51912
 20
1.46344
 30
0.0
 11
3.52
 21
1.4652
 31
0.0
  0
LINE
  8
0
  6
CONTINUOUS
 62
   250
 10
3.52
 20
1.4652
 30
0.0
 11
3.52088
 21
1.46608
 31
0.0
  0
LINE
  8
0
  6
CONTINUOUS
 62
   250
 10
3.52088
 20
1.46608
 30
0.0
 11
3.52088
 21
1.4674
 31
0.0
  0
LINE
  8
0
  6
CONTINUOUS
 62
   250
 10
3.52088
 20
1.4674
 30
0.0
 11
3.52
 21
1.46828
 31
0.0
  0
LINE
  8
0
  6
CONTINUOUS
 62
   250
 10
3.52
 20
1.46828
 30
0.0
 11
3.51956
 21
1.46916
 31
0.0
  0
LINE
  8
0
  6
CONTINUOUS
 62
   250
 10
3.51956
 20
1.46916
 30
0.0
 11
3.51868
 21
1.4696
 31
0.0
  0
LINE
  8
0
  6
CONTINUOUS
 62
   250
 10
3.51868
 20
1.4696
 30
0.0
 11
3.51648
 21
1.4696
 31
0.0
  0
LINE
  8
0
  6
CONTINUOUS
 62
   250
 10
3.51648
 20
1.4696
 30
0.0
 11
3.51516
 21
1.46916
 31
0.0
  0
LINE
  8
0
  6
CONTINUOUS
 62
   250
 10
3.51516
 20
1.46916
 30
0.0
 11
3.51472
 21
1.46828
 31
0.0
  0
LINE
  8
0
  6
CONTINUOUS
 62
   250
 10
3.51472
 20
1.46828
 30
0.0
 11
3.51428
 21
1.4674
 31
0.0
  0
LINE
  8
0
  6
CONTINUOUS
 62
   250
 10
3.51428
 20
1.4674
 30
0.0
 11
3.51428
 21
1.46696
 31
0.0
  0
LINE
  8
0
  6
CONTINUOUS
 62
   250
 10
3.5112
 20
1.4696
 30
0.0
 11
3.50328
 21
1.4696
 31
0.0
  0
LINE
  8
0
  6
CONTINUOUS
 62
   250
 10
3.50724
 20
1.4696
 30
0.0
 11
3.50724
 21
1.45772
 31
0.0
  0
LINE
  8
0
  6
CONTINUOUS
 62
   250
 10
3.48304
 20
1.45772
 30
0.0
 11
3.47512
 21
1.45772
 31
0.0
  0
LINE
  8
0
  6
CONTINUOUS
 62
   250
 10
3.47512
 20
1.45772
 30
0.0
 11
3.48084
 21
1.46344
 31
0.0
  0
LINE
  8
0
  6
CONTINUOUS
 62
   250
 10
3.48084
 20
1.46344
 30
0.0
 11
3.48172
 21
1.4652
 31
0.0
  0
LINE
  8
0
  6
CONTINUOUS
 62
   250
 10
3.48172
 20
1.4652
 30
0.0
 11
3.4826
 21
1.46608
 31
0.0
  0
LINE
  8
0
  6
CONTINUOUS
 62
   250
 10
3.4826
 20
1.46608
 30
0.0
 11
3.4826
 21
1.4674
 31
0.0
  0
LINE
  8
0
  6
CONTINUOUS
 62
   250
 10
3.4826
 20
1.4674
 30
0.0
 11
3.48172
 21
1.46828
 31
0.0
  0
LINE
  8
0
  6
CONTINUOUS
 62
   250
 10
3.48172
 20
1.46828
 30
0.0
 11
3.48128
 21
1.46916
 31
0.0
  0
LINE
  8
0
  6
CONTINUOUS
 62
   250
 10
3.48128
 20
1.46916
 30
0.0
 11
3.4804
 21
1.4696
 31
0.0
  0
LINE
  8
0
  6
CONTINUOUS
 62
   250
 10
3.4804
 20
1.4696
 30
0.0
 11
3.4782
 21
1.4696
 31
0.0
  0
LINE
  8
0
  6
CONTINUOUS
 62
   250
 10
3.4782
 20
1.4696
 30
0.0
 11
3.47688
 21
1.46916
 31
0.0
  0
LINE
  8
0
  6
CONTINUOUS
 62
   250
 10
3.47688
 20
1.46916
 30
0.0
 11
3.47644
 21
1.46828
 31
0.0
  0
LINE
  8
0
  6
CONTINUOUS
 62
   250
 10
3.47644
 20
1.46828
 30
0.0
 11
3.476
 21
1.4674
 31
0.0
  0
LINE
  8
0
  6
CONTINUOUS
 62
   250
 10
3.476
 20
1.4674
 30
0.0
 11
3.476
 21
1.46696
 31
0.0
  0
LINE
  8
0
  6
CONTINUOUS
 62
   250
 10
3.47292
 20
1.4696
 30
0.0
 11
3.465
 21
1.4696
 31
0.0
  0
LINE
  8
0
  6
CONTINUOUS
 62
   250
 10
3.46896
 20
1.4696
 30
0.0
 11
3.46896
 21
1.45772
 31
0.0
  0
LINE
  8
0
  6
CONTINUOUS
 62
   250
 10
3.44212
 20
1.452
 30
0.0
 11
3.36468
 21
1.452
 31
0.0
  0
LINE
  8
0
  6
CONTINUOUS
 62
   250
 10
3.31936
 20
1.46212
 30
0.0
 11
3.31848
 21
1.46344
 31
0.0
  0
LINE
  8
0
  6
CONTINUOUS
 62
   250
 10
3.31848
 20
1.46344
 30
0.0
 11
3.31804
 21
1.46432
 31
0.0
  0
LINE
  8
0
  6
CONTINUOUS
 62
   250
 10
3.31804
 20
1.46432
 30
0.0
 11
3.31716
 21
1.46476
 31
0.0
  0
LINE
  8
0
  6
CONTINUOUS
 62
   250
 10
3.31716
 20
1.46476
 30
0.0
 11
3.3154
 21
1.46476
 31
0.0
  0
LINE
  8
0
  6
CONTINUOUS
 62
   250
 10
3.3154
 20
1.46476
 30
0.0
 11
3.31848
 21
1.46916
 31
0.0
  0
LINE
  8
0
  6
CONTINUOUS
 62
   250
 10
3.31848
 20
1.46916
 30
0.0
 11
3.31232
 21
1.46916
 31
0.0
  0
LINE
  8
0
  6
CONTINUOUS
 62
   250
 10
3.30748
 20
1.46916
 30
0.0
 11
3.30748
 21
1.45728
 31
0.0
  0
LINE
  8
0
  6
CONTINUOUS
 62
   250
 10
3.31188
 20
1.4586
 30
0.0
 11
3.31232
 21
1.45816
 31
0.0
  0
LINE
  8
0
  6
CONTINUOUS
 62
   250
 10
3.31232
 20
1.45816
 30
0.0
 11
3.31408
 21
1.45728
 31
0.0
  0
LINE
  8
0
  6
CONTINUOUS
 62
   250
 10
3.31408
 20
1.45728
 30
0.0
 11
3.31584
 21
1.45728
 31
0.0
  0
LINE
  8
0
  6
CONTINUOUS
 62
   250
 10
3.31584
 20
1.45728
 30
0.0
 11
3.3176
 21
1.45816
 31
0.0
  0
LINE
  8
0
  6
CONTINUOUS
 62
   250
 10
3.3176
 20
1.45816
 30
0.0
 11
3.31848
 21
1.45904
 31
0.0
  0
LINE
  8
0
  6
CONTINUOUS
 62
   250
 10
3.31848
 20
1.45904
 30
0.0
 11
3.31936
 21
1.4608
 31
0.0
  0
LINE
  8
0
  6
CONTINUOUS
 62
   250
 10
3.31936
 20
1.4608
 30
0.0
 11
3.31936
 21
1.46212
 31
0.0
  0
LINE
  8
0
  6
CONTINUOUS
 62
   250
 10
3.31144
 20
1.45948
 30
0.0
 11
3.31188
 21
1.4586
 31
0.0
  0
LINE
  8
0
  6
CONTINUOUS
 62
   250
 10
3.3022
 20
1.45904
 30
0.0
 11
3.30088
 21
1.45816
 31
0.0
  0
LINE
  8
0
  6
CONTINUOUS
 62
   250
 10
3.30088
 20
1.45816
 30
0.0
 11
3.29956
 21
1.45728
 31
0.0
  0
LINE
  8
0
  6
CONTINUOUS
 62
   250
 10
3.29956
 20
1.45728
 30
0.0
 11
3.2956
 21
1.45728
 31
0.0
  0
LINE
  8
0
  6
CONTINUOUS
 62
   250
 10
3.2956
 20
1.45728
 30
0.0
 11
3.2956
 21
1.46916
 31
0.0
  0
LINE
  8
0
  6
CONTINUOUS
 62
   250
 10
3.2956
 20
1.46916
 30
0.0
 11
3.29956
 21
1.46916
 31
0.0
  0
LINE
  8
0
  6
CONTINUOUS
 62
   250
 10
3.29956
 20
1.46916
 30
0.0
 11
3.30088
 21
1.46872
 31
0.0
  0
LINE
  8
0
  6
CONTINUOUS
 62
   250
 10
3.30088
 20
1.46872
 30
0.0
 11
3.3022
 21
1.46784
 31
0.0
  0
LINE
  8
0
  6
CONTINUOUS
 62
   250
 10
3.3022
 20
1.46784
 30
0.0
 11
3.30264
 21
1.46652
 31
0.0
  0
LINE
  8
0
  6
CONTINUOUS
 62
   250
 10
3.30264
 20
1.46652
 30
0.0
 11
3.30352
 21
1.46476
 31
0.0
  0
LINE
  8
0
  6
CONTINUOUS
 62
   250
 10
3.30352
 20
1.46476
 30
0.0
 11
3.30352
 21
1.46212
 31
0.0
  0
LINE
  8
0
  6
CONTINUOUS
 62
   250
 10
3.30352
 20
1.46212
 30
0.0
 11
3.30264
 21
1.46036
 31
0.0
  0
LINE
  8
0
  6
CONTINUOUS
 62
   250
 10
3.30264
 20
1.46036
 30
0.0
 11
3.3022
 21
1.45904
 31
0.0
  0
LINE
  8
0
  6
CONTINUOUS
 62
   250
 10
3.33124
 20
1.45904
 30
0.0
 11
3.33256
 21
1.45816
 31
0.0
  0
LINE
  8
0
  6
CONTINUOUS
 62
   250
 10
3.33256
 20
1.45816
 30
0.0
 11
3.33344
 21
1.45728
 31
0.0
  0
LINE
  8
0
  6
CONTINUOUS
 62
   250
 10
3.33344
 20
1.45728
 30
0.0
 11
3.33564
 21
1.45728
 31
0.0
  0
LINE
  8
0
  6
CONTINUOUS
 62
   250
 10
3.33564
 20
1.45728
 30
0.0
 11
3.33696
 21
1.45816
 31
0.0
  0
LINE
  8
0
  6
CONTINUOUS
 62
   250
 10
3.33696
 20
1.45816
 30
0.0
 11
3.33784
 21
1.45904
 31
0.0
  0
LINE
  8
0
  6
CONTINUOUS
 62
   250
 10
3.33784
 20
1.45904
 30
0.0
 11
3.33872
 21
1.46036
 31
0.0
  0
LINE
  8
0
  6
CONTINUOUS
 62
   250
 10
3.33872
 20
1.46036
 30
0.0
 11
3.33916
 21
1.46212
 31
0.0
  0
LINE
  8
0
  6
CONTINUOUS
 62
   250
 10
3.33916
 20
1.46212
 30
0.0
 11
3.33916
 21
1.46476
 31
0.0
  0
LINE
  8
0
  6
CONTINUOUS
 62
   250
 10
3.33916
 20
1.46476
 30
0.0
 11
3.33872
 21
1.46652
 31
0.0
  0
LINE
  8
0
  6
CONTINUOUS
 62
   250
 10
3.33872
 20
1.46652
 30
0.0
 11
3.33784
 21
1.46784
 31
0.0
  0
LINE
  8
0
  6
CONTINUOUS
 62
   250
 10
3.33784
 20
1.46784
 30
0.0
 11
3.33696
 21
1.46872
 31
0.0
  0
LINE
  8
0
  6
CONTINUOUS
 62
   250
 10
3.33696
 20
1.46872
 30
0.0
 11
3.33564
 21
1.46916
 31
0.0
  0
LINE
  8
0
  6
CONTINUOUS
 62
   250
 10
3.33564
 20
1.46916
 30
0.0
 11
3.33344
 21
1.46916
 31
0.0
  0
LINE
  8
0
  6
CONTINUOUS
 62
   250
 10
3.33344
 20
1.46916
 30
0.0
 11
3.33256
 21
1.46872
 31
0.0
  0
LINE
  8
0
  6
CONTINUOUS
 62
   250
 10
3.33256
 20
1.46872
 30
0.0
 11
3.33124
 21
1.46784
 31
0.0
  0
LINE
  8
0
  6
CONTINUOUS
 62
   250
 10
3.33124
 20
1.46784
 30
0.0
 11
3.3308
 21
1.46652
 31
0.0
  0
LINE
  8
0
  6
CONTINUOUS
 62
   250
 10
3.3308
 20
1.46652
 30
0.0
 11
3.32992
 21
1.46476
 31
0.0
  0
LINE
  8
0
  6
CONTINUOUS
 62
   250
 10
3.32992
 20
1.46476
 30
0.0
 11
3.32992
 21
1.46212
 31
0.0
  0
LINE
  8
0
  6
CONTINUOUS
 62
   250
 10
3.32992
 20
1.46212
 30
0.0
 11
3.3308
 21
1.46036
 31
0.0
  0
LINE
  8
0
  6
CONTINUOUS
 62
   250
 10
3.3308
 20
1.46036
 30
0.0
 11
3.33124
 21
1.45904
 31
0.0
  0
LINE
  8
0
  6
CONTINUOUS
 62
   250
 10
3.34576
 20
1.45728
 30
0.0
 11
3.34136
 21
1.46916
 31
0.0
  0
LINE
  8
0
  6
CONTINUOUS
 62
   250
 10
3.3506
 20
1.46916
 30
0.0
 11
3.34576
 21
1.45728
 31
0.0
  0
LINE
  8
0
  6
CONTINUOUS
 62
   250
 10
3.35324
 20
1.45728
 30
0.0
 11
3.35324
 21
1.46916
 31
0.0
  0
LINE
  8
0
  6
CONTINUOUS
 62
   250
 10
3.35324
 20
1.46916
 30
0.0
 11
3.35852
 21
1.46916
 31
0.0
  0
LINE
  8
0
  6
CONTINUOUS
 62
   250
 10
3.35852
 20
1.46916
 30
0.0
 11
3.35984
 21
1.46872
 31
0.0
  0
LINE
  8
0
  6
CONTINUOUS
 62
   250
 10
3.35984
 20
1.46872
 30
0.0
 11
3.36072
 21
1.46828
 31
0.0
  0
LINE
  8
0
  6
CONTINUOUS
 62
   250
 10
3.36072
 20
1.46828
 30
0.0
 11
3.36116
 21
1.46696
 31
0.0
  0
LINE
  8
0
  6
CONTINUOUS
 62
   250
 10
3.36116
 20
1.46696
 30
0.0
 11
3.36116
 21
1.46608
 31
0.0
  0
LINE
  8
0
  6
CONTINUOUS
 62
   250
 10
3.36116
 20
1.46608
 30
0.0
 11
3.36072
 21
1.46476
 31
0.0
  0
LINE
  8
0
  6
CONTINUOUS
 62
   250
 10
3.36072
 20
1.46476
 30
0.0
 11
3.35984
 21
1.46432
 31
0.0
  0
LINE
  8
0
  6
CONTINUOUS
 62
   250
 10
3.35984
 20
1.46432
 30
0.0
 11
3.35852
 21
1.46344
 31
0.0
  0
LINE
  8
0
  6
CONTINUOUS
 62
   250
 10
3.35852
 20
1.46344
 30
0.0
 11
3.35324
 21
1.46344
 31
0.0
  0
LINE
  8
0
  6
CONTINUOUS
 62
   250
 10
3.3572
 20
1.46344
 30
0.0
 11
3.36116
 21
1.45728
 31
0.0
  0
LINE
  8
0
  6
CONTINUOUS
 62
   250
 10
3.38052
 20
1.45728
 30
0.0
 11
3.38052
 21
1.46916
 31
0.0
  0
LINE
  8
0
  6
CONTINUOUS
 62
   250
 10
3.37656
 20
1.46916
 30
0.0
 11
3.38448
 21
1.46916
 31
0.0
  0
LINE
  8
0
  6
CONTINUOUS
 62
   250
 10
3.38844
 20
1.46696
 30
0.0
 11
3.38976
 21
1.46784
 31
0.0
  0
LINE
  8
0
  6
CONTINUOUS
 62
   250
 10
3.38976
 20
1.46784
 30
0.0
 11
3.39152
 21
1.46916
 31
0.0
  0
LINE
  8
0
  6
CONTINUOUS
 62
   250
 10
3.39152
 20
1.46916
 30
0.0
 11
3.39152
 21
1.45728
 31
0.0
  0
LINE
  8
0
  6
CONTINUOUS
 62
   250
 10
3.41924
 20
1.45728
 30
0.0
 11
3.41924
 21
1.46916
 31
0.0
  0
LINE
  8
0
  6
CONTINUOUS
 62
   250
 10
3.4232
 20
1.46916
 30
0.0
 11
3.41528
 21
1.46916
 31
0.0
  0
LINE
  8
0
  6
CONTINUOUS
 62
   250
 10
3.42716
 20
1.46696
 30
0.0
 11
3.42848
 21
1.46784
 31
0.0
  0
LINE
  8
0
  6
CONTINUOUS
 62
   250
 10
3.42848
 20
1.46784
 30
0.0
 11
3.4298
 21
1.46916
 31
0.0
  0
LINE
  8
0
  6
CONTINUOUS
 62
   250
 10
3.4298
 20
1.46916
 30
0.0
 11
3.4298
 21
1.45728
 31
0.0
  0
LINE
  8
0
  6
CONTINUOUS
 62
   250
 10
3.54596
 20
1.45772
 30
0.0
 11
3.54596
 21
1.4696
 31
0.0
  0
LINE
  8
0
  6
CONTINUOUS
 62
   250
 10
3.54948
 20
1.4696
 30
0.0
 11
3.54156
 21
1.4696
 31
0.0
  0
LINE
  8
0
  6
CONTINUOUS
 62
   250
 10
3.553
 20
1.4696
 30
0.0
 11
3.55916
 21
1.4696
 31
0.0
  0
LINE
  8
0
  6
CONTINUOUS
 62
   250
 10
3.55916
 20
1.4696
 30
0.0
 11
3.55608
 21
1.4652
 31
0.0
  0
LINE
  8
0
  6
CONTINUOUS
 62
   250
 10
3.55608
 20
1.4652
 30
0.0
 11
3.5574
 21
1.4652
 31
0.0
  0
LINE
  8
0
  6
CONTINUOUS
 62
   250
 10
3.5574
 20
1.4652
 30
0.0
 11
3.55872
 21
1.46432
 31
0.0
  0
LINE
  8
0
  6
CONTINUOUS
 62
   250
 10
3.55872
 20
1.46432
 30
0.0
 11
3.55916
 21
1.46388
 31
0.0
  0
LINE
  8
0
  6
CONTINUOUS
 62
   250
 10
3.55916
 20
1.46388
 30
0.0
 11
3.56004
 21
1.46212
 31
0.0
  0
LINE
  8
0
  6
CONTINUOUS
 62
   250
 10
3.56004
 20
1.46212
 30
0.0
 11
3.56004
 21
1.46124
 31
0.0
  0
LINE
  8
0
  6
CONTINUOUS
 62
   250
 10
3.56004
 20
1.46124
 30
0.0
 11
3.55916
 21
1.45948
 31
0.0
  0
LINE
  8
0
  6
CONTINUOUS
 62
   250
 10
3.55916
 20
1.45948
 30
0.0
 11
3.55828
 21
1.45816
 31
0.0
  0
LINE
  8
0
  6
CONTINUOUS
 62
   250
 10
3.55828
 20
1.45816
 30
0.0
 11
3.55652
 21
1.45772
 31
0.0
  0
LINE
  8
0
  6
CONTINUOUS
 62
   250
 10
3.55652
 20
1.45772
 30
0.0
 11
3.55476
 21
1.45772
 31
0.0
  0
LINE
  8
0
  6
CONTINUOUS
 62
   250
 10
3.55476
 20
1.45772
 30
0.0
 11
3.553
 21
1.45816
 31
0.0
  0
LINE
  8
0
  6
CONTINUOUS
 62
   250
 10
3.553
 20
1.45816
 30
0.0
 11
3.55256
 21
1.45904
 31
0.0
  0
LINE
  8
0
  6
CONTINUOUS
 62
   250
 10
3.55256
 20
1.45904
 30
0.0
 11
3.55168
 21
1.45992
 31
0.0
  0
LINE
  8
0
  6
CONTINUOUS
 62
   250
 10
3.27536
 20
1.452
 30
0.0
 11
3.19792
 21
1.452
 31
0.0
  0
LINE
  8
0
  6
CONTINUOUS
 62
   250
 10
3.20716
 20
1.45772
 30
0.0
 11
3.20716
 21
1.4696
 31
0.0
  0
LINE
  8
0
  6
CONTINUOUS
 62
   250
 10
3.20716
 20
1.4696
 30
0.0
 11
3.21112
 21
1.4696
 31
0.0
  0
LINE
  8
0
  6
CONTINUOUS
 62
   250
 10
3.21112
 20
1.4696
 30
0.0
 11
3.21288
 21
1.46916
 31
0.0
  0
LINE
  8
0
  6
CONTINUOUS
 62
   250
 10
3.21288
 20
1.46916
 30
0.0
 11
3.2142
 21
1.46784
 31
0.0
  0
LINE
  8
0
  6
CONTINUOUS
 62
   250
 10
3.2142
 20
1.46784
 30
0.0
 11
3.21464
 21
1.46696
 31
0.0
  0
LINE
  8
0
  6
CONTINUOUS
 62
   250
 10
3.21464
 20
1.46696
 30
0.0
 11
3.21508
 21
1.4652
 31
0.0
  0
LINE
  8
0
  6
CONTINUOUS
 62
   250
 10
3.21508
 20
1.4652
 30
0.0
 11
3.21508
 21
1.46212
 31
0.0
  0
LINE
  8
0
  6
CONTINUOUS
 62
   250
 10
3.21508
 20
1.46212
 30
0.0
 11
3.21464
 21
1.4608
 31
0.0
  0
LINE
  8
0
  6
CONTINUOUS
 62
   250
 10
3.21464
 20
1.4608
 30
0.0
 11
3.2142
 21
1.45948
 31
0.0
  0
LINE
  8
0
  6
CONTINUOUS
 62
   250
 10
3.2142
 20
1.45948
 30
0.0
 11
3.21288
 21
1.45816
 31
0.0
  0
LINE
  8
0
  6
CONTINUOUS
 62
   250
 10
3.21288
 20
1.45816
 30
0.0
 11
3.21112
 21
1.45772
 31
0.0
  0
LINE
  8
0
  6
CONTINUOUS
 62
   250
 10
3.21112
 20
1.45772
 30
0.0
 11
3.20716
 21
1.45772
 31
0.0
  0
LINE
  8
0
  6
CONTINUOUS
 62
   250
 10
3.21904
 20
1.45772
 30
0.0
 11
3.21904
 21
1.4696
 31
0.0
  0
LINE
  8
0
  6
CONTINUOUS
 62
   250
 10
3.22476
 20
1.4674
 30
0.0
 11
3.22564
 21
1.46784
 31
0.0
  0
LINE
  8
0
  6
CONTINUOUS
 62
   250
 10
3.22564
 20
1.46784
 30
0.0
 11
3.2274
 21
1.4696
 31
0.0
  0
LINE
  8
0
  6
CONTINUOUS
 62
   250
 10
3.2274
 20
1.4696
 30
0.0
 11
3.2274
 21
1.45772
 31
0.0
  0
LINE
  8
0
  6
CONTINUOUS
 62
   250
 10
3.24412
 20
1.45772
 30
0.0
 11
3.24412
 21
1.4696
 31
0.0
  0
LINE
  8
0
  6
CONTINUOUS
 62
   250
 10
3.24412
 20
1.4696
 30
0.0
 11
3.24808
 21
1.4696
 31
0.0
  0
LINE
  8
0
  6
CONTINUOUS
 62
   250
 10
3.24808
 20
1.4696
 30
0.0
 11
3.24984
 21
1.46916
 31
0.0
  0
LINE
  8
0
  6
CONTINUOUS
 62
   250
 10
3.24984
 20
1.46916
 30
0.0
 11
3.25116
 21
1.46784
 31
0.0
  0
LINE
  8
0
  6
CONTINUOUS
 62
   250
 10
3.25116
 20
1.46784
 30
0.0
 11
3.2516
 21
1.46696
 31
0.0
  0
LINE
  8
0
  6
CONTINUOUS
 62
   250
 10
3.2516
 20
1.46696
 30
0.0
 11
3.25204
 21
1.4652
 31
0.0
  0
LINE
  8
0
  6
CONTINUOUS
 62
   250
 10
3.25204
 20
1.4652
 30
0.0
 11
3.25204
 21
1.46212
 31
0.0
  0
LINE
  8
0
  6
CONTINUOUS
 62
   250
 10
3.25204
 20
1.46212
 30
0.0
 11
3.2516
 21
1.4608
 31
0.0
  0
LINE
  8
0
  6
CONTINUOUS
 62
   250
 10
3.2516
 20
1.4608
 30
0.0
 11
3.25116
 21
1.45948
 31
0.0
  0
LINE
  8
0
  6
CONTINUOUS
 62
   250
 10
3.25116
 20
1.45948
 30
0.0
 11
3.24984
 21
1.45816
 31
0.0
  0
LINE
  8
0
  6
CONTINUOUS
 62
   250
 10
3.24984
 20
1.45816
 30
0.0
 11
3.24808
 21
1.45772
 31
0.0
  0
LINE
  8
0
  6
CONTINUOUS
 62
   250
 10
3.24808
 20
1.45772
 30
0.0
 11
3.24412
 21
1.45772
 31
0.0
  0
LINE
  8
0
  6
CONTINUOUS
 62
   250
 10
3.256
 20
1.45772
 30
0.0
 11
3.256
 21
1.4696
 31
0.0
  0
LINE
  8
0
  6
CONTINUOUS
 62
   250
 10
3.26084
 20
1.46828
 30
0.0
 11
3.26172
 21
1.46916
 31
0.0
  0
LINE
  8
0
  6
CONTINUOUS
 62
   250
 10
3.26172
 20
1.46916
 30
0.0
 11
3.2626
 21
1.4696
 31
0.0
  0
LINE
  8
0
  6
CONTINUOUS
 62
   250
 10
3.2626
 20
1.4696
 30
0.0
 11
3.26524
 21
1.4696
 31
0.0
  0
LINE
  8
0
  6
CONTINUOUS
 62
   250
 10
3.26524
 20
1.4696
 30
0.0
 11
3.26612
 21
1.46916
 31
0.0
  0
LINE
  8
0
  6
CONTINUOUS
 62
   250
 10
3.26612
 20
1.46916
 30
0.0
 11
3.26656
 21
1.46828
 31
0.0
  0
LINE
  8
0
  6
CONTINUOUS
 62
   250
 10
3.26656
 20
1.46828
 30
0.0
 11
3.26744
 21
1.4674
 31
0.0
  0
LINE
  8
0
  6
CONTINUOUS
 62
   250
 10
3.26744
 20
1.4674
 30
0.0
 11
3.26744
 21
1.46608
 31
0.0
  0
LINE
  8
0
  6
CONTINUOUS
 62
   250
 10
3.26744
 20
1.46608
 30
0.0
 11
3.26656
 21
1.4652
 31
0.0
  0
LINE
  8
0
  6
CONTINUOUS
 62
   250
 10
3.26656
 20
1.4652
 30
0.0
 11
3.26568
 21
1.46344
 31
0.0
  0
LINE
  8
0
  6
CONTINUOUS
 62
   250
 10
3.26568
 20
1.46344
 30
0.0
 11
3.25996
 21
1.45772
 31
0.0
  0
LINE
  8
0
  6
CONTINUOUS
 62
   250
 10
3.25996
 20
1.45772
 30
0.0
 11
3.26788
 21
1.45772
 31
0.0
  0
LINE
  8
0
  6
CONTINUOUS
 62
   250
 10
3.2604
 20
1.46696
 30
0.0
 11
3.2604
 21
1.4674
 31
0.0
  0
LINE
  8
0
  6
CONTINUOUS
 62
   250
 10
3.2604
 20
1.4674
 30
0.0
 11
3.26084
 21
1.46828
 31
0.0
  0
LINE
  8
0
  6
CONTINUOUS
 62
   250
 10
3.19352
 20
1.46344
 30
0.0
 11
3.18208
 21
1.46344
 31
0.0
  0
LINE
  8
0
  6
CONTINUOUS
 62
   250
 10
3.16976
 20
1.46124
 30
0.0
 11
3.16096
 21
1.46124
 31
0.0
  0
LINE
  8
0
  6
CONTINUOUS
 62
   250
 10
3.16096
 20
1.46124
 30
0.0
 11
3.16668
 21
1.46916
 31
0.0
  0
LINE
  8
0
  6
CONTINUOUS
 62
   250
 10
3.16668
 20
1.46916
 30
0.0
 11
3.16668
 21
1.45728
 31
0.0
  0
LINE
  8
0
  6
CONTINUOUS
 62
   250
 10
3.15788
 20
1.45728
 30
0.0
 11
3.14996
 21
1.45728
 31
0.0
  0
LINE
  8
0
  6
CONTINUOUS
 62
   250
 10
3.14996
 20
1.45728
 30
0.0
 11
3.15568
 21
1.463
 31
0.0
  0
LINE
  8
0
  6
CONTINUOUS
 62
   250
 10
3.15568
 20
1.463
 30
0.0
 11
3.15656
 21
1.46476
 31
0.0
  0
LINE
  8
0
  6
CONTINUOUS
 62
   250
 10
3.15656
 20
1.46476
 30
0.0
 11
3.15744
 21
1.46608
 31
0.0
  0
LINE
  8
0
  6
CONTINUOUS
 62
   250
 10
3.15744
 20
1.46608
 30
0.0
 11
3.15744
 21
1.46696
 31
0.0
  0
LINE
  8
0
  6
CONTINUOUS
 62
   250
 10
3.15744
 20
1.46696
 30
0.0
 11
3.15656
 21
1.46828
 31
0.0
  0
LINE
  8
0
  6
CONTINUOUS
 62
   250
 10
3.15656
 20
1.46828
 30
0.0
 11
3.15612
 21
1.46872
 31
0.0
  0
LINE
  8
0
  6
CONTINUOUS
 62
   250
 10
3.15612
 20
1.46872
 30
0.0
 11
3.15524
 21
1.46916
 31
0.0
  0
LINE
  8
0
  6
CONTINUOUS
 62
   250
 10
3.15524
 20
1.46916
 30
0.0
 11
3.1526
 21
1.46916
 31
0.0
  0
LINE
  8
0
  6
CONTINUOUS
 62
   250
 10
3.1526
 20
1.46916
 30
0.0
 11
3.15172
 21
1.46872
 31
0.0
  0
LINE
  8
0
  6
CONTINUOUS
 62
   250
 10
3.15172
 20
1.46872
 30
0.0
 11
3.15084
 21
1.46828
 31
0.0
  0
LINE
  8
0
  6
CONTINUOUS
 62
   250
 10
3.15084
 20
1.46828
 30
0.0
 11
3.1504
 21
1.46696
 31
0.0
  0
LINE
  8
0
  6
CONTINUOUS
 62
   250
 10
3.1504
 20
1.46696
 30
0.0
 11
3.1504
 21
1.46652
 31
0.0
  0
LINE
  8
0
  6
CONTINUOUS
 62
   250
 10
3.13764
 20
1.46344
 30
0.0
 11
3.1262
 21
1.46344
 31
0.0
  0
LINE
  8
0
  6
CONTINUOUS
 62
   250
 10
3.13192
 20
1.46916
 30
0.0
 11
3.13192
 21
1.45772
 31
0.0
  0
LINE
  8
0
  6
CONTINUOUS
 62
   250
 10
3.24852
 20
1.68212
 30
0.0
 11
3.24852
 21
1.71248
 31
0.0
  0
LINE
  8
0
  6
CONTINUOUS
 62
   250
 10
3.90632
 20
1.73404
 30
0.0
 11
3.91248
 21
1.73404
 31
0.0
  0
LINE
  8
0
  6
CONTINUOUS
 62
   250
 10
3.91248
 20
1.77188
 30
0.0
 11
3.90632
 21
1.77188
 31
0.0
  0
ENDSEC
  0
EOF
