  0
SECTION
  2
HEADER
  9
$ACADVER
  1
AC1009
  9
$INSBASE
 10
0.0
 20
0.0
 30
0.0
  9
$EXTMIN
 10
-0.534801
 20
0.0
 30
0.0
  9
$EXTMAX
 10
0.534801
 20
0.567898
 30
0.0
  9
$LIMMIN
 10
1.008034
 20
-1.142992
  9
$LIMMAX
 10
8.851787
 20
3.021591
  9
$ORTHOMODE
 70
     1
  9
$REGENMODE
 70
     1
  9
$FILLMODE
 70
     1
  9
$QTEXTMODE
 70
     0
  9
$MIRRTEXT
 70
     1
  9
$DRAGMODE
 70
     1
  9
$LTSCALE
 40
1.0
  9
$OSMODE
 70
     0
  9
$ATTMODE
 70
     2
  9
$TEXTSIZE
 40
0.06
  9
$TRACEWID
 40
0.05
  9
$TEXTSTYLE
  7
STANDARD
  9
$CLAYER
  8
2
  9
$CELTYPE
  6
BYLAYER
  9
$CECOLOR
 62
   256
  9
$DIMSCALE
 40
1.0
  9
$DIMASZ
 40
1.0
  9
$DIMEXO
 40
0.5
  9
$DIMDLI
 40
0.38
  9
$DIMRND
 40
0.0
  9
$DIMDLE
 40
0.0
  9
$DIMEXE
 40
0.5
  9
$DIMTP
 40
0.0
  9
$DIMTM
 40
0.0
  9
$DIMTXT
 40
0.18
  9
$DIMCEN
 40
0.09
  9
$DIMTSZ
 40
0.0
  9
$DIMTOL
 70
     0
  9
$DIMLIM
 70
     0
  9
$DIMTIH
 70
     1
  9
$DIMTOH
 70
     1
  9
$DIMSE1
 70
     0
  9
$DIMSE2
 70
     0
  9
$DIMTAD
 70
     0
  9
$DIMZIN
 70
     0
  9
$DIMBLK
  1

  9
$DIMASO
 70
     1
  9
$DIMSHO
 70
     1
  9
$DIMPOST
  1
"
  9
$DIMAPOST
  1

  9
$DIMALT
 70
     0
  9
$DIMALTD
 70
     2
  9
$DIMALTF
 40
25.4
  9
$DIMLFAC
 40
1.0
  9
$DIMTOFL
 70
     0
  9
$DIMTVP
 40
0.0
  9
$DIMTIX
 70
     0
  9
$DIMSOXD
 70
     0
  9
$DIMSAH
 70
     0
  9
$DIMBLK1
  1

  9
$DIMBLK2
  1

  9
$DIMSTYLE
  2
*UNNAMED
  9
$DIMCLRD
 70
     0
  9
$DIMCLRE
 70
     0
  9
$DIMCLRT
 70
     0
  9
$DIMTFAC
 40
1.0
  9
$DIMGAP
 40
0.09
  9
$LUNITS
 70
     2
  9
$LUPREC
 70
     3
  9
$SKETCHINC
 40
0.1
  9
$FILLETRAD
 40
0.0
  9
$AUNITS
 70
     0
  9
$AUPREC
 70
     3
  9
$MENU
  1
acad
  9
$ELEVATION
 40
0.0
  9
$PELEVATION
 40
0.0
  9
$THICKNESS
 40
0.0
  9
$LIMCHECK
 70
     0
  9
$BLIPMODE
 70
     0
  9
$CHAMFERA
 40
0.5
  9
$CHAMFERB
 40
0.5
  9
$SKPOLY
 70
     0
  9
$TDCREATE
 40
2450620.384327083
  9
$TDUPDATE
 40
2450620.435226041
  9
$TDINDWG
 40
0.0004450231
  9
$TDUSRTIMER
 40
0.0004450231
  9
$USRTIMER
 70
     1
  9
$ANGBASE
 50
0.0
  9
$ANGDIR
 70
     0
  9
$PDMODE
 70
     2
  9
$PDSIZE
 40
0.0
  9
$PLINEWID
 40
0.0
  9
$COORDS
 70
     1
  9
$SPLFRAME
 70
     0
  9
$SPLINETYPE
 70
     6
  9
$SPLINESEGS
 70
     8
  9
$ATTDIA
 70
     0
  9
$ATTREQ
 70
     1
  9
$HANDLING
 70
     0
  9
$HANDSEED
  5
0
  9
$SURFTAB1
 70
     6
  9
$SURFTAB2
 70
     6
  9
$SURFTYPE
 70
     6
  9
$SURFU
 70
     6
  9
$SURFV
 70
     6
  9
$UCSNAME
  2

  9
$UCSORG
 10
0.0
 20
0.0
 30
0.0
  9
$UCSXDIR
 10
1.0
 20
0.0
 30
0.0
  9
$UCSYDIR
 10
0.0
 20
1.0
 30
0.0
  9
$PUCSNAME
  2

  9
$PUCSORG
 10
0.0
 20
0.0
 30
0.0
  9
$PUCSXDIR
 10
1.0
 20
0.0
 30
0.0
  9
$PUCSYDIR
 10
0.0
 20
1.0
 30
0.0
  9
$USERI1
 70
     0
  9
$USERI2
 70
     0
  9
$USERI3
 70
     0
  9
$USERI4
 70
     0
  9
$USERI5
 70
     0
  9
$USERR1
 40
0.0
  9
$USERR2
 40
0.0
  9
$USERR3
 40
0.0
  9
$USERR4
 40
0.0
  9
$USERR5
 40
0.0
  9
$WORLDVIEW
 70
     1
  9
$SHADEDGE
 70
     3
  9
$SHADEDIF
 70
    70
  9
$TILEMODE
 70
     1
  9
$MAXACTVP
 70
    16
  9
$PINSBASE
 10
0.0
 20
0.0
 30
0.0
  9
$PLIMCHECK
 70
     0
  9
$PEXTMIN
 10
1.000000E+20
 20
1.000000E+20
 30
1.000000E+20
  9
$PEXTMAX
 10
-1.000000E+20
 20
-1.000000E+20
 30
-1.000000E+20
  9
$PLIMMIN
 10
0.0
 20
0.0
  9
$PLIMMAX
 10
12.0
 20
9.0
  9
$UNITMODE
 70
     0
  9
$VISRETAIN
 70
     0
  9
$PLINEGEN
 70
     0
  9
$PSLTSCALE
 70
     1
  9
$TREEDEPTH
 70
  3020
  9
$DWGCODEPAGE
  3
ascii
  0
ENDSEC
  0
SECTION
  2
TABLES
  0
TABLE
  2
VPORT
 70
     2
  0
VPORT
  2
*ACTIVE
 70
     0
 10
0.0
 20
0.0
 11
1.0
 21
1.0
 12
4.158493
 22
2.239784
 13
0.0
 23
0.0
 14
1.0
 24
1.0
 15
1.0
 25
1.0
 16
0.0
 26
0.0
 36
1.0
 17
0.0
 27
0.0
 37
0.0
 40
6.765551
 41
1.387409
 42
50.0
 43
0.0
 44
0.0
 50
0.0
 51
0.0
 71
     0
 72
   100
 73
     1
 74
     1
 75
     0
 76
     0
 77
     0
 78
     0
  0
ENDTAB
  0
TABLE
  2
LTYPE
 70
     1
  0
LTYPE
  2
CONTINUOUS
 70
    64
  3
SOLID LINE
 72
    65
 73
     0
 40
0.0
  0
ENDTAB
  0
TABLE
  2
LAYER
 70
     3
  0
LAYER
  2
0
 70
     0
 62
     0
  6
CONTINUOUS
  0
LAYER
  2
2
 70
    64
 62
     4
  6
CONTINUOUS
  0
LAYER
  2
1
 70
    64
 62
     7
  6
CONTINUOUS
  0
ENDTAB
  0
TABLE
  2
STYLE
 70
     2
  0
STYLE
  2
STANDARD
 70
    64
 40
0.0
 41
1.0
 50
0.0
 71
     0
 42
0.06
  3
txt
  4

  0
STYLE
  2
ROMANS
 70
    64
 40
0.0
 41
1.0
 50
0.0
 71
     0
 42
1.0
  3
TXT
  4

  0
ENDTAB
  0
TABLE
  2
VIEW
 70
     0
  0
ENDTAB
  0
TABLE
  2
UCS
 70
     0
  0
ENDTAB
  0
TABLE
  2
APPID
 70
     1
  0
APPID
  2
ACAD
 70
    64
  0
ENDTAB
  0
TABLE
  2
DIMSTYLE
 70
     0
  0
ENDTAB
  0
ENDSEC
  0
SECTION
  2
BLOCKS
  0
ENDSEC
  0
SECTION
  2
ENTITIES
  0
LINE
  8
1
  6
CONTINUOUS
 62
     7
 10
0.534801
 20
0.541477
 30
0.0
 11
-0.534801
 21
0.541477
 31
0.0
  0
LINE
  8
1
  6
CONTINUOUS
 62
     7
 10
-0.530824
 20
0.530398
 30
0.0
 11
-0.512926
 21
0.530398
 31
0.0
  0
LINE
  8
1
  6
CONTINUOUS
 62
     7
 10
-0.504404
 20
0.530398
 30
0.0
 11
-0.487926
 21
0.530398
 31
0.0
  0
LINE
  8
1
  6
CONTINUOUS
 62
     7
 10
-0.479403
 20
0.530398
 30
0.0
 11
-0.462643
 21
0.530398
 31
0.0
  0
LINE
  8
1
  6
CONTINUOUS
 62
     7
 10
-0.454404
 20
0.530398
 30
0.0
 11
-0.437642
 21
0.530398
 31
0.0
  0
LINE
  8
1
  6
CONTINUOUS
 62
     7
 10
-0.429404
 20
0.530398
 30
0.0
 11
-0.412642
 21
0.530398
 31
0.0
  0
LINE
  8
1
  6
CONTINUOUS
 62
     7
 10
-0.40412
 20
0.530398
 30
0.0
 11
-0.387358
 21
0.530398
 31
0.0
  0
LINE
  8
1
  6
CONTINUOUS
 62
     7
 10
-0.37912
 20
0.530398
 30
0.0
 11
-0.362358
 21
0.530398
 31
0.0
  0
LINE
  8
1
  6
CONTINUOUS
 62
     7
 10
-0.354119
 20
0.530398
 30
0.0
 11
-0.337359
 21
0.530398
 31
0.0
  0
LINE
  8
1
  6
CONTINUOUS
 62
     7
 10
-0.328836
 20
0.530398
 30
0.0
 11
-0.312358
 21
0.530398
 31
0.0
  0
LINE
  8
1
  6
CONTINUOUS
 62
     7
 10
-0.303835
 20
0.530398
 30
0.0
 11
-0.287075
 21
0.530398
 31
0.0
  0
LINE
  8
1
  6
CONTINUOUS
 62
     7
 10
-0.278835
 20
0.530398
 30
0.0
 11
-0.260938
 21
0.530398
 31
0.0
  0
LINE
  8
1
  6
CONTINUOUS
 62
     7
 10
-0.534801
 20
0.559091
 30
0.0
 11
0.534801
 21
0.559091
 31
0.0
  0
LINE
  8
1
  6
CONTINUOUS
 62
     7
 10
0.534801
 20
0.567898
 30
0.0
 11
-0.534801
 21
0.567898
 31
0.0
  0
LINE
  8
1
  6
CONTINUOUS
 62
     7
 10
-0.517472
 20
0.336648
 30
0.0
 11
-0.471733
 21
0.336648
 31
0.0
  0
LINE
  8
1
  6
CONTINUOUS
 62
     7
 10
-0.471733
 20
0.336648
 30
0.0
 11
-0.471165
 21
0.336363
 31
0.0
  0
LINE
  8
1
  6
CONTINUOUS
 62
     7
 10
-0.471165
 20
0.336363
 30
0.0
 11
-0.472585
 21
0.337784
 31
0.0
  0
LINE
  8
1
  6
CONTINUOUS
 62
     7
 10
-0.472585
 20
0.337784
 30
0.0
 11
-0.472585
 21
0.354261
 31
0.0
  0
LINE
  8
1
  6
CONTINUOUS
 62
     7
 10
-0.472585
 20
0.354261
 30
0.0
 11
-0.472585
 21
0.353977
 31
0.0
  0
LINE
  8
1
  6
CONTINUOUS
 62
     7
 10
-0.472585
 20
0.353977
 30
0.0
 11
-0.488495
 21
0.353977
 31
0.0
  0
LINE
  8
1
  6
CONTINUOUS
 62
     7
 10
-0.488495
 20
0.353977
 30
0.0
 11
-0.487074
 21
0.355398
 31
0.0
  0
LINE
  8
1
  6
CONTINUOUS
 62
     7
 10
-0.487074
 20
0.355398
 30
0.0
 11
-0.471449
 21
0.355398
 31
0.0
  0
LINE
  8
1
  6
CONTINUOUS
 62
     7
 10
-0.471449
 20
0.355398
 30
0.0
 11
-0.471165
 21
0.355682
 31
0.0
  0
LINE
  8
1
  6
CONTINUOUS
 62
     7
 10
-0.471165
 20
0.355682
 30
0.0
 11
-0.471165
 21
0.336363
 31
0.0
  0
LINE
  8
1
  6
CONTINUOUS
 62
     7
 10
-0.471165
 20
0.336363
 30
0.0
 11
-0.470597
 21
0.335796
 31
0.0
  0
LINE
  8
1
  6
CONTINUOUS
 62
     7
 10
-0.470597
 20
0.335796
 30
0.0
 11
-0.473722
 21
0.33892
 31
0.0
  0
LINE
  8
1
  6
CONTINUOUS
 62
     7
 10
-0.473722
 20
0.33892
 30
0.0
 11
-0.473722
 21
0.353125
 31
0.0
  0
LINE
  8
1
  6
CONTINUOUS
 62
     7
 10
-0.473722
 20
0.353125
 30
0.0
 11
-0.470597
 21
0.35625
 31
0.0
  0
LINE
  8
1
  6
CONTINUOUS
 62
     7
 10
-0.470597
 20
0.35625
 30
0.0
 11
-0.473722
 21
0.353125
 31
0.0
  0
LINE
  8
1
  6
CONTINUOUS
 62
     7
 10
-0.473722
 20
0.353125
 30
0.0
 11
-0.48963
 21
0.353125
 31
0.0
  0
LINE
  8
1
  6
CONTINUOUS
 62
     7
 10
-0.48963
 20
0.353125
 30
0.0
 11
-0.486221
 21
0.35625
 31
0.0
  0
LINE
  8
1
  6
CONTINUOUS
 62
     7
 10
-0.486221
 20
0.35625
 30
0.0
 11
-0.48963
 21
0.353125
 31
0.0
  0
LINE
  8
1
  6
CONTINUOUS
 62
     7
 10
-0.48963
 20
0.353125
 30
0.0
 11
-0.48963
 21
0.38608
 31
0.0
  0
LINE
  8
1
  6
CONTINUOUS
 62
     7
 10
-0.48963
 20
0.38608
 30
0.0
 11
-0.486221
 21
0.382954
 31
0.0
  0
LINE
  8
1
  6
CONTINUOUS
 62
     7
 10
-0.486221
 20
0.382954
 30
0.0
 11
-0.48963
 21
0.38608
 31
0.0
  0
LINE
  8
1
  6
CONTINUOUS
 62
     7
 10
-0.48963
 20
0.38608
 30
0.0
 11
-0.439063
 21
0.38608
 31
0.0
  0
LINE
  8
1
  6
CONTINUOUS
 62
     7
 10
-0.439063
 20
0.38608
 30
0.0
 11
-0.442188
 21
0.382954
 31
0.0
  0
LINE
  8
1
  6
CONTINUOUS
 62
     7
 10
-0.442188
 20
0.382954
 30
0.0
 11
-0.439063
 21
0.38608
 31
0.0
  0
LINE
  8
1
  6
CONTINUOUS
 62
     7
 10
-0.439063
 20
0.38608
 30
0.0
 11
-0.439063
 21
0.353125
 31
0.0
  0
LINE
  8
1
  6
CONTINUOUS
 62
     7
 10
-0.439063
 20
0.353125
 30
0.0
 11
-0.442188
 21
0.35625
 31
0.0
  0
LINE
  8
1
  6
CONTINUOUS
 62
     7
 10
-0.442188
 20
0.35625
 30
0.0
 11
-0.439063
 21
0.353125
 31
0.0
  0
LINE
  8
1
  6
CONTINUOUS
 62
     7
 10
-0.439063
 20
0.353125
 30
0.0
 11
-0.454687
 21
0.353125
 31
0.0
  0
LINE
  8
1
  6
CONTINUOUS
 62
     7
 10
-0.454687
 20
0.353125
 30
0.0
 11
-0.458096
 21
0.35625
 31
0.0
  0
LINE
  8
1
  6
CONTINUOUS
 62
     7
 10
-0.458096
 20
0.35625
 30
0.0
 11
-0.454687
 21
0.353125
 31
0.0
  0
LINE
  8
1
  6
CONTINUOUS
 62
     7
 10
-0.454687
 20
0.353125
 30
0.0
 11
-0.454687
 21
0.33892
 31
0.0
  0
LINE
  8
1
  6
CONTINUOUS
 62
     7
 10
-0.454687
 20
0.33892
 30
0.0
 11
-0.458096
 21
0.335796
 31
0.0
  0
LINE
  8
1
  6
CONTINUOUS
 62
     7
 10
-0.458096
 20
0.335796
 30
0.0
 11
-0.454687
 21
0.33892
 31
0.0
  0
LINE
  8
1
  6
CONTINUOUS
 62
     7
 10
-0.454687
 20
0.33892
 30
0.0
 11
-0.413211
 21
0.33892
 31
0.0
  0
LINE
  8
1
  6
CONTINUOUS
 62
     7
 10
-0.413211
 20
0.33892
 30
0.0
 11
-0.410369
 21
0.335796
 31
0.0
  0
LINE
  8
1
  6
CONTINUOUS
 62
     7
 10
-0.410369
 20
0.335796
 30
0.0
 11
-0.413211
 21
0.33892
 31
0.0
  0
LINE
  8
1
  6
CONTINUOUS
 62
     7
 10
-0.413211
 20
0.33892
 30
0.0
 11
-0.413211
 21
0.384659
 31
0.0
  0
LINE
  8
1
  6
CONTINUOUS
 62
     7
 10
-0.413211
 20
0.384659
 30
0.0
 11
-0.410369
 21
0.384659
 31
0.0
  0
LINE
  8
1
  6
CONTINUOUS
 62
     7
 10
-0.410369
 20
0.384659
 30
0.0
 11
-0.410369
 21
0.335796
 31
0.0
  0
LINE
  8
1
  6
CONTINUOUS
 62
     7
 10
-0.410369
 20
0.335796
 30
0.0
 11
-0.458096
 21
0.335796
 31
0.0
  0
LINE
  8
1
  6
CONTINUOUS
 62
     7
 10
-0.458096
 20
0.335796
 30
0.0
 11
-0.458096
 21
0.35625
 31
0.0
  0
LINE
  8
1
  6
CONTINUOUS
 62
     7
 10
-0.458096
 20
0.35625
 30
0.0
 11
-0.442188
 21
0.35625
 31
0.0
  0
LINE
  8
1
  6
CONTINUOUS
 62
     7
 10
-0.442188
 20
0.35625
 30
0.0
 11
-0.442188
 21
0.382954
 31
0.0
  0
LINE
  8
1
  6
CONTINUOUS
 62
     7
 10
-0.442188
 20
0.382954
 30
0.0
 11
-0.486221
 21
0.382954
 31
0.0
  0
LINE
  8
1
  6
CONTINUOUS
 62
     7
 10
-0.486221
 20
0.382954
 30
0.0
 11
-0.486221
 21
0.35625
 31
0.0
  0
LINE
  8
1
  6
CONTINUOUS
 62
     7
 10
-0.486221
 20
0.35625
 30
0.0
 11
-0.470597
 21
0.35625
 31
0.0
  0
LINE
  8
1
  6
CONTINUOUS
 62
     7
 10
-0.470597
 20
0.35625
 30
0.0
 11
-0.470597
 21
0.335796
 31
0.0
  0
LINE
  8
1
  6
CONTINUOUS
 62
     7
 10
-0.470597
 20
0.335796
 30
0.0
 11
-0.518324
 21
0.335796
 31
0.0
  0
LINE
  8
1
  6
CONTINUOUS
 62
     7
 10
-0.518324
 20
0.335796
 30
0.0
 11
-0.515199
 21
0.33892
 31
0.0
  0
LINE
  8
1
  6
CONTINUOUS
 62
     7
 10
-0.515199
 20
0.33892
 30
0.0
 11
-0.473722
 21
0.33892
 31
0.0
  0
LINE
  8
1
  6
CONTINUOUS
 62
     7
 10
-0.473722
 20
0.33892
 30
0.0
 11
-0.470597
 21
0.335796
 31
0.0
  0
LINE
  8
1
  6
CONTINUOUS
 62
     7
 10
-0.47287
 20
0.338068
 30
0.0
 11
-0.516051
 21
0.338068
 31
0.0
  0
LINE
  8
1
  6
CONTINUOUS
 62
     7
 10
-0.516051
 20
0.338068
 30
0.0
 11
-0.517472
 21
0.336648
 31
0.0
  0
LINE
  8
1
  6
CONTINUOUS
 62
     7
 10
-0.517472
 20
0.336648
 30
0.0
 11
-0.516904
 21
0.337215
 31
0.0
  0
LINE
  8
1
  6
CONTINUOUS
 62
     7
 10
-0.516904
 20
0.337215
 30
0.0
 11
-0.516904
 21
0.384659
 31
0.0
  0
LINE
  8
1
  6
CONTINUOUS
 62
     7
 10
-0.516904
 20
0.384659
 30
0.0
 11
-0.51804
 21
0.384659
 31
0.0
  0
LINE
  8
1
  6
CONTINUOUS
 62
     7
 10
-0.51804
 20
0.384659
 30
0.0
 11
-0.51804
 21
0.335796
 31
0.0
  0
LINE
  8
1
  6
CONTINUOUS
 62
     7
 10
-0.51804
 20
0.335796
 30
0.0
 11
-0.518324
 21
0.335796
 31
0.0
  0
LINE
  8
1
  6
CONTINUOUS
 62
     7
 10
-0.518324
 20
0.335796
 30
0.0
 11
-0.518324
 21
0.384659
 31
0.0
  0
LINE
  8
1
  6
CONTINUOUS
 62
     7
 10
-0.518324
 20
0.384659
 30
0.0
 11
-0.515199
 21
0.384659
 31
0.0
  0
LINE
  8
1
  6
CONTINUOUS
 62
     7
 10
-0.515199
 20
0.384659
 30
0.0
 11
-0.515199
 21
0.33892
 31
0.0
  0
LINE
  8
1
  6
CONTINUOUS
 62
     7
 10
-0.515199
 20
0.33892
 30
0.0
 11
-0.518324
 21
0.335796
 31
0.0
  0
LINE
  8
1
  6
CONTINUOUS
 62
     7
 10
-0.516904
 20
0.337215
 30
0.0
 11
-0.515483
 21
0.338636
 31
0.0
  0
LINE
  8
1
  6
CONTINUOUS
 62
     7
 10
-0.515483
 20
0.338636
 30
0.0
 11
-0.515483
 21
0.384659
 31
0.0
  0
LINE
  8
1
  6
CONTINUOUS
 62
     7
 10
-0.512926
 20
0.393182
 30
0.0
 11
-0.530824
 21
0.393182
 31
0.0
  0
LINE
  8
1
  6
CONTINUOUS
 62
     7
 10
-0.530824
 20
0.393182
 30
0.0
 11
-0.530824
 21
0.407387
 31
0.0
  0
LINE
  8
1
  6
CONTINUOUS
 62
     7
 10
-0.530824
 20
0.415909
 30
0.0
 11
-0.530824
 21
0.432386
 31
0.0
  0
LINE
  8
1
  6
CONTINUOUS
 62
     7
 10
-0.530824
 20
0.440909
 30
0.0
 11
-0.530824
 21
0.457671
 31
0.0
  0
LINE
  8
1
  6
CONTINUOUS
 62
     7
 10
-0.530824
 20
0.465909
 30
0.0
 11
-0.530824
 21
0.48267
 31
0.0
  0
LINE
  8
1
  6
CONTINUOUS
 62
     7
 10
-0.530824
 20
0.490909
 30
0.0
 11
-0.530824
 21
0.50767
 31
0.0
  0
LINE
  8
1
  6
CONTINUOUS
 62
     7
 10
-0.530824
 20
0.516193
 30
0.0
 11
-0.530824
 21
0.530398
 31
0.0
  0
LINE
  8
1
  6
CONTINUOUS
 62
     7
 10
-0.534801
 20
0.567898
 30
0.0
 11
-0.534801
 21
0.0
 31
0.0
  0
LINE
  8
1
  6
CONTINUOUS
 62
     7
 10
-0.534801
 20
0.0
 30
0.0
 11
0.534801
 21
0.0
 31
0.0
  0
LINE
  8
1
  6
CONTINUOUS
 62
     7
 10
0.534801
 20
0.003977
 30
0.0
 11
-0.534801
 21
0.003977
 31
0.0
  0
LINE
  8
1
  6
CONTINUOUS
 62
     7
 10
-0.534801
 20
0.025852
 30
0.0
 11
-0.420313
 21
0.025852
 31
0.0
  0
LINE
  8
1
  6
CONTINUOUS
 62
   250
 10
-0.356961
 20
0.112216
 30
0.0
 11
-0.303552
 21
0.112216
 31
0.0
  0
LINE
  8
1
  6
CONTINUOUS
 62
   250
 10
-0.303552
 20
0.050852
 30
0.0
 11
-0.356961
 21
0.050852
 31
0.0
  0
LINE
  8
1
  6
CONTINUOUS
 62
   250
 10
-0.356961
 20
0.040625
 30
0.0
 11
-0.303552
 21
0.040625
 31
0.0
  0
LINE
  8
1
  6
CONTINUOUS
 62
   250
 10
-0.303552
 20
0.038636
 30
0.0
 11
-0.356961
 21
0.038636
 31
0.0
  0
LINE
  8
1
  6
CONTINUOUS
 62
   250
 10
-0.356961
 20
0.073579
 30
0.0
 11
-0.303552
 21
0.073579
 31
0.0
  0
LINE
  8
1
  6
CONTINUOUS
 62
   250
 10
-0.354688
 20
0.109659
 30
0.0
 11
-0.356961
 21
0.109659
 31
0.0
  0
LINE
  8
1
  6
CONTINUOUS
 62
   250
 10
-0.358949
 20
0.112216
 30
0.0
 11
-0.412642
 21
0.112216
 31
0.0
  0
LINE
  8
1
  6
CONTINUOUS
 62
   250
 10
-0.410369
 20
0.109659
 30
0.0
 11
-0.410369
 21
0.073579
 31
0.0
  0
LINE
  8
1
  6
CONTINUOUS
 62
   250
 10
-0.412642
 20
0.073579
 30
0.0
 11
-0.358949
 21
0.073579
 31
0.0
  0
LINE
  8
1
  6
CONTINUOUS
 62
   250
 10
-0.358949
 20
0.050852
 30
0.0
 11
-0.412642
 21
0.050852
 31
0.0
  0
LINE
  8
1
  6
CONTINUOUS
 62
   250
 10
-0.412642
 20
0.040625
 30
0.0
 11
-0.358949
 21
0.040625
 31
0.0
  0
LINE
  8
1
  6
CONTINUOUS
 62
   250
 10
-0.358949
 20
0.038636
 30
0.0
 11
-0.412642
 21
0.038636
 31
0.0
  0
LINE
  8
1
  6
CONTINUOUS
 62
   250
 10
-0.412642
 20
0.038636
 30
0.0
 11
-0.412642
 21
0.112216
 31
0.0
  0
LINE
  8
1
  6
CONTINUOUS
 62
   250
 10
-0.412642
 20
0.112216
 30
0.0
 11
-0.412359
 21
0.112216
 31
0.0
  0
LINE
  8
1
  6
CONTINUOUS
 62
   250
 10
-0.412359
 20
0.112216
 30
0.0
 11
-0.412359
 21
0.038636
 31
0.0
  0
LINE
  8
1
  6
CONTINUOUS
 62
   250
 10
-0.372869
 20
0.038636
 30
0.0
 11
-0.370881
 21
0.038636
 31
0.0
  0
LINE
  8
1
  6
CONTINUOUS
 62
   250
 10
-0.364915
 20
0.087216
 30
0.0
 11
-0.365199
 21
0.088636
 31
0.0
  0
LINE
  8
1
  6
CONTINUOUS
 62
   250
 10
-0.365199
 20
0.088636
 30
0.0
 11
-0.366051
 21
0.090341
 31
0.0
  0
LINE
  8
1
  6
CONTINUOUS
 62
   250
 10
-0.366051
 20
0.090341
 30
0.0
 11
-0.366903
 21
0.091761
 31
0.0
  0
LINE
  8
1
  6
CONTINUOUS
 62
   250
 10
-0.366903
 20
0.091761
 30
0.0
 11
-0.368324
 21
0.092898
 31
0.0
  0
LINE
  8
1
  6
CONTINUOUS
 62
   250
 10
-0.368324
 20
0.092898
 30
0.0
 11
-0.370029
 21
0.093466
 31
0.0
  0
LINE
  8
1
  6
CONTINUOUS
 62
   250
 10
-0.370029
 20
0.093466
 30
0.0
 11
-0.371733
 21
0.09375
 31
0.0
  0
LINE
  8
1
  6
CONTINUOUS
 62
   250
 10
-0.371733
 20
0.09375
 30
0.0
 11
-0.373438
 21
0.093466
 31
0.0
  0
LINE
  8
1
  6
CONTINUOUS
 62
   250
 10
-0.373438
 20
0.093466
 30
0.0
 11
-0.375142
 21
0.092898
 31
0.0
  0
LINE
  8
1
  6
CONTINUOUS
 62
   250
 10
-0.375142
 20
0.092898
 30
0.0
 11
-0.376563
 21
0.091761
 31
0.0
  0
LINE
  8
1
  6
CONTINUOUS
 62
   250
 10
-0.376563
 20
0.091761
 30
0.0
 11
-0.377415
 21
0.090341
 31
0.0
  0
LINE
  8
1
  6
CONTINUOUS
 62
   250
 10
-0.377415
 20
0.090341
 30
0.0
 11
-0.378268
 21
0.088636
 31
0.0
  0
LINE
  8
1
  6
CONTINUOUS
 62
   250
 10
-0.378268
 20
0.088636
 30
0.0
 11
-0.378551
 21
0.087216
 31
0.0
  0
LINE
  8
1
  6
CONTINUOUS
 62
   250
 10
-0.378551
 20
0.087216
 30
0.0
 11
-0.378268
 21
0.085511
 31
0.0
  0
LINE
  8
1
  6
CONTINUOUS
 62
   250
 10
-0.378268
 20
0.085511
 30
0.0
 11
-0.377415
 21
0.083807
 31
0.0
  0
LINE
  8
1
  6
CONTINUOUS
 62
   250
 10
-0.377415
 20
0.083807
 30
0.0
 11
-0.376563
 21
0.082386
 31
0.0
  0
LINE
  8
1
  6
CONTINUOUS
 62
   250
 10
-0.376563
 20
0.082386
 30
0.0
 11
-0.375142
 21
0.08125
 31
0.0
  0
LINE
  8
1
  6
CONTINUOUS
 62
   250
 10
-0.375142
 20
0.08125
 30
0.0
 11
-0.373438
 21
0.080398
 31
0.0
  0
LINE
  8
1
  6
CONTINUOUS
 62
   250
 10
-0.373438
 20
0.080398
 30
0.0
 11
-0.371733
 21
0.080398
 31
0.0
  0
LINE
  8
1
  6
CONTINUOUS
 62
   250
 10
-0.371733
 20
0.080398
 30
0.0
 11
-0.370029
 21
0.080398
 31
0.0
  0
LINE
  8
1
  6
CONTINUOUS
 62
   250
 10
-0.370029
 20
0.080398
 30
0.0
 11
-0.368324
 21
0.08125
 31
0.0
  0
LINE
  8
1
  6
CONTINUOUS
 62
   250
 10
-0.368324
 20
0.08125
 30
0.0
 11
-0.366903
 21
0.082386
 31
0.0
  0
LINE
  8
1
  6
CONTINUOUS
 62
   250
 10
-0.366903
 20
0.082386
 30
0.0
 11
-0.366051
 21
0.083807
 31
0.0
  0
LINE
  8
1
  6
CONTINUOUS
 62
   250
 10
-0.366051
 20
0.083807
 30
0.0
 11
-0.365199
 21
0.085511
 31
0.0
  0
LINE
  8
1
  6
CONTINUOUS
 62
   250
 10
-0.365199
 20
0.085511
 30
0.0
 11
-0.364915
 21
0.087216
 31
0.0
  0
LINE
  8
1
  6
CONTINUOUS
 62
   250
 10
-0.368324
 20
0.087216
 30
0.0
 11
-0.368608
 21
0.088352
 31
0.0
  0
LINE
  8
1
  6
CONTINUOUS
 62
   250
 10
-0.368608
 20
0.088352
 30
0.0
 11
-0.36946
 21
0.089489
 31
0.0
  0
LINE
  8
1
  6
CONTINUOUS
 62
   250
 10
-0.36946
 20
0.089489
 30
0.0
 11
-0.370312
 21
0.090341
 31
0.0
  0
LINE
  8
1
  6
CONTINUOUS
 62
   250
 10
-0.370312
 20
0.090341
 30
0.0
 11
-0.371733
 21
0.090625
 31
0.0
  0
LINE
  8
1
  6
CONTINUOUS
 62
   250
 10
-0.371733
 20
0.090625
 30
0.0
 11
-0.373154
 21
0.090341
 31
0.0
  0
LINE
  8
1
  6
CONTINUOUS
 62
   250
 10
-0.373154
 20
0.090341
 30
0.0
 11
-0.37429
 21
0.089489
 31
0.0
  0
LINE
  8
1
  6
CONTINUOUS
 62
   250
 10
-0.37429
 20
0.089489
 30
0.0
 11
-0.375142
 21
0.088352
 31
0.0
  0
LINE
  8
1
  6
CONTINUOUS
 62
   250
 10
-0.375142
 20
0.088352
 30
0.0
 11
-0.375426
 21
0.087216
 31
0.0
  0
LINE
  8
1
  6
CONTINUOUS
 62
   250
 10
-0.375426
 20
0.087216
 30
0.0
 11
-0.375142
 21
0.085795
 31
0.0
  0
LINE
  8
1
  6
CONTINUOUS
 62
   250
 10
-0.375142
 20
0.085795
 30
0.0
 11
-0.37429
 21
0.084659
 31
0.0
  0
LINE
  8
1
  6
CONTINUOUS
 62
   250
 10
-0.37429
 20
0.084659
 30
0.0
 11
-0.373154
 21
0.083807
 31
0.0
  0
LINE
  8
1
  6
CONTINUOUS
 62
   250
 10
-0.373154
 20
0.083807
 30
0.0
 11
-0.371733
 21
0.083523
 31
0.0
  0
LINE
  8
1
  6
CONTINUOUS
 62
   250
 10
-0.371733
 20
0.083523
 30
0.0
 11
-0.370312
 21
0.083807
 31
0.0
  0
LINE
  8
1
  6
CONTINUOUS
 62
   250
 10
-0.370312
 20
0.083807
 30
0.0
 11
-0.36946
 21
0.084659
 31
0.0
  0
LINE
  8
1
  6
CONTINUOUS
 62
   250
 10
-0.36946
 20
0.084659
 30
0.0
 11
-0.368608
 21
0.085795
 31
0.0
  0
LINE
  8
1
  6
CONTINUOUS
 62
   250
 10
-0.368608
 20
0.085795
 30
0.0
 11
-0.368324
 21
0.087216
 31
0.0
  0
LINE
  8
1
  6
CONTINUOUS
 62
   250
 10
-0.372302
 20
0.087216
 30
0.0
 11
-0.373154
 21
0.087216
 31
0.0
  0
LINE
  8
1
  6
CONTINUOUS
 62
   250
 10
-0.373154
 20
0.087216
 30
0.0
 11
-0.373154
 21
0.086648
 31
0.0
  0
LINE
  8
1
  6
CONTINUOUS
 62
   250
 10
-0.373154
 20
0.086648
 30
0.0
 11
-0.372302
 21
0.086648
 31
0.0
  0
LINE
  8
1
  6
CONTINUOUS
 62
   250
 10
-0.372302
 20
0.086648
 30
0.0
 11
-0.372869
 21
0.08608
 31
0.0
  0
LINE
  8
1
  6
CONTINUOUS
 62
   250
 10
-0.372869
 20
0.08608
 30
0.0
 11
-0.372017
 21
0.085795
 31
0.0
  0
LINE
  8
1
  6
CONTINUOUS
 62
   250
 10
-0.372017
 20
0.085795
 30
0.0
 11
-0.372017
 21
0.086364
 31
0.0
  0
LINE
  8
1
  6
CONTINUOUS
 62
   250
 10
-0.372017
 20
0.086364
 30
0.0
 11
-0.37145
 21
0.086364
 31
0.0
  0
LINE
  8
1
  6
CONTINUOUS
 62
   250
 10
-0.37145
 20
0.086364
 30
0.0
 11
-0.37145
 21
0.085795
 31
0.0
  0
LINE
  8
1
  6
CONTINUOUS
 62
   250
 10
-0.37145
 20
0.085795
 30
0.0
 11
-0.37145
 21
0.086364
 31
0.0
  0
LINE
  8
1
  6
CONTINUOUS
 62
   250
 10
-0.37145
 20
0.086364
 30
0.0
 11
-0.370597
 21
0.08608
 31
0.0
  0
LINE
  8
1
  6
CONTINUOUS
 62
   250
 10
-0.370597
 20
0.08608
 30
0.0
 11
-0.370312
 21
0.086648
 31
0.0
  0
LINE
  8
1
  6
CONTINUOUS
 62
   250
 10
-0.370312
 20
0.086648
 30
0.0
 11
-0.371165
 21
0.086648
 31
0.0
  0
LINE
  8
1
  6
CONTINUOUS
 62
   250
 10
-0.371165
 20
0.086648
 30
0.0
 11
-0.371165
 21
0.087216
 31
0.0
  0
LINE
  8
1
  6
CONTINUOUS
 62
   250
 10
-0.371165
 20
0.087216
 30
0.0
 11
-0.370312
 21
0.087216
 31
0.0
  0
LINE
  8
1
  6
CONTINUOUS
 62
   250
 10
-0.370312
 20
0.087216
 30
0.0
 11
-0.371165
 21
0.087216
 31
0.0
  0
LINE
  8
1
  6
CONTINUOUS
 62
   250
 10
-0.371165
 20
0.087216
 30
0.0
 11
-0.370597
 21
0.088068
 31
0.0
  0
LINE
  8
1
  6
CONTINUOUS
 62
   250
 10
-0.370597
 20
0.088068
 30
0.0
 11
-0.37145
 21
0.0875
 31
0.0
  0
LINE
  8
1
  6
CONTINUOUS
 62
   250
 10
-0.37145
 20
0.0875
 30
0.0
 11
-0.37145
 21
0.088352
 31
0.0
  0
LINE
  8
1
  6
CONTINUOUS
 62
   250
 10
-0.37145
 20
0.088352
 30
0.0
 11
-0.372017
 21
0.088352
 31
0.0
  0
LINE
  8
1
  6
CONTINUOUS
 62
   250
 10
-0.372017
 20
0.088352
 30
0.0
 11
-0.372017
 21
0.0875
 31
0.0
  0
LINE
  8
1
  6
CONTINUOUS
 62
   250
 10
-0.372017
 20
0.0875
 30
0.0
 11
-0.372869
 21
0.088068
 31
0.0
  0
LINE
  8
1
  6
CONTINUOUS
 62
   250
 10
-0.391904
 20
0.088636
 30
0.0
 11
-0.392756
 21
0.090341
 31
0.0
  0
LINE
  8
1
  6
CONTINUOUS
 62
   250
 10
-0.392756
 20
0.090341
 30
0.0
 11
-0.393609
 21
0.091761
 31
0.0
  0
LINE
  8
1
  6
CONTINUOUS
 62
   250
 10
-0.393609
 20
0.091761
 30
0.0
 11
-0.395313
 21
0.092898
 31
0.0
  0
LINE
  8
1
  6
CONTINUOUS
 62
   250
 10
-0.395313
 20
0.092898
 30
0.0
 11
-0.396733
 21
0.093466
 31
0.0
  0
LINE
  8
1
  6
CONTINUOUS
 62
   250
 10
-0.396733
 20
0.093466
 30
0.0
 11
-0.398437
 21
0.09375
 31
0.0
  0
LINE
  8
1
  6
CONTINUOUS
 62
   250
 10
-0.398437
 20
0.09375
 30
0.0
 11
-0.400142
 21
0.093466
 31
0.0
  0
LINE
  8
1
  6
CONTINUOUS
 62
   250
 10
-0.400142
 20
0.093466
 30
0.0
 11
-0.401846
 21
0.092898
 31
0.0
  0
LINE
  8
1
  6
CONTINUOUS
 62
   250
 10
-0.401846
 20
0.092898
 30
0.0
 11
-0.403267
 21
0.091761
 31
0.0
  0
LINE
  8
1
  6
CONTINUOUS
 62
   250
 10
-0.403267
 20
0.091761
 30
0.0
 11
-0.404403
 21
0.090341
 31
0.0
  0
LINE
  8
1
  6
CONTINUOUS
 62
   250
 10
-0.404403
 20
0.090341
 30
0.0
 11
-0.404972
 21
0.088636
 31
0.0
  0
LINE
  8
1
  6
CONTINUOUS
 62
   250
 10
-0.404972
 20
0.088636
 30
0.0
 11
-0.405255
 21
0.087216
 31
0.0
  0
LINE
  8
1
  6
CONTINUOUS
 62
   250
 10
-0.405255
 20
0.087216
 30
0.0
 11
-0.404972
 21
0.085511
 31
0.0
  0
LINE
  8
1
  6
CONTINUOUS
 62
   250
 10
-0.404972
 20
0.085511
 30
0.0
 11
-0.404403
 21
0.083807
 31
0.0
  0
LINE
  8
1
  6
CONTINUOUS
 62
   250
 10
-0.404403
 20
0.083807
 30
0.0
 11
-0.403267
 21
0.082386
 31
0.0
  0
LINE
  8
1
  6
CONTINUOUS
 62
   250
 10
-0.403267
 20
0.082386
 30
0.0
 11
-0.401846
 21
0.08125
 31
0.0
  0
LINE
  8
1
  6
CONTINUOUS
 62
   250
 10
-0.401846
 20
0.08125
 30
0.0
 11
-0.400142
 21
0.080398
 31
0.0
  0
LINE
  8
1
  6
CONTINUOUS
 62
   250
 10
-0.400142
 20
0.080398
 30
0.0
 11
-0.398437
 21
0.080398
 31
0.0
  0
LINE
  8
1
  6
CONTINUOUS
 62
   250
 10
-0.398437
 20
0.080398
 30
0.0
 11
-0.396733
 21
0.080398
 31
0.0
  0
LINE
  8
1
  6
CONTINUOUS
 62
   250
 10
-0.396733
 20
0.080398
 30
0.0
 11
-0.395313
 21
0.08125
 31
0.0
  0
LINE
  8
1
  6
CONTINUOUS
 62
   250
 10
-0.395313
 20
0.08125
 30
0.0
 11
-0.393609
 21
0.082386
 31
0.0
  0
LINE
  8
1
  6
CONTINUOUS
 62
   250
 10
-0.393609
 20
0.082386
 30
0.0
 11
-0.392756
 21
0.083807
 31
0.0
  0
LINE
  8
1
  6
CONTINUOUS
 62
   250
 10
-0.392756
 20
0.083807
 30
0.0
 11
-0.391904
 21
0.085511
 31
0.0
  0
LINE
  8
1
  6
CONTINUOUS
 62
   250
 10
-0.391904
 20
0.085511
 30
0.0
 11
-0.391904
 21
0.087216
 31
0.0
  0
LINE
  8
1
  6
CONTINUOUS
 62
   250
 10
-0.391904
 20
0.087216
 30
0.0
 11
-0.391904
 21
0.088636
 31
0.0
  0
LINE
  8
1
  6
CONTINUOUS
 62
   250
 10
-0.398722
 20
0.088352
 30
0.0
 11
-0.398722
 21
0.0875
 31
0.0
  0
LINE
  8
1
  6
CONTINUOUS
 62
   250
 10
-0.398722
 20
0.0875
 30
0.0
 11
-0.399575
 21
0.088068
 31
0.0
  0
LINE
  8
1
  6
CONTINUOUS
 62
   250
 10
-0.399575
 20
0.088068
 30
0.0
 11
-0.39929
 21
0.087216
 31
0.0
  0
LINE
  8
1
  6
CONTINUOUS
 62
   250
 10
-0.39929
 20
0.087216
 30
0.0
 11
-0.399858
 21
0.087216
 31
0.0
  0
LINE
  8
1
  6
CONTINUOUS
 62
   250
 10
-0.399858
 20
0.087216
 30
0.0
 11
-0.399858
 21
0.086648
 31
0.0
  0
LINE
  8
1
  6
CONTINUOUS
 62
   250
 10
-0.399858
 20
0.086648
 30
0.0
 11
-0.39929
 21
0.086648
 31
0.0
  0
LINE
  8
1
  6
CONTINUOUS
 62
   250
 10
-0.39929
 20
0.086648
 30
0.0
 11
-0.399575
 21
0.08608
 31
0.0
  0
LINE
  8
1
  6
CONTINUOUS
 62
   250
 10
-0.399575
 20
0.08608
 30
0.0
 11
-0.398722
 21
0.085795
 31
0.0
  0
LINE
  8
1
  6
CONTINUOUS
 62
   250
 10
-0.398722
 20
0.085795
 30
0.0
 11
-0.398722
 21
0.086364
 31
0.0
  0
LINE
  8
1
  6
CONTINUOUS
 62
   250
 10
-0.398722
 20
0.086364
 30
0.0
 11
-0.398154
 21
0.086364
 31
0.0
  0
LINE
  8
1
  6
CONTINUOUS
 62
   250
 10
-0.398154
 20
0.086364
 30
0.0
 11
-0.398154
 21
0.085795
 31
0.0
  0
LINE
  8
1
  6
CONTINUOUS
 62
   250
 10
-0.398154
 20
0.085795
 30
0.0
 11
-0.398154
 21
0.086364
 31
0.0
  0
LINE
  8
1
  6
CONTINUOUS
 62
   250
 10
-0.398154
 20
0.086364
 30
0.0
 11
-0.397585
 21
0.08608
 31
0.0
  0
LINE
  8
1
  6
CONTINUOUS
 62
   250
 10
-0.397585
 20
0.08608
 30
0.0
 11
-0.397018
 21
0.086648
 31
0.0
  0
LINE
  8
1
  6
CONTINUOUS
 62
   250
 10
-0.397018
 20
0.086648
 30
0.0
 11
-0.39787
 21
0.086648
 31
0.0
  0
LINE
  8
1
  6
CONTINUOUS
 62
   250
 10
-0.39787
 20
0.086648
 30
0.0
 11
-0.39787
 21
0.087216
 31
0.0
  0
LINE
  8
1
  6
CONTINUOUS
 62
   250
 10
-0.39787
 20
0.087216
 30
0.0
 11
-0.397018
 21
0.087216
 31
0.0
  0
LINE
  8
1
  6
CONTINUOUS
 62
   250
 10
-0.397018
 20
0.087216
 30
0.0
 11
-0.39787
 21
0.087216
 31
0.0
  0
LINE
  8
1
  6
CONTINUOUS
 62
   250
 10
-0.39787
 20
0.087216
 30
0.0
 11
-0.397585
 21
0.088068
 31
0.0
  0
LINE
  8
1
  6
CONTINUOUS
 62
   250
 10
-0.397585
 20
0.088068
 30
0.0
 11
-0.398154
 21
0.0875
 31
0.0
  0
LINE
  8
1
  6
CONTINUOUS
 62
   250
 10
-0.398154
 20
0.0875
 30
0.0
 11
-0.398154
 21
0.088352
 31
0.0
  0
LINE
  8
1
  6
CONTINUOUS
 62
   250
 10
-0.398437
 20
0.090625
 30
0.0
 11
-0.397302
 21
0.090341
 31
0.0
  0
LINE
  8
1
  6
CONTINUOUS
 62
   250
 10
-0.397302
 20
0.090341
 30
0.0
 11
-0.396165
 21
0.089489
 31
0.0
  0
LINE
  8
1
  6
CONTINUOUS
 62
   250
 10
-0.396165
 20
0.089489
 30
0.0
 11
-0.395313
 21
0.088352
 31
0.0
  0
LINE
  8
1
  6
CONTINUOUS
 62
   250
 10
-0.395313
 20
0.088352
 30
0.0
 11
-0.395028
 21
0.087216
 31
0.0
  0
LINE
  8
1
  6
CONTINUOUS
 62
   250
 10
-0.398437
 20
0.090625
 30
0.0
 11
-0.399858
 21
0.090341
 31
0.0
  0
LINE
  8
1
  6
CONTINUOUS
 62
   250
 10
-0.399858
 20
0.090341
 30
0.0
 11
-0.400994
 21
0.089489
 31
0.0
  0
LINE
  8
1
  6
CONTINUOUS
 62
   250
 10
-0.400994
 20
0.089489
 30
0.0
 11
-0.401846
 21
0.088352
 31
0.0
  0
LINE
  8
1
  6
CONTINUOUS
 62
   250
 10
-0.401846
 20
0.088352
 30
0.0
 11
-0.402131
 21
0.087216
 31
0.0
  0
LINE
  8
1
  6
CONTINUOUS
 62
   250
 10
-0.402131
 20
0.087216
 30
0.0
 11
-0.401846
 21
0.085795
 31
0.0
  0
LINE
  8
1
  6
CONTINUOUS
 62
   250
 10
-0.401846
 20
0.085795
 30
0.0
 11
-0.400994
 21
0.084659
 31
0.0
  0
LINE
  8
1
  6
CONTINUOUS
 62
   250
 10
-0.400994
 20
0.084659
 30
0.0
 11
-0.399858
 21
0.083807
 31
0.0
  0
LINE
  8
1
  6
CONTINUOUS
 62
   250
 10
-0.399858
 20
0.083807
 30
0.0
 11
-0.398437
 21
0.083523
 31
0.0
  0
LINE
  8
1
  6
CONTINUOUS
 62
   250
 10
-0.398437
 20
0.083523
 30
0.0
 11
-0.397302
 21
0.083807
 31
0.0
  0
LINE
  8
1
  6
CONTINUOUS
 62
   250
 10
-0.397302
 20
0.083807
 30
0.0
 11
-0.396165
 21
0.084659
 31
0.0
  0
LINE
  8
1
  6
CONTINUOUS
 62
   250
 10
-0.396165
 20
0.084659
 30
0.0
 11
-0.395313
 21
0.085795
 31
0.0
  0
LINE
  8
1
  6
CONTINUOUS
 62
   250
 10
-0.395313
 20
0.085795
 30
0.0
 11
-0.395028
 21
0.087216
 31
0.0
  0
LINE
  8
1
  6
CONTINUOUS
 62
   250
 10
-0.407529
 20
0.073579
 30
0.0
 11
-0.407529
 21
0.112216
 31
0.0
  0
LINE
  8
1
  6
CONTINUOUS
 62
   250
 10
-0.405824
 20
0.060795
 30
0.0
 11
-0.392471
 21
0.060795
 31
0.0
  0
LINE
  8
1
  6
CONTINUOUS
 62
   250
 10
-0.37713
 20
0.05625
 30
0.0
 11
-0.367755
 21
0.065625
 31
0.0
  0
LINE
  8
1
  6
CONTINUOUS
 62
   250
 10
-0.367755
 20
0.065625
 30
0.0
 11
-0.369176
 21
0.066477
 31
0.0
  0
LINE
  8
1
  6
CONTINUOUS
 62
   250
 10
-0.369176
 20
0.066477
 30
0.0
 11
-0.370597
 21
0.067045
 31
0.0
  0
LINE
  8
1
  6
CONTINUOUS
 62
   250
 10
-0.370597
 20
0.067045
 30
0.0
 11
-0.372302
 21
0.067614
 31
0.0
  0
LINE
  8
1
  6
CONTINUOUS
 62
   250
 10
-0.372302
 20
0.067614
 30
0.0
 11
-0.37429
 21
0.067045
 31
0.0
  0
LINE
  8
1
  6
CONTINUOUS
 62
   250
 10
-0.37429
 20
0.067045
 30
0.0
 11
-0.375711
 21
0.066477
 31
0.0
  0
LINE
  8
1
  6
CONTINUOUS
 62
   250
 10
-0.375711
 20
0.066477
 30
0.0
 11
-0.37713
 21
0.065625
 31
0.0
  0
LINE
  8
1
  6
CONTINUOUS
 62
   250
 10
-0.37713
 20
0.065625
 30
0.0
 11
-0.378268
 21
0.064204
 31
0.0
  0
LINE
  8
1
  6
CONTINUOUS
 62
   250
 10
-0.378268
 20
0.064204
 30
0.0
 11
-0.378835
 21
0.0625
 31
0.0
  0
LINE
  8
1
  6
CONTINUOUS
 62
   250
 10
-0.378835
 20
0.0625
 30
0.0
 11
-0.37912
 21
0.060795
 31
0.0
  0
LINE
  8
1
  6
CONTINUOUS
 62
   250
 10
-0.37912
 20
0.060795
 30
0.0
 11
-0.378835
 21
0.059091
 31
0.0
  0
LINE
  8
1
  6
CONTINUOUS
 62
   250
 10
-0.378835
 20
0.059091
 30
0.0
 11
-0.378268
 21
0.057386
 31
0.0
  0
LINE
  8
1
  6
CONTINUOUS
 62
   250
 10
-0.378268
 20
0.057386
 30
0.0
 11
-0.37713
 21
0.05625
 31
0.0
  0
LINE
  8
1
  6
CONTINUOUS
 62
   250
 10
-0.37713
 20
0.05625
 30
0.0
 11
-0.375711
 21
0.055114
 31
0.0
  0
LINE
  8
1
  6
CONTINUOUS
 62
   250
 10
-0.375711
 20
0.055114
 30
0.0
 11
-0.37429
 21
0.054261
 31
0.0
  0
LINE
  8
1
  6
CONTINUOUS
 62
   250
 10
-0.37429
 20
0.054261
 30
0.0
 11
-0.372302
 21
0.054261
 31
0.0
  0
LINE
  8
1
  6
CONTINUOUS
 62
   250
 10
-0.372302
 20
0.054261
 30
0.0
 11
-0.370597
 21
0.054261
 31
0.0
  0
LINE
  8
1
  6
CONTINUOUS
 62
   250
 10
-0.370597
 20
0.054261
 30
0.0
 11
-0.369176
 21
0.055114
 31
0.0
  0
LINE
  8
1
  6
CONTINUOUS
 62
   250
 10
-0.369176
 20
0.055114
 30
0.0
 11
-0.367755
 21
0.05625
 31
0.0
  0
LINE
  8
1
  6
CONTINUOUS
 62
   250
 10
-0.367755
 20
0.05625
 30
0.0
 11
-0.36662
 21
0.057386
 31
0.0
  0
LINE
  8
1
  6
CONTINUOUS
 62
   250
 10
-0.36662
 20
0.057386
 30
0.0
 11
-0.366051
 21
0.059091
 31
0.0
  0
LINE
  8
1
  6
CONTINUOUS
 62
   250
 10
-0.366051
 20
0.059091
 30
0.0
 11
-0.365767
 21
0.060795
 31
0.0
  0
LINE
  8
1
  6
CONTINUOUS
 62
   250
 10
-0.365767
 20
0.060795
 30
0.0
 11
-0.366051
 21
0.0625
 31
0.0
  0
LINE
  8
1
  6
CONTINUOUS
 62
   250
 10
-0.366051
 20
0.0625
 30
0.0
 11
-0.36662
 21
0.064204
 31
0.0
  0
LINE
  8
1
  6
CONTINUOUS
 62
   250
 10
-0.36662
 20
0.064204
 30
0.0
 11
-0.367755
 21
0.065625
 31
0.0
  0
LINE
  8
1
  6
CONTINUOUS
 62
   250
 10
-0.394461
 20
0.065625
 30
0.0
 11
-0.39588
 21
0.066477
 31
0.0
  0
LINE
  8
1
  6
CONTINUOUS
 62
   250
 10
-0.39588
 20
0.066477
 30
0.0
 11
-0.397302
 21
0.067045
 31
0.0
  0
LINE
  8
1
  6
CONTINUOUS
 62
   250
 10
-0.397302
 20
0.067045
 30
0.0
 11
-0.399006
 21
0.067614
 31
0.0
  0
LINE
  8
1
  6
CONTINUOUS
 62
   250
 10
-0.399006
 20
0.067614
 30
0.0
 11
-0.400994
 21
0.067045
 31
0.0
  0
LINE
  8
1
  6
CONTINUOUS
 62
   250
 10
-0.400994
 20
0.067045
 30
0.0
 11
-0.402415
 21
0.066477
 31
0.0
  0
LINE
  8
1
  6
CONTINUOUS
 62
   250
 10
-0.402415
 20
0.066477
 30
0.0
 11
-0.403836
 21
0.065625
 31
0.0
  0
LINE
  8
1
  6
CONTINUOUS
 62
   250
 10
-0.403836
 20
0.065625
 30
0.0
 11
-0.404972
 21
0.064204
 31
0.0
  0
LINE
  8
1
  6
CONTINUOUS
 62
   250
 10
-0.404972
 20
0.064204
 30
0.0
 11
-0.40554
 21
0.0625
 31
0.0
  0
LINE
  8
1
  6
CONTINUOUS
 62
   250
 10
-0.40554
 20
0.0625
 30
0.0
 11
-0.405824
 21
0.060795
 31
0.0
  0
LINE
  8
1
  6
CONTINUOUS
 62
   250
 10
-0.405824
 20
0.060795
 30
0.0
 11
-0.40554
 21
0.059091
 31
0.0
  0
LINE
  8
1
  6
CONTINUOUS
 62
   250
 10
-0.40554
 20
0.059091
 30
0.0
 11
-0.404972
 21
0.057386
 31
0.0
  0
LINE
  8
1
  6
CONTINUOUS
 62
   250
 10
-0.404972
 20
0.057386
 30
0.0
 11
-0.403836
 21
0.05625
 31
0.0
  0
LINE
  8
1
  6
CONTINUOUS
 62
   250
 10
-0.403836
 20
0.05625
 30
0.0
 11
-0.402415
 21
0.055114
 31
0.0
  0
LINE
  8
1
  6
CONTINUOUS
 62
   250
 10
-0.402415
 20
0.055114
 30
0.0
 11
-0.400994
 21
0.054261
 31
0.0
  0
LINE
  8
1
  6
CONTINUOUS
 62
   250
 10
-0.400994
 20
0.054261
 30
0.0
 11
-0.399006
 21
0.054261
 31
0.0
  0
LINE
  8
1
  6
CONTINUOUS
 62
   250
 10
-0.399006
 20
0.054261
 30
0.0
 11
-0.397302
 21
0.054261
 31
0.0
  0
LINE
  8
1
  6
CONTINUOUS
 62
   250
 10
-0.397302
 20
0.054261
 30
0.0
 11
-0.39588
 21
0.055114
 31
0.0
  0
LINE
  8
1
  6
CONTINUOUS
 62
   250
 10
-0.39588
 20
0.055114
 30
0.0
 11
-0.394461
 21
0.05625
 31
0.0
  0
LINE
  8
1
  6
CONTINUOUS
 62
   250
 10
-0.394461
 20
0.05625
 30
0.0
 11
-0.393324
 21
0.057386
 31
0.0
  0
LINE
  8
1
  6
CONTINUOUS
 62
   250
 10
-0.393324
 20
0.057386
 30
0.0
 11
-0.392756
 21
0.059091
 31
0.0
  0
LINE
  8
1
  6
CONTINUOUS
 62
   250
 10
-0.392756
 20
0.059091
 30
0.0
 11
-0.392471
 21
0.060795
 31
0.0
  0
LINE
  8
1
  6
CONTINUOUS
 62
   250
 10
-0.392471
 20
0.060795
 30
0.0
 11
-0.392756
 21
0.0625
 31
0.0
  0
LINE
  8
1
  6
CONTINUOUS
 62
   250
 10
-0.392756
 20
0.0625
 30
0.0
 11
-0.393324
 21
0.064204
 31
0.0
  0
LINE
  8
1
  6
CONTINUOUS
 62
   250
 10
-0.393324
 20
0.064204
 30
0.0
 11
-0.394461
 21
0.065625
 31
0.0
  0
LINE
  8
1
  6
CONTINUOUS
 62
   250
 10
-0.358949
 20
0.067614
 30
0.0
 11
-0.356961
 21
0.067614
 31
0.0
  0
LINE
  8
1
  6
CONTINUOUS
 62
   250
 10
-0.356961
 20
0.067614
 30
0.0
 11
-0.356961
 21
0.109659
 31
0.0
  0
LINE
  8
1
  6
CONTINUOUS
 62
   250
 10
-0.356961
 20
0.109659
 30
0.0
 11
-0.358949
 21
0.109659
 31
0.0
  0
LINE
  8
1
  6
CONTINUOUS
 62
   250
 10
-0.358949
 20
0.112216
 30
0.0
 11
-0.358949
 21
0.038636
 31
0.0
  0
LINE
  8
1
  6
CONTINUOUS
 62
   250
 10
-0.356961
 20
0.038636
 30
0.0
 11
-0.356961
 21
0.112216
 31
0.0
  0
LINE
  8
1
  6
CONTINUOUS
 62
   250
 10
-0.356961
 20
0.112216
 30
0.0
 11
-0.356961
 21
0.038636
 31
0.0
  0
LINE
  8
1
  6
CONTINUOUS
 62
   250
 10
-0.362927
 20
0.073579
 30
0.0
 11
-0.362927
 21
0.112216
 31
0.0
  0
LINE
  8
1
  6
CONTINUOUS
 62
   250
 10
-0.410369
 20
0.109659
 30
0.0
 11
-0.412359
 21
0.109659
 31
0.0
  0
LINE
  8
1
  6
CONTINUOUS
 62
   250
 10
-0.3152
 20
0.067045
 30
0.0
 11
-0.313495
 21
0.066477
 31
0.0
  0
LINE
  8
1
  6
CONTINUOUS
 62
   250
 10
-0.313495
 20
0.066477
 30
0.0
 11
-0.312074
 21
0.065625
 31
0.0
  0
LINE
  8
1
  6
CONTINUOUS
 62
   250
 10
-0.312074
 20
0.065625
 30
0.0
 11
-0.310938
 21
0.064204
 31
0.0
  0
LINE
  8
1
  6
CONTINUOUS
 62
   250
 10
-0.310938
 20
0.064204
 30
0.0
 11
-0.31037
 21
0.0625
 31
0.0
  0
LINE
  8
1
  6
CONTINUOUS
 62
   250
 10
-0.31037
 20
0.0625
 30
0.0
 11
-0.310086
 21
0.060795
 31
0.0
  0
LINE
  8
1
  6
CONTINUOUS
 62
   250
 10
-0.3152
 20
0.067045
 30
0.0
 11
-0.316904
 21
0.067614
 31
0.0
  0
LINE
  8
1
  6
CONTINUOUS
 62
   250
 10
-0.316904
 20
0.067614
 30
0.0
 11
-0.318609
 21
0.067045
 31
0.0
  0
LINE
  8
1
  6
CONTINUOUS
 62
   250
 10
-0.318609
 20
0.067045
 30
0.0
 11
-0.320313
 21
0.066477
 31
0.0
  0
LINE
  8
1
  6
CONTINUOUS
 62
   250
 10
-0.320313
 20
0.066477
 30
0.0
 11
-0.321449
 21
0.065625
 31
0.0
  0
LINE
  8
1
  6
CONTINUOUS
 62
   250
 10
-0.321449
 20
0.065625
 30
0.0
 11
-0.322585
 21
0.064204
 31
0.0
  0
LINE
  8
1
  6
CONTINUOUS
 62
   250
 10
-0.322585
 20
0.064204
 30
0.0
 11
-0.323154
 21
0.0625
 31
0.0
  0
LINE
  8
1
  6
CONTINUOUS
 62
   250
 10
-0.323154
 20
0.0625
 30
0.0
 11
-0.323437
 21
0.060795
 31
0.0
  0
LINE
  8
1
  6
CONTINUOUS
 62
   250
 10
-0.323437
 20
0.060795
 30
0.0
 11
-0.323154
 21
0.059091
 31
0.0
  0
LINE
  8
1
  6
CONTINUOUS
 62
   250
 10
-0.323154
 20
0.059091
 30
0.0
 11
-0.322585
 21
0.057386
 31
0.0
  0
LINE
  8
1
  6
CONTINUOUS
 62
   250
 10
-0.322585
 20
0.057386
 30
0.0
 11
-0.321449
 21
0.05625
 31
0.0
  0
LINE
  8
1
  6
CONTINUOUS
 62
   250
 10
-0.321449
 20
0.05625
 30
0.0
 11
-0.320313
 21
0.055114
 31
0.0
  0
LINE
  8
1
  6
CONTINUOUS
 62
   250
 10
-0.320313
 20
0.055114
 30
0.0
 11
-0.318609
 21
0.054261
 31
0.0
  0
LINE
  8
1
  6
CONTINUOUS
 62
   250
 10
-0.318609
 20
0.054261
 30
0.0
 11
-0.316904
 21
0.054261
 31
0.0
  0
LINE
  8
1
  6
CONTINUOUS
 62
   250
 10
-0.316904
 20
0.054261
 30
0.0
 11
-0.3152
 21
0.054261
 31
0.0
  0
LINE
  8
1
  6
CONTINUOUS
 62
   250
 10
-0.3152
 20
0.054261
 30
0.0
 11
-0.313495
 21
0.055114
 31
0.0
  0
LINE
  8
1
  6
CONTINUOUS
 62
   250
 10
-0.313495
 20
0.055114
 30
0.0
 11
-0.312074
 21
0.05625
 31
0.0
  0
LINE
  8
1
  6
CONTINUOUS
 62
   250
 10
-0.312074
 20
0.05625
 30
0.0
 11
-0.310938
 21
0.057386
 31
0.0
  0
LINE
  8
1
  6
CONTINUOUS
 62
   250
 10
-0.310938
 20
0.057386
 30
0.0
 11
-0.31037
 21
0.059091
 31
0.0
  0
LINE
  8
1
  6
CONTINUOUS
 62
   250
 10
-0.31037
 20
0.059091
 30
0.0
 11
-0.310086
 21
0.060795
 31
0.0
  0
LINE
  8
1
  6
CONTINUOUS
 62
   250
 10
-0.312074
 20
0.065625
 30
0.0
 11
-0.321449
 21
0.05625
 31
0.0
  0
LINE
  8
1
  6
CONTINUOUS
 62
   250
 10
-0.317471
 20
0.090341
 30
0.0
 11
-0.316052
 21
0.090625
 31
0.0
  0
LINE
  8
1
  6
CONTINUOUS
 62
   250
 10
-0.316052
 20
0.090625
 30
0.0
 11
-0.314915
 21
0.090341
 31
0.0
  0
LINE
  8
1
  6
CONTINUOUS
 62
   250
 10
-0.314915
 20
0.090341
 30
0.0
 11
-0.313779
 21
0.089489
 31
0.0
  0
LINE
  8
1
  6
CONTINUOUS
 62
   250
 10
-0.313779
 20
0.089489
 30
0.0
 11
-0.312926
 21
0.088352
 31
0.0
  0
LINE
  8
1
  6
CONTINUOUS
 62
   250
 10
-0.312926
 20
0.088352
 30
0.0
 11
-0.312643
 21
0.087216
 31
0.0
  0
LINE
  8
1
  6
CONTINUOUS
 62
   250
 10
-0.319745
 20
0.087216
 30
0.0
 11
-0.319461
 21
0.085795
 31
0.0
  0
LINE
  8
1
  6
CONTINUOUS
 62
   250
 10
-0.319461
 20
0.085795
 30
0.0
 11
-0.318609
 21
0.084659
 31
0.0
  0
LINE
  8
1
  6
CONTINUOUS
 62
   250
 10
-0.318609
 20
0.084659
 30
0.0
 11
-0.317471
 21
0.083807
 31
0.0
  0
LINE
  8
1
  6
CONTINUOUS
 62
   250
 10
-0.317471
 20
0.083807
 30
0.0
 11
-0.316052
 21
0.083523
 31
0.0
  0
LINE
  8
1
  6
CONTINUOUS
 62
   250
 10
-0.316052
 20
0.083523
 30
0.0
 11
-0.314915
 21
0.083807
 31
0.0
  0
LINE
  8
1
  6
CONTINUOUS
 62
   250
 10
-0.314915
 20
0.083807
 30
0.0
 11
-0.313779
 21
0.084659
 31
0.0
  0
LINE
  8
1
  6
CONTINUOUS
 62
   250
 10
-0.313779
 20
0.084659
 30
0.0
 11
-0.312926
 21
0.085795
 31
0.0
  0
LINE
  8
1
  6
CONTINUOUS
 62
   250
 10
-0.312926
 20
0.085795
 30
0.0
 11
-0.312643
 21
0.087216
 31
0.0
  0
LINE
  8
1
  6
CONTINUOUS
 62
   250
 10
-0.309517
 20
0.087216
 30
0.0
 11
-0.309801
 21
0.088636
 31
0.0
  0
LINE
  8
1
  6
CONTINUOUS
 62
   250
 10
-0.309801
 20
0.088636
 30
0.0
 11
-0.31037
 21
0.090341
 31
0.0
  0
LINE
  8
1
  6
CONTINUOUS
 62
   250
 10
-0.31037
 20
0.090341
 30
0.0
 11
-0.311506
 21
0.091761
 31
0.0
  0
LINE
  8
1
  6
CONTINUOUS
 62
   250
 10
-0.311506
 20
0.091761
 30
0.0
 11
-0.312926
 21
0.092898
 31
0.0
  0
LINE
  8
1
  6
CONTINUOUS
 62
   250
 10
-0.312926
 20
0.092898
 30
0.0
 11
-0.314347
 21
0.093466
 31
0.0
  0
LINE
  8
1
  6
CONTINUOUS
 62
   250
 10
-0.314347
 20
0.093466
 30
0.0
 11
-0.316052
 21
0.09375
 31
0.0
  0
LINE
  8
1
  6
CONTINUOUS
 62
   250
 10
-0.316052
 20
0.09375
 30
0.0
 11
-0.31804
 21
0.093466
 31
0.0
  0
LINE
  8
1
  6
CONTINUOUS
 62
   250
 10
-0.31804
 20
0.093466
 30
0.0
 11
-0.319461
 21
0.092898
 31
0.0
  0
LINE
  8
1
  6
CONTINUOUS
 62
   250
 10
-0.319461
 20
0.092898
 30
0.0
 11
-0.32088
 21
0.091761
 31
0.0
  0
LINE
  8
1
  6
CONTINUOUS
 62
   250
 10
-0.32088
 20
0.091761
 30
0.0
 11
-0.322018
 21
0.090341
 31
0.0
  0
LINE
  8
1
  6
CONTINUOUS
 62
   250
 10
-0.322018
 20
0.090341
 30
0.0
 11
-0.322585
 21
0.088636
 31
0.0
  0
LINE
  8
1
  6
CONTINUOUS
 62
   250
 10
-0.322585
 20
0.088636
 30
0.0
 11
-0.32287
 21
0.087216
 31
0.0
  0
LINE
  8
1
  6
CONTINUOUS
 62
   250
 10
-0.32287
 20
0.087216
 30
0.0
 11
-0.322585
 21
0.085511
 31
0.0
  0
LINE
  8
1
  6
CONTINUOUS
 62
   250
 10
-0.322585
 20
0.085511
 30
0.0
 11
-0.322018
 21
0.083807
 31
0.0
  0
LINE
  8
1
  6
CONTINUOUS
 62
   250
 10
-0.322018
 20
0.083807
 30
0.0
 11
-0.32088
 21
0.082386
 31
0.0
  0
LINE
  8
1
  6
CONTINUOUS
 62
   250
 10
-0.32088
 20
0.082386
 30
0.0
 11
-0.319461
 21
0.08125
 31
0.0
  0
LINE
  8
1
  6
CONTINUOUS
 62
   250
 10
-0.319461
 20
0.08125
 30
0.0
 11
-0.31804
 21
0.080398
 31
0.0
  0
LINE
  8
1
  6
CONTINUOUS
 62
   250
 10
-0.31804
 20
0.080398
 30
0.0
 11
-0.316052
 21
0.080398
 31
0.0
  0
LINE
  8
1
  6
CONTINUOUS
 62
   250
 10
-0.316052
 20
0.080398
 30
0.0
 11
-0.314347
 21
0.080398
 31
0.0
  0
LINE
  8
1
  6
CONTINUOUS
 62
   250
 10
-0.314347
 20
0.080398
 30
0.0
 11
-0.312926
 21
0.08125
 31
0.0
  0
LINE
  8
1
  6
CONTINUOUS
 62
   250
 10
-0.312926
 20
0.08125
 30
0.0
 11
-0.311506
 21
0.082386
 31
0.0
  0
LINE
  8
1
  6
CONTINUOUS
 62
   250
 10
-0.311506
 20
0.082386
 30
0.0
 11
-0.31037
 21
0.083807
 31
0.0
  0
LINE
  8
1
  6
CONTINUOUS
 62
   250
 10
-0.31037
 20
0.083807
 30
0.0
 11
-0.309801
 21
0.085511
 31
0.0
  0
LINE
  8
1
  6
CONTINUOUS
 62
   250
 10
-0.309801
 20
0.085511
 30
0.0
 11
-0.309517
 21
0.087216
 31
0.0
  0
LINE
  8
1
  6
CONTINUOUS
 62
   250
 10
-0.319745
 20
0.087216
 30
0.0
 11
-0.319461
 21
0.088352
 31
0.0
  0
LINE
  8
1
  6
CONTINUOUS
 62
   250
 10
-0.319461
 20
0.088352
 30
0.0
 11
-0.318609
 21
0.089489
 31
0.0
  0
LINE
  8
1
  6
CONTINUOUS
 62
   250
 10
-0.318609
 20
0.089489
 30
0.0
 11
-0.317471
 21
0.090341
 31
0.0
  0
LINE
  8
1
  6
CONTINUOUS
 62
   250
 10
-0.338778
 20
0.065625
 30
0.0
 11
-0.340199
 21
0.066477
 31
0.0
  0
LINE
  8
1
  6
CONTINUOUS
 62
   250
 10
-0.340199
 20
0.066477
 30
0.0
 11
-0.341904
 21
0.067045
 31
0.0
  0
LINE
  8
1
  6
CONTINUOUS
 62
   250
 10
-0.341904
 20
0.067045
 30
0.0
 11
-0.343608
 21
0.067614
 31
0.0
  0
LINE
  8
1
  6
CONTINUOUS
 62
   250
 10
-0.343608
 20
0.067614
 30
0.0
 11
-0.345313
 21
0.067045
 31
0.0
  0
LINE
  8
1
  6
CONTINUOUS
 62
   250
 10
-0.345313
 20
0.067045
 30
0.0
 11
-0.347017
 21
0.066477
 31
0.0
  0
LINE
  8
1
  6
CONTINUOUS
 62
   250
 10
-0.347017
 20
0.066477
 30
0.0
 11
-0.348153
 21
0.065625
 31
0.0
  0
LINE
  8
1
  6
CONTINUOUS
 62
   250
 10
-0.348153
 20
0.065625
 30
0.0
 11
-0.34929
 21
0.064204
 31
0.0
  0
LINE
  8
1
  6
CONTINUOUS
 62
   250
 10
-0.34929
 20
0.064204
 30
0.0
 11
-0.349858
 21
0.0625
 31
0.0
  0
LINE
  8
1
  6
CONTINUOUS
 62
   250
 10
-0.349858
 20
0.0625
 30
0.0
 11
-0.350143
 21
0.060795
 31
0.0
  0
LINE
  8
1
  6
CONTINUOUS
 62
   250
 10
-0.350143
 20
0.060795
 30
0.0
 11
-0.349858
 21
0.059091
 31
0.0
  0
LINE
  8
1
  6
CONTINUOUS
 62
   250
 10
-0.349858
 20
0.059091
 30
0.0
 11
-0.34929
 21
0.057386
 31
0.0
  0
LINE
  8
1
  6
CONTINUOUS
 62
   250
 10
-0.34929
 20
0.057386
 30
0.0
 11
-0.348153
 21
0.05625
 31
0.0
  0
LINE
  8
1
  6
CONTINUOUS
 62
   250
 10
-0.348153
 20
0.05625
 30
0.0
 11
-0.347017
 21
0.055114
 31
0.0
  0
LINE
  8
1
  6
CONTINUOUS
 62
   250
 10
-0.347017
 20
0.055114
 30
0.0
 11
-0.345313
 21
0.054261
 31
0.0
  0
LINE
  8
1
  6
CONTINUOUS
 62
   250
 10
-0.345313
 20
0.054261
 30
0.0
 11
-0.343608
 21
0.054261
 31
0.0
  0
LINE
  8
1
  6
CONTINUOUS
 62
   250
 10
-0.343608
 20
0.054261
 30
0.0
 11
-0.341904
 21
0.054261
 31
0.0
  0
LINE
  8
1
  6
CONTINUOUS
 62
   250
 10
-0.341904
 20
0.054261
 30
0.0
 11
-0.340199
 21
0.055114
 31
0.0
  0
LINE
  8
1
  6
CONTINUOUS
 62
   250
 10
-0.340199
 20
0.055114
 30
0.0
 11
-0.338778
 21
0.05625
 31
0.0
  0
LINE
  8
1
  6
CONTINUOUS
 62
   250
 10
-0.338778
 20
0.05625
 30
0.0
 11
-0.337642
 21
0.057386
 31
0.0
  0
LINE
  8
1
  6
CONTINUOUS
 62
   250
 10
-0.337642
 20
0.057386
 30
0.0
 11
-0.337074
 21
0.059091
 31
0.0
  0
LINE
  8
1
  6
CONTINUOUS
 62
   250
 10
-0.337074
 20
0.059091
 30
0.0
 11
-0.33679
 21
0.060795
 31
0.0
  0
LINE
  8
1
  6
CONTINUOUS
 62
   250
 10
-0.33679
 20
0.060795
 30
0.0
 11
-0.350143
 21
0.060795
 31
0.0
  0
LINE
  8
1
  6
CONTINUOUS
 62
   250
 10
-0.33679
 20
0.060795
 30
0.0
 11
-0.337074
 21
0.0625
 31
0.0
  0
LINE
  8
1
  6
CONTINUOUS
 62
   250
 10
-0.337074
 20
0.0625
 30
0.0
 11
-0.337642
 21
0.064204
 31
0.0
  0
LINE
  8
1
  6
CONTINUOUS
 62
   250
 10
-0.337642
 20
0.064204
 30
0.0
 11
-0.338778
 21
0.065625
 31
0.0
  0
LINE
  8
1
  6
CONTINUOUS
 62
   250
 10
-0.339347
 20
0.087216
 30
0.0
 11
-0.33963
 21
0.088352
 31
0.0
  0
LINE
  8
1
  6
CONTINUOUS
 62
   250
 10
-0.33963
 20
0.088352
 30
0.0
 11
-0.340483
 21
0.089489
 31
0.0
  0
LINE
  8
1
  6
CONTINUOUS
 62
   250
 10
-0.340483
 20
0.089489
 30
0.0
 11
-0.34162
 21
0.090341
 31
0.0
  0
LINE
  8
1
  6
CONTINUOUS
 62
   250
 10
-0.34162
 20
0.090341
 30
0.0
 11
-0.34304
 21
0.090625
 31
0.0
  0
LINE
  8
1
  6
CONTINUOUS
 62
   250
 10
-0.34304
 20
0.090625
 30
0.0
 11
-0.34446
 21
0.090341
 31
0.0
  0
LINE
  8
1
  6
CONTINUOUS
 62
   250
 10
-0.34446
 20
0.090341
 30
0.0
 11
-0.345313
 21
0.089489
 31
0.0
  0
LINE
  8
1
  6
CONTINUOUS
 62
   250
 10
-0.345313
 20
0.089489
 30
0.0
 11
-0.346165
 21
0.088352
 31
0.0
  0
LINE
  8
1
  6
CONTINUOUS
 62
   250
 10
-0.346165
 20
0.088352
 30
0.0
 11
-0.346449
 21
0.087216
 31
0.0
  0
LINE
  8
1
  6
CONTINUOUS
 62
   250
 10
-0.346449
 20
0.087216
 30
0.0
 11
-0.346165
 21
0.085795
 31
0.0
  0
LINE
  8
1
  6
CONTINUOUS
 62
   250
 10
-0.346165
 20
0.085795
 30
0.0
 11
-0.345313
 21
0.084659
 31
0.0
  0
LINE
  8
1
  6
CONTINUOUS
 62
   250
 10
-0.345313
 20
0.084659
 30
0.0
 11
-0.34446
 21
0.083807
 31
0.0
  0
LINE
  8
1
  6
CONTINUOUS
 62
   250
 10
-0.34446
 20
0.083807
 30
0.0
 11
-0.34304
 21
0.083523
 31
0.0
  0
LINE
  8
1
  6
CONTINUOUS
 62
   250
 10
-0.34304
 20
0.083523
 30
0.0
 11
-0.34162
 21
0.083807
 31
0.0
  0
LINE
  8
1
  6
CONTINUOUS
 62
   250
 10
-0.34162
 20
0.083807
 30
0.0
 11
-0.340483
 21
0.084659
 31
0.0
  0
LINE
  8
1
  6
CONTINUOUS
 62
   250
 10
-0.340483
 20
0.084659
 30
0.0
 11
-0.33963
 21
0.085795
 31
0.0
  0
LINE
  8
1
  6
CONTINUOUS
 62
   250
 10
-0.33963
 20
0.085795
 30
0.0
 11
-0.339347
 21
0.087216
 31
0.0
  0
LINE
  8
1
  6
CONTINUOUS
 62
   250
 10
-0.343608
 20
0.087216
 30
0.0
 11
-0.34446
 21
0.087216
 31
0.0
  0
LINE
  8
1
  6
CONTINUOUS
 62
   250
 10
-0.34446
 20
0.087216
 30
0.0
 11
-0.34446
 21
0.086648
 31
0.0
  0
LINE
  8
1
  6
CONTINUOUS
 62
   250
 10
-0.34446
 20
0.086648
 30
0.0
 11
-0.343608
 21
0.086648
 31
0.0
  0
LINE
  8
1
  6
CONTINUOUS
 62
   250
 10
-0.343608
 20
0.086648
 30
0.0
 11
-0.343892
 21
0.08608
 31
0.0
  0
LINE
  8
1
  6
CONTINUOUS
 62
   250
 10
-0.343892
 20
0.08608
 30
0.0
 11
-0.343325
 21
0.085795
 31
0.0
  0
LINE
  8
1
  6
CONTINUOUS
 62
   250
 10
-0.343325
 20
0.085795
 30
0.0
 11
-0.343325
 21
0.086364
 31
0.0
  0
LINE
  8
1
  6
CONTINUOUS
 62
   250
 10
-0.343325
 20
0.086364
 30
0.0
 11
-0.342472
 21
0.086364
 31
0.0
  0
LINE
  8
1
  6
CONTINUOUS
 62
   250
 10
-0.342472
 20
0.086364
 30
0.0
 11
-0.342472
 21
0.085795
 31
0.0
  0
LINE
  8
1
  6
CONTINUOUS
 62
   250
 10
-0.342472
 20
0.085795
 30
0.0
 11
-0.342472
 21
0.086364
 31
0.0
  0
LINE
  8
1
  6
CONTINUOUS
 62
   250
 10
-0.342472
 20
0.086364
 30
0.0
 11
-0.341904
 21
0.08608
 31
0.0
  0
LINE
  8
1
  6
CONTINUOUS
 62
   250
 10
-0.341904
 20
0.08608
 30
0.0
 11
-0.34162
 21
0.086648
 31
0.0
  0
LINE
  8
1
  6
CONTINUOUS
 62
   250
 10
-0.34162
 20
0.086648
 30
0.0
 11
-0.342472
 21
0.086648
 31
0.0
  0
LINE
  8
1
  6
CONTINUOUS
 62
   250
 10
-0.342472
 20
0.086648
 30
0.0
 11
-0.342472
 21
0.087216
 31
0.0
  0
LINE
  8
1
  6
CONTINUOUS
 62
   250
 10
-0.342472
 20
0.087216
 30
0.0
 11
-0.34162
 21
0.087216
 31
0.0
  0
LINE
  8
1
  6
CONTINUOUS
 62
   250
 10
-0.34162
 20
0.087216
 30
0.0
 11
-0.342472
 21
0.087216
 31
0.0
  0
LINE
  8
1
  6
CONTINUOUS
 62
   250
 10
-0.342472
 20
0.087216
 30
0.0
 11
-0.341904
 21
0.088068
 31
0.0
  0
LINE
  8
1
  6
CONTINUOUS
 62
   250
 10
-0.341904
 20
0.088068
 30
0.0
 11
-0.342472
 21
0.0875
 31
0.0
  0
LINE
  8
1
  6
CONTINUOUS
 62
   250
 10
-0.342472
 20
0.0875
 30
0.0
 11
-0.342472
 21
0.088352
 31
0.0
  0
LINE
  8
1
  6
CONTINUOUS
 62
   250
 10
-0.342472
 20
0.088352
 30
0.0
 11
-0.343325
 21
0.088352
 31
0.0
  0
LINE
  8
1
  6
CONTINUOUS
 62
   250
 10
-0.343325
 20
0.088352
 30
0.0
 11
-0.343325
 21
0.0875
 31
0.0
  0
LINE
  8
1
  6
CONTINUOUS
 62
   250
 10
-0.343325
 20
0.0875
 30
0.0
 11
-0.343892
 21
0.088068
 31
0.0
  0
LINE
  8
1
  6
CONTINUOUS
 62
   250
 10
-0.336506
 20
0.088636
 30
0.0
 11
-0.337074
 21
0.090341
 31
0.0
  0
LINE
  8
1
  6
CONTINUOUS
 62
   250
 10
-0.337074
 20
0.090341
 30
0.0
 11
-0.338211
 21
0.091761
 31
0.0
  0
LINE
  8
1
  6
CONTINUOUS
 62
   250
 10
-0.338211
 20
0.091761
 30
0.0
 11
-0.33963
 21
0.092898
 31
0.0
  0
LINE
  8
1
  6
CONTINUOUS
 62
   250
 10
-0.33963
 20
0.092898
 30
0.0
 11
-0.341335
 21
0.093466
 31
0.0
  0
LINE
  8
1
  6
CONTINUOUS
 62
   250
 10
-0.341335
 20
0.093466
 30
0.0
 11
-0.34304
 21
0.09375
 31
0.0
  0
LINE
  8
1
  6
CONTINUOUS
 62
   250
 10
-0.34304
 20
0.09375
 30
0.0
 11
-0.344744
 21
0.093466
 31
0.0
  0
LINE
  8
1
  6
CONTINUOUS
 62
   250
 10
-0.344744
 20
0.093466
 30
0.0
 11
-0.346449
 21
0.092898
 31
0.0
  0
LINE
  8
1
  6
CONTINUOUS
 62
   250
 10
-0.346449
 20
0.092898
 30
0.0
 11
-0.347586
 21
0.091761
 31
0.0
  0
LINE
  8
1
  6
CONTINUOUS
 62
   250
 10
-0.347586
 20
0.091761
 30
0.0
 11
-0.348722
 21
0.090341
 31
0.0
  0
LINE
  8
1
  6
CONTINUOUS
 62
   250
 10
-0.348722
 20
0.090341
 30
0.0
 11
-0.349574
 21
0.088636
 31
0.0
  0
LINE
  8
1
  6
CONTINUOUS
 62
   250
 10
-0.349574
 20
0.088636
 30
0.0
 11
-0.349574
 21
0.087216
 31
0.0
  0
LINE
  8
1
  6
CONTINUOUS
 62
   250
 10
-0.349574
 20
0.087216
 30
0.0
 11
-0.349574
 21
0.085511
 31
0.0
  0
LINE
  8
1
  6
CONTINUOUS
 62
   250
 10
-0.349574
 20
0.085511
 30
0.0
 11
-0.348722
 21
0.083807
 31
0.0
  0
LINE
  8
1
  6
CONTINUOUS
 62
   250
 10
-0.348722
 20
0.083807
 30
0.0
 11
-0.347586
 21
0.082386
 31
0.0
  0
LINE
  8
1
  6
CONTINUOUS
 62
   250
 10
-0.347586
 20
0.082386
 30
0.0
 11
-0.346449
 21
0.08125
 31
0.0
  0
LINE
  8
1
  6
CONTINUOUS
 62
   250
 10
-0.346449
 20
0.08125
 30
0.0
 11
-0.344744
 21
0.080398
 31
0.0
  0
LINE
  8
1
  6
CONTINUOUS
 62
   250
 10
-0.344744
 20
0.080398
 30
0.0
 11
-0.34304
 21
0.080398
 31
0.0
  0
LINE
  8
1
  6
CONTINUOUS
 62
   250
 10
-0.34304
 20
0.080398
 30
0.0
 11
-0.341335
 21
0.080398
 31
0.0
  0
LINE
  8
1
  6
CONTINUOUS
 62
   250
 10
-0.341335
 20
0.080398
 30
0.0
 11
-0.33963
 21
0.08125
 31
0.0
  0
LINE
  8
1
  6
CONTINUOUS
 62
   250
 10
-0.33963
 20
0.08125
 30
0.0
 11
-0.338211
 21
0.082386
 31
0.0
  0
LINE
  8
1
  6
CONTINUOUS
 62
   250
 10
-0.338211
 20
0.082386
 30
0.0
 11
-0.337074
 21
0.083807
 31
0.0
  0
LINE
  8
1
  6
CONTINUOUS
 62
   250
 10
-0.337074
 20
0.083807
 30
0.0
 11
-0.336506
 21
0.085511
 31
0.0
  0
LINE
  8
1
  6
CONTINUOUS
 62
   250
 10
-0.336506
 20
0.085511
 30
0.0
 11
-0.336221
 21
0.087216
 31
0.0
  0
LINE
  8
1
  6
CONTINUOUS
 62
   250
 10
-0.336221
 20
0.087216
 30
0.0
 11
-0.336506
 21
0.088636
 31
0.0
  0
LINE
  8
1
  6
CONTINUOUS
 62
   250
 10
-0.317188
 20
0.088068
 30
0.0
 11
-0.316619
 21
0.0875
 31
0.0
  0
LINE
  8
1
  6
CONTINUOUS
 62
   250
 10
-0.316619
 20
0.0875
 30
0.0
 11
-0.316619
 21
0.088352
 31
0.0
  0
LINE
  8
1
  6
CONTINUOUS
 62
   250
 10
-0.316619
 20
0.088352
 30
0.0
 11
-0.316904
 21
0.087216
 31
0.0
  0
LINE
  8
1
  6
CONTINUOUS
 62
   250
 10
-0.316904
 20
0.087216
 30
0.0
 11
-0.317756
 21
0.087216
 31
0.0
  0
LINE
  8
1
  6
CONTINUOUS
 62
   250
 10
-0.317756
 20
0.087216
 30
0.0
 11
-0.317756
 21
0.086648
 31
0.0
  0
LINE
  8
1
  6
CONTINUOUS
 62
   250
 10
-0.317756
 20
0.086648
 30
0.0
 11
-0.316904
 21
0.086648
 31
0.0
  0
LINE
  8
1
  6
CONTINUOUS
 62
   250
 10
-0.316904
 20
0.086648
 30
0.0
 11
-0.317188
 21
0.08608
 31
0.0
  0
LINE
  8
1
  6
CONTINUOUS
 62
   250
 10
-0.317188
 20
0.08608
 30
0.0
 11
-0.316619
 21
0.085795
 31
0.0
  0
LINE
  8
1
  6
CONTINUOUS
 62
   250
 10
-0.316619
 20
0.085795
 30
0.0
 11
-0.316619
 21
0.086364
 31
0.0
  0
LINE
  8
1
  6
CONTINUOUS
 62
   250
 10
-0.316619
 20
0.086364
 30
0.0
 11
-0.315767
 21
0.086364
 31
0.0
  0
LINE
  8
1
  6
CONTINUOUS
 62
   250
 10
-0.315767
 20
0.086364
 30
0.0
 11
-0.315767
 21
0.085795
 31
0.0
  0
LINE
  8
1
  6
CONTINUOUS
 62
   250
 10
-0.315767
 20
0.085795
 30
0.0
 11
-0.315767
 21
0.086364
 31
0.0
  0
LINE
  8
1
  6
CONTINUOUS
 62
   250
 10
-0.315767
 20
0.086364
 30
0.0
 11
-0.3152
 21
0.08608
 31
0.0
  0
LINE
  8
1
  6
CONTINUOUS
 62
   250
 10
-0.3152
 20
0.08608
 30
0.0
 11
-0.314915
 21
0.086648
 31
0.0
  0
LINE
  8
1
  6
CONTINUOUS
 62
   250
 10
-0.314915
 20
0.086648
 30
0.0
 11
-0.315483
 21
0.086648
 31
0.0
  0
LINE
  8
1
  6
CONTINUOUS
 62
   250
 10
-0.315483
 20
0.086648
 30
0.0
 11
-0.315483
 21
0.087216
 31
0.0
  0
LINE
  8
1
  6
CONTINUOUS
 62
   250
 10
-0.315483
 20
0.087216
 30
0.0
 11
-0.314915
 21
0.087216
 31
0.0
  0
LINE
  8
1
  6
CONTINUOUS
 62
   250
 10
-0.314915
 20
0.087216
 30
0.0
 11
-0.315483
 21
0.087216
 31
0.0
  0
LINE
  8
1
  6
CONTINUOUS
 62
   250
 10
-0.315483
 20
0.087216
 30
0.0
 11
-0.3152
 21
0.088068
 31
0.0
  0
LINE
  8
1
  6
CONTINUOUS
 62
   250
 10
-0.3152
 20
0.088068
 30
0.0
 11
-0.315767
 21
0.0875
 31
0.0
  0
LINE
  8
1
  6
CONTINUOUS
 62
   250
 10
-0.315767
 20
0.0875
 30
0.0
 11
-0.315767
 21
0.088352
 31
0.0
  0
LINE
  8
1
  6
CONTINUOUS
 62
   250
 10
-0.303552
 20
0.038636
 30
0.0
 11
-0.303552
 21
0.112216
 31
0.0
  0
LINE
  8
1
  6
CONTINUOUS
 62
   250
 10
-0.307244
 20
0.073579
 30
0.0
 11
-0.307244
 21
0.112216
 31
0.0
  0
LINE
  8
1
  6
CONTINUOUS
 62
   250
 10
-0.352131
 20
0.112216
 30
0.0
 11
-0.352131
 21
0.073579
 31
0.0
  0
LINE
  8
1
  6
CONTINUOUS
 62
   250
 10
-0.354688
 20
0.073579
 30
0.0
 11
-0.354688
 21
0.109659
 31
0.0
  0
LINE
  8
1
  6
CONTINUOUS
 62
   250
 10
-0.317188
 20
0.038636
 30
0.0
 11
-0.315483
 21
0.038636
 31
0.0
  0
LINE
  8
1
  6
CONTINUOUS
 62
   250
 10
-0.303552
 20
0.112216
 30
0.0
 11
-0.303552
 21
0.038636
 31
0.0
  0
LINE
  8
1
  6
CONTINUOUS
 62
   250
 10
-0.303552
 20
0.038636
 30
0.0
 11
-0.303552
 21
0.112216
 31
0.0
  0
LINE
  8
1
  6
CONTINUOUS
 62
     7
 10
-0.410654
 20
0.384659
 30
0.0
 11
-0.410654
 21
0.336363
 31
0.0
  0
LINE
  8
1
  6
CONTINUOUS
 62
     7
 10
-0.410654
 20
0.336363
 30
0.0
 11
-0.412074
 21
0.337784
 31
0.0
  0
LINE
  8
1
  6
CONTINUOUS
 62
     7
 10
-0.412074
 20
0.337784
 30
0.0
 11
-0.412074
 21
0.384659
 31
0.0
  0
LINE
  8
1
  6
CONTINUOUS
 62
     7
 10
-0.412642
 20
0.393182
 30
0.0
 11
-0.429404
 21
0.393182
 31
0.0
  0
LINE
  8
1
  6
CONTINUOUS
 62
     7
 10
-0.437642
 20
0.393182
 30
0.0
 11
-0.454404
 21
0.393182
 31
0.0
  0
LINE
  8
1
  6
CONTINUOUS
 62
     7
 10
-0.462643
 20
0.393182
 30
0.0
 11
-0.479403
 21
0.393182
 31
0.0
  0
LINE
  8
1
  6
CONTINUOUS
 62
     7
 10
-0.487926
 20
0.393182
 30
0.0
 11
-0.504404
 21
0.393182
 31
0.0
  0
LINE
  8
1
  6
CONTINUOUS
 62
     7
 10
-0.488778
 20
0.385228
 30
0.0
 11
-0.488778
 21
0.353977
 31
0.0
  0
LINE
  8
1
  6
CONTINUOUS
 62
     7
 10
-0.488778
 20
0.353977
 30
0.0
 11
-0.487359
 21
0.355398
 31
0.0
  0
LINE
  8
1
  6
CONTINUOUS
 62
     7
 10
-0.487359
 20
0.355398
 30
0.0
 11
-0.487359
 21
0.38409
 31
0.0
  0
LINE
  8
1
  6
CONTINUOUS
 62
     7
 10
-0.487359
 20
0.38409
 30
0.0
 11
-0.48679
 21
0.383523
 31
0.0
  0
LINE
  8
1
  6
CONTINUOUS
 62
     7
 10
-0.48679
 20
0.383523
 30
0.0
 11
-0.44162
 21
0.383523
 31
0.0
  0
LINE
  8
1
  6
CONTINUOUS
 62
     7
 10
-0.44162
 20
0.383523
 30
0.0
 11
-0.44162
 21
0.355682
 31
0.0
  0
LINE
  8
1
  6
CONTINUOUS
 62
     7
 10
-0.44162
 20
0.355682
 30
0.0
 11
-0.440199
 21
0.354261
 31
0.0
  0
LINE
  8
1
  6
CONTINUOUS
 62
     7
 10
-0.440199
 20
0.354261
 30
0.0
 11
-0.440199
 21
0.384943
 31
0.0
  0
LINE
  8
1
  6
CONTINUOUS
 62
     7
 10
-0.440199
 20
0.384943
 30
0.0
 11
-0.488495
 21
0.384943
 31
0.0
  0
LINE
  8
1
  6
CONTINUOUS
 62
     7
 10
-0.488495
 20
0.384943
 30
0.0
 11
-0.48679
 21
0.383523
 31
0.0
  0
LINE
  8
1
  6
CONTINUOUS
 62
     7
 10
-0.457813
 20
0.355965
 30
0.0
 11
-0.457813
 21
0.336079
 31
0.0
  0
LINE
  8
1
  6
CONTINUOUS
 62
     7
 10
-0.457813
 20
0.336079
 30
0.0
 11
-0.45696
 21
0.336648
 31
0.0
  0
LINE
  8
1
  6
CONTINUOUS
 62
     7
 10
-0.45696
 20
0.336648
 30
0.0
 11
-0.411221
 21
0.336648
 31
0.0
  0
LINE
  8
1
  6
CONTINUOUS
 62
     7
 10
-0.412359
 20
0.338068
 30
0.0
 11
-0.455825
 21
0.338068
 31
0.0
  0
LINE
  8
1
  6
CONTINUOUS
 62
     7
 10
-0.455825
 20
0.338068
 30
0.0
 11
-0.45696
 21
0.336648
 31
0.0
  0
LINE
  8
1
  6
CONTINUOUS
 62
     7
 10
-0.45696
 20
0.336648
 30
0.0
 11
-0.456392
 21
0.337215
 31
0.0
  0
LINE
  8
1
  6
CONTINUOUS
 62
     7
 10
-0.456392
 20
0.337215
 30
0.0
 11
-0.456392
 21
0.354546
 31
0.0
  0
LINE
  8
1
  6
CONTINUOUS
 62
     7
 10
-0.456392
 20
0.354546
 30
0.0
 11
-0.457813
 21
0.355965
 31
0.0
  0
LINE
  8
1
  6
CONTINUOUS
 62
     7
 10
-0.457813
 20
0.355965
 30
0.0
 11
-0.457244
 21
0.355398
 31
0.0
  0
LINE
  8
1
  6
CONTINUOUS
 62
     7
 10
-0.457244
 20
0.355398
 30
0.0
 11
-0.455825
 21
0.353977
 31
0.0
  0
LINE
  8
1
  6
CONTINUOUS
 62
     7
 10
-0.455825
 20
0.353977
 30
0.0
 11
-0.440199
 21
0.353977
 31
0.0
  0
LINE
  8
1
  6
CONTINUOUS
 62
     7
 10
-0.441336
 20
0.355398
 30
0.0
 11
-0.457244
 21
0.355398
 31
0.0
  0
LINE
  8
1
  6
CONTINUOUS
 62
     7
 10
-0.454972
 20
0.353409
 30
0.0
 11
-0.454972
 21
0.338636
 31
0.0
  0
LINE
  8
1
  6
CONTINUOUS
 62
     7
 10
-0.454972
 20
0.338636
 30
0.0
 11
-0.456392
 21
0.337215
 31
0.0
  0
LINE
  8
1
  6
CONTINUOUS
 62
     7
 10
-0.40412
 20
0.393182
 30
0.0
 11
-0.387358
 21
0.393182
 31
0.0
  0
LINE
  8
1
  6
CONTINUOUS
 62
     7
 10
-0.37912
 20
0.393182
 30
0.0
 11
-0.362358
 21
0.393182
 31
0.0
  0
LINE
  8
1
  6
CONTINUOUS
 62
     7
 10
-0.354119
 20
0.393182
 30
0.0
 11
-0.337359
 21
0.393182
 31
0.0
  0
LINE
  8
1
  6
CONTINUOUS
 62
     7
 10
-0.328836
 20
0.393182
 30
0.0
 11
-0.312358
 21
0.393182
 31
0.0
  0
LINE
  8
1
  6
CONTINUOUS
 62
     7
 10
-0.303835
 20
0.393182
 30
0.0
 11
-0.287075
 21
0.393182
 31
0.0
  0
LINE
  8
1
  6
CONTINUOUS
 62
     7
 10
-0.278835
 20
0.393182
 30
0.0
 11
-0.260938
 21
0.393182
 31
0.0
  0
LINE
  8
1
  6
CONTINUOUS
 62
     7
 10
-0.415483
 20
0.42642
 30
0.0
 11
-0.506961
 21
0.42642
 31
0.0
  0
LINE
  8
1
  6
CONTINUOUS
 62
     7
 10
-0.506961
 20
0.42642
 30
0.0
 11
-0.506961
 21
0.464204
 31
0.0
  0
LINE
  8
1
  6
CONTINUOUS
 62
     7
 10
-0.506961
 20
0.464204
 30
0.0
 11
-0.415483
 21
0.465625
 31
0.0
  0
LINE
  8
1
  6
CONTINUOUS
 62
     7
 10
-0.415483
 20
0.462499
 30
0.0
 11
-0.506961
 21
0.460795
 31
0.0
  0
LINE
  8
1
  6
CONTINUOUS
 62
     7
 10
-0.506961
 20
0.446023
 30
0.0
 11
-0.519745
 21
0.44517
 31
0.0
  0
LINE
  8
1
  6
CONTINUOUS
 62
     7
 10
-0.519745
 20
0.44517
 30
0.0
 11
-0.525995
 21
0.434091
 31
0.0
  0
LINE
  8
1
  6
CONTINUOUS
 62
     7
 10
-0.279119
 20
0.335796
 30
0.0
 11
-0.28054
 21
0.336932
 31
0.0
  0
LINE
  8
1
  6
CONTINUOUS
 62
     7
 10
-0.28054
 20
0.336932
 30
0.0
 11
-0.28054
 21
0.384659
 31
0.0
  0
LINE
  8
1
  6
CONTINUOUS
 62
     7
 10
-0.28054
 20
0.384659
 30
0.0
 11
-0.281961
 21
0.384659
 31
0.0
  0
LINE
  8
1
  6
CONTINUOUS
 62
     7
 10
-0.281961
 20
0.384659
 30
0.0
 11
-0.281961
 21
0.338353
 31
0.0
  0
LINE
  8
1
  6
CONTINUOUS
 62
     7
 10
-0.281961
 20
0.338353
 30
0.0
 11
-0.281676
 21
0.338068
 31
0.0
  0
LINE
  8
1
  6
CONTINUOUS
 62
     7
 10
-0.281676
 20
0.338068
 30
0.0
 11
-0.324858
 21
0.338068
 31
0.0
  0
LINE
  8
1
  6
CONTINUOUS
 62
     7
 10
-0.324858
 20
0.338068
 30
0.0
 11
-0.325994
 21
0.336648
 31
0.0
  0
LINE
  8
1
  6
CONTINUOUS
 62
     7
 10
-0.325994
 20
0.336648
 30
0.0
 11
-0.280256
 21
0.336648
 31
0.0
  0
LINE
  8
1
  6
CONTINUOUS
 62
     7
 10
-0.279119
 20
0.335796
 30
0.0
 11
-0.327131
 21
0.335796
 31
0.0
  0
LINE
  8
1
  6
CONTINUOUS
 62
     7
 10
-0.327131
 20
0.335796
 30
0.0
 11
-0.323722
 21
0.33892
 31
0.0
  0
LINE
  8
1
  6
CONTINUOUS
 62
     7
 10
-0.323722
 20
0.33892
 30
0.0
 11
-0.282528
 21
0.33892
 31
0.0
  0
LINE
  8
1
  6
CONTINUOUS
 62
     7
 10
-0.282528
 20
0.33892
 30
0.0
 11
-0.279119
 21
0.335796
 31
0.0
  0
LINE
  8
1
  6
CONTINUOUS
 62
     7
 10
-0.279119
 20
0.335796
 30
0.0
 11
-0.282528
 21
0.33892
 31
0.0
  0
LINE
  8
1
  6
CONTINUOUS
 62
     7
 10
-0.282528
 20
0.33892
 30
0.0
 11
-0.282528
 21
0.384659
 31
0.0
  0
LINE
  8
1
  6
CONTINUOUS
 62
     7
 10
-0.282528
 20
0.384659
 30
0.0
 11
-0.279119
 21
0.384659
 31
0.0
  0
LINE
  8
1
  6
CONTINUOUS
 62
     7
 10
-0.279119
 20
0.384659
 30
0.0
 11
-0.279119
 21
0.335796
 31
0.0
  0
LINE
  8
1
  6
CONTINUOUS
 62
     7
 10
-0.279119
 20
0.335796
 30
0.0
 11
-0.279119
 21
0.384659
 31
0.0
  0
LINE
  8
1
  6
CONTINUOUS
 62
     7
 10
-0.260938
 20
0.393182
 30
0.0
 11
-0.260938
 21
0.407387
 31
0.0
  0
LINE
  8
1
  6
CONTINUOUS
 62
     7
 10
-0.260938
 20
0.415909
 30
0.0
 11
-0.260938
 21
0.432386
 31
0.0
  0
LINE
  8
1
  6
CONTINUOUS
 62
     7
 10
-0.260938
 20
0.440909
 30
0.0
 11
-0.260938
 21
0.457671
 31
0.0
  0
LINE
  8
1
  6
CONTINUOUS
 62
     7
 10
-0.260938
 20
0.465909
 30
0.0
 11
-0.260938
 21
0.48267
 31
0.0
  0
LINE
  8
1
  6
CONTINUOUS
 62
     7
 10
-0.260938
 20
0.490909
 30
0.0
 11
-0.260938
 21
0.50767
 31
0.0
  0
LINE
  8
1
  6
CONTINUOUS
 62
     7
 10
-0.260938
 20
0.516193
 30
0.0
 11
-0.260938
 21
0.530398
 31
0.0
  0
LINE
  8
1
  6
CONTINUOUS
 62
     7
 10
-0.283097
 20
0.465625
 30
0.0
 11
-0.283097
 21
0.42642
 31
0.0
  0
LINE
  8
1
  6
CONTINUOUS
 62
     7
 10
-0.283097
 20
0.42642
 30
0.0
 11
-0.374574
 21
0.42642
 31
0.0
  0
LINE
  8
1
  6
CONTINUOUS
 62
     7
 10
-0.374574
 20
0.42642
 30
0.0
 11
-0.374574
 21
0.464204
 31
0.0
  0
LINE
  8
1
  6
CONTINUOUS
 62
     7
 10
-0.415483
 20
0.465625
 30
0.0
 11
-0.415483
 21
0.42642
 31
0.0
  0
LINE
  8
1
  6
CONTINUOUS
 62
     7
 10
-0.387358
 20
0.384659
 30
0.0
 11
-0.384234
 21
0.384659
 31
0.0
  0
LINE
  8
1
  6
CONTINUOUS
 62
     7
 10
-0.384234
 20
0.384659
 30
0.0
 11
-0.384234
 21
0.33892
 31
0.0
  0
LINE
  8
1
  6
CONTINUOUS
 62
     7
 10
-0.384234
 20
0.33892
 30
0.0
 11
-0.387358
 21
0.335796
 31
0.0
  0
LINE
  8
1
  6
CONTINUOUS
 62
     7
 10
-0.387358
 20
0.335796
 30
0.0
 11
-0.384234
 21
0.33892
 31
0.0
  0
LINE
  8
1
  6
CONTINUOUS
 62
     7
 10
-0.384234
 20
0.33892
 30
0.0
 11
-0.342756
 21
0.33892
 31
0.0
  0
LINE
  8
1
  6
CONTINUOUS
 62
     7
 10
-0.342756
 20
0.33892
 30
0.0
 11
-0.33963
 21
0.335796
 31
0.0
  0
LINE
  8
1
  6
CONTINUOUS
 62
     7
 10
-0.33963
 20
0.335796
 30
0.0
 11
-0.341051
 21
0.336932
 31
0.0
  0
LINE
  8
1
  6
CONTINUOUS
 62
     7
 10
-0.341051
 20
0.336932
 30
0.0
 11
-0.341051
 21
0.354829
 31
0.0
  0
LINE
  8
1
  6
CONTINUOUS
 62
     7
 10
-0.341051
 20
0.354829
 30
0.0
 11
-0.342472
 21
0.353694
 31
0.0
  0
LINE
  8
1
  6
CONTINUOUS
 62
     7
 10
-0.342472
 20
0.353694
 30
0.0
 11
-0.342472
 21
0.338353
 31
0.0
  0
LINE
  8
1
  6
CONTINUOUS
 62
     7
 10
-0.342472
 20
0.338353
 30
0.0
 11
-0.341904
 21
0.338068
 31
0.0
  0
LINE
  8
1
  6
CONTINUOUS
 62
     7
 10
-0.341904
 20
0.338068
 30
0.0
 11
-0.385086
 21
0.338068
 31
0.0
  0
LINE
  8
1
  6
CONTINUOUS
 62
     7
 10
-0.385086
 20
0.338068
 30
0.0
 11
-0.386505
 21
0.336648
 31
0.0
  0
LINE
  8
1
  6
CONTINUOUS
 62
     7
 10
-0.386505
 20
0.336648
 30
0.0
 11
-0.340483
 21
0.336648
 31
0.0
  0
LINE
  8
1
  6
CONTINUOUS
 62
     7
 10
-0.33963
 20
0.335796
 30
0.0
 11
-0.387358
 21
0.335796
 31
0.0
  0
LINE
  8
1
  6
CONTINUOUS
 62
     7
 10
-0.387358
 20
0.335796
 30
0.0
 11
-0.387358
 21
0.384659
 31
0.0
  0
LINE
  8
1
  6
CONTINUOUS
 62
     7
 10
-0.387358
 20
0.384659
 30
0.0
 11
-0.386505
 21
0.384659
 31
0.0
  0
LINE
  8
1
  6
CONTINUOUS
 62
     7
 10
-0.386505
 20
0.384659
 30
0.0
 11
-0.386505
 21
0.336648
 31
0.0
  0
LINE
  8
1
  6
CONTINUOUS
 62
     7
 10
-0.386505
 20
0.336648
 30
0.0
 11
-0.38537
 21
0.337784
 31
0.0
  0
LINE
  8
1
  6
CONTINUOUS
 62
     7
 10
-0.38537
 20
0.337784
 30
0.0
 11
-0.38537
 21
0.384659
 31
0.0
  0
LINE
  8
1
  6
CONTINUOUS
 62
     7
 10
-0.357245
 20
0.384943
 30
0.0
 11
-0.356109
 21
0.383523
 31
0.0
  0
LINE
  8
1
  6
CONTINUOUS
 62
     7
 10
-0.356109
 20
0.383523
 30
0.0
 11
-0.310653
 21
0.383523
 31
0.0
  0
LINE
  8
1
  6
CONTINUOUS
 62
     7
 10
-0.310653
 20
0.383523
 30
0.0
 11
-0.311222
 21
0.382954
 31
0.0
  0
LINE
  8
1
  6
CONTINUOUS
 62
     7
 10
-0.311222
 20
0.382954
 30
0.0
 11
-0.35554
 21
0.382954
 31
0.0
  0
LINE
  8
1
  6
CONTINUOUS
 62
     7
 10
-0.35554
 20
0.382954
 30
0.0
 11
-0.358666
 21
0.38608
 31
0.0
  0
LINE
  8
1
  6
CONTINUOUS
 62
     7
 10
-0.358666
 20
0.38608
 30
0.0
 11
-0.308096
 21
0.38608
 31
0.0
  0
LINE
  8
1
  6
CONTINUOUS
 62
     7
 10
-0.308096
 20
0.38608
 30
0.0
 11
-0.311222
 21
0.382954
 31
0.0
  0
LINE
  8
1
  6
CONTINUOUS
 62
     7
 10
-0.311222
 20
0.382954
 30
0.0
 11
-0.308096
 21
0.38608
 31
0.0
  0
LINE
  8
1
  6
CONTINUOUS
 62
     7
 10
-0.308096
 20
0.38608
 30
0.0
 11
-0.308096
 21
0.353125
 31
0.0
  0
LINE
  8
1
  6
CONTINUOUS
 62
     7
 10
-0.308096
 20
0.353125
 30
0.0
 11
-0.311222
 21
0.35625
 31
0.0
  0
LINE
  8
1
  6
CONTINUOUS
 62
     7
 10
-0.311222
 20
0.35625
 30
0.0
 11
-0.308096
 21
0.353125
 31
0.0
  0
LINE
  8
1
  6
CONTINUOUS
 62
     7
 10
-0.308096
 20
0.353125
 30
0.0
 11
-0.323722
 21
0.353125
 31
0.0
  0
LINE
  8
1
  6
CONTINUOUS
 62
     7
 10
-0.323722
 20
0.353125
 30
0.0
 11
-0.327131
 21
0.35625
 31
0.0
  0
LINE
  8
1
  6
CONTINUOUS
 62
     7
 10
-0.327131
 20
0.35625
 30
0.0
 11
-0.323722
 21
0.353125
 31
0.0
  0
LINE
  8
1
  6
CONTINUOUS
 62
     7
 10
-0.323722
 20
0.353125
 30
0.0
 11
-0.323722
 21
0.33892
 31
0.0
  0
LINE
  8
1
  6
CONTINUOUS
 62
     7
 10
-0.323722
 20
0.33892
 30
0.0
 11
-0.327131
 21
0.335796
 31
0.0
  0
LINE
  8
1
  6
CONTINUOUS
 62
     7
 10
-0.327131
 20
0.335796
 30
0.0
 11
-0.327131
 21
0.35625
 31
0.0
  0
LINE
  8
1
  6
CONTINUOUS
 62
     7
 10
-0.327131
 20
0.35625
 30
0.0
 11
-0.311222
 21
0.35625
 31
0.0
  0
LINE
  8
1
  6
CONTINUOUS
 62
     7
 10
-0.311222
 20
0.35625
 30
0.0
 11
-0.311222
 21
0.382954
 31
0.0
  0
LINE
  8
1
  6
CONTINUOUS
 62
     7
 10
-0.310086
 20
0.38409
 30
0.0
 11
-0.310086
 21
0.355113
 31
0.0
  0
LINE
  8
1
  6
CONTINUOUS
 62
     7
 10
-0.310086
 20
0.355113
 30
0.0
 11
-0.308665
 21
0.353694
 31
0.0
  0
LINE
  8
1
  6
CONTINUOUS
 62
     7
 10
-0.308665
 20
0.353694
 30
0.0
 11
-0.308665
 21
0.385511
 31
0.0
  0
LINE
  8
1
  6
CONTINUOUS
 62
     7
 10
-0.308665
 20
0.385511
 30
0.0
 11
-0.309234
 21
0.384943
 31
0.0
  0
LINE
  8
1
  6
CONTINUOUS
 62
     7
 10
-0.309234
 20
0.384943
 30
0.0
 11
-0.357245
 21
0.384943
 31
0.0
  0
LINE
  8
1
  6
CONTINUOUS
 62
     7
 10
-0.357245
 20
0.384943
 30
0.0
 11
-0.357245
 21
0.384659
 31
0.0
  0
LINE
  8
1
  6
CONTINUOUS
 62
     7
 10
-0.357245
 20
0.384659
 30
0.0
 11
-0.358381
 21
0.38608
 31
0.0
  0
LINE
  8
1
  6
CONTINUOUS
 62
     7
 10
-0.358381
 20
0.38608
 30
0.0
 11
-0.358381
 21
0.353125
 31
0.0
  0
LINE
  8
1
  6
CONTINUOUS
 62
     7
 10
-0.358381
 20
0.353125
 30
0.0
 11
-0.358666
 21
0.353125
 31
0.0
  0
LINE
  8
1
  6
CONTINUOUS
 62
     7
 10
-0.358666
 20
0.353125
 30
0.0
 11
-0.358666
 21
0.38608
 31
0.0
  0
LINE
  8
1
  6
CONTINUOUS
 62
     7
 10
-0.358666
 20
0.38608
 30
0.0
 11
-0.35554
 21
0.382954
 31
0.0
  0
LINE
  8
1
  6
CONTINUOUS
 62
     7
 10
-0.35554
 20
0.382954
 30
0.0
 11
-0.35554
 21
0.35625
 31
0.0
  0
LINE
  8
1
  6
CONTINUOUS
 62
     7
 10
-0.35554
 20
0.35625
 30
0.0
 11
-0.358666
 21
0.353125
 31
0.0
  0
LINE
  8
1
  6
CONTINUOUS
 62
     7
 10
-0.358666
 20
0.353125
 30
0.0
 11
-0.35554
 21
0.35625
 31
0.0
  0
LINE
  8
1
  6
CONTINUOUS
 62
     7
 10
-0.35554
 20
0.35625
 30
0.0
 11
-0.33963
 21
0.35625
 31
0.0
  0
LINE
  8
1
  6
CONTINUOUS
 62
     7
 10
-0.33963
 20
0.35625
 30
0.0
 11
-0.342756
 21
0.353125
 31
0.0
  0
LINE
  8
1
  6
CONTINUOUS
 62
     7
 10
-0.342756
 20
0.353125
 30
0.0
 11
-0.358666
 21
0.353125
 31
0.0
  0
LINE
  8
1
  6
CONTINUOUS
 62
     7
 10
-0.357528
 20
0.353977
 30
0.0
 11
-0.341904
 21
0.353977
 31
0.0
  0
LINE
  8
1
  6
CONTINUOUS
 62
     7
 10
-0.342756
 20
0.353125
 30
0.0
 11
-0.33963
 21
0.35625
 31
0.0
  0
LINE
  8
1
  6
CONTINUOUS
 62
     7
 10
-0.33963
 20
0.35625
 30
0.0
 11
-0.33963
 21
0.335796
 31
0.0
  0
LINE
  8
1
  6
CONTINUOUS
 62
     7
 10
-0.33963
 20
0.335796
 30
0.0
 11
-0.342756
 21
0.33892
 31
0.0
  0
LINE
  8
1
  6
CONTINUOUS
 62
     7
 10
-0.342756
 20
0.33892
 30
0.0
 11
-0.342756
 21
0.353125
 31
0.0
  0
LINE
  8
1
  6
CONTINUOUS
 62
     7
 10
-0.340483
 20
0.355398
 30
0.0
 11
-0.356392
 21
0.355398
 31
0.0
  0
LINE
  8
1
  6
CONTINUOUS
 62
     7
 10
-0.356392
 20
0.355398
 30
0.0
 11
-0.357528
 21
0.353977
 31
0.0
  0
LINE
  8
1
  6
CONTINUOUS
 62
     7
 10
-0.357528
 20
0.353977
 30
0.0
 11
-0.357245
 21
0.354546
 31
0.0
  0
LINE
  8
1
  6
CONTINUOUS
 62
     7
 10
-0.357245
 20
0.354546
 30
0.0
 11
-0.357245
 21
0.384659
 31
0.0
  0
LINE
  8
1
  6
CONTINUOUS
 62
     7
 10
-0.355824
 20
0.383238
 30
0.0
 11
-0.355824
 21
0.355965
 31
0.0
  0
LINE
  8
1
  6
CONTINUOUS
 62
     7
 10
-0.355824
 20
0.355965
 30
0.0
 11
-0.357245
 21
0.354546
 31
0.0
  0
LINE
  8
1
  6
CONTINUOUS
 62
     7
 10
-0.33963
 20
0.35625
 30
0.0
 11
-0.33963
 21
0.335796
 31
0.0
  0
LINE
  8
1
  6
CONTINUOUS
 62
     7
 10
-0.326279
 20
0.336648
 30
0.0
 11
-0.326279
 21
0.355398
 31
0.0
  0
LINE
  8
1
  6
CONTINUOUS
 62
     7
 10
-0.326279
 20
0.355398
 30
0.0
 11
-0.324858
 21
0.353977
 31
0.0
  0
LINE
  8
1
  6
CONTINUOUS
 62
     7
 10
-0.324858
 20
0.353977
 30
0.0
 11
-0.309234
 21
0.353977
 31
0.0
  0
LINE
  8
1
  6
CONTINUOUS
 62
     7
 10
-0.31037
 20
0.355398
 30
0.0
 11
-0.326279
 21
0.355398
 31
0.0
  0
LINE
  8
1
  6
CONTINUOUS
 62
     7
 10
-0.324858
 20
0.353977
 30
0.0
 11
-0.324858
 21
0.337784
 31
0.0
  0
LINE
  8
1
  6
CONTINUOUS
 62
     7
 10
-0.324858
 20
0.337784
 30
0.0
 11
-0.326279
 21
0.336648
 31
0.0
  0
LINE
  8
1
  6
CONTINUOUS
 62
   250
 10
-0.37912
 20
0.30625
 30
0.0
 11
-0.37912
 21
0.279829
 31
0.0
  0
LINE
  8
1
  6
CONTINUOUS
 62
   250
 10
-0.37912
 20
0.279829
 30
0.0
 11
-0.383096
 21
0.279829
 31
0.0
  0
LINE
  8
1
  6
CONTINUOUS
 62
   250
 10
-0.383096
 20
0.279829
 30
0.0
 11
-0.383381
 21
0.280113
 31
0.0
  0
LINE
  8
1
  6
CONTINUOUS
 62
   250
 10
-0.383381
 20
0.280113
 30
0.0
 11
-0.383381
 21
0.281818
 31
0.0
  0
LINE
  8
1
  6
CONTINUOUS
 62
   250
 10
-0.383381
 20
0.281818
 30
0.0
 11
-0.381677
 21
0.282955
 31
0.0
  0
LINE
  8
1
  6
CONTINUOUS
 62
   250
 10
-0.381677
 20
0.282955
 30
0.0
 11
-0.381677
 21
0.287216
 31
0.0
  0
LINE
  8
1
  6
CONTINUOUS
 62
   250
 10
-0.381677
 20
0.287216
 30
0.0
 11
-0.382529
 21
0.287784
 31
0.0
  0
LINE
  8
1
  6
CONTINUOUS
 62
   250
 10
-0.382529
 20
0.287784
 30
0.0
 11
-0.382529
 21
0.289204
 31
0.0
  0
LINE
  8
1
  6
CONTINUOUS
 62
   250
 10
-0.382529
 20
0.289204
 30
0.0
 11
-0.383096
 21
0.289488
 31
0.0
  0
LINE
  8
1
  6
CONTINUOUS
 62
   250
 10
-0.383096
 20
0.289488
 30
0.0
 11
-0.383949
 21
0.289488
 31
0.0
  0
LINE
  8
1
  6
CONTINUOUS
 62
   250
 10
-0.383949
 20
0.289488
 30
0.0
 11
-0.384517
 21
0.289204
 31
0.0
  0
LINE
  8
1
  6
CONTINUOUS
 62
   250
 10
-0.384517
 20
0.289204
 30
0.0
 11
-0.384517
 21
0.285795
 31
0.0
  0
LINE
  8
1
  6
CONTINUOUS
 62
   250
 10
-0.384517
 20
0.285795
 30
0.0
 11
-0.387074
 21
0.284091
 31
0.0
  0
LINE
  8
1
  6
CONTINUOUS
 62
   250
 10
-0.387074
 20
0.284091
 30
0.0
 11
-0.387643
 21
0.284091
 31
0.0
  0
LINE
  8
1
  6
CONTINUOUS
 62
   250
 10
-0.387643
 20
0.284091
 30
0.0
 11
-0.387643
 21
0.28125
 31
0.0
  0
LINE
  8
1
  6
CONTINUOUS
 62
   250
 10
-0.387643
 20
0.28125
 30
0.0
 11
-0.38537
 21
0.28125
 31
0.0
  0
LINE
  8
1
  6
CONTINUOUS
 62
   250
 10
-0.38537
 20
0.28125
 30
0.0
 11
-0.384517
 21
0.283522
 31
0.0
  0
LINE
  8
1
  6
CONTINUOUS
 62
   250
 10
-0.384517
 20
0.283522
 30
0.0
 11
-0.384234
 21
0.283522
 31
0.0
  0
LINE
  8
1
  6
CONTINUOUS
 62
   250
 10
-0.384234
 20
0.283522
 30
0.0
 11
-0.384234
 21
0.280398
 31
0.0
  0
LINE
  8
1
  6
CONTINUOUS
 62
   250
 10
-0.384234
 20
0.280398
 30
0.0
 11
-0.388779
 21
0.280398
 31
0.0
  0
LINE
  8
1
  6
CONTINUOUS
 62
   250
 10
-0.388779
 20
0.280398
 30
0.0
 11
-0.389062
 21
0.277556
 31
0.0
  0
LINE
  8
1
  6
CONTINUOUS
 62
   250
 10
-0.389062
 20
0.277556
 30
0.0
 11
-0.381392
 21
0.277556
 31
0.0
  0
LINE
  8
1
  6
CONTINUOUS
 62
   250
 10
-0.381392
 20
0.277556
 30
0.0
 11
-0.381392
 21
0.278977
 31
0.0
  0
LINE
  8
1
  6
CONTINUOUS
 62
   250
 10
-0.381392
 20
0.278977
 30
0.0
 11
-0.382529
 21
0.278977
 31
0.0
  0
LINE
  8
1
  6
CONTINUOUS
 62
   250
 10
-0.382529
 20
0.278977
 30
0.0
 11
-0.383381
 21
0.280113
 31
0.0
  0
LINE
  8
1
  6
CONTINUOUS
 62
   250
 10
-0.383381
 20
0.280113
 30
0.0
 11
-0.383096
 21
0.280113
 31
0.0
  0
LINE
  8
1
  6
CONTINUOUS
 62
   250
 10
-0.383096
 20
0.280113
 30
0.0
 11
-0.37912
 21
0.280113
 31
0.0
  0
LINE
  8
1
  6
CONTINUOUS
 62
   250
 10
-0.37912
 20
0.280113
 30
0.0
 11
-0.379404
 21
0.279829
 31
0.0
  0
LINE
  8
1
  6
CONTINUOUS
 62
   250
 10
-0.379404
 20
0.279829
 30
0.0
 11
-0.379404
 21
0.30625
 31
0.0
  0
LINE
  8
1
  6
CONTINUOUS
 62
   250
 10
-0.379404
 20
0.30625
 30
0.0
 11
-0.37912
 21
0.30625
 31
0.0
  0
LINE
  8
1
  6
CONTINUOUS
 62
   250
 10
-0.37912
 20
0.30625
 30
0.0
 11
-0.407245
 21
0.30625
 31
0.0
  0
LINE
  8
1
  6
CONTINUOUS
 62
   250
 10
-0.407245
 20
0.30625
 30
0.0
 11
-0.407245
 21
0.279829
 31
0.0
  0
LINE
  8
1
  6
CONTINUOUS
 62
   250
 10
-0.407245
 20
0.279829
 30
0.0
 11
-0.403551
 21
0.279829
 31
0.0
  0
LINE
  8
1
  6
CONTINUOUS
 62
   250
 10
-0.403551
 20
0.279829
 30
0.0
 11
-0.403551
 21
0.280113
 31
0.0
  0
LINE
  8
1
  6
CONTINUOUS
 62
   250
 10
-0.403551
 20
0.280113
 30
0.0
 11
-0.407245
 21
0.280113
 31
0.0
  0
LINE
  8
1
  6
CONTINUOUS
 62
   250
 10
-0.407245
 20
0.280113
 30
0.0
 11
-0.406676
 21
0.279829
 31
0.0
  0
LINE
  8
1
  6
CONTINUOUS
 62
   250
 10
-0.406676
 20
0.279829
 30
0.0
 11
-0.406676
 21
0.30625
 31
0.0
  0
LINE
  8
1
  6
CONTINUOUS
 62
   250
 10
-0.406676
 20
0.30625
 30
0.0
 11
-0.407245
 21
0.305966
 31
0.0
  0
LINE
  8
1
  6
CONTINUOUS
 62
   250
 10
-0.407245
 20
0.305966
 30
0.0
 11
-0.37912
 21
0.305966
 31
0.0
  0
LINE
  8
1
  6
CONTINUOUS
 62
   250
 10
-0.387074
 20
0.299148
 30
0.0
 11
-0.388779
 21
0.300284
 31
0.0
  0
LINE
  8
1
  6
CONTINUOUS
 62
   250
 10
-0.388779
 20
0.300284
 30
0.0
 11
-0.391052
 21
0.301136
 31
0.0
  0
LINE
  8
1
  6
CONTINUOUS
 62
   250
 10
-0.391052
 20
0.301136
 30
0.0
 11
-0.393324
 21
0.30142
 31
0.0
  0
LINE
  8
1
  6
CONTINUOUS
 62
   250
 10
-0.393324
 20
0.30142
 30
0.0
 11
-0.395313
 21
0.301136
 31
0.0
  0
LINE
  8
1
  6
CONTINUOUS
 62
   250
 10
-0.395313
 20
0.301136
 30
0.0
 11
-0.397302
 21
0.300284
 31
0.0
  0
LINE
  8
1
  6
CONTINUOUS
 62
   250
 10
-0.397302
 20
0.300284
 30
0.0
 11
-0.399006
 21
0.299148
 31
0.0
  0
LINE
  8
1
  6
CONTINUOUS
 62
   250
 10
-0.399006
 20
0.299148
 30
0.0
 11
-0.400427
 21
0.297444
 31
0.0
  0
LINE
  8
1
  6
CONTINUOUS
 62
   250
 10
-0.400427
 20
0.297444
 30
0.0
 11
-0.401279
 21
0.29517
 31
0.0
  0
LINE
  8
1
  6
CONTINUOUS
 62
   250
 10
-0.401279
 20
0.29517
 30
0.0
 11
-0.401563
 21
0.292897
 31
0.0
  0
LINE
  8
1
  6
CONTINUOUS
 62
   250
 10
-0.401563
 20
0.292897
 30
0.0
 11
-0.401279
 21
0.290909
 31
0.0
  0
LINE
  8
1
  6
CONTINUOUS
 62
   250
 10
-0.401279
 20
0.290909
 30
0.0
 11
-0.400427
 21
0.288921
 31
0.0
  0
LINE
  8
1
  6
CONTINUOUS
 62
   250
 10
-0.400427
 20
0.288921
 30
0.0
 11
-0.399006
 21
0.287216
 31
0.0
  0
LINE
  8
1
  6
CONTINUOUS
 62
   250
 10
-0.399006
 20
0.287216
 30
0.0
 11
-0.397302
 21
0.285795
 31
0.0
  0
LINE
  8
1
  6
CONTINUOUS
 62
   250
 10
-0.397302
 20
0.285795
 30
0.0
 11
-0.395313
 21
0.284943
 31
0.0
  0
LINE
  8
1
  6
CONTINUOUS
 62
   250
 10
-0.395313
 20
0.284943
 30
0.0
 11
-0.393324
 21
0.284659
 31
0.0
  0
LINE
  8
1
  6
CONTINUOUS
 62
   250
 10
-0.393324
 20
0.284659
 30
0.0
 11
-0.391052
 21
0.284943
 31
0.0
  0
LINE
  8
1
  6
CONTINUOUS
 62
   250
 10
-0.391052
 20
0.284943
 30
0.0
 11
-0.388779
 21
0.285795
 31
0.0
  0
LINE
  8
1
  6
CONTINUOUS
 62
   250
 10
-0.388779
 20
0.285795
 30
0.0
 11
-0.387074
 21
0.287216
 31
0.0
  0
LINE
  8
1
  6
CONTINUOUS
 62
   250
 10
-0.387074
 20
0.287216
 30
0.0
 11
-0.385938
 21
0.288921
 31
0.0
  0
LINE
  8
1
  6
CONTINUOUS
 62
   250
 10
-0.385938
 20
0.288921
 30
0.0
 11
-0.385086
 21
0.290909
 31
0.0
  0
LINE
  8
1
  6
CONTINUOUS
 62
   250
 10
-0.385086
 20
0.290909
 30
0.0
 11
-0.384801
 21
0.292897
 31
0.0
  0
LINE
  8
1
  6
CONTINUOUS
 62
   250
 10
-0.384801
 20
0.292897
 30
0.0
 11
-0.385086
 21
0.29517
 31
0.0
  0
LINE
  8
1
  6
CONTINUOUS
 62
   250
 10
-0.385086
 20
0.29517
 30
0.0
 11
-0.385938
 21
0.297444
 31
0.0
  0
LINE
  8
1
  6
CONTINUOUS
 62
   250
 10
-0.385938
 20
0.297444
 30
0.0
 11
-0.387074
 21
0.299148
 31
0.0
  0
LINE
  8
1
  6
CONTINUOUS
 62
   250
 10
-0.387074
 20
0.299148
 30
0.0
 11
-0.387358
 21
0.298863
 31
0.0
  0
LINE
  8
1
  6
CONTINUOUS
 62
   250
 10
-0.387358
 20
0.298863
 30
0.0
 11
-0.389062
 21
0.3
 31
0.0
  0
LINE
  8
1
  6
CONTINUOUS
 62
   250
 10
-0.389062
 20
0.3
 30
0.0
 11
-0.391052
 21
0.300853
 31
0.0
  0
LINE
  8
1
  6
CONTINUOUS
 62
   250
 10
-0.391052
 20
0.300853
 30
0.0
 11
-0.393324
 21
0.301136
 31
0.0
  0
LINE
  8
1
  6
CONTINUOUS
 62
   250
 10
-0.393324
 20
0.301136
 30
0.0
 11
-0.395313
 21
0.300853
 31
0.0
  0
LINE
  8
1
  6
CONTINUOUS
 62
   250
 10
-0.395313
 20
0.300853
 30
0.0
 11
-0.397302
 21
0.3
 31
0.0
  0
LINE
  8
1
  6
CONTINUOUS
 62
   250
 10
-0.397302
 20
0.3
 30
0.0
 11
-0.398722
 21
0.298863
 31
0.0
  0
LINE
  8
1
  6
CONTINUOUS
 62
   250
 10
-0.398722
 20
0.298863
 30
0.0
 11
-0.400142
 21
0.297159
 31
0.0
  0
LINE
  8
1
  6
CONTINUOUS
 62
   250
 10
-0.400142
 20
0.297159
 30
0.0
 11
-0.400994
 21
0.29517
 31
0.0
  0
LINE
  8
1
  6
CONTINUOUS
 62
   250
 10
-0.400994
 20
0.29517
 30
0.0
 11
-0.401279
 21
0.292897
 31
0.0
  0
LINE
  8
1
  6
CONTINUOUS
 62
   250
 10
-0.401279
 20
0.292897
 30
0.0
 11
-0.400994
 21
0.290909
 31
0.0
  0
LINE
  8
1
  6
CONTINUOUS
 62
   250
 10
-0.400994
 20
0.290909
 30
0.0
 11
-0.400142
 21
0.288921
 31
0.0
  0
LINE
  8
1
  6
CONTINUOUS
 62
   250
 10
-0.400142
 20
0.288921
 30
0.0
 11
-0.398722
 21
0.2875
 31
0.0
  0
LINE
  8
1
  6
CONTINUOUS
 62
   250
 10
-0.398722
 20
0.2875
 30
0.0
 11
-0.397302
 21
0.286079
 31
0.0
  0
LINE
  8
1
  6
CONTINUOUS
 62
   250
 10
-0.397302
 20
0.286079
 30
0.0
 11
-0.395313
 21
0.285227
 31
0.0
  0
LINE
  8
1
  6
CONTINUOUS
 62
   250
 10
-0.395313
 20
0.285227
 30
0.0
 11
-0.393324
 21
0.284943
 31
0.0
  0
LINE
  8
1
  6
CONTINUOUS
 62
   250
 10
-0.393324
 20
0.284943
 30
0.0
 11
-0.391052
 21
0.285227
 31
0.0
  0
LINE
  8
1
  6
CONTINUOUS
 62
   250
 10
-0.391052
 20
0.285227
 30
0.0
 11
-0.389062
 21
0.286079
 31
0.0
  0
LINE
  8
1
  6
CONTINUOUS
 62
   250
 10
-0.389062
 20
0.286079
 30
0.0
 11
-0.387358
 21
0.2875
 31
0.0
  0
LINE
  8
1
  6
CONTINUOUS
 62
   250
 10
-0.387358
 20
0.2875
 30
0.0
 11
-0.386222
 21
0.288921
 31
0.0
  0
LINE
  8
1
  6
CONTINUOUS
 62
   250
 10
-0.386222
 20
0.288921
 30
0.0
 11
-0.38537
 21
0.290909
 31
0.0
  0
LINE
  8
1
  6
CONTINUOUS
 62
   250
 10
-0.38537
 20
0.290909
 30
0.0
 11
-0.385086
 21
0.292897
 31
0.0
  0
LINE
  8
1
  6
CONTINUOUS
 62
   250
 10
-0.385086
 20
0.292897
 30
0.0
 11
-0.38537
 21
0.29517
 31
0.0
  0
LINE
  8
1
  6
CONTINUOUS
 62
   250
 10
-0.38537
 20
0.29517
 30
0.0
 11
-0.386222
 21
0.297159
 31
0.0
  0
LINE
  8
1
  6
CONTINUOUS
 62
   250
 10
-0.386222
 20
0.297159
 30
0.0
 11
-0.387358
 21
0.298863
 31
0.0
  0
LINE
  8
1
  6
CONTINUOUS
 62
   250
 10
-0.391904
 20
0.299432
 30
0.0
 11
-0.391904
 21
0.294318
 31
0.0
  0
LINE
  8
1
  6
CONTINUOUS
 62
   250
 10
-0.391904
 20
0.294318
 30
0.0
 11
-0.38679
 21
0.294318
 31
0.0
  0
LINE
  8
1
  6
CONTINUOUS
 62
   250
 10
-0.38679
 20
0.294318
 30
0.0
 11
-0.38679
 21
0.292897
 31
0.0
  0
LINE
  8
1
  6
CONTINUOUS
 62
   250
 10
-0.38679
 20
0.292897
 30
0.0
 11
-0.38679
 21
0.291761
 31
0.0
  0
LINE
  8
1
  6
CONTINUOUS
 62
   250
 10
-0.38679
 20
0.291761
 30
0.0
 11
-0.391904
 21
0.291761
 31
0.0
  0
LINE
  8
1
  6
CONTINUOUS
 62
   250
 10
-0.391904
 20
0.291761
 30
0.0
 11
-0.391904
 21
0.286648
 31
0.0
  0
LINE
  8
1
  6
CONTINUOUS
 62
   250
 10
-0.391904
 20
0.286648
 30
0.0
 11
-0.393324
 21
0.286648
 31
0.0
  0
LINE
  8
1
  6
CONTINUOUS
 62
   250
 10
-0.393324
 20
0.286648
 30
0.0
 11
-0.394461
 21
0.286648
 31
0.0
  0
LINE
  8
1
  6
CONTINUOUS
 62
   250
 10
-0.394461
 20
0.286648
 30
0.0
 11
-0.394461
 21
0.291761
 31
0.0
  0
LINE
  8
1
  6
CONTINUOUS
 62
   250
 10
-0.394461
 20
0.291761
 30
0.0
 11
-0.399575
 21
0.291761
 31
0.0
  0
LINE
  8
1
  6
CONTINUOUS
 62
   250
 10
-0.399575
 20
0.291761
 30
0.0
 11
-0.399575
 21
0.292897
 31
0.0
  0
LINE
  8
1
  6
CONTINUOUS
 62
   250
 10
-0.399575
 20
0.292897
 30
0.0
 11
-0.399575
 21
0.294318
 31
0.0
  0
LINE
  8
1
  6
CONTINUOUS
 62
   250
 10
-0.399575
 20
0.294318
 30
0.0
 11
-0.394461
 21
0.294318
 31
0.0
  0
LINE
  8
1
  6
CONTINUOUS
 62
   250
 10
-0.394461
 20
0.294318
 30
0.0
 11
-0.394461
 21
0.299432
 31
0.0
  0
LINE
  8
1
  6
CONTINUOUS
 62
   250
 10
-0.394461
 20
0.299432
 30
0.0
 11
-0.393324
 21
0.299432
 31
0.0
  0
LINE
  8
1
  6
CONTINUOUS
 62
   250
 10
-0.393324
 20
0.299432
 30
0.0
 11
-0.391904
 21
0.299432
 31
0.0
  0
LINE
  8
1
  6
CONTINUOUS
 62
   250
 10
-0.393324
 20
0.298011
 30
0.0
 11
-0.393324
 21
0.292897
 31
0.0
  0
LINE
  8
1
  6
CONTINUOUS
 62
   250
 10
-0.393324
 20
0.292897
 30
0.0
 11
-0.38821
 21
0.292897
 31
0.0
  0
LINE
  8
1
  6
CONTINUOUS
 62
   250
 10
-0.393324
 20
0.292897
 30
0.0
 11
-0.393324
 21
0.287784
 31
0.0
  0
LINE
  8
1
  6
CONTINUOUS
 62
   250
 10
-0.393324
 20
0.292897
 30
0.0
 11
-0.398437
 21
0.292897
 31
0.0
  0
LINE
  8
1
  6
CONTINUOUS
 62
   250
 10
-0.401846
 20
0.289204
 30
0.0
 11
-0.401846
 21
0.285795
 31
0.0
  0
LINE
  8
1
  6
CONTINUOUS
 62
   250
 10
-0.401846
 20
0.285795
 30
0.0
 11
-0.39929
 21
0.284091
 31
0.0
  0
LINE
  8
1
  6
CONTINUOUS
 62
   250
 10
-0.39929
 20
0.284091
 30
0.0
 11
-0.398722
 21
0.284091
 31
0.0
  0
LINE
  8
1
  6
CONTINUOUS
 62
   250
 10
-0.398722
 20
0.284091
 30
0.0
 11
-0.398722
 21
0.28125
 31
0.0
  0
LINE
  8
1
  6
CONTINUOUS
 62
   250
 10
-0.398722
 20
0.28125
 30
0.0
 11
-0.400994
 21
0.28125
 31
0.0
  0
LINE
  8
1
  6
CONTINUOUS
 62
   250
 10
-0.400994
 20
0.28125
 30
0.0
 11
-0.401846
 21
0.283522
 31
0.0
  0
LINE
  8
1
  6
CONTINUOUS
 62
   250
 10
-0.401846
 20
0.283522
 30
0.0
 11
-0.402131
 21
0.283522
 31
0.0
  0
LINE
  8
1
  6
CONTINUOUS
 62
   250
 10
-0.402131
 20
0.283522
 30
0.0
 11
-0.402131
 21
0.280398
 31
0.0
  0
LINE
  8
1
  6
CONTINUOUS
 62
   250
 10
-0.402131
 20
0.280398
 30
0.0
 11
-0.397585
 21
0.280398
 31
0.0
  0
LINE
  8
1
  6
CONTINUOUS
 62
   250
 10
-0.397585
 20
0.280398
 30
0.0
 11
-0.397302
 21
0.277556
 31
0.0
  0
LINE
  8
1
  6
CONTINUOUS
 62
   250
 10
-0.397302
 20
0.277556
 30
0.0
 11
-0.405255
 21
0.277556
 31
0.0
  0
LINE
  8
1
  6
CONTINUOUS
 62
   250
 10
-0.405255
 20
0.277556
 30
0.0
 11
-0.404972
 21
0.278977
 31
0.0
  0
LINE
  8
1
  6
CONTINUOUS
 62
   250
 10
-0.404972
 20
0.278977
 30
0.0
 11
-0.403836
 21
0.278977
 31
0.0
  0
LINE
  8
1
  6
CONTINUOUS
 62
   250
 10
-0.403836
 20
0.278977
 30
0.0
 11
-0.403267
 21
0.280113
 31
0.0
  0
LINE
  8
1
  6
CONTINUOUS
 62
   250
 10
-0.403267
 20
0.280113
 30
0.0
 11
-0.403267
 21
0.281818
 31
0.0
  0
LINE
  8
1
  6
CONTINUOUS
 62
   250
 10
-0.403267
 20
0.281818
 30
0.0
 11
-0.404688
 21
0.282955
 31
0.0
  0
LINE
  8
1
  6
CONTINUOUS
 62
   250
 10
-0.404688
 20
0.282955
 30
0.0
 11
-0.404688
 21
0.287216
 31
0.0
  0
LINE
  8
1
  6
CONTINUOUS
 62
   250
 10
-0.404688
 20
0.287216
 30
0.0
 11
-0.403551
 21
0.287784
 31
0.0
  0
LINE
  8
1
  6
CONTINUOUS
 62
   250
 10
-0.403551
 20
0.287784
 30
0.0
 11
-0.403551
 21
0.289204
 31
0.0
  0
LINE
  8
1
  6
CONTINUOUS
 62
   250
 10
-0.403551
 20
0.289204
 30
0.0
 11
-0.403267
 21
0.289488
 31
0.0
  0
LINE
  8
1
  6
CONTINUOUS
 62
   250
 10
-0.403267
 20
0.289488
 30
0.0
 11
-0.402415
 21
0.289488
 31
0.0
  0
LINE
  8
1
  6
CONTINUOUS
 62
   250
 10
-0.402415
 20
0.289488
 30
0.0
 11
-0.401846
 21
0.289204
 31
0.0
  0
LINE
  8
1
  6
CONTINUOUS
 62
   250
 10
-0.397585
 20
0.280113
 30
0.0
 11
-0.388779
 21
0.280113
 31
0.0
  0
LINE
  8
1
  6
CONTINUOUS
 62
   250
 10
-0.388779
 20
0.280113
 30
0.0
 11
-0.388779
 21
0.279829
 31
0.0
  0
LINE
  8
1
  6
CONTINUOUS
 62
   250
 10
-0.388779
 20
0.279829
 30
0.0
 11
-0.397585
 21
0.279829
 31
0.0
  0
LINE
  8
1
  6
CONTINUOUS
 62
     7
 10
-0.447302
 20
0.359943
 30
0.0
 11
-0.481676
 21
0.361648
 31
0.0
  0
LINE
  8
1
  6
CONTINUOUS
 62
     7
 10
-0.481676
 20
0.361648
 30
0.0
 11
-0.481676
 21
0.378977
 31
0.0
  0
LINE
  8
1
  6
CONTINUOUS
 62
     7
 10
-0.481676
 20
0.378977
 30
0.0
 11
-0.447302
 21
0.378977
 31
0.0
  0
LINE
  8
1
  6
CONTINUOUS
 62
     7
 10
-0.447302
 20
0.378977
 30
0.0
 11
-0.447302
 21
0.359943
 31
0.0
  0
LINE
  8
1
  6
CONTINUOUS
 62
     7
 10
-0.447302
 20
0.372727
 30
0.0
 11
-0.481676
 21
0.372727
 31
0.0
  0
LINE
  8
1
  6
CONTINUOUS
 62
     7
 10
-0.350995
 20
0.372727
 30
0.0
 11
-0.316052
 21
0.372727
 31
0.0
  0
LINE
  8
1
  6
CONTINUOUS
 62
     7
 10
-0.316052
 20
0.378977
 30
0.0
 11
-0.316052
 21
0.359943
 31
0.0
  0
LINE
  8
1
  6
CONTINUOUS
 62
     7
 10
-0.316052
 20
0.359943
 30
0.0
 11
-0.350995
 21
0.361648
 31
0.0
  0
LINE
  8
1
  6
CONTINUOUS
 62
     7
 10
-0.350995
 20
0.361648
 30
0.0
 11
-0.350995
 21
0.378977
 31
0.0
  0
LINE
  8
1
  6
CONTINUOUS
 62
     7
 10
-0.350995
 20
0.378977
 30
0.0
 11
-0.316052
 21
0.378977
 31
0.0
  0
LINE
  8
1
  6
CONTINUOUS
 62
     7
 10
-0.283097
 20
0.446591
 30
0.0
 11
-0.268892
 21
0.446591
 31
0.0
  0
LINE
  8
1
  6
CONTINUOUS
 62
     7
 10
-0.268892
 20
0.446591
 30
0.0
 11
-0.265768
 21
0.434091
 31
0.0
  0
LINE
  8
1
  6
CONTINUOUS
 62
     7
 10
-0.283097
 20
0.462499
 30
0.0
 11
-0.374574
 21
0.460795
 31
0.0
  0
LINE
  8
1
  6
CONTINUOUS
 62
     7
 10
-0.374574
 20
0.464204
 30
0.0
 11
-0.283097
 21
0.465625
 31
0.0
  0
LINE
  8
1
  6
CONTINUOUS
 62
     7
 10
-0.374574
 20
0.446023
 30
0.0
 11
-0.387074
 21
0.44517
 31
0.0
  0
LINE
  8
1
  6
CONTINUOUS
 62
     7
 10
-0.387074
 20
0.44517
 30
0.0
 11
-0.393609
 21
0.434091
 31
0.0
  0
LINE
  8
1
  6
CONTINUOUS
 62
     7
 10
-0.398154
 20
0.434091
 30
0.0
 11
-0.401279
 21
0.446591
 31
0.0
  0
LINE
  8
1
  6
CONTINUOUS
 62
     7
 10
-0.401279
 20
0.446591
 30
0.0
 11
-0.415483
 21
0.446591
 31
0.0
  0
LINE
  8
1
  6
CONTINUOUS
 62
     7
 10
0.534801
 20
0.0
 30
0.0
 11
0.534801
 21
0.567898
 31
0.0
  0
LINE
  8
1
  6
CONTINUOUS
 62
   250
 10
-0.45696
 20
0.115625
 30
0.0
 11
-0.45696
 21
0.129829
 31
0.0
  0
LINE
  8
1
  6
CONTINUOUS
 62
   250
 10
-0.454687
 20
0.115625
 30
0.0
 11
-0.454687
 21
0.106534
 31
0.0
  0
LINE
  8
1
  6
CONTINUOUS
 62
   250
 10
-0.455825
 20
0.105398
 30
0.0
 11
-0.455825
 21
0.054545
 31
0.0
  0
LINE
  8
1
  6
CONTINUOUS
 62
   250
 10
-0.455825
 20
0.054545
 30
0.0
 11
-0.458381
 21
0.054545
 31
0.0
  0
LINE
  8
1
  6
CONTINUOUS
 62
   250
 10
-0.458381
 20
0.054545
 30
0.0
 11
-0.458381
 21
0.105398
 31
0.0
  0
LINE
  8
1
  6
CONTINUOUS
 62
   250
 10
-0.458381
 20
0.105398
 30
0.0
 11
-0.455825
 21
0.105398
 31
0.0
  0
LINE
  8
1
  6
CONTINUOUS
 62
   250
 10
-0.46037
 20
0.105398
 30
0.0
 11
-0.46037
 21
0.054545
 31
0.0
  0
LINE
  8
1
  6
CONTINUOUS
 62
   250
 10
-0.46037
 20
0.054545
 30
0.0
 11
-0.462643
 21
0.054545
 31
0.0
  0
LINE
  8
1
  6
CONTINUOUS
 62
   250
 10
-0.462643
 20
0.054545
 30
0.0
 11
-0.462643
 21
0.105398
 31
0.0
  0
LINE
  8
1
  6
CONTINUOUS
 62
   250
 10
-0.462643
 20
0.105398
 30
0.0
 11
-0.46037
 21
0.105398
 31
0.0
  0
LINE
  8
1
  6
CONTINUOUS
 62
   250
 10
-0.465483
 20
0.105398
 30
0.0
 11
-0.465483
 21
0.054545
 31
0.0
  0
LINE
  8
1
  6
CONTINUOUS
 62
   250
 10
-0.465483
 20
0.054545
 30
0.0
 11
-0.467756
 21
0.054545
 31
0.0
  0
LINE
  8
1
  6
CONTINUOUS
 62
   250
 10
-0.467756
 20
0.054545
 30
0.0
 11
-0.467756
 21
0.105398
 31
0.0
  0
LINE
  8
1
  6
CONTINUOUS
 62
   250
 10
-0.467756
 20
0.105398
 30
0.0
 11
-0.465483
 21
0.105398
 31
0.0
  0
LINE
  8
1
  6
CONTINUOUS
 62
   250
 10
-0.470313
 20
0.105398
 30
0.0
 11
-0.470313
 21
0.054545
 31
0.0
  0
LINE
  8
1
  6
CONTINUOUS
 62
   250
 10
-0.470313
 20
0.054545
 30
0.0
 11
-0.47287
 21
0.054545
 31
0.0
  0
LINE
  8
1
  6
CONTINUOUS
 62
   250
 10
-0.47287
 20
0.054545
 30
0.0
 11
-0.47287
 21
0.105398
 31
0.0
  0
LINE
  8
1
  6
CONTINUOUS
 62
   250
 10
-0.47287
 20
0.105398
 30
0.0
 11
-0.470313
 21
0.105398
 31
0.0
  0
LINE
  8
1
  6
CONTINUOUS
 62
   250
 10
-0.475994
 20
0.105398
 30
0.0
 11
-0.475994
 21
0.054545
 31
0.0
  0
LINE
  8
1
  6
CONTINUOUS
 62
   250
 10
-0.475994
 20
0.054545
 30
0.0
 11
-0.478267
 21
0.054545
 31
0.0
  0
LINE
  8
1
  6
CONTINUOUS
 62
   250
 10
-0.478267
 20
0.054545
 30
0.0
 11
-0.478267
 21
0.105398
 31
0.0
  0
LINE
  8
1
  6
CONTINUOUS
 62
   250
 10
-0.478267
 20
0.105398
 30
0.0
 11
-0.475994
 21
0.105398
 31
0.0
  0
LINE
  8
1
  6
CONTINUOUS
 62
   250
 10
-0.481108
 20
0.105398
 30
0.0
 11
-0.481108
 21
0.054545
 31
0.0
  0
LINE
  8
1
  6
CONTINUOUS
 62
   250
 10
-0.481108
 20
0.054545
 30
0.0
 11
-0.483381
 21
0.054545
 31
0.0
  0
LINE
  8
1
  6
CONTINUOUS
 62
   250
 10
-0.483381
 20
0.054545
 30
0.0
 11
-0.483381
 21
0.105398
 31
0.0
  0
LINE
  8
1
  6
CONTINUOUS
 62
   250
 10
-0.483381
 20
0.105398
 30
0.0
 11
-0.481108
 21
0.105398
 31
0.0
  0
LINE
  8
1
  6
CONTINUOUS
 62
   250
 10
-0.483665
 20
0.106534
 30
0.0
 11
-0.483665
 21
0.115625
 31
0.0
  0
LINE
  8
1
  6
CONTINUOUS
 62
   250
 10
-0.485938
 20
0.115625
 30
0.0
 11
-0.485938
 21
0.109091
 31
0.0
  0
LINE
  8
1
  6
CONTINUOUS
 62
   250
 10
-0.481108
 20
0.115625
 30
0.0
 11
-0.481108
 21
0.129829
 31
0.0
  0
LINE
  8
1
  6
CONTINUOUS
 62
   250
 10
-0.482245
 20
0.093182
 30
0.0
 11
-0.482245
 21
0.055966
 31
0.0
  0
LINE
  8
1
  6
CONTINUOUS
 62
   250
 10
-0.482245
 20
0.055966
 30
0.0
 11
-0.478267
 21
0.050568
 31
0.0
  0
LINE
  8
1
  6
CONTINUOUS
 62
   250
 10
-0.478267
 20
0.050568
 30
0.0
 11
-0.478267
 21
0.045739
 31
0.0
  0
LINE
  8
1
  6
CONTINUOUS
 62
   250
 10
-0.475427
 20
0.045739
 30
0.0
 11
-0.475427
 21
0.050852
 31
0.0
  0
LINE
  8
1
  6
CONTINUOUS
 62
   250
 10
-0.475427
 20
0.050852
 30
0.0
 11
-0.477131
 21
0.056534
 31
0.0
  0
LINE
  8
1
  6
CONTINUOUS
 62
   250
 10
-0.477131
 20
0.056534
 30
0.0
 11
-0.477131
 21
0.093182
 31
0.0
  0
LINE
  8
1
  6
CONTINUOUS
 62
   250
 10
-0.471733
 20
0.093182
 30
0.0
 11
-0.471733
 21
0.045739
 31
0.0
  0
LINE
  8
1
  6
CONTINUOUS
 62
   250
 10
-0.466619
 20
0.045739
 30
0.0
 11
-0.466619
 21
0.093182
 31
0.0
  0
LINE
  8
1
  6
CONTINUOUS
 62
   250
 10
-0.461222
 20
0.093182
 30
0.0
 11
-0.461222
 21
0.056534
 31
0.0
  0
LINE
  8
1
  6
CONTINUOUS
 62
   250
 10
-0.461222
 20
0.056534
 30
0.0
 11
-0.462643
 21
0.050852
 31
0.0
  0
LINE
  8
1
  6
CONTINUOUS
 62
   250
 10
-0.462643
 20
0.050852
 30
0.0
 11
-0.462643
 21
0.045739
 31
0.0
  0
LINE
  8
1
  6
CONTINUOUS
 62
   250
 10
-0.459517
 20
0.045739
 30
0.0
 11
-0.459517
 21
0.050568
 31
0.0
  0
LINE
  8
1
  6
CONTINUOUS
 62
   250
 10
-0.459517
 20
0.050568
 30
0.0
 11
-0.45696
 21
0.056534
 31
0.0
  0
LINE
  8
1
  6
CONTINUOUS
 62
   250
 10
-0.45696
 20
0.056534
 30
0.0
 11
-0.45696
 21
0.093182
 31
0.0
  0
LINE
  8
1
  6
CONTINUOUS
 62
   250
 10
-0.45213
 20
0.109091
 30
0.0
 11
-0.45213
 21
0.115625
 31
0.0
  0
LINE
  8
1
  6
CONTINUOUS
 62
   250
 10
-0.439915
 20
0.074716
 30
0.0
 11
-0.437642
 21
0.074716
 31
0.0
  0
LINE
  8
1
  6
CONTINUOUS
 62
   250
 10
-0.437642
 20
0.054261
 30
0.0
 11
-0.45696
 21
0.054261
 31
0.0
  0
LINE
  8
1
  6
CONTINUOUS
 62
   250
 10
-0.45696
 20
0.054261
 30
0.0
 11
-0.45696
 21
0.045739
 31
0.0
  0
LINE
  8
1
  6
CONTINUOUS
 62
   250
 10
-0.454687
 20
0.045739
 30
0.0
 11
-0.454687
 21
0.050852
 31
0.0
  0
LINE
  8
1
  6
CONTINUOUS
 62
   250
 10
-0.481108
 20
0.054261
 30
0.0
 11
-0.481108
 21
0.045739
 31
0.0
  0
LINE
  8
1
  6
CONTINUOUS
 62
   250
 10
-0.485085
 20
0.045739
 30
0.0
 11
-0.485085
 21
0.050852
 31
0.0
  0
LINE
  8
1
  6
CONTINUOUS
 62
   250
 10
-0.481108
 20
0.054261
 30
0.0
 11
-0.500426
 21
0.054261
 31
0.0
  0
LINE
  8
1
  6
CONTINUOUS
 62
   250
 10
-0.500426
 20
0.074716
 30
0.0
 11
-0.498153
 21
0.074716
 31
0.0
  0
LINE
  8
1
  6
CONTINUOUS
 62
   250
 10
-0.425995
 20
0.13267
 30
0.0
 11
-0.425995
 21
0.036364
 31
0.0
  0
LINE
  8
1
  6
CONTINUOUS
 62
     7
 10
-0.425995
 20
0.036364
 30
0.0
 11
-0.512074
 21
0.036364
 31
0.0
  0
LINE
  8
1
  6
CONTINUOUS
 62
     7
 10
-0.512074
 20
0.036364
 30
0.0
 11
-0.512074
 21
0.13267
 31
0.0
  0
LINE
  8
1
  6
CONTINUOUS
 62
     7
 10
-0.512074
 20
0.13267
 30
0.0
 11
-0.425995
 21
0.13267
 31
0.0
  0
LINE
  8
1
  6
CONTINUOUS
 62
   250
 10
-0.45696
 20
0.129829
 30
0.0
 11
-0.481108
 21
0.129829
 31
0.0
  0
LINE
  8
1
  6
CONTINUOUS
 62
   250
 10
-0.481108
 20
0.117614
 30
0.0
 11
-0.45696
 21
0.117614
 31
0.0
  0
LINE
  8
1
  6
CONTINUOUS
 62
   250
 10
-0.45696
 20
0.115625
 30
0.0
 11
-0.45213
 21
0.115625
 31
0.0
  0
LINE
  8
1
  6
CONTINUOUS
 62
   250
 10
-0.45213
 20
0.109091
 30
0.0
 11
-0.43821
 21
0.109091
 31
0.0
  0
LINE
  8
1
  6
CONTINUOUS
 62
   250
 10
-0.43821
 20
0.109091
 30
0.0
 11
-0.43821
 21
0.094318
 31
0.0
  0
LINE
  8
1
  6
CONTINUOUS
 62
   250
 10
-0.43821
 20
0.094318
 30
0.0
 11
-0.434801
 21
0.094318
 31
0.0
  0
LINE
  8
1
  6
CONTINUOUS
 62
   250
 10
-0.434801
 20
0.094318
 30
0.0
 11
-0.434801
 21
0.079261
 31
0.0
  0
LINE
  8
1
  6
CONTINUOUS
 62
   250
 10
-0.434801
 20
0.079261
 30
0.0
 11
-0.43821
 21
0.079261
 31
0.0
  0
LINE
  8
1
  6
CONTINUOUS
 62
   250
 10
-0.43821
 20
0.079261
 30
0.0
 11
-0.43821
 21
0.050852
 31
0.0
  0
LINE
  8
1
  6
CONTINUOUS
 62
   250
 10
-0.43821
 20
0.050852
 30
0.0
 11
-0.454687
 21
0.050852
 31
0.0
  0
LINE
  8
1
  6
CONTINUOUS
 62
   250
 10
-0.454687
 20
0.045739
 30
0.0
 11
-0.485085
 21
0.045739
 31
0.0
  0
LINE
  8
1
  6
CONTINUOUS
 62
   250
 10
-0.485085
 20
0.050852
 30
0.0
 11
-0.500426
 21
0.050852
 31
0.0
  0
LINE
  8
1
  6
CONTINUOUS
 62
   250
 10
-0.500426
 20
0.050852
 30
0.0
 11
-0.500426
 21
0.079261
 31
0.0
  0
LINE
  8
1
  6
CONTINUOUS
 62
   250
 10
-0.500426
 20
0.079261
 30
0.0
 11
-0.503552
 21
0.079261
 31
0.0
  0
LINE
  8
1
  6
CONTINUOUS
 62
   250
 10
-0.503552
 20
0.079261
 30
0.0
 11
-0.503552
 21
0.094318
 31
0.0
  0
LINE
  8
1
  6
CONTINUOUS
 62
   250
 10
-0.503552
 20
0.094318
 30
0.0
 11
-0.500426
 21
0.094318
 31
0.0
  0
LINE
  8
1
  6
CONTINUOUS
 62
   250
 10
-0.500426
 20
0.094318
 30
0.0
 11
-0.500426
 21
0.109091
 31
0.0
  0
LINE
  8
1
  6
CONTINUOUS
 62
   250
 10
-0.500426
 20
0.109091
 30
0.0
 11
-0.485938
 21
0.109091
 31
0.0
  0
LINE
  8
1
  6
CONTINUOUS
 62
   250
 10
-0.483665
 20
0.106534
 30
0.0
 11
-0.498153
 21
0.106534
 31
0.0
  0
LINE
  8
1
  6
CONTINUOUS
 62
   250
 10
-0.498153
 20
0.106534
 30
0.0
 11
-0.498153
 21
0.074716
 31
0.0
  0
LINE
  8
1
  6
CONTINUOUS
 62
   250
 10
-0.485938
 20
0.115625
 30
0.0
 11
-0.481108
 21
0.115625
 31
0.0
  0
LINE
  8
1
  6
CONTINUOUS
 62
   250
 10
-0.454687
 20
0.106534
 30
0.0
 11
-0.439915
 21
0.106534
 31
0.0
  0
LINE
  8
1
  6
CONTINUOUS
 62
   250
 10
-0.439915
 20
0.106534
 30
0.0
 11
-0.439915
 21
0.074716
 31
0.0
  0
LINE
  8
1
  6
CONTINUOUS
 62
   250
 10
0.236765
 20
0.330667
 30
0.0
 11
0.240457
 21
0.330667
 31
0.0
  0
LINE
  8
1
  6
CONTINUOUS
 62
   250
 10
0.240457
 20
0.330667
 30
0.0
 11
0.240457
 21
0.357088
 31
0.0
  0
LINE
  8
1
  6
CONTINUOUS
 62
   250
 10
0.240457
 20
0.357088
 30
0.0
 11
0.212901
 21
0.357088
 31
0.0
  0
LINE
  8
1
  6
CONTINUOUS
 62
   250
 10
0.212901
 20
0.357088
 30
0.0
 11
0.212901
 21
0.330667
 31
0.0
  0
LINE
  8
1
  6
CONTINUOUS
 62
   250
 10
0.219719
 20
0.339759
 30
0.0
 11
0.218582
 21
0.341747
 31
0.0
  0
LINE
  8
1
  6
CONTINUOUS
 62
   250
 10
0.218582
 20
0.341747
 30
0.0
 11
0.218582
 21
0.343735
 31
0.0
  0
LINE
  8
1
  6
CONTINUOUS
 62
   250
 10
0.218582
 20
0.343735
 30
0.0
 11
0.218582
 21
0.346008
 31
0.0
  0
LINE
  8
1
  6
CONTINUOUS
 62
   250
 10
0.218582
 20
0.346008
 30
0.0
 11
0.219719
 21
0.347713
 31
0.0
  0
LINE
  8
1
  6
CONTINUOUS
 62
   250
 10
0.219719
 20
0.347713
 30
0.0
 11
0.220855
 21
0.349417
 31
0.0
  0
LINE
  8
1
  6
CONTINUOUS
 62
   250
 10
0.220855
 20
0.349417
 30
0.0
 11
0.22256
 21
0.350838
 31
0.0
  0
LINE
  8
1
  6
CONTINUOUS
 62
   250
 10
0.22256
 20
0.350838
 30
0.0
 11
0.224264
 21
0.351406
 31
0.0
  0
LINE
  8
1
  6
CONTINUOUS
 62
   250
 10
0.224264
 20
0.351406
 30
0.0
 11
0.226537
 21
0.351974
 31
0.0
  0
LINE
  8
1
  6
CONTINUOUS
 62
   250
 10
0.226537
 20
0.335781
 30
0.0
 11
0.228525
 21
0.336065
 31
0.0
  0
LINE
  8
1
  6
CONTINUOUS
 62
   250
 10
0.228525
 20
0.336065
 30
0.0
 11
0.230514
 21
0.336917
 31
0.0
  0
LINE
  8
1
  6
CONTINUOUS
 62
   250
 10
0.230514
 20
0.336917
 30
0.0
 11
0.232218
 21
0.337769
 31
0.0
  0
LINE
  8
1
  6
CONTINUOUS
 62
   250
 10
0.232218
 20
0.337769
 30
0.0
 11
0.233355
 21
0.339759
 31
0.0
  0
LINE
  8
1
  6
CONTINUOUS
 62
   250
 10
0.233355
 20
0.339759
 30
0.0
 11
0.234208
 21
0.341747
 31
0.0
  0
LINE
  8
1
  6
CONTINUOUS
 62
   250
 10
0.234208
 20
0.341747
 30
0.0
 11
0.234491
 21
0.343735
 31
0.0
  0
LINE
  8
1
  6
CONTINUOUS
 62
   250
 10
0.234491
 20
0.343735
 30
0.0
 11
0.234208
 21
0.346008
 31
0.0
  0
LINE
  8
1
  6
CONTINUOUS
 62
   250
 10
0.234208
 20
0.346008
 30
0.0
 11
0.233355
 21
0.347713
 31
0.0
  0
LINE
  8
1
  6
CONTINUOUS
 62
   250
 10
0.233355
 20
0.347713
 30
0.0
 11
0.232218
 21
0.349417
 31
0.0
  0
LINE
  8
1
  6
CONTINUOUS
 62
   250
 10
0.232218
 20
0.349417
 30
0.0
 11
0.230514
 21
0.350838
 31
0.0
  0
LINE
  8
1
  6
CONTINUOUS
 62
   250
 10
0.230514
 20
0.350838
 30
0.0
 11
0.228525
 21
0.351406
 31
0.0
  0
LINE
  8
1
  6
CONTINUOUS
 62
   250
 10
0.228525
 20
0.351406
 30
0.0
 11
0.226537
 21
0.351974
 31
0.0
  0
LINE
  8
1
  6
CONTINUOUS
 62
   250
 10
0.226537
 20
0.335781
 30
0.0
 11
0.224264
 21
0.336065
 31
0.0
  0
LINE
  8
1
  6
CONTINUOUS
 62
   250
 10
0.224264
 20
0.336065
 30
0.0
 11
0.22256
 21
0.336917
 31
0.0
  0
LINE
  8
1
  6
CONTINUOUS
 62
   250
 10
0.22256
 20
0.336917
 30
0.0
 11
0.220855
 21
0.337769
 31
0.0
  0
LINE
  8
1
  6
CONTINUOUS
 62
   250
 10
0.220855
 20
0.337769
 30
0.0
 11
0.219719
 21
0.339759
 31
0.0
  0
LINE
  8
1
  6
CONTINUOUS
 62
   250
 10
0.237048
 20
0.338338
 30
0.0
 11
0.2379
 21
0.337769
 31
0.0
  0
LINE
  8
1
  6
CONTINUOUS
 62
   250
 10
0.2379
 20
0.337769
 30
0.0
 11
0.2379
 21
0.333793
 31
0.0
  0
LINE
  8
1
  6
CONTINUOUS
 62
   250
 10
0.2379
 20
0.333793
 30
0.0
 11
0.236765
 21
0.332656
 31
0.0
  0
LINE
  8
1
  6
CONTINUOUS
 62
   250
 10
0.236765
 20
0.332656
 30
0.0
 11
0.236765
 21
0.330667
 31
0.0
  0
LINE
  8
1
  6
CONTINUOUS
 62
   250
 10
0.236765
 20
0.330667
 30
0.0
 11
0.237332
 21
0.329815
 31
0.0
  0
LINE
  8
1
  6
CONTINUOUS
 62
   250
 10
0.237332
 20
0.329815
 30
0.0
 11
0.238184
 21
0.329815
 31
0.0
  0
LINE
  8
1
  6
CONTINUOUS
 62
   250
 10
0.238184
 20
0.329815
 30
0.0
 11
0.238469
 21
0.328394
 31
0.0
  0
LINE
  8
1
  6
CONTINUOUS
 62
   250
 10
0.238469
 20
0.328394
 30
0.0
 11
0.230514
 21
0.328394
 31
0.0
  0
LINE
  8
1
  6
CONTINUOUS
 62
   250
 10
0.231935
 20
0.332088
 30
0.0
 11
0.231935
 21
0.334929
 31
0.0
  0
LINE
  8
1
  6
CONTINUOUS
 62
   250
 10
0.231935
 20
0.334929
 30
0.0
 11
0.232503
 21
0.334929
 31
0.0
  0
LINE
  8
1
  6
CONTINUOUS
 62
   250
 10
0.232503
 20
0.334929
 30
0.0
 11
0.23506
 21
0.336633
 31
0.0
  0
LINE
  8
1
  6
CONTINUOUS
 62
   250
 10
0.23506
 20
0.336633
 30
0.0
 11
0.23506
 21
0.340042
 31
0.0
  0
LINE
  8
1
  6
CONTINUOUS
 62
   250
 10
0.23506
 20
0.340042
 30
0.0
 11
0.235627
 21
0.340326
 31
0.0
  0
LINE
  8
1
  6
CONTINUOUS
 62
   250
 10
0.235627
 20
0.340326
 30
0.0
 11
0.236765
 21
0.340326
 31
0.0
  0
LINE
  8
1
  6
CONTINUOUS
 62
   250
 10
0.236765
 20
0.340326
 30
0.0
 11
0.237048
 21
0.340042
 31
0.0
  0
LINE
  8
1
  6
CONTINUOUS
 62
   250
 10
0.237048
 20
0.340042
 30
0.0
 11
0.237048
 21
0.338338
 31
0.0
  0
LINE
  8
1
  6
CONTINUOUS
 62
   250
 10
0.235344
 20
0.334076
 30
0.0
 11
0.235344
 21
0.330951
 31
0.0
  0
LINE
  8
1
  6
CONTINUOUS
 62
   250
 10
0.235344
 20
0.330951
 30
0.0
 11
0.230799
 21
0.330951
 31
0.0
  0
LINE
  8
1
  6
CONTINUOUS
 62
   250
 10
0.230799
 20
0.330951
 30
0.0
 11
0.230514
 21
0.328394
 31
0.0
  0
LINE
  8
1
  6
CONTINUOUS
 62
   250
 10
0.230799
 20
0.330667
 30
0.0
 11
0.221991
 21
0.330667
 31
0.0
  0
LINE
  8
1
  6
CONTINUOUS
 62
   250
 10
0.221991
 20
0.330667
 30
0.0
 11
0.221991
 21
0.330951
 31
0.0
  0
LINE
  8
1
  6
CONTINUOUS
 62
   250
 10
0.221991
 20
0.330951
 30
0.0
 11
0.22256
 21
0.328394
 31
0.0
  0
LINE
  8
1
  6
CONTINUOUS
 62
   250
 10
0.221991
 20
0.330951
 30
0.0
 11
0.217446
 21
0.330951
 31
0.0
  0
LINE
  8
1
  6
CONTINUOUS
 62
   250
 10
0.217446
 20
0.330951
 30
0.0
 11
0.217446
 21
0.334076
 31
0.0
  0
LINE
  8
1
  6
CONTINUOUS
 62
   250
 10
0.217446
 20
0.334076
 30
0.0
 11
0.21773
 21
0.334076
 31
0.0
  0
LINE
  8
1
  6
CONTINUOUS
 62
   250
 10
0.21773
 20
0.334076
 30
0.0
 11
0.218582
 21
0.332088
 31
0.0
  0
LINE
  8
1
  6
CONTINUOUS
 62
   250
 10
0.218582
 20
0.332088
 30
0.0
 11
0.220855
 21
0.332088
 31
0.0
  0
LINE
  8
1
  6
CONTINUOUS
 62
   250
 10
0.220855
 20
0.332088
 30
0.0
 11
0.220855
 21
0.334929
 31
0.0
  0
LINE
  8
1
  6
CONTINUOUS
 62
   250
 10
0.220855
 20
0.334929
 30
0.0
 11
0.220571
 21
0.334929
 31
0.0
  0
LINE
  8
1
  6
CONTINUOUS
 62
   250
 10
0.220571
 20
0.334929
 30
0.0
 11
0.218015
 21
0.336633
 31
0.0
  0
LINE
  8
1
  6
CONTINUOUS
 62
   250
 10
0.218015
 20
0.336633
 30
0.0
 11
0.218015
 21
0.340042
 31
0.0
  0
LINE
  8
1
  6
CONTINUOUS
 62
   250
 10
0.218015
 20
0.340042
 30
0.0
 11
0.217446
 21
0.340326
 31
0.0
  0
LINE
  8
1
  6
CONTINUOUS
 62
   250
 10
0.217446
 20
0.340326
 30
0.0
 11
0.21631
 21
0.340326
 31
0.0
  0
LINE
  8
1
  6
CONTINUOUS
 62
   250
 10
0.21631
 20
0.340326
 30
0.0
 11
0.21631
 21
0.340042
 31
0.0
  0
LINE
  8
1
  6
CONTINUOUS
 62
   250
 10
0.21631
 20
0.340042
 30
0.0
 11
0.21631
 21
0.338338
 31
0.0
  0
LINE
  8
1
  6
CONTINUOUS
 62
   250
 10
0.21631
 20
0.338338
 30
0.0
 11
0.214889
 21
0.337769
 31
0.0
  0
LINE
  8
1
  6
CONTINUOUS
 62
   250
 10
0.214889
 20
0.337769
 30
0.0
 11
0.214889
 21
0.333793
 31
0.0
  0
LINE
  8
1
  6
CONTINUOUS
 62
   250
 10
0.214889
 20
0.333793
 30
0.0
 11
0.216594
 21
0.332656
 31
0.0
  0
LINE
  8
1
  6
CONTINUOUS
 62
   250
 10
0.216594
 20
0.332656
 30
0.0
 11
0.216594
 21
0.330667
 31
0.0
  0
LINE
  8
1
  6
CONTINUOUS
 62
   250
 10
0.216594
 20
0.330667
 30
0.0
 11
0.215741
 21
0.329815
 31
0.0
  0
LINE
  8
1
  6
CONTINUOUS
 62
   250
 10
0.215741
 20
0.329815
 30
0.0
 11
0.214889
 21
0.329815
 31
0.0
  0
LINE
  8
1
  6
CONTINUOUS
 62
   250
 10
0.214889
 20
0.329815
 30
0.0
 11
0.214605
 21
0.328394
 31
0.0
  0
LINE
  8
1
  6
CONTINUOUS
 62
   250
 10
0.214605
 20
0.328394
 30
0.0
 11
0.22256
 21
0.328394
 31
0.0
  0
LINE
  8
1
  6
CONTINUOUS
 62
   250
 10
0.21631
 20
0.330667
 30
0.0
 11
0.212901
 21
0.330667
 31
0.0
  0
LINE
  8
1
  6
CONTINUOUS
 62
   250
 10
0.231935
 20
0.332088
 30
0.0
 11
0.234208
 21
0.332088
 31
0.0
  0
LINE
  8
1
  6
CONTINUOUS
 62
   250
 10
0.234208
 20
0.332088
 30
0.0
 11
0.23506
 21
0.334076
 31
0.0
  0
LINE
  8
1
  6
CONTINUOUS
 62
   250
 10
0.23506
 20
0.334076
 30
0.0
 11
0.235344
 21
0.334076
 31
0.0
  0
LINE
  8
1
  6
CONTINUOUS
 62
   250
 10
0.227673
 20
0.337486
 30
0.0
 11
0.227673
 21
0.342599
 31
0.0
  0
LINE
  8
1
  6
CONTINUOUS
 62
   250
 10
0.227673
 20
0.342599
 30
0.0
 11
0.232787
 21
0.342599
 31
0.0
  0
LINE
  8
1
  6
CONTINUOUS
 62
   250
 10
0.232787
 20
0.342599
 30
0.0
 11
0.232787
 21
0.343735
 31
0.0
  0
LINE
  8
1
  6
CONTINUOUS
 62
   250
 10
0.232787
 20
0.343735
 30
0.0
 11
0.232787
 21
0.345156
 31
0.0
  0
LINE
  8
1
  6
CONTINUOUS
 62
   250
 10
0.232787
 20
0.345156
 30
0.0
 11
0.227673
 21
0.345156
 31
0.0
  0
LINE
  8
1
  6
CONTINUOUS
 62
   250
 10
0.227673
 20
0.345156
 30
0.0
 11
0.227673
 21
0.35027
 31
0.0
  0
LINE
  8
1
  6
CONTINUOUS
 62
   250
 10
0.227673
 20
0.35027
 30
0.0
 11
0.226537
 21
0.35027
 31
0.0
  0
LINE
  8
1
  6
CONTINUOUS
 62
   250
 10
0.226537
 20
0.35027
 30
0.0
 11
0.2254
 21
0.35027
 31
0.0
  0
LINE
  8
1
  6
CONTINUOUS
 62
   250
 10
0.2254
 20
0.35027
 30
0.0
 11
0.2254
 21
0.345156
 31
0.0
  0
LINE
  8
1
  6
CONTINUOUS
 62
   250
 10
0.2254
 20
0.345156
 30
0.0
 11
0.220286
 21
0.345156
 31
0.0
  0
LINE
  8
1
  6
CONTINUOUS
 62
   250
 10
0.220286
 20
0.345156
 30
0.0
 11
0.220286
 21
0.343735
 31
0.0
  0
LINE
  8
1
  6
CONTINUOUS
 62
   250
 10
0.220286
 20
0.343735
 30
0.0
 11
0.220286
 21
0.342599
 31
0.0
  0
LINE
  8
1
  6
CONTINUOUS
 62
   250
 10
0.220286
 20
0.342599
 30
0.0
 11
0.2254
 21
0.342599
 31
0.0
  0
LINE
  8
1
  6
CONTINUOUS
 62
   250
 10
0.2254
 20
0.342599
 30
0.0
 11
0.2254
 21
0.337486
 31
0.0
  0
LINE
  8
1
  6
CONTINUOUS
 62
   250
 10
0.2254
 20
0.337486
 30
0.0
 11
0.226537
 21
0.337486
 31
0.0
  0
LINE
  8
1
  6
CONTINUOUS
 62
   250
 10
0.226537
 20
0.337486
 30
0.0
 11
0.227673
 21
0.337486
 31
0.0
  0
LINE
  8
1
  6
CONTINUOUS
 62
   250
 10
0.226537
 20
0.338621
 30
0.0
 11
0.226537
 21
0.343735
 31
0.0
  0
LINE
  8
1
  6
CONTINUOUS
 62
   250
 10
0.226537
 20
0.343735
 30
0.0
 11
0.221139
 21
0.343735
 31
0.0
  0
LINE
  8
1
  6
CONTINUOUS
 62
   250
 10
0.218298
 20
0.346008
 30
0.0
 11
0.21915
 21
0.347713
 31
0.0
  0
LINE
  8
1
  6
CONTINUOUS
 62
   250
 10
0.21915
 20
0.347713
 30
0.0
 11
0.220571
 21
0.349701
 31
0.0
  0
LINE
  8
1
  6
CONTINUOUS
 62
   250
 10
0.220571
 20
0.349701
 30
0.0
 11
0.222276
 21
0.351122
 31
0.0
  0
LINE
  8
1
  6
CONTINUOUS
 62
   250
 10
0.222276
 20
0.351122
 30
0.0
 11
0.224264
 21
0.351974
 31
0.0
  0
LINE
  8
1
  6
CONTINUOUS
 62
   250
 10
0.224264
 20
0.351974
 30
0.0
 11
0.226537
 21
0.352258
 31
0.0
  0
LINE
  8
1
  6
CONTINUOUS
 62
   250
 10
0.226537
 20
0.35027
 30
0.0
 11
0.227673
 21
0.35027
 31
0.0
  0
LINE
  8
1
  6
CONTINUOUS
 62
   250
 10
0.226537
 20
0.348849
 30
0.0
 11
0.226537
 21
0.343735
 31
0.0
  0
LINE
  8
1
  6
CONTINUOUS
 62
   250
 10
0.226537
 20
0.343735
 30
0.0
 11
0.231651
 21
0.343735
 31
0.0
  0
LINE
  8
1
  6
CONTINUOUS
 62
   250
 10
0.228525
 20
0.335781
 30
0.0
 11
0.226537
 21
0.335497
 31
0.0
  0
LINE
  8
1
  6
CONTINUOUS
 62
   250
 10
0.226537
 20
0.335497
 30
0.0
 11
0.224264
 21
0.335781
 31
0.0
  0
LINE
  8
1
  6
CONTINUOUS
 62
   250
 10
0.224264
 20
0.335781
 30
0.0
 11
0.222276
 21
0.33635
 31
0.0
  0
LINE
  8
1
  6
CONTINUOUS
 62
   250
 10
0.222276
 20
0.33635
 30
0.0
 11
0.220571
 21
0.337486
 31
0.0
  0
LINE
  8
1
  6
CONTINUOUS
 62
   250
 10
0.220571
 20
0.337486
 30
0.0
 11
0.21915
 21
0.339474
 31
0.0
  0
LINE
  8
1
  6
CONTINUOUS
 62
   250
 10
0.21915
 20
0.339474
 30
0.0
 11
0.218298
 21
0.341747
 31
0.0
  0
LINE
  8
1
  6
CONTINUOUS
 62
   250
 10
0.218298
 20
0.341747
 30
0.0
 11
0.218015
 21
0.343735
 31
0.0
  0
LINE
  8
1
  6
CONTINUOUS
 62
   250
 10
0.218015
 20
0.343735
 30
0.0
 11
0.218298
 21
0.346008
 31
0.0
  0
LINE
  8
1
  6
CONTINUOUS
 62
   250
 10
0.234491
 20
0.346008
 30
0.0
 11
0.233639
 21
0.347713
 31
0.0
  0
LINE
  8
1
  6
CONTINUOUS
 62
   250
 10
0.233639
 20
0.347713
 30
0.0
 11
0.232503
 21
0.349701
 31
0.0
  0
LINE
  8
1
  6
CONTINUOUS
 62
   250
 10
0.232503
 20
0.349701
 30
0.0
 11
0.230514
 21
0.351122
 31
0.0
  0
LINE
  8
1
  6
CONTINUOUS
 62
   250
 10
0.230514
 20
0.351122
 30
0.0
 11
0.228525
 21
0.351974
 31
0.0
  0
LINE
  8
1
  6
CONTINUOUS
 62
   250
 10
0.228525
 20
0.351974
 30
0.0
 11
0.226537
 21
0.352258
 31
0.0
  0
LINE
  8
1
  6
CONTINUOUS
 62
   250
 10
0.234491
 20
0.346008
 30
0.0
 11
0.23506
 21
0.343735
 31
0.0
  0
LINE
  8
1
  6
CONTINUOUS
 62
   250
 10
0.23506
 20
0.343735
 30
0.0
 11
0.234491
 21
0.341747
 31
0.0
  0
LINE
  8
1
  6
CONTINUOUS
 62
   250
 10
0.234491
 20
0.341747
 30
0.0
 11
0.233639
 21
0.339474
 31
0.0
  0
LINE
  8
1
  6
CONTINUOUS
 62
   250
 10
0.233639
 20
0.339474
 30
0.0
 11
0.232503
 21
0.337486
 31
0.0
  0
LINE
  8
1
  6
CONTINUOUS
 62
   250
 10
0.232503
 20
0.337486
 30
0.0
 11
0.230514
 21
0.33635
 31
0.0
  0
LINE
  8
1
  6
CONTINUOUS
 62
   250
 10
0.230514
 20
0.33635
 30
0.0
 11
0.228525
 21
0.335781
 31
0.0
  0
LINE
  8
1
  6
CONTINUOUS
 62
   250
 10
0.230799
 20
0.330667
 30
0.0
 11
0.221991
 21
0.330667
 31
0.0
  0
LINE
  8
1
  6
CONTINUOUS
 62
   250
 10
0.21631
 20
0.330667
 30
0.0
 11
0.212901
 21
0.330667
 31
0.0
  0
LINE
  8
1
  6
CONTINUOUS
 62
   250
 10
0.212901
 20
0.330667
 30
0.0
 11
0.212901
 21
0.330667
 31
0.0
  0
LINE
  8
1
  6
CONTINUOUS
 62
   250
 10
0.212901
 20
0.330667
 30
0.0
 11
0.212901
 21
0.357088
 31
0.0
  0
LINE
  8
1
  6
CONTINUOUS
 62
   250
 10
0.212901
 20
0.357088
 30
0.0
 11
0.212901
 21
0.356804
 31
0.0
  0
LINE
  8
1
  6
CONTINUOUS
 62
   250
 10
0.212901
 20
0.356804
 30
0.0
 11
0.240457
 21
0.356804
 31
0.0
  0
LINE
  8
1
  6
CONTINUOUS
 62
   250
 10
0.240457
 20
0.356804
 30
0.0
 11
0.240174
 21
0.357088
 31
0.0
  0
LINE
  8
1
  6
CONTINUOUS
 62
   250
 10
0.240174
 20
0.357088
 30
0.0
 11
0.240174
 21
0.330667
 31
0.0
  0
LINE
  8
1
  6
CONTINUOUS
 62
   250
 10
0.240174
 20
0.330667
 30
0.0
 11
0.240457
 21
0.330667
 31
0.0
  0
LINE
  8
1
  6
CONTINUOUS
 62
   250
 10
0.240457
 20
0.330667
 30
0.0
 11
0.236765
 21
0.330667
 31
0.0
  0
LINE
  8
1
  6
CONTINUOUS
 62
   250
 10
0.304936
 20
0.49789
 30
0.0
 11
0.308628
 21
0.49789
 31
0.0
  0
LINE
  8
1
  6
CONTINUOUS
 62
   250
 10
0.308628
 20
0.49789
 30
0.0
 11
0.308628
 21
0.501583
 31
0.0
  0
LINE
  8
1
  6
CONTINUOUS
 62
   250
 10
0.304936
 20
0.501583
 30
0.0
 11
0.304936
 21
0.49789
 31
0.0
  0
LINE
  8
1
  6
CONTINUOUS
 62
   250
 10
0.261753
 20
0.49789
 30
0.0
 11
0.261753
 21
0.501583
 31
0.0
  0
LINE
  8
1
  6
CONTINUOUS
 62
   250
 10
0.261753
 20
0.501583
 30
0.0
 11
0.304936
 21
0.501583
 31
0.0
  0
LINE
  8
1
  6
CONTINUOUS
 62
   250
 10
0.308628
 20
0.501583
 30
0.0
 11
0.308628
 21
0.525163
 31
0.0
  0
LINE
  8
1
  6
CONTINUOUS
 62
   250
 10
0.308628
 20
0.525163
 30
0.0
 11
0.258061
 21
0.525163
 31
0.0
  0
LINE
  8
1
  6
CONTINUOUS
 62
   250
 10
0.258061
 20
0.525163
 30
0.0
 11
0.258061
 21
0.501583
 31
0.0
  0
LINE
  8
1
  6
CONTINUOUS
 62
   250
 10
0.258061
 20
0.501583
 30
0.0
 11
0.258061
 21
0.49789
 31
0.0
  0
LINE
  8
1
  6
CONTINUOUS
 62
   250
 10
0.258061
 20
0.49789
 30
0.0
 11
0.261753
 21
0.49789
 31
0.0
  0
LINE
  8
1
  6
CONTINUOUS
 62
   250
 10
0.262037
 20
0.512662
 30
0.0
 11
0.263742
 21
0.511526
 31
0.0
  0
LINE
  8
1
  6
CONTINUOUS
 62
   250
 10
0.263742
 20
0.511526
 30
0.0
 11
0.265446
 21
0.511526
 31
0.0
  0
LINE
  8
1
  6
CONTINUOUS
 62
   250
 10
0.265446
 20
0.511526
 30
0.0
 11
0.267436
 21
0.511526
 31
0.0
  0
LINE
  8
1
  6
CONTINUOUS
 62
   250
 10
0.267436
 20
0.511526
 30
0.0
 11
0.26914
 21
0.512662
 31
0.0
  0
LINE
  8
1
  6
CONTINUOUS
 62
   250
 10
0.26914
 20
0.512662
 30
0.0
 11
0.27056
 21
0.514083
 31
0.0
  0
LINE
  8
1
  6
CONTINUOUS
 62
   250
 10
0.27056
 20
0.514083
 30
0.0
 11
0.271128
 21
0.515788
 31
0.0
  0
LINE
  8
1
  6
CONTINUOUS
 62
   250
 10
0.271128
 20
0.515788
 30
0.0
 11
0.271697
 21
0.517492
 31
0.0
  0
LINE
  8
1
  6
CONTINUOUS
 62
   250
 10
0.271697
 20
0.517492
 30
0.0
 11
0.271128
 21
0.519197
 31
0.0
  0
LINE
  8
1
  6
CONTINUOUS
 62
   250
 10
0.271128
 20
0.519197
 30
0.0
 11
0.27056
 21
0.520901
 31
0.0
  0
LINE
  8
1
  6
CONTINUOUS
 62
   250
 10
0.27056
 20
0.520901
 30
0.0
 11
0.26914
 21
0.522037
 31
0.0
  0
LINE
  8
1
  6
CONTINUOUS
 62
   250
 10
0.26914
 20
0.522037
 30
0.0
 11
0.267436
 21
0.523175
 31
0.0
  0
LINE
  8
1
  6
CONTINUOUS
 62
   250
 10
0.267436
 20
0.523175
 30
0.0
 11
0.265446
 21
0.523458
 31
0.0
  0
LINE
  8
1
  6
CONTINUOUS
 62
   250
 10
0.265446
 20
0.523458
 30
0.0
 11
0.263742
 21
0.523175
 31
0.0
  0
LINE
  8
1
  6
CONTINUOUS
 62
   250
 10
0.263742
 20
0.523175
 30
0.0
 11
0.262037
 21
0.522037
 31
0.0
  0
LINE
  8
1
  6
CONTINUOUS
 62
   250
 10
0.262037
 20
0.522037
 30
0.0
 11
0.260901
 21
0.520901
 31
0.0
  0
LINE
  8
1
  6
CONTINUOUS
 62
   250
 10
0.260901
 20
0.520901
 30
0.0
 11
0.260049
 21
0.519197
 31
0.0
  0
LINE
  8
1
  6
CONTINUOUS
 62
   250
 10
0.260049
 20
0.519197
 30
0.0
 11
0.259765
 21
0.517492
 31
0.0
  0
LINE
  8
1
  6
CONTINUOUS
 62
   250
 10
0.259765
 20
0.517492
 30
0.0
 11
0.260049
 21
0.515788
 31
0.0
  0
LINE
  8
1
  6
CONTINUOUS
 62
   250
 10
0.260049
 20
0.515788
 30
0.0
 11
0.260901
 21
0.514083
 31
0.0
  0
LINE
  8
1
  6
CONTINUOUS
 62
   250
 10
0.260901
 20
0.514083
 30
0.0
 11
0.262037
 21
0.512662
 31
0.0
  0
LINE
  8
1
  6
CONTINUOUS
 62
   250
 10
0.259765
 20
0.516924
 30
0.0
 11
0.271697
 21
0.516924
 31
0.0
  0
LINE
  8
1
  6
CONTINUOUS
 62
   250
 10
0.271697
 20
0.516924
 30
0.0
 11
0.271697
 21
0.518061
 31
0.0
  0
LINE
  8
1
  6
CONTINUOUS
 62
   250
 10
0.271697
 20
0.518061
 30
0.0
 11
0.259765
 21
0.518061
 31
0.0
  0
LINE
  8
1
  6
CONTINUOUS
 62
   250
 10
0.121164
 20
0.193566
 30
0.0
 11
0.121164
 21
0.462601
 31
0.0
  0
LINE
  8
1
  6
CONTINUOUS
 62
   250
 10
0.062074
 20
0.462601
 30
0.0
 11
0.062074
 21
0.193566
 31
0.0
  0
LINE
  8
1
  6
CONTINUOUS
 62
   250
 10
0.121164
 20
0.462601
 30
0.0
 11
0.098153
 21
0.462601
 31
0.0
  0
LINE
  8
1
  6
CONTINUOUS
 62
   250
 10
0.098153
 20
0.462601
 30
0.0
 11
0.097869
 21
0.46118
 31
0.0
  0
LINE
  8
1
  6
CONTINUOUS
 62
   250
 10
0.097869
 20
0.46118
 30
0.0
 11
0.0973
 21
0.460044
 31
0.0
  0
LINE
  8
1
  6
CONTINUOUS
 62
   250
 10
0.0973
 20
0.460044
 30
0.0
 11
0.096733
 21
0.459191
 31
0.0
  0
LINE
  8
1
  6
CONTINUOUS
 62
   250
 10
0.096733
 20
0.459191
 30
0.0
 11
0.095312
 21
0.458623
 31
0.0
  0
LINE
  8
1
  6
CONTINUOUS
 62
   250
 10
0.095312
 20
0.458623
 30
0.0
 11
0.093891
 21
0.458339
 31
0.0
  0
LINE
  8
1
  6
CONTINUOUS
 62
   250
 10
0.093891
 20
0.458339
 30
0.0
 11
0.092755
 21
0.458623
 31
0.0
  0
LINE
  8
1
  6
CONTINUOUS
 62
   250
 10
0.092755
 20
0.458623
 30
0.0
 11
0.09162
 21
0.459191
 31
0.0
  0
LINE
  8
1
  6
CONTINUOUS
 62
   250
 10
0.09162
 20
0.459191
 30
0.0
 11
0.090482
 21
0.460044
 31
0.0
  0
LINE
  8
1
  6
CONTINUOUS
 62
   250
 10
0.090482
 20
0.460044
 30
0.0
 11
0.090199
 21
0.46118
 31
0.0
  0
LINE
  8
1
  6
CONTINUOUS
 62
   250
 10
0.090199
 20
0.46118
 30
0.0
 11
0.089915
 21
0.462601
 31
0.0
  0
LINE
  8
1
  6
CONTINUOUS
 62
   250
 10
0.062074
 20
0.462601
 30
0.0
 11
0.089915
 21
0.462601
 31
0.0
  0
LINE
  8
1
  6
CONTINUOUS
 62
   250
 10
0.121164
 20
0.193566
 30
0.0
 11
0.062074
 21
0.193566
 31
0.0
  0
LINE
  8
1
  6
CONTINUOUS
 62
   250
 10
0.061887
 20
0.479482
 30
0.0
 11
0.166716
 21
0.479482
 31
0.0
  0
LINE
  8
1
  6
CONTINUOUS
 62
   250
 10
0.166716
 20
0.479482
 30
0.0
 11
0.166716
 21
0.519538
 31
0.0
  0
LINE
  8
1
  6
CONTINUOUS
 62
   250
 10
0.166716
 20
0.519538
 30
0.0
 11
0.061887
 21
0.519538
 31
0.0
  0
LINE
  8
1
  6
CONTINUOUS
 62
   250
 10
0.061887
 20
0.519538
 30
0.0
 11
0.061887
 21
0.479482
 31
0.0
  0
LINE
  8
1
  6
CONTINUOUS
 62
   250
 10
0.068421
 20
0.4863
 30
0.0
 11
0.084898
 21
0.4863
 31
0.0
  0
LINE
  8
1
  6
CONTINUOUS
 62
   250
 10
0.093421
 20
0.4863
 30
0.0
 11
0.109898
 21
0.4863
 31
0.0
  0
LINE
  8
1
  6
CONTINUOUS
 62
   250
 10
0.118421
 20
0.4863
 30
0.0
 11
0.135182
 21
0.4863
 31
0.0
  0
LINE
  8
1
  6
CONTINUOUS
 62
   250
 10
0.143421
 20
0.4863
 30
0.0
 11
0.159898
 21
0.4863
 31
0.0
  0
LINE
  8
1
  6
CONTINUOUS
 62
   250
 10
0.153364
 20
0.491697
 30
0.0
 11
0.153932
 21
0.492266
 31
0.0
  0
LINE
  8
1
  6
CONTINUOUS
 62
   250
 10
0.153932
 20
0.492266
 30
0.0
 11
0.154216
 21
0.492833
 31
0.0
  0
LINE
  8
1
  6
CONTINUOUS
 62
   250
 10
0.154216
 20
0.492833
 30
0.0
 11
0.153932
 21
0.493685
 31
0.0
  0
LINE
  8
1
  6
CONTINUOUS
 62
   250
 10
0.153932
 20
0.493685
 30
0.0
 11
0.153364
 21
0.49397
 31
0.0
  0
LINE
  8
1
  6
CONTINUOUS
 62
   250
 10
0.153364
 20
0.49397
 30
0.0
 11
0.152796
 21
0.494254
 31
0.0
  0
LINE
  8
1
  6
CONTINUOUS
 62
   250
 10
0.152796
 20
0.494254
 30
0.0
 11
0.152228
 21
0.49397
 31
0.0
  0
LINE
  8
1
  6
CONTINUOUS
 62
   250
 10
0.152228
 20
0.49397
 30
0.0
 11
0.151659
 21
0.493685
 31
0.0
  0
LINE
  8
1
  6
CONTINUOUS
 62
   250
 10
0.151659
 20
0.493685
 30
0.0
 11
0.151376
 21
0.492833
 31
0.0
  0
LINE
  8
1
  6
CONTINUOUS
 62
   250
 10
0.151376
 20
0.492833
 30
0.0
 11
0.151659
 21
0.492266
 31
0.0
  0
LINE
  8
1
  6
CONTINUOUS
 62
   250
 10
0.151659
 20
0.492266
 30
0.0
 11
0.152228
 21
0.491697
 31
0.0
  0
LINE
  8
1
  6
CONTINUOUS
 62
   250
 10
0.152228
 20
0.491697
 30
0.0
 11
0.152796
 21
0.491697
 31
0.0
  0
LINE
  8
1
  6
CONTINUOUS
 62
   250
 10
0.152796
 20
0.491697
 30
0.0
 11
0.153364
 21
0.491697
 31
0.0
  0
LINE
  8
1
  6
CONTINUOUS
 62
   250
 10
0.140012
 20
0.491697
 30
0.0
 11
0.14058
 21
0.492266
 31
0.0
  0
LINE
  8
1
  6
CONTINUOUS
 62
   250
 10
0.14058
 20
0.492266
 30
0.0
 11
0.14058
 21
0.492833
 31
0.0
  0
LINE
  8
1
  6
CONTINUOUS
 62
   250
 10
0.14058
 20
0.492833
 30
0.0
 11
0.14058
 21
0.493685
 31
0.0
  0
LINE
  8
1
  6
CONTINUOUS
 62
   250
 10
0.14058
 20
0.493685
 30
0.0
 11
0.140012
 21
0.49397
 31
0.0
  0
LINE
  8
1
  6
CONTINUOUS
 62
   250
 10
0.140012
 20
0.49397
 30
0.0
 11
0.139444
 21
0.494254
 31
0.0
  0
LINE
  8
1
  6
CONTINUOUS
 62
   250
 10
0.139444
 20
0.494254
 30
0.0
 11
0.138591
 21
0.49397
 31
0.0
  0
LINE
  8
1
  6
CONTINUOUS
 62
   250
 10
0.138591
 20
0.49397
 30
0.0
 11
0.138308
 21
0.493685
 31
0.0
  0
LINE
  8
1
  6
CONTINUOUS
 62
   250
 10
0.138308
 20
0.493685
 30
0.0
 11
0.138023
 21
0.492833
 31
0.0
  0
LINE
  8
1
  6
CONTINUOUS
 62
   250
 10
0.138023
 20
0.492833
 30
0.0
 11
0.138308
 21
0.492266
 31
0.0
  0
LINE
  8
1
  6
CONTINUOUS
 62
   250
 10
0.138308
 20
0.492266
 30
0.0
 11
0.138591
 21
0.491697
 31
0.0
  0
LINE
  8
1
  6
CONTINUOUS
 62
   250
 10
0.138591
 20
0.491697
 30
0.0
 11
0.139444
 21
0.491697
 31
0.0
  0
LINE
  8
1
  6
CONTINUOUS
 62
   250
 10
0.139444
 20
0.491697
 30
0.0
 11
0.140012
 21
0.491697
 31
0.0
  0
LINE
  8
1
  6
CONTINUOUS
 62
   250
 10
0.129216
 20
0.491697
 30
0.0
 11
0.129785
 21
0.492266
 31
0.0
  0
LINE
  8
1
  6
CONTINUOUS
 62
   250
 10
0.129785
 20
0.492266
 30
0.0
 11
0.130069
 21
0.492833
 31
0.0
  0
LINE
  8
1
  6
CONTINUOUS
 62
   250
 10
0.130069
 20
0.492833
 30
0.0
 11
0.129785
 21
0.493685
 31
0.0
  0
LINE
  8
1
  6
CONTINUOUS
 62
   250
 10
0.129785
 20
0.493685
 30
0.0
 11
0.129216
 21
0.49397
 31
0.0
  0
LINE
  8
1
  6
CONTINUOUS
 62
   250
 10
0.129216
 20
0.49397
 30
0.0
 11
0.128648
 21
0.494254
 31
0.0
  0
LINE
  8
1
  6
CONTINUOUS
 62
   250
 10
0.128648
 20
0.494254
 30
0.0
 11
0.128081
 21
0.49397
 31
0.0
  0
LINE
  8
1
  6
CONTINUOUS
 62
   250
 10
0.128081
 20
0.49397
 30
0.0
 11
0.127512
 21
0.493685
 31
0.0
  0
LINE
  8
1
  6
CONTINUOUS
 62
   250
 10
0.127512
 20
0.493685
 30
0.0
 11
0.127228
 21
0.492833
 31
0.0
  0
LINE
  8
1
  6
CONTINUOUS
 62
   250
 10
0.127228
 20
0.492833
 30
0.0
 11
0.127512
 21
0.492266
 31
0.0
  0
LINE
  8
1
  6
CONTINUOUS
 62
   250
 10
0.127512
 20
0.492266
 30
0.0
 11
0.128081
 21
0.491697
 31
0.0
  0
LINE
  8
1
  6
CONTINUOUS
 62
   250
 10
0.128081
 20
0.491697
 30
0.0
 11
0.128648
 21
0.491697
 31
0.0
  0
LINE
  8
1
  6
CONTINUOUS
 62
   250
 10
0.128648
 20
0.491697
 30
0.0
 11
0.129216
 21
0.491697
 31
0.0
  0
LINE
  8
1
  6
CONTINUOUS
 62
   250
 10
0.116149
 20
0.491697
 30
0.0
 11
0.116432
 21
0.492266
 31
0.0
  0
LINE
  8
1
  6
CONTINUOUS
 62
   250
 10
0.116432
 20
0.492266
 30
0.0
 11
0.116716
 21
0.492833
 31
0.0
  0
LINE
  8
1
  6
CONTINUOUS
 62
   250
 10
0.116716
 20
0.492833
 30
0.0
 11
0.116432
 21
0.493685
 31
0.0
  0
LINE
  8
1
  6
CONTINUOUS
 62
   250
 10
0.116432
 20
0.493685
 30
0.0
 11
0.116149
 21
0.49397
 31
0.0
  0
LINE
  8
1
  6
CONTINUOUS
 62
   250
 10
0.116149
 20
0.49397
 30
0.0
 11
0.115296
 21
0.494254
 31
0.0
  0
LINE
  8
1
  6
CONTINUOUS
 62
   250
 10
0.115296
 20
0.494254
 30
0.0
 11
0.114728
 21
0.49397
 31
0.0
  0
LINE
  8
1
  6
CONTINUOUS
 62
   250
 10
0.114728
 20
0.49397
 30
0.0
 11
0.114159
 21
0.493685
 31
0.0
  0
LINE
  8
1
  6
CONTINUOUS
 62
   250
 10
0.114159
 20
0.493685
 30
0.0
 11
0.113876
 21
0.492833
 31
0.0
  0
LINE
  8
1
  6
CONTINUOUS
 62
   250
 10
0.113876
 20
0.492833
 30
0.0
 11
0.114159
 21
0.492266
 31
0.0
  0
LINE
  8
1
  6
CONTINUOUS
 62
   250
 10
0.114159
 20
0.492266
 30
0.0
 11
0.114728
 21
0.491697
 31
0.0
  0
LINE
  8
1
  6
CONTINUOUS
 62
   250
 10
0.114728
 20
0.491697
 30
0.0
 11
0.115296
 21
0.491697
 31
0.0
  0
LINE
  8
1
  6
CONTINUOUS
 62
   250
 10
0.115296
 20
0.491697
 30
0.0
 11
0.116149
 21
0.491697
 31
0.0
  0
LINE
  8
1
  6
CONTINUOUS
 62
   250
 10
0.102512
 20
0.491697
 30
0.0
 11
0.10308
 21
0.492266
 31
0.0
  0
LINE
  8
1
  6
CONTINUOUS
 62
   250
 10
0.10308
 20
0.492266
 30
0.0
 11
0.103365
 21
0.492833
 31
0.0
  0
LINE
  8
1
  6
CONTINUOUS
 62
   250
 10
0.103365
 20
0.492833
 30
0.0
 11
0.10308
 21
0.493685
 31
0.0
  0
LINE
  8
1
  6
CONTINUOUS
 62
   250
 10
0.10308
 20
0.493685
 30
0.0
 11
0.102512
 21
0.49397
 31
0.0
  0
LINE
  8
1
  6
CONTINUOUS
 62
   250
 10
0.102512
 20
0.49397
 30
0.0
 11
0.101944
 21
0.494254
 31
0.0
  0
LINE
  8
1
  6
CONTINUOUS
 62
   250
 10
0.101944
 20
0.494254
 30
0.0
 11
0.101375
 21
0.49397
 31
0.0
  0
LINE
  8
1
  6
CONTINUOUS
 62
   250
 10
0.101375
 20
0.49397
 30
0.0
 11
0.100808
 21
0.493685
 31
0.0
  0
LINE
  8
1
  6
CONTINUOUS
 62
   250
 10
0.100808
 20
0.493685
 30
0.0
 11
0.100523
 21
0.492833
 31
0.0
  0
LINE
  8
1
  6
CONTINUOUS
 62
   250
 10
0.100523
 20
0.492833
 30
0.0
 11
0.100808
 21
0.492266
 31
0.0
  0
LINE
  8
1
  6
CONTINUOUS
 62
   250
 10
0.100808
 20
0.492266
 30
0.0
 11
0.101375
 21
0.491697
 31
0.0
  0
LINE
  8
1
  6
CONTINUOUS
 62
   250
 10
0.101375
 20
0.491697
 30
0.0
 11
0.101944
 21
0.491697
 31
0.0
  0
LINE
  8
1
  6
CONTINUOUS
 62
   250
 10
0.101944
 20
0.491697
 30
0.0
 11
0.102512
 21
0.491697
 31
0.0
  0
LINE
  8
1
  6
CONTINUOUS
 62
   250
 10
0.089443
 20
0.491697
 30
0.0
 11
0.089728
 21
0.492266
 31
0.0
  0
LINE
  8
1
  6
CONTINUOUS
 62
   250
 10
0.089728
 20
0.492266
 30
0.0
 11
0.090012
 21
0.492833
 31
0.0
  0
LINE
  8
1
  6
CONTINUOUS
 62
   250
 10
0.090012
 20
0.492833
 30
0.0
 11
0.089728
 21
0.493685
 31
0.0
  0
LINE
  8
1
  6
CONTINUOUS
 62
   250
 10
0.089728
 20
0.493685
 30
0.0
 11
0.089443
 21
0.49397
 31
0.0
  0
LINE
  8
1
  6
CONTINUOUS
 62
   250
 10
0.089443
 20
0.49397
 30
0.0
 11
0.088591
 21
0.494254
 31
0.0
  0
LINE
  8
1
  6
CONTINUOUS
 62
   250
 10
0.088591
 20
0.494254
 30
0.0
 11
0.088024
 21
0.49397
 31
0.0
  0
LINE
  8
1
  6
CONTINUOUS
 62
   250
 10
0.088024
 20
0.49397
 30
0.0
 11
0.087455
 21
0.493685
 31
0.0
  0
LINE
  8
1
  6
CONTINUOUS
 62
   250
 10
0.087455
 20
0.493685
 30
0.0
 11
0.087171
 21
0.492833
 31
0.0
  0
LINE
  8
1
  6
CONTINUOUS
 62
   250
 10
0.087171
 20
0.492833
 30
0.0
 11
0.087455
 21
0.492266
 31
0.0
  0
LINE
  8
1
  6
CONTINUOUS
 62
   250
 10
0.087455
 20
0.492266
 30
0.0
 11
0.088024
 21
0.491697
 31
0.0
  0
LINE
  8
1
  6
CONTINUOUS
 62
   250
 10
0.088024
 20
0.491697
 30
0.0
 11
0.088591
 21
0.491697
 31
0.0
  0
LINE
  8
1
  6
CONTINUOUS
 62
   250
 10
0.088591
 20
0.491697
 30
0.0
 11
0.089443
 21
0.491697
 31
0.0
  0
LINE
  8
1
  6
CONTINUOUS
 62
   250
 10
0.089443
 20
0.504765
 30
0.0
 11
0.089728
 21
0.505617
 31
0.0
  0
LINE
  8
1
  6
CONTINUOUS
 62
   250
 10
0.089728
 20
0.505617
 30
0.0
 11
0.090012
 21
0.506186
 31
0.0
  0
LINE
  8
1
  6
CONTINUOUS
 62
   250
 10
0.090012
 20
0.506186
 30
0.0
 11
0.089728
 21
0.507038
 31
0.0
  0
LINE
  8
1
  6
CONTINUOUS
 62
   250
 10
0.089728
 20
0.507038
 30
0.0
 11
0.089443
 21
0.507607
 31
0.0
  0
LINE
  8
1
  6
CONTINUOUS
 62
   250
 10
0.089443
 20
0.507607
 30
0.0
 11
0.088591
 21
0.507607
 31
0.0
  0
LINE
  8
1
  6
CONTINUOUS
 62
   250
 10
0.088591
 20
0.507607
 30
0.0
 11
0.088024
 21
0.507607
 31
0.0
  0
LINE
  8
1
  6
CONTINUOUS
 62
   250
 10
0.088024
 20
0.507607
 30
0.0
 11
0.087455
 21
0.507038
 31
0.0
  0
LINE
  8
1
  6
CONTINUOUS
 62
   250
 10
0.087455
 20
0.507038
 30
0.0
 11
0.087171
 21
0.506186
 31
0.0
  0
LINE
  8
1
  6
CONTINUOUS
 62
   250
 10
0.087171
 20
0.506186
 30
0.0
 11
0.087455
 21
0.505617
 31
0.0
  0
LINE
  8
1
  6
CONTINUOUS
 62
   250
 10
0.087455
 20
0.505617
 30
0.0
 11
0.088024
 21
0.504765
 31
0.0
  0
LINE
  8
1
  6
CONTINUOUS
 62
   250
 10
0.088024
 20
0.504765
 30
0.0
 11
0.088591
 21
0.504765
 31
0.0
  0
LINE
  8
1
  6
CONTINUOUS
 62
   250
 10
0.088591
 20
0.504765
 30
0.0
 11
0.089443
 21
0.504765
 31
0.0
  0
LINE
  8
1
  6
CONTINUOUS
 62
   250
 10
0.093421
 20
0.513004
 30
0.0
 11
0.109898
 21
0.513004
 31
0.0
  0
LINE
  8
1
  6
CONTINUOUS
 62
   250
 10
0.118421
 20
0.513004
 30
0.0
 11
0.135182
 21
0.513004
 31
0.0
  0
LINE
  8
1
  6
CONTINUOUS
 62
   250
 10
0.143421
 20
0.513004
 30
0.0
 11
0.159898
 21
0.513004
 31
0.0
  0
LINE
  8
1
  6
CONTINUOUS
 62
   250
 10
0.159898
 20
0.513004
 30
0.0
 11
0.159898
 21
0.503912
 31
0.0
  0
LINE
  8
1
  6
CONTINUOUS
 62
   250
 10
0.153932
 20
0.505617
 30
0.0
 11
0.154216
 21
0.506186
 31
0.0
  0
LINE
  8
1
  6
CONTINUOUS
 62
   250
 10
0.154216
 20
0.506186
 30
0.0
 11
0.153932
 21
0.507038
 31
0.0
  0
LINE
  8
1
  6
CONTINUOUS
 62
   250
 10
0.153932
 20
0.507038
 30
0.0
 11
0.153364
 21
0.507607
 31
0.0
  0
LINE
  8
1
  6
CONTINUOUS
 62
   250
 10
0.153364
 20
0.507607
 30
0.0
 11
0.152796
 21
0.507607
 31
0.0
  0
LINE
  8
1
  6
CONTINUOUS
 62
   250
 10
0.152796
 20
0.507607
 30
0.0
 11
0.152228
 21
0.507607
 31
0.0
  0
LINE
  8
1
  6
CONTINUOUS
 62
   250
 10
0.152228
 20
0.507607
 30
0.0
 11
0.151659
 21
0.507038
 31
0.0
  0
LINE
  8
1
  6
CONTINUOUS
 62
   250
 10
0.151659
 20
0.507038
 30
0.0
 11
0.151376
 21
0.506186
 31
0.0
  0
LINE
  8
1
  6
CONTINUOUS
 62
   250
 10
0.151376
 20
0.506186
 30
0.0
 11
0.151659
 21
0.505617
 31
0.0
  0
LINE
  8
1
  6
CONTINUOUS
 62
   250
 10
0.151659
 20
0.505617
 30
0.0
 11
0.152228
 21
0.504765
 31
0.0
  0
LINE
  8
1
  6
CONTINUOUS
 62
   250
 10
0.152228
 20
0.504765
 30
0.0
 11
0.152796
 21
0.504765
 31
0.0
  0
LINE
  8
1
  6
CONTINUOUS
 62
   250
 10
0.152796
 20
0.504765
 30
0.0
 11
0.153364
 21
0.504765
 31
0.0
  0
LINE
  8
1
  6
CONTINUOUS
 62
   250
 10
0.153364
 20
0.504765
 30
0.0
 11
0.153932
 21
0.505617
 31
0.0
  0
LINE
  8
1
  6
CONTINUOUS
 62
   250
 10
0.14058
 20
0.505617
 30
0.0
 11
0.14058
 21
0.506186
 31
0.0
  0
LINE
  8
1
  6
CONTINUOUS
 62
   250
 10
0.14058
 20
0.506186
 30
0.0
 11
0.14058
 21
0.507038
 31
0.0
  0
LINE
  8
1
  6
CONTINUOUS
 62
   250
 10
0.14058
 20
0.507038
 30
0.0
 11
0.140012
 21
0.507607
 31
0.0
  0
LINE
  8
1
  6
CONTINUOUS
 62
   250
 10
0.140012
 20
0.507607
 30
0.0
 11
0.139444
 21
0.507607
 31
0.0
  0
LINE
  8
1
  6
CONTINUOUS
 62
   250
 10
0.139444
 20
0.507607
 30
0.0
 11
0.138591
 21
0.507607
 31
0.0
  0
LINE
  8
1
  6
CONTINUOUS
 62
   250
 10
0.138591
 20
0.507607
 30
0.0
 11
0.138308
 21
0.507038
 31
0.0
  0
LINE
  8
1
  6
CONTINUOUS
 62
   250
 10
0.138308
 20
0.507038
 30
0.0
 11
0.138023
 21
0.506186
 31
0.0
  0
LINE
  8
1
  6
CONTINUOUS
 62
   250
 10
0.138023
 20
0.506186
 30
0.0
 11
0.138308
 21
0.505617
 31
0.0
  0
LINE
  8
1
  6
CONTINUOUS
 62
   250
 10
0.138308
 20
0.505617
 30
0.0
 11
0.138591
 21
0.504765
 31
0.0
  0
LINE
  8
1
  6
CONTINUOUS
 62
   250
 10
0.138591
 20
0.504765
 30
0.0
 11
0.139444
 21
0.504765
 31
0.0
  0
LINE
  8
1
  6
CONTINUOUS
 62
   250
 10
0.139444
 20
0.504765
 30
0.0
 11
0.140012
 21
0.504765
 31
0.0
  0
LINE
  8
1
  6
CONTINUOUS
 62
   250
 10
0.140012
 20
0.504765
 30
0.0
 11
0.14058
 21
0.505617
 31
0.0
  0
LINE
  8
1
  6
CONTINUOUS
 62
   250
 10
0.129785
 20
0.505617
 30
0.0
 11
0.130069
 21
0.506186
 31
0.0
  0
LINE
  8
1
  6
CONTINUOUS
 62
   250
 10
0.130069
 20
0.506186
 30
0.0
 11
0.129785
 21
0.507038
 31
0.0
  0
LINE
  8
1
  6
CONTINUOUS
 62
   250
 10
0.129785
 20
0.507038
 30
0.0
 11
0.129216
 21
0.507607
 31
0.0
  0
LINE
  8
1
  6
CONTINUOUS
 62
   250
 10
0.129216
 20
0.507607
 30
0.0
 11
0.128648
 21
0.507607
 31
0.0
  0
LINE
  8
1
  6
CONTINUOUS
 62
   250
 10
0.128648
 20
0.507607
 30
0.0
 11
0.128081
 21
0.507607
 31
0.0
  0
LINE
  8
1
  6
CONTINUOUS
 62
   250
 10
0.128081
 20
0.507607
 30
0.0
 11
0.127512
 21
0.507038
 31
0.0
  0
LINE
  8
1
  6
CONTINUOUS
 62
   250
 10
0.127512
 20
0.507038
 30
0.0
 11
0.127228
 21
0.506186
 31
0.0
  0
LINE
  8
1
  6
CONTINUOUS
 62
   250
 10
0.127228
 20
0.506186
 30
0.0
 11
0.127512
 21
0.505617
 31
0.0
  0
LINE
  8
1
  6
CONTINUOUS
 62
   250
 10
0.127512
 20
0.505617
 30
0.0
 11
0.128081
 21
0.504765
 31
0.0
  0
LINE
  8
1
  6
CONTINUOUS
 62
   250
 10
0.128081
 20
0.504765
 30
0.0
 11
0.128648
 21
0.504765
 31
0.0
  0
LINE
  8
1
  6
CONTINUOUS
 62
   250
 10
0.128648
 20
0.504765
 30
0.0
 11
0.129216
 21
0.504765
 31
0.0
  0
LINE
  8
1
  6
CONTINUOUS
 62
   250
 10
0.129216
 20
0.504765
 30
0.0
 11
0.129785
 21
0.505617
 31
0.0
  0
LINE
  8
1
  6
CONTINUOUS
 62
   250
 10
0.116432
 20
0.505617
 30
0.0
 11
0.116716
 21
0.506186
 31
0.0
  0
LINE
  8
1
  6
CONTINUOUS
 62
   250
 10
0.116716
 20
0.506186
 30
0.0
 11
0.116432
 21
0.507038
 31
0.0
  0
LINE
  8
1
  6
CONTINUOUS
 62
   250
 10
0.116432
 20
0.507038
 30
0.0
 11
0.116149
 21
0.507607
 31
0.0
  0
LINE
  8
1
  6
CONTINUOUS
 62
   250
 10
0.116149
 20
0.507607
 30
0.0
 11
0.115296
 21
0.507607
 31
0.0
  0
LINE
  8
1
  6
CONTINUOUS
 62
   250
 10
0.115296
 20
0.507607
 30
0.0
 11
0.114728
 21
0.507607
 31
0.0
  0
LINE
  8
1
  6
CONTINUOUS
 62
   250
 10
0.114728
 20
0.507607
 30
0.0
 11
0.114159
 21
0.507038
 31
0.0
  0
LINE
  8
1
  6
CONTINUOUS
 62
   250
 10
0.114159
 20
0.507038
 30
0.0
 11
0.113876
 21
0.506186
 31
0.0
  0
LINE
  8
1
  6
CONTINUOUS
 62
   250
 10
0.113876
 20
0.506186
 30
0.0
 11
0.114159
 21
0.505617
 31
0.0
  0
LINE
  8
1
  6
CONTINUOUS
 62
   250
 10
0.114159
 20
0.505617
 30
0.0
 11
0.114728
 21
0.504765
 31
0.0
  0
LINE
  8
1
  6
CONTINUOUS
 62
   250
 10
0.114728
 20
0.504765
 30
0.0
 11
0.115296
 21
0.504765
 31
0.0
  0
LINE
  8
1
  6
CONTINUOUS
 62
   250
 10
0.115296
 20
0.504765
 30
0.0
 11
0.116149
 21
0.504765
 31
0.0
  0
LINE
  8
1
  6
CONTINUOUS
 62
   250
 10
0.116149
 20
0.504765
 30
0.0
 11
0.116432
 21
0.505617
 31
0.0
  0
LINE
  8
1
  6
CONTINUOUS
 62
   250
 10
0.10308
 20
0.505617
 30
0.0
 11
0.103365
 21
0.506186
 31
0.0
  0
LINE
  8
1
  6
CONTINUOUS
 62
   250
 10
0.103365
 20
0.506186
 30
0.0
 11
0.10308
 21
0.507038
 31
0.0
  0
LINE
  8
1
  6
CONTINUOUS
 62
   250
 10
0.10308
 20
0.507038
 30
0.0
 11
0.102512
 21
0.507607
 31
0.0
  0
LINE
  8
1
  6
CONTINUOUS
 62
   250
 10
0.102512
 20
0.507607
 30
0.0
 11
0.101944
 21
0.507607
 31
0.0
  0
LINE
  8
1
  6
CONTINUOUS
 62
   250
 10
0.101944
 20
0.507607
 30
0.0
 11
0.101375
 21
0.507607
 31
0.0
  0
LINE
  8
1
  6
CONTINUOUS
 62
   250
 10
0.101375
 20
0.507607
 30
0.0
 11
0.100808
 21
0.507038
 31
0.0
  0
LINE
  8
1
  6
CONTINUOUS
 62
   250
 10
0.100808
 20
0.507038
 30
0.0
 11
0.100523
 21
0.506186
 31
0.0
  0
LINE
  8
1
  6
CONTINUOUS
 62
   250
 10
0.100523
 20
0.506186
 30
0.0
 11
0.100808
 21
0.505617
 31
0.0
  0
LINE
  8
1
  6
CONTINUOUS
 62
   250
 10
0.100808
 20
0.505617
 30
0.0
 11
0.101375
 21
0.504765
 31
0.0
  0
LINE
  8
1
  6
CONTINUOUS
 62
   250
 10
0.101375
 20
0.504765
 30
0.0
 11
0.101944
 21
0.504765
 31
0.0
  0
LINE
  8
1
  6
CONTINUOUS
 62
   250
 10
0.101944
 20
0.504765
 30
0.0
 11
0.102512
 21
0.504765
 31
0.0
  0
LINE
  8
1
  6
CONTINUOUS
 62
   250
 10
0.102512
 20
0.504765
 30
0.0
 11
0.10308
 21
0.505617
 31
0.0
  0
LINE
  8
1
  6
CONTINUOUS
 62
   250
 10
0.084898
 20
0.513004
 30
0.0
 11
0.068421
 21
0.513004
 31
0.0
  0
LINE
  8
1
  6
CONTINUOUS
 62
   250
 10
0.068421
 20
0.513004
 30
0.0
 11
0.068421
 21
0.503912
 31
0.0
  0
LINE
  8
1
  6
CONTINUOUS
 62
   250
 10
0.074102
 20
0.505617
 30
0.0
 11
0.074671
 21
0.504765
 31
0.0
  0
LINE
  8
1
  6
CONTINUOUS
 62
   250
 10
0.074671
 20
0.504765
 30
0.0
 11
0.07524
 21
0.504765
 31
0.0
  0
LINE
  8
1
  6
CONTINUOUS
 62
   250
 10
0.07524
 20
0.504765
 30
0.0
 11
0.075807
 21
0.504765
 31
0.0
  0
LINE
  8
1
  6
CONTINUOUS
 62
   250
 10
0.075807
 20
0.504765
 30
0.0
 11
0.076376
 21
0.505617
 31
0.0
  0
LINE
  8
1
  6
CONTINUOUS
 62
   250
 10
0.076376
 20
0.505617
 30
0.0
 11
0.076659
 21
0.506186
 31
0.0
  0
LINE
  8
1
  6
CONTINUOUS
 62
   250
 10
0.076659
 20
0.506186
 30
0.0
 11
0.076376
 21
0.507038
 31
0.0
  0
LINE
  8
1
  6
CONTINUOUS
 62
   250
 10
0.076376
 20
0.507038
 30
0.0
 11
0.075807
 21
0.507607
 31
0.0
  0
LINE
  8
1
  6
CONTINUOUS
 62
   250
 10
0.075807
 20
0.507607
 30
0.0
 11
0.07524
 21
0.507607
 31
0.0
  0
LINE
  8
1
  6
CONTINUOUS
 62
   250
 10
0.07524
 20
0.507607
 30
0.0
 11
0.074671
 21
0.507607
 31
0.0
  0
LINE
  8
1
  6
CONTINUOUS
 62
   250
 10
0.074671
 20
0.507607
 30
0.0
 11
0.074102
 21
0.507038
 31
0.0
  0
LINE
  8
1
  6
CONTINUOUS
 62
   250
 10
0.074102
 20
0.507038
 30
0.0
 11
0.073819
 21
0.506186
 31
0.0
  0
LINE
  8
1
  6
CONTINUOUS
 62
   250
 10
0.073819
 20
0.506186
 30
0.0
 11
0.074102
 21
0.505617
 31
0.0
  0
LINE
  8
1
  6
CONTINUOUS
 62
   250
 10
0.074102
 20
0.493685
 30
0.0
 11
0.073819
 21
0.492833
 31
0.0
  0
LINE
  8
1
  6
CONTINUOUS
 62
   250
 10
0.073819
 20
0.492833
 30
0.0
 11
0.074102
 21
0.492266
 31
0.0
  0
LINE
  8
1
  6
CONTINUOUS
 62
   250
 10
0.074102
 20
0.492266
 30
0.0
 11
0.074671
 21
0.491697
 31
0.0
  0
LINE
  8
1
  6
CONTINUOUS
 62
   250
 10
0.074671
 20
0.491697
 30
0.0
 11
0.07524
 21
0.491697
 31
0.0
  0
LINE
  8
1
  6
CONTINUOUS
 62
   250
 10
0.07524
 20
0.491697
 30
0.0
 11
0.075807
 21
0.491697
 31
0.0
  0
LINE
  8
1
  6
CONTINUOUS
 62
   250
 10
0.075807
 20
0.491697
 30
0.0
 11
0.076376
 21
0.492266
 31
0.0
  0
LINE
  8
1
  6
CONTINUOUS
 62
   250
 10
0.076376
 20
0.492266
 30
0.0
 11
0.076659
 21
0.492833
 31
0.0
  0
LINE
  8
1
  6
CONTINUOUS
 62
   250
 10
0.076659
 20
0.492833
 30
0.0
 11
0.076376
 21
0.493685
 31
0.0
  0
LINE
  8
1
  6
CONTINUOUS
 62
   250
 10
0.076376
 20
0.493685
 30
0.0
 11
0.075807
 21
0.49397
 31
0.0
  0
LINE
  8
1
  6
CONTINUOUS
 62
   250
 10
0.075807
 20
0.49397
 30
0.0
 11
0.07524
 21
0.494254
 31
0.0
  0
LINE
  8
1
  6
CONTINUOUS
 62
   250
 10
0.07524
 20
0.494254
 30
0.0
 11
0.074671
 21
0.49397
 31
0.0
  0
LINE
  8
1
  6
CONTINUOUS
 62
   250
 10
0.074671
 20
0.49397
 30
0.0
 11
0.074102
 21
0.493685
 31
0.0
  0
LINE
  8
1
  6
CONTINUOUS
 62
   250
 10
0.068421
 20
0.49539
 30
0.0
 11
0.068421
 21
0.4863
 31
0.0
  0
LINE
  8
1
  6
CONTINUOUS
 62
   250
 10
0.159898
 20
0.4863
 30
0.0
 11
0.159898
 21
0.49539
 31
0.0
  0
LINE
  8
1
  6
CONTINUOUS
 62
   250
 10
0.261753
 20
0.463783
 30
0.0
 11
0.261753
 21
0.467192
 31
0.0
  0
LINE
  8
1
  6
CONTINUOUS
 62
   250
 10
0.261753
 20
0.467192
 30
0.0
 11
0.304936
 21
0.467192
 31
0.0
  0
LINE
  8
1
  6
CONTINUOUS
 62
   250
 10
0.304936
 20
0.467192
 30
0.0
 11
0.304936
 21
0.463783
 31
0.0
  0
LINE
  8
1
  6
CONTINUOUS
 62
   250
 10
0.304936
 20
0.463783
 30
0.0
 11
0.308628
 21
0.463783
 31
0.0
  0
LINE
  8
1
  6
CONTINUOUS
 62
   250
 10
0.308628
 20
0.463783
 30
0.0
 11
0.308628
 21
0.467192
 31
0.0
  0
LINE
  8
1
  6
CONTINUOUS
 62
   250
 10
0.308628
 20
0.467192
 30
0.0
 11
0.308628
 21
0.490772
 31
0.0
  0
LINE
  8
1
  6
CONTINUOUS
 62
   250
 10
0.308628
 20
0.490772
 30
0.0
 11
0.258061
 21
0.490772
 31
0.0
  0
LINE
  8
1
  6
CONTINUOUS
 62
   250
 10
0.258061
 20
0.490772
 30
0.0
 11
0.258061
 21
0.467192
 31
0.0
  0
LINE
  8
1
  6
CONTINUOUS
 62
   250
 10
0.258061
 20
0.467192
 30
0.0
 11
0.258061
 21
0.463783
 31
0.0
  0
LINE
  8
1
  6
CONTINUOUS
 62
   250
 10
0.258061
 20
0.463783
 30
0.0
 11
0.261753
 21
0.463783
 31
0.0
  0
LINE
  8
1
  6
CONTINUOUS
 62
   250
 10
0.262037
 20
0.478556
 30
0.0
 11
0.263742
 21
0.47742
 31
0.0
  0
LINE
  8
1
  6
CONTINUOUS
 62
   250
 10
0.263742
 20
0.47742
 30
0.0
 11
0.265446
 21
0.477136
 31
0.0
  0
LINE
  8
1
  6
CONTINUOUS
 62
   250
 10
0.265446
 20
0.477136
 30
0.0
 11
0.267436
 21
0.47742
 31
0.0
  0
LINE
  8
1
  6
CONTINUOUS
 62
   250
 10
0.267436
 20
0.47742
 30
0.0
 11
0.26914
 21
0.478556
 31
0.0
  0
LINE
  8
1
  6
CONTINUOUS
 62
   250
 10
0.26914
 20
0.478556
 30
0.0
 11
0.27056
 21
0.479692
 31
0.0
  0
LINE
  8
1
  6
CONTINUOUS
 62
   250
 10
0.27056
 20
0.479692
 30
0.0
 11
0.271128
 21
0.481397
 31
0.0
  0
LINE
  8
1
  6
CONTINUOUS
 62
   250
 10
0.271128
 20
0.481397
 30
0.0
 11
0.271697
 21
0.483386
 31
0.0
  0
LINE
  8
1
  6
CONTINUOUS
 62
   250
 10
0.271697
 20
0.483386
 30
0.0
 11
0.271128
 21
0.48509
 31
0.0
  0
LINE
  8
1
  6
CONTINUOUS
 62
   250
 10
0.271128
 20
0.48509
 30
0.0
 11
0.27056
 21
0.486795
 31
0.0
  0
LINE
  8
1
  6
CONTINUOUS
 62
   250
 10
0.27056
 20
0.486795
 30
0.0
 11
0.26914
 21
0.487647
 31
0.0
  0
LINE
  8
1
  6
CONTINUOUS
 62
   250
 10
0.26914
 20
0.487647
 30
0.0
 11
0.267436
 21
0.489067
 31
0.0
  0
LINE
  8
1
  6
CONTINUOUS
 62
   250
 10
0.267436
 20
0.489067
 30
0.0
 11
0.265446
 21
0.489067
 31
0.0
  0
LINE
  8
1
  6
CONTINUOUS
 62
   250
 10
0.265446
 20
0.489067
 30
0.0
 11
0.263742
 21
0.489067
 31
0.0
  0
LINE
  8
1
  6
CONTINUOUS
 62
   250
 10
0.263742
 20
0.489067
 30
0.0
 11
0.262037
 21
0.487647
 31
0.0
  0
LINE
  8
1
  6
CONTINUOUS
 62
   250
 10
0.262037
 20
0.487647
 30
0.0
 11
0.260901
 21
0.486795
 31
0.0
  0
LINE
  8
1
  6
CONTINUOUS
 62
   250
 10
0.260901
 20
0.486795
 30
0.0
 11
0.260049
 21
0.48509
 31
0.0
  0
LINE
  8
1
  6
CONTINUOUS
 62
   250
 10
0.260049
 20
0.48509
 30
0.0
 11
0.259765
 21
0.483386
 31
0.0
  0
LINE
  8
1
  6
CONTINUOUS
 62
   250
 10
0.259765
 20
0.483386
 30
0.0
 11
0.260049
 21
0.481397
 31
0.0
  0
LINE
  8
1
  6
CONTINUOUS
 62
   250
 10
0.260049
 20
0.481397
 30
0.0
 11
0.260901
 21
0.479692
 31
0.0
  0
LINE
  8
1
  6
CONTINUOUS
 62
   250
 10
0.260901
 20
0.479692
 30
0.0
 11
0.262037
 21
0.478556
 31
0.0
  0
LINE
  8
1
  6
CONTINUOUS
 62
   250
 10
0.259765
 20
0.482533
 30
0.0
 11
0.271697
 21
0.482533
 31
0.0
  0
LINE
  8
1
  6
CONTINUOUS
 62
   250
 10
0.271697
 20
0.482533
 30
0.0
 11
0.271697
 21
0.483954
 31
0.0
  0
LINE
  8
1
  6
CONTINUOUS
 62
   250
 10
0.271697
 20
0.483954
 30
0.0
 11
0.259765
 21
0.483954
 31
0.0
  0
LINE
  8
1
  6
CONTINUOUS
 62
   250
 10
0.304936
 20
0.42976
 30
0.0
 11
0.308628
 21
0.42976
 31
0.0
  0
LINE
  8
1
  6
CONTINUOUS
 62
   250
 10
0.308628
 20
0.42976
 30
0.0
 11
0.308628
 21
0.433738
 31
0.0
  0
LINE
  8
1
  6
CONTINUOUS
 62
   250
 10
0.308628
 20
0.433738
 30
0.0
 11
0.308628
 21
0.456749
 31
0.0
  0
LINE
  8
1
  6
CONTINUOUS
 62
   250
 10
0.308628
 20
0.456749
 30
0.0
 11
0.258061
 21
0.456749
 31
0.0
  0
LINE
  8
1
  6
CONTINUOUS
 62
   250
 10
0.258061
 20
0.456749
 30
0.0
 11
0.258061
 21
0.433738
 31
0.0
  0
LINE
  8
1
  6
CONTINUOUS
 62
   250
 10
0.258061
 20
0.433738
 30
0.0
 11
0.258061
 21
0.42976
 31
0.0
  0
LINE
  8
1
  6
CONTINUOUS
 62
   250
 10
0.258061
 20
0.42976
 30
0.0
 11
0.261753
 21
0.42976
 31
0.0
  0
LINE
  8
1
  6
CONTINUOUS
 62
   250
 10
0.261753
 20
0.42976
 30
0.0
 11
0.261753
 21
0.433738
 31
0.0
  0
LINE
  8
1
  6
CONTINUOUS
 62
   250
 10
0.261753
 20
0.433738
 30
0.0
 11
0.304936
 21
0.433738
 31
0.0
  0
LINE
  8
1
  6
CONTINUOUS
 62
   250
 10
0.304936
 20
0.433738
 30
0.0
 11
0.304936
 21
0.42976
 31
0.0
  0
LINE
  8
1
  6
CONTINUOUS
 62
   250
 10
0.27056
 20
0.453056
 30
0.0
 11
0.26914
 21
0.454192
 31
0.0
  0
LINE
  8
1
  6
CONTINUOUS
 62
   250
 10
0.26914
 20
0.454192
 30
0.0
 11
0.267436
 21
0.455044
 31
0.0
  0
LINE
  8
1
  6
CONTINUOUS
 62
   250
 10
0.267436
 20
0.455044
 30
0.0
 11
0.265446
 21
0.455329
 31
0.0
  0
LINE
  8
1
  6
CONTINUOUS
 62
   250
 10
0.265446
 20
0.455329
 30
0.0
 11
0.263742
 21
0.455044
 31
0.0
  0
LINE
  8
1
  6
CONTINUOUS
 62
   250
 10
0.263742
 20
0.455044
 30
0.0
 11
0.262037
 21
0.454192
 31
0.0
  0
LINE
  8
1
  6
CONTINUOUS
 62
   250
 10
0.262037
 20
0.454192
 30
0.0
 11
0.260901
 21
0.453056
 31
0.0
  0
LINE
  8
1
  6
CONTINUOUS
 62
   250
 10
0.260901
 20
0.453056
 30
0.0
 11
0.260049
 21
0.451351
 31
0.0
  0
LINE
  8
1
  6
CONTINUOUS
 62
   250
 10
0.260049
 20
0.451351
 30
0.0
 11
0.259765
 21
0.449363
 31
0.0
  0
LINE
  8
1
  6
CONTINUOUS
 62
   250
 10
0.259765
 20
0.449363
 30
0.0
 11
0.260049
 21
0.447658
 31
0.0
  0
LINE
  8
1
  6
CONTINUOUS
 62
   250
 10
0.260049
 20
0.447658
 30
0.0
 11
0.260901
 21
0.445954
 31
0.0
  0
LINE
  8
1
  6
CONTINUOUS
 62
   250
 10
0.260901
 20
0.445954
 30
0.0
 11
0.262037
 21
0.444817
 31
0.0
  0
LINE
  8
1
  6
CONTINUOUS
 62
   250
 10
0.262037
 20
0.444817
 30
0.0
 11
0.263742
 21
0.443397
 31
0.0
  0
LINE
  8
1
  6
CONTINUOUS
 62
   250
 10
0.263742
 20
0.443397
 30
0.0
 11
0.265446
 21
0.443113
 31
0.0
  0
LINE
  8
1
  6
CONTINUOUS
 62
   250
 10
0.265446
 20
0.443113
 30
0.0
 11
0.267436
 21
0.443397
 31
0.0
  0
LINE
  8
1
  6
CONTINUOUS
 62
   250
 10
0.267436
 20
0.443397
 30
0.0
 11
0.26914
 21
0.444817
 31
0.0
  0
LINE
  8
1
  6
CONTINUOUS
 62
   250
 10
0.26914
 20
0.444817
 30
0.0
 11
0.27056
 21
0.445954
 31
0.0
  0
LINE
  8
1
  6
CONTINUOUS
 62
   250
 10
0.27056
 20
0.445954
 30
0.0
 11
0.271128
 21
0.447658
 31
0.0
  0
LINE
  8
1
  6
CONTINUOUS
 62
   250
 10
0.271128
 20
0.447658
 30
0.0
 11
0.271697
 21
0.449363
 31
0.0
  0
LINE
  8
1
  6
CONTINUOUS
 62
   250
 10
0.271697
 20
0.449363
 30
0.0
 11
0.271128
 21
0.451351
 31
0.0
  0
LINE
  8
1
  6
CONTINUOUS
 62
   250
 10
0.271128
 20
0.451351
 30
0.0
 11
0.27056
 21
0.453056
 31
0.0
  0
LINE
  8
1
  6
CONTINUOUS
 62
   250
 10
0.271697
 20
0.449931
 30
0.0
 11
0.259765
 21
0.449931
 31
0.0
  0
LINE
  8
1
  6
CONTINUOUS
 62
   250
 10
0.259765
 20
0.449931
 30
0.0
 11
0.259765
 21
0.448795
 31
0.0
  0
LINE
  8
1
  6
CONTINUOUS
 62
   250
 10
0.259765
 20
0.448795
 30
0.0
 11
0.271697
 21
0.448795
 31
0.0
  0
LINE
  8
1
  6
CONTINUOUS
 62
   250
 10
-0.303033
 20
0.112216
 30
0.0
 11
-0.222636
 21
0.112216
 31
0.0
  0
LINE
  8
1
  6
CONTINUOUS
 62
   250
 10
-0.298488
 20
0.073579
 30
0.0
 11
-0.298488
 21
0.112216
 31
0.0
  0
LINE
  8
1
  6
CONTINUOUS
 62
   250
 10
-0.302181
 20
0.112216
 30
0.0
 11
-0.302181
 21
0.038636
 31
0.0
  0
LINE
  8
1
  6
CONTINUOUS
 62
   250
 10
-0.302181
 20
0.038636
 30
0.0
 11
-0.303033
 21
0.038636
 31
0.0
  0
LINE
  8
1
  6
CONTINUOUS
 62
   250
 10
-0.290534
 20
0.090057
 30
0.0
 11
-0.289113
 21
0.090341
 31
0.0
  0
LINE
  8
1
  6
CONTINUOUS
 62
   250
 10
-0.289113
 20
0.090341
 30
0.0
 11
-0.287977
 21
0.090057
 31
0.0
  0
LINE
  8
1
  6
CONTINUOUS
 62
   250
 10
-0.287977
 20
0.090057
 30
0.0
 11
-0.286556
 21
0.089204
 31
0.0
  0
LINE
  8
1
  6
CONTINUOUS
 62
   250
 10
-0.286556
 20
0.089204
 30
0.0
 11
-0.285988
 21
0.088068
 31
0.0
  0
LINE
  8
1
  6
CONTINUOUS
 62
   250
 10
-0.285988
 20
0.088068
 30
0.0
 11
-0.285704
 21
0.086648
 31
0.0
  0
LINE
  8
1
  6
CONTINUOUS
 62
   250
 10
-0.292806
 20
0.086648
 30
0.0
 11
-0.292522
 21
0.085511
 31
0.0
  0
LINE
  8
1
  6
CONTINUOUS
 62
   250
 10
-0.292522
 20
0.085511
 30
0.0
 11
-0.29167
 21
0.084091
 31
0.0
  0
LINE
  8
1
  6
CONTINUOUS
 62
   250
 10
-0.29167
 20
0.084091
 30
0.0
 11
-0.290534
 21
0.083523
 31
0.0
  0
LINE
  8
1
  6
CONTINUOUS
 62
   250
 10
-0.290534
 20
0.083523
 30
0.0
 11
-0.289113
 21
0.083239
 31
0.0
  0
LINE
  8
1
  6
CONTINUOUS
 62
   250
 10
-0.289113
 20
0.083239
 30
0.0
 11
-0.287977
 21
0.083523
 31
0.0
  0
LINE
  8
1
  6
CONTINUOUS
 62
   250
 10
-0.287977
 20
0.083523
 30
0.0
 11
-0.286556
 21
0.084091
 31
0.0
  0
LINE
  8
1
  6
CONTINUOUS
 62
   250
 10
-0.286556
 20
0.084091
 30
0.0
 11
-0.285988
 21
0.085511
 31
0.0
  0
LINE
  8
1
  6
CONTINUOUS
 62
   250
 10
-0.285988
 20
0.085511
 30
0.0
 11
-0.285704
 21
0.086648
 31
0.0
  0
LINE
  8
1
  6
CONTINUOUS
 62
   250
 10
-0.288544
 20
0.086364
 30
0.0
 11
-0.288261
 21
0.085795
 31
0.0
  0
LINE
  8
1
  6
CONTINUOUS
 62
   250
 10
-0.288261
 20
0.085795
 30
0.0
 11
-0.288829
 21
0.08608
 31
0.0
  0
LINE
  8
1
  6
CONTINUOUS
 62
   250
 10
-0.288829
 20
0.08608
 30
0.0
 11
-0.288829
 21
0.085511
 31
0.0
  0
LINE
  8
1
  6
CONTINUOUS
 62
   250
 10
-0.288829
 20
0.085511
 30
0.0
 11
-0.288544
 21
0.086364
 31
0.0
  0
LINE
  8
1
  6
CONTINUOUS
 62
   250
 10
-0.288544
 20
0.086364
 30
0.0
 11
-0.287692
 21
0.086364
 31
0.0
  0
LINE
  8
1
  6
CONTINUOUS
 62
   250
 10
-0.287692
 20
0.086364
 30
0.0
 11
-0.287692
 21
0.087216
 31
0.0
  0
LINE
  8
1
  6
CONTINUOUS
 62
   250
 10
-0.287692
 20
0.087216
 30
0.0
 11
-0.288544
 21
0.087216
 31
0.0
  0
LINE
  8
1
  6
CONTINUOUS
 62
   250
 10
-0.288544
 20
0.087216
 30
0.0
 11
-0.288261
 21
0.0875
 31
0.0
  0
LINE
  8
1
  6
CONTINUOUS
 62
   250
 10
-0.288261
 20
0.0875
 30
0.0
 11
-0.288829
 21
0.088352
 31
0.0
  0
LINE
  8
1
  6
CONTINUOUS
 62
   250
 10
-0.288829
 20
0.088352
 30
0.0
 11
-0.288829
 21
0.087216
 31
0.0
  0
LINE
  8
1
  6
CONTINUOUS
 62
   250
 10
-0.288829
 20
0.087216
 30
0.0
 11
-0.289682
 21
0.087216
 31
0.0
  0
LINE
  8
1
  6
CONTINUOUS
 62
   250
 10
-0.289682
 20
0.087216
 30
0.0
 11
-0.289682
 21
0.088352
 31
0.0
  0
LINE
  8
1
  6
CONTINUOUS
 62
   250
 10
-0.289682
 20
0.088352
 30
0.0
 11
-0.290249
 21
0.0875
 31
0.0
  0
LINE
  8
1
  6
CONTINUOUS
 62
   250
 10
-0.290249
 20
0.0875
 30
0.0
 11
-0.289965
 21
0.087216
 31
0.0
  0
LINE
  8
1
  6
CONTINUOUS
 62
   250
 10
-0.289965
 20
0.087216
 30
0.0
 11
-0.290534
 21
0.087216
 31
0.0
  0
LINE
  8
1
  6
CONTINUOUS
 62
   250
 10
-0.290534
 20
0.087216
 30
0.0
 11
-0.290534
 21
0.086364
 31
0.0
  0
LINE
  8
1
  6
CONTINUOUS
 62
   250
 10
-0.290534
 20
0.086364
 30
0.0
 11
-0.289965
 21
0.086364
 31
0.0
  0
LINE
  8
1
  6
CONTINUOUS
 62
   250
 10
-0.289965
 20
0.086364
 30
0.0
 11
-0.290249
 21
0.085795
 31
0.0
  0
LINE
  8
1
  6
CONTINUOUS
 62
   250
 10
-0.290249
 20
0.085795
 30
0.0
 11
-0.289682
 21
0.08608
 31
0.0
  0
LINE
  8
1
  6
CONTINUOUS
 62
   250
 10
-0.289682
 20
0.08608
 30
0.0
 11
-0.289682
 21
0.085511
 31
0.0
  0
LINE
  8
1
  6
CONTINUOUS
 62
   250
 10
-0.292806
 20
0.086648
 30
0.0
 11
-0.292522
 21
0.088068
 31
0.0
  0
LINE
  8
1
  6
CONTINUOUS
 62
   250
 10
-0.292522
 20
0.088068
 30
0.0
 11
-0.29167
 21
0.089204
 31
0.0
  0
LINE
  8
1
  6
CONTINUOUS
 62
   250
 10
-0.29167
 20
0.089204
 30
0.0
 11
-0.290534
 21
0.090057
 31
0.0
  0
LINE
  8
1
  6
CONTINUOUS
 62
   250
 10
-0.287409
 20
0.093466
 30
0.0
 11
-0.285988
 21
0.092614
 31
0.0
  0
LINE
  8
1
  6
CONTINUOUS
 62
   250
 10
-0.285988
 20
0.092614
 30
0.0
 11
-0.284283
 21
0.091477
 31
0.0
  0
LINE
  8
1
  6
CONTINUOUS
 62
   250
 10
-0.284283
 20
0.091477
 30
0.0
 11
-0.283431
 21
0.090057
 31
0.0
  0
LINE
  8
1
  6
CONTINUOUS
 62
   250
 10
-0.283431
 20
0.090057
 30
0.0
 11
-0.282864
 21
0.088352
 31
0.0
  0
LINE
  8
1
  6
CONTINUOUS
 62
   250
 10
-0.282864
 20
0.088352
 30
0.0
 11
-0.282579
 21
0.086648
 31
0.0
  0
LINE
  8
1
  6
CONTINUOUS
 62
   250
 10
-0.287409
 20
0.093466
 30
0.0
 11
-0.289113
 21
0.093466
 31
0.0
  0
LINE
  8
1
  6
CONTINUOUS
 62
   250
 10
-0.289113
 20
0.093466
 30
0.0
 11
-0.290818
 21
0.093466
 31
0.0
  0
LINE
  8
1
  6
CONTINUOUS
 62
   250
 10
-0.290818
 20
0.093466
 30
0.0
 11
-0.292522
 21
0.092614
 31
0.0
  0
LINE
  8
1
  6
CONTINUOUS
 62
   250
 10
-0.292522
 20
0.092614
 30
0.0
 11
-0.293943
 21
0.091477
 31
0.0
  0
LINE
  8
1
  6
CONTINUOUS
 62
   250
 10
-0.293943
 20
0.091477
 30
0.0
 11
-0.295079
 21
0.090057
 31
0.0
  0
LINE
  8
1
  6
CONTINUOUS
 62
   250
 10
-0.295079
 20
0.090057
 30
0.0
 11
-0.295648
 21
0.088352
 31
0.0
  0
LINE
  8
1
  6
CONTINUOUS
 62
   250
 10
-0.295648
 20
0.088352
 30
0.0
 11
-0.295648
 21
0.086648
 31
0.0
  0
LINE
  8
1
  6
CONTINUOUS
 62
   250
 10
-0.295648
 20
0.086648
 30
0.0
 11
-0.295648
 21
0.085227
 31
0.0
  0
LINE
  8
1
  6
CONTINUOUS
 62
   250
 10
-0.295648
 20
0.085227
 30
0.0
 11
-0.295079
 21
0.083523
 31
0.0
  0
LINE
  8
1
  6
CONTINUOUS
 62
   250
 10
-0.295079
 20
0.083523
 30
0.0
 11
-0.293943
 21
0.082102
 31
0.0
  0
LINE
  8
1
  6
CONTINUOUS
 62
   250
 10
-0.293943
 20
0.082102
 30
0.0
 11
-0.292522
 21
0.080682
 31
0.0
  0
LINE
  8
1
  6
CONTINUOUS
 62
   250
 10
-0.292522
 20
0.080682
 30
0.0
 11
-0.290818
 21
0.080398
 31
0.0
  0
LINE
  8
1
  6
CONTINUOUS
 62
   250
 10
-0.290818
 20
0.080398
 30
0.0
 11
-0.289113
 21
0.080114
 31
0.0
  0
LINE
  8
1
  6
CONTINUOUS
 62
   250
 10
-0.289113
 20
0.080114
 30
0.0
 11
-0.287409
 21
0.080398
 31
0.0
  0
LINE
  8
1
  6
CONTINUOUS
 62
   250
 10
-0.287409
 20
0.080398
 30
0.0
 11
-0.285988
 21
0.080682
 31
0.0
  0
LINE
  8
1
  6
CONTINUOUS
 62
   250
 10
-0.285988
 20
0.080682
 30
0.0
 11
-0.284283
 21
0.082102
 31
0.0
  0
LINE
  8
1
  6
CONTINUOUS
 62
   250
 10
-0.284283
 20
0.082102
 30
0.0
 11
-0.283431
 21
0.083523
 31
0.0
  0
LINE
  8
1
  6
CONTINUOUS
 62
   250
 10
-0.283431
 20
0.083523
 30
0.0
 11
-0.282864
 21
0.085227
 31
0.0
  0
LINE
  8
1
  6
CONTINUOUS
 62
   250
 10
-0.282864
 20
0.085227
 30
0.0
 11
-0.282579
 21
0.086648
 31
0.0
  0
LINE
  8
1
  6
CONTINUOUS
 62
   250
 10
-0.284852
 20
0.066477
 30
0.0
 11
-0.285988
 21
0.067045
 31
0.0
  0
LINE
  8
1
  6
CONTINUOUS
 62
   250
 10
-0.285988
 20
0.067045
 30
0.0
 11
-0.287692
 21
0.068182
 31
0.0
  0
LINE
  8
1
  6
CONTINUOUS
 62
   250
 10
-0.287692
 20
0.068182
 30
0.0
 11
-0.289397
 21
0.068182
 31
0.0
  0
LINE
  8
1
  6
CONTINUOUS
 62
   250
 10
-0.289397
 20
0.068182
 30
0.0
 11
-0.289397
 21
0.054829
 31
0.0
  0
LINE
  8
1
  6
CONTINUOUS
 62
   250
 10
-0.289397
 20
0.068182
 30
0.0
 11
-0.291101
 21
0.068182
 31
0.0
  0
LINE
  8
1
  6
CONTINUOUS
 62
   250
 10
-0.291101
 20
0.068182
 30
0.0
 11
-0.292806
 21
0.067045
 31
0.0
  0
LINE
  8
1
  6
CONTINUOUS
 62
   250
 10
-0.292806
 20
0.067045
 30
0.0
 11
-0.294227
 21
0.066477
 31
0.0
  0
LINE
  8
1
  6
CONTINUOUS
 62
   250
 10
-0.294227
 20
0.066477
 30
0.0
 11
-0.295363
 21
0.065057
 31
0.0
  0
LINE
  8
1
  6
CONTINUOUS
 62
   250
 10
-0.295363
 20
0.065057
 30
0.0
 11
-0.295931
 21
0.063352
 31
0.0
  0
LINE
  8
1
  6
CONTINUOUS
 62
   250
 10
-0.295931
 20
0.063352
 30
0.0
 11
-0.296215
 21
0.061648
 31
0.0
  0
LINE
  8
1
  6
CONTINUOUS
 62
   250
 10
-0.296215
 20
0.061648
 30
0.0
 11
-0.295931
 21
0.059943
 31
0.0
  0
LINE
  8
1
  6
CONTINUOUS
 62
   250
 10
-0.295931
 20
0.059943
 30
0.0
 11
-0.295363
 21
0.058239
 31
0.0
  0
LINE
  8
1
  6
CONTINUOUS
 62
   250
 10
-0.295363
 20
0.058239
 30
0.0
 11
-0.294227
 21
0.056534
 31
0.0
  0
LINE
  8
1
  6
CONTINUOUS
 62
   250
 10
-0.294227
 20
0.056534
 30
0.0
 11
-0.292806
 21
0.055682
 31
0.0
  0
LINE
  8
1
  6
CONTINUOUS
 62
   250
 10
-0.292806
 20
0.055682
 30
0.0
 11
-0.291101
 21
0.055114
 31
0.0
  0
LINE
  8
1
  6
CONTINUOUS
 62
   250
 10
-0.291101
 20
0.055114
 30
0.0
 11
-0.289397
 21
0.054829
 31
0.0
  0
LINE
  8
1
  6
CONTINUOUS
 62
   250
 10
-0.289397
 20
0.054829
 30
0.0
 11
-0.287692
 21
0.055114
 31
0.0
  0
LINE
  8
1
  6
CONTINUOUS
 62
   250
 10
-0.287692
 20
0.055114
 30
0.0
 11
-0.285988
 21
0.055682
 31
0.0
  0
LINE
  8
1
  6
CONTINUOUS
 62
   250
 10
-0.285988
 20
0.055682
 30
0.0
 11
-0.284852
 21
0.056534
 31
0.0
  0
LINE
  8
1
  6
CONTINUOUS
 62
   250
 10
-0.284852
 20
0.056534
 30
0.0
 11
-0.283716
 21
0.058239
 31
0.0
  0
LINE
  8
1
  6
CONTINUOUS
 62
   250
 10
-0.283716
 20
0.058239
 30
0.0
 11
-0.283147
 21
0.059943
 31
0.0
  0
LINE
  8
1
  6
CONTINUOUS
 62
   250
 10
-0.283147
 20
0.059943
 30
0.0
 11
-0.282864
 21
0.061648
 31
0.0
  0
LINE
  8
1
  6
CONTINUOUS
 62
   250
 10
-0.282864
 20
0.061648
 30
0.0
 11
-0.283147
 21
0.063352
 31
0.0
  0
LINE
  8
1
  6
CONTINUOUS
 62
   250
 10
-0.283147
 20
0.063352
 30
0.0
 11
-0.283716
 21
0.065057
 31
0.0
  0
LINE
  8
1
  6
CONTINUOUS
 62
   250
 10
-0.283716
 20
0.065057
 30
0.0
 11
-0.284852
 21
0.066477
 31
0.0
  0
LINE
  8
1
  6
CONTINUOUS
 62
   250
 10
-0.169226
 20
0.038636
 30
0.0
 11
-0.115818
 21
0.038636
 31
0.0
  0
LINE
  8
1
  6
CONTINUOUS
 62
   250
 10
-0.115818
 20
0.040625
 30
0.0
 11
-0.169226
 21
0.040625
 31
0.0
  0
LINE
  8
1
  6
CONTINUOUS
 62
   250
 10
-0.169226
 20
0.050852
 30
0.0
 11
-0.115818
 21
0.050852
 31
0.0
  0
LINE
  8
1
  6
CONTINUOUS
 62
   250
 10
-0.115818
 20
0.073579
 30
0.0
 11
-0.169226
 21
0.073579
 31
0.0
  0
LINE
  8
1
  6
CONTINUOUS
 62
   250
 10
-0.169226
 20
0.112216
 30
0.0
 11
-0.115818
 21
0.112216
 31
0.0
  0
LINE
  8
1
  6
CONTINUOUS
 62
   250
 10
-0.260988
 20
0.0875
 30
0.0
 11
-0.261557
 21
0.087216
 31
0.0
  0
LINE
  8
1
  6
CONTINUOUS
 62
   250
 10
-0.261557
 20
0.087216
 30
0.0
 11
-0.260704
 21
0.087216
 31
0.0
  0
LINE
  8
1
  6
CONTINUOUS
 62
   250
 10
-0.260704
 20
0.087216
 30
0.0
 11
-0.260704
 21
0.086364
 31
0.0
  0
LINE
  8
1
  6
CONTINUOUS
 62
   250
 10
-0.260704
 20
0.086364
 30
0.0
 11
-0.261557
 21
0.086364
 31
0.0
  0
LINE
  8
1
  6
CONTINUOUS
 62
   250
 10
-0.261557
 20
0.086364
 30
0.0
 11
-0.260988
 21
0.085795
 31
0.0
  0
LINE
  8
1
  6
CONTINUOUS
 62
   250
 10
-0.260988
 20
0.085795
 30
0.0
 11
-0.261557
 21
0.08608
 31
0.0
  0
LINE
  8
1
  6
CONTINUOUS
 62
   250
 10
-0.261557
 20
0.08608
 30
0.0
 11
-0.261557
 21
0.085511
 31
0.0
  0
LINE
  8
1
  6
CONTINUOUS
 62
   250
 10
-0.261557
 20
0.087216
 30
0.0
 11
-0.261557
 21
0.088352
 31
0.0
  0
LINE
  8
1
  6
CONTINUOUS
 62
   250
 10
-0.261557
 20
0.088352
 30
0.0
 11
-0.262409
 21
0.088352
 31
0.0
  0
LINE
  8
1
  6
CONTINUOUS
 62
   250
 10
-0.262409
 20
0.088352
 30
0.0
 11
-0.262409
 21
0.087216
 31
0.0
  0
LINE
  8
1
  6
CONTINUOUS
 62
   250
 10
-0.262409
 20
0.087216
 30
0.0
 11
-0.262693
 21
0.087216
 31
0.0
  0
LINE
  8
1
  6
CONTINUOUS
 62
   250
 10
-0.262693
 20
0.087216
 30
0.0
 11
-0.263261
 21
0.0875
 31
0.0
  0
LINE
  8
1
  6
CONTINUOUS
 62
   250
 10
-0.263261
 20
0.0875
 30
0.0
 11
-0.263545
 21
0.087216
 31
0.0
  0
LINE
  8
1
  6
CONTINUOUS
 62
   250
 10
-0.263545
 20
0.087216
 30
0.0
 11
-0.262693
 21
0.087216
 31
0.0
  0
LINE
  8
1
  6
CONTINUOUS
 62
   250
 10
-0.262693
 20
0.087216
 30
0.0
 11
-0.262693
 21
0.086364
 31
0.0
  0
LINE
  8
1
  6
CONTINUOUS
 62
   250
 10
-0.262693
 20
0.086364
 30
0.0
 11
-0.263545
 21
0.086364
 31
0.0
  0
LINE
  8
1
  6
CONTINUOUS
 62
   250
 10
-0.263545
 20
0.086364
 30
0.0
 11
-0.262693
 21
0.086364
 31
0.0
  0
LINE
  8
1
  6
CONTINUOUS
 62
   250
 10
-0.262693
 20
0.086364
 30
0.0
 11
-0.263261
 21
0.085795
 31
0.0
  0
LINE
  8
1
  6
CONTINUOUS
 62
   250
 10
-0.263261
 20
0.085795
 30
0.0
 11
-0.262409
 21
0.08608
 31
0.0
  0
LINE
  8
1
  6
CONTINUOUS
 62
   250
 10
-0.262409
 20
0.08608
 30
0.0
 11
-0.262409
 21
0.085511
 31
0.0
  0
LINE
  8
1
  6
CONTINUOUS
 62
   250
 10
-0.258431
 20
0.086648
 30
0.0
 11
-0.258715
 21
0.088068
 31
0.0
  0
LINE
  8
1
  6
CONTINUOUS
 62
   250
 10
-0.258715
 20
0.088068
 30
0.0
 11
-0.259567
 21
0.089204
 31
0.0
  0
LINE
  8
1
  6
CONTINUOUS
 62
   250
 10
-0.259567
 20
0.089204
 30
0.0
 11
-0.260704
 21
0.090057
 31
0.0
  0
LINE
  8
1
  6
CONTINUOUS
 62
   250
 10
-0.260704
 20
0.090057
 30
0.0
 11
-0.262124
 21
0.090341
 31
0.0
  0
LINE
  8
1
  6
CONTINUOUS
 62
   250
 10
-0.262124
 20
0.090341
 30
0.0
 11
-0.263545
 21
0.090057
 31
0.0
  0
LINE
  8
1
  6
CONTINUOUS
 62
   250
 10
-0.263545
 20
0.090057
 30
0.0
 11
-0.264397
 21
0.089204
 31
0.0
  0
LINE
  8
1
  6
CONTINUOUS
 62
   250
 10
-0.264397
 20
0.089204
 30
0.0
 11
-0.265249
 21
0.088068
 31
0.0
  0
LINE
  8
1
  6
CONTINUOUS
 62
   250
 10
-0.265249
 20
0.088068
 30
0.0
 11
-0.265533
 21
0.086648
 31
0.0
  0
LINE
  8
1
  6
CONTINUOUS
 62
   250
 10
-0.265533
 20
0.086648
 30
0.0
 11
-0.265249
 21
0.085511
 31
0.0
  0
LINE
  8
1
  6
CONTINUOUS
 62
   250
 10
-0.265249
 20
0.085511
 30
0.0
 11
-0.264397
 21
0.084091
 31
0.0
  0
LINE
  8
1
  6
CONTINUOUS
 62
   250
 10
-0.264397
 20
0.084091
 30
0.0
 11
-0.263545
 21
0.083523
 31
0.0
  0
LINE
  8
1
  6
CONTINUOUS
 62
   250
 10
-0.263545
 20
0.083523
 30
0.0
 11
-0.262124
 21
0.083239
 31
0.0
  0
LINE
  8
1
  6
CONTINUOUS
 62
   250
 10
-0.262124
 20
0.083239
 30
0.0
 11
-0.260704
 21
0.083523
 31
0.0
  0
LINE
  8
1
  6
CONTINUOUS
 62
   250
 10
-0.260704
 20
0.083523
 30
0.0
 11
-0.259567
 21
0.084091
 31
0.0
  0
LINE
  8
1
  6
CONTINUOUS
 62
   250
 10
-0.259567
 20
0.084091
 30
0.0
 11
-0.258715
 21
0.085511
 31
0.0
  0
LINE
  8
1
  6
CONTINUOUS
 62
   250
 10
-0.258715
 20
0.085511
 30
0.0
 11
-0.258431
 21
0.086648
 31
0.0
  0
LINE
  8
1
  6
CONTINUOUS
 62
   250
 10
-0.255306
 20
0.086648
 30
0.0
 11
-0.255591
 21
0.088352
 31
0.0
  0
LINE
  8
1
  6
CONTINUOUS
 62
   250
 10
-0.255591
 20
0.088352
 30
0.0
 11
-0.256443
 21
0.090057
 31
0.0
  0
LINE
  8
1
  6
CONTINUOUS
 62
   250
 10
-0.256443
 20
0.090057
 30
0.0
 11
-0.257295
 21
0.091477
 31
0.0
  0
LINE
  8
1
  6
CONTINUOUS
 62
   250
 10
-0.257295
 20
0.091477
 30
0.0
 11
-0.258715
 21
0.092614
 31
0.0
  0
LINE
  8
1
  6
CONTINUOUS
 62
   250
 10
-0.258715
 20
0.092614
 30
0.0
 11
-0.260419
 21
0.093466
 31
0.0
  0
LINE
  8
1
  6
CONTINUOUS
 62
   250
 10
-0.260419
 20
0.093466
 30
0.0
 11
-0.262124
 21
0.093466
 31
0.0
  0
LINE
  8
1
  6
CONTINUOUS
 62
   250
 10
-0.262124
 20
0.093466
 30
0.0
 11
-0.263829
 21
0.093466
 31
0.0
  0
LINE
  8
1
  6
CONTINUOUS
 62
   250
 10
-0.263829
 20
0.093466
 30
0.0
 11
-0.265533
 21
0.092614
 31
0.0
  0
LINE
  8
1
  6
CONTINUOUS
 62
   250
 10
-0.265533
 20
0.092614
 30
0.0
 11
-0.26667
 21
0.091477
 31
0.0
  0
LINE
  8
1
  6
CONTINUOUS
 62
   250
 10
-0.26667
 20
0.091477
 30
0.0
 11
-0.267806
 21
0.090057
 31
0.0
  0
LINE
  8
1
  6
CONTINUOUS
 62
   250
 10
-0.267806
 20
0.090057
 30
0.0
 11
-0.268659
 21
0.088352
 31
0.0
  0
LINE
  8
1
  6
CONTINUOUS
 62
   250
 10
-0.268659
 20
0.088352
 30
0.0
 11
-0.268942
 21
0.086648
 31
0.0
  0
LINE
  8
1
  6
CONTINUOUS
 62
   250
 10
-0.268942
 20
0.086648
 30
0.0
 11
-0.268659
 21
0.085227
 31
0.0
  0
LINE
  8
1
  6
CONTINUOUS
 62
   250
 10
-0.268659
 20
0.085227
 30
0.0
 11
-0.267806
 21
0.083523
 31
0.0
  0
LINE
  8
1
  6
CONTINUOUS
 62
   250
 10
-0.267806
 20
0.083523
 30
0.0
 11
-0.26667
 21
0.082102
 31
0.0
  0
LINE
  8
1
  6
CONTINUOUS
 62
   250
 10
-0.26667
 20
0.082102
 30
0.0
 11
-0.265533
 21
0.080682
 31
0.0
  0
LINE
  8
1
  6
CONTINUOUS
 62
   250
 10
-0.265533
 20
0.080682
 30
0.0
 11
-0.263829
 21
0.080398
 31
0.0
  0
LINE
  8
1
  6
CONTINUOUS
 62
   250
 10
-0.263829
 20
0.080398
 30
0.0
 11
-0.262124
 21
0.080114
 31
0.0
  0
LINE
  8
1
  6
CONTINUOUS
 62
   250
 10
-0.262124
 20
0.080114
 30
0.0
 11
-0.260419
 21
0.080398
 31
0.0
  0
LINE
  8
1
  6
CONTINUOUS
 62
   250
 10
-0.260419
 20
0.080398
 30
0.0
 11
-0.258715
 21
0.080682
 31
0.0
  0
LINE
  8
1
  6
CONTINUOUS
 62
   250
 10
-0.258715
 20
0.080682
 30
0.0
 11
-0.257295
 21
0.082102
 31
0.0
  0
LINE
  8
1
  6
CONTINUOUS
 62
   250
 10
-0.257295
 20
0.082102
 30
0.0
 11
-0.256443
 21
0.083523
 31
0.0
  0
LINE
  8
1
  6
CONTINUOUS
 62
   250
 10
-0.256443
 20
0.083523
 30
0.0
 11
-0.255591
 21
0.085227
 31
0.0
  0
LINE
  8
1
  6
CONTINUOUS
 62
   250
 10
-0.255591
 20
0.085227
 30
0.0
 11
-0.255306
 21
0.086648
 31
0.0
  0
LINE
  8
1
  6
CONTINUOUS
 62
   250
 10
-0.258148
 20
0.066477
 30
0.0
 11
-0.259284
 21
0.067045
 31
0.0
  0
LINE
  8
1
  6
CONTINUOUS
 62
   250
 10
-0.259284
 20
0.067045
 30
0.0
 11
-0.260988
 21
0.068182
 31
0.0
  0
LINE
  8
1
  6
CONTINUOUS
 62
   250
 10
-0.260988
 20
0.068182
 30
0.0
 11
-0.262693
 21
0.068182
 31
0.0
  0
LINE
  8
1
  6
CONTINUOUS
 62
   250
 10
-0.262693
 20
0.068182
 30
0.0
 11
-0.264397
 21
0.068182
 31
0.0
  0
LINE
  8
1
  6
CONTINUOUS
 62
   250
 10
-0.264397
 20
0.068182
 30
0.0
 11
-0.266102
 21
0.067045
 31
0.0
  0
LINE
  8
1
  6
CONTINUOUS
 62
   250
 10
-0.266102
 20
0.067045
 30
0.0
 11
-0.267523
 21
0.066477
 31
0.0
  0
LINE
  8
1
  6
CONTINUOUS
 62
   250
 10
-0.267523
 20
0.066477
 30
0.0
 11
-0.268659
 21
0.065057
 31
0.0
  0
LINE
  8
1
  6
CONTINUOUS
 62
   250
 10
-0.268659
 20
0.065057
 30
0.0
 11
-0.269227
 21
0.063352
 31
0.0
  0
LINE
  8
1
  6
CONTINUOUS
 62
   250
 10
-0.269227
 20
0.063352
 30
0.0
 11
-0.269511
 21
0.061648
 31
0.0
  0
LINE
  8
1
  6
CONTINUOUS
 62
   250
 10
-0.269511
 20
0.061648
 30
0.0
 11
-0.269227
 21
0.059943
 31
0.0
  0
LINE
  8
1
  6
CONTINUOUS
 62
   250
 10
-0.269227
 20
0.059943
 30
0.0
 11
-0.268659
 21
0.058239
 31
0.0
  0
LINE
  8
1
  6
CONTINUOUS
 62
   250
 10
-0.268659
 20
0.058239
 30
0.0
 11
-0.267523
 21
0.056534
 31
0.0
  0
LINE
  8
1
  6
CONTINUOUS
 62
   250
 10
-0.267523
 20
0.056534
 30
0.0
 11
-0.266102
 21
0.055682
 31
0.0
  0
LINE
  8
1
  6
CONTINUOUS
 62
   250
 10
-0.266102
 20
0.055682
 30
0.0
 11
-0.264397
 21
0.055114
 31
0.0
  0
LINE
  8
1
  6
CONTINUOUS
 62
   250
 10
-0.264397
 20
0.055114
 30
0.0
 11
-0.262693
 21
0.054829
 31
0.0
  0
LINE
  8
1
  6
CONTINUOUS
 62
   250
 10
-0.262693
 20
0.054829
 30
0.0
 11
-0.260988
 21
0.055114
 31
0.0
  0
LINE
  8
1
  6
CONTINUOUS
 62
   250
 10
-0.260988
 20
0.055114
 30
0.0
 11
-0.259284
 21
0.055682
 31
0.0
  0
LINE
  8
1
  6
CONTINUOUS
 62
   250
 10
-0.259284
 20
0.055682
 30
0.0
 11
-0.258148
 21
0.056534
 31
0.0
  0
LINE
  8
1
  6
CONTINUOUS
 62
   250
 10
-0.258148
 20
0.056534
 30
0.0
 11
-0.267523
 21
0.066477
 31
0.0
  0
LINE
  8
1
  6
CONTINUOUS
 62
   250
 10
-0.258148
 20
0.066477
 30
0.0
 11
-0.25701
 21
0.065057
 31
0.0
  0
LINE
  8
1
  6
CONTINUOUS
 62
   250
 10
-0.25701
 20
0.065057
 30
0.0
 11
-0.256443
 21
0.063352
 31
0.0
  0
LINE
  8
1
  6
CONTINUOUS
 62
   250
 10
-0.256443
 20
0.063352
 30
0.0
 11
-0.256158
 21
0.061648
 31
0.0
  0
LINE
  8
1
  6
CONTINUOUS
 62
   250
 10
-0.256158
 20
0.061648
 30
0.0
 11
-0.256443
 21
0.059943
 31
0.0
  0
LINE
  8
1
  6
CONTINUOUS
 62
   250
 10
-0.256443
 20
0.059943
 30
0.0
 11
-0.25701
 21
0.058239
 31
0.0
  0
LINE
  8
1
  6
CONTINUOUS
 62
   250
 10
-0.25701
 20
0.058239
 30
0.0
 11
-0.258148
 21
0.056534
 31
0.0
  0
LINE
  8
1
  6
CONTINUOUS
 62
   250
 10
-0.17292
 20
0.073579
 30
0.0
 11
-0.17292
 21
0.112216
 31
0.0
  0
LINE
  8
1
  6
CONTINUOUS
 62
   250
 10
-0.169226
 20
0.112216
 30
0.0
 11
-0.169226
 21
0.038636
 31
0.0
  0
LINE
  8
1
  6
CONTINUOUS
 62
   250
 10
-0.169226
 20
0.038636
 30
0.0
 11
-0.168943
 21
0.038636
 31
0.0
  0
LINE
  8
1
  6
CONTINUOUS
 62
   250
 10
-0.168943
 20
0.038636
 30
0.0
 11
-0.168943
 21
0.112216
 31
0.0
  0
LINE
  8
1
  6
CONTINUOUS
 62
   250
 10
-0.166954
 20
0.109659
 30
0.0
 11
-0.166954
 21
0.073579
 31
0.0
  0
LINE
  8
1
  6
CONTINUOUS
 62
   250
 10
-0.164113
 20
0.073579
 30
0.0
 11
-0.164113
 21
0.112216
 31
0.0
  0
LINE
  8
1
  6
CONTINUOUS
 62
   250
 10
-0.153602
 20
0.093466
 30
0.0
 11
-0.151897
 21
0.092898
 31
0.0
  0
LINE
  8
1
  6
CONTINUOUS
 62
   250
 10
-0.151897
 20
0.092898
 30
0.0
 11
-0.150476
 21
0.091761
 31
0.0
  0
LINE
  8
1
  6
CONTINUOUS
 62
   250
 10
-0.150476
 20
0.091761
 30
0.0
 11
-0.149624
 21
0.090341
 31
0.0
  0
LINE
  8
1
  6
CONTINUOUS
 62
   250
 10
-0.149624
 20
0.090341
 30
0.0
 11
-0.148772
 21
0.088636
 31
0.0
  0
LINE
  8
1
  6
CONTINUOUS
 62
   250
 10
-0.148772
 20
0.088636
 30
0.0
 11
-0.148488
 21
0.087216
 31
0.0
  0
LINE
  8
1
  6
CONTINUOUS
 62
   250
 10
-0.153602
 20
0.093466
 30
0.0
 11
-0.155306
 21
0.09375
 31
0.0
  0
LINE
  8
1
  6
CONTINUOUS
 62
   250
 10
-0.155306
 20
0.09375
 30
0.0
 11
-0.157011
 21
0.093466
 31
0.0
  0
LINE
  8
1
  6
CONTINUOUS
 62
   250
 10
-0.157011
 20
0.093466
 30
0.0
 11
-0.158715
 21
0.092898
 31
0.0
  0
LINE
  8
1
  6
CONTINUOUS
 62
   250
 10
-0.158715
 20
0.092898
 30
0.0
 11
-0.159851
 21
0.091761
 31
0.0
  0
LINE
  8
1
  6
CONTINUOUS
 62
   250
 10
-0.159851
 20
0.091761
 30
0.0
 11
-0.160989
 21
0.090341
 31
0.0
  0
LINE
  8
1
  6
CONTINUOUS
 62
   250
 10
-0.160989
 20
0.090341
 30
0.0
 11
-0.161556
 21
0.088636
 31
0.0
  0
LINE
  8
1
  6
CONTINUOUS
 62
   250
 10
-0.161556
 20
0.088636
 30
0.0
 11
-0.161841
 21
0.087216
 31
0.0
  0
LINE
  8
1
  6
CONTINUOUS
 62
   250
 10
-0.161841
 20
0.087216
 30
0.0
 11
-0.161556
 21
0.085511
 31
0.0
  0
LINE
  8
1
  6
CONTINUOUS
 62
   250
 10
-0.161556
 20
0.085511
 30
0.0
 11
-0.160989
 21
0.083807
 31
0.0
  0
LINE
  8
1
  6
CONTINUOUS
 62
   250
 10
-0.160989
 20
0.083807
 30
0.0
 11
-0.159851
 21
0.082386
 31
0.0
  0
LINE
  8
1
  6
CONTINUOUS
 62
   250
 10
-0.159851
 20
0.082386
 30
0.0
 11
-0.158715
 21
0.08125
 31
0.0
  0
LINE
  8
1
  6
CONTINUOUS
 62
   250
 10
-0.158715
 20
0.08125
 30
0.0
 11
-0.157011
 21
0.080398
 31
0.0
  0
LINE
  8
1
  6
CONTINUOUS
 62
   250
 10
-0.157011
 20
0.080398
 30
0.0
 11
-0.155306
 21
0.080398
 31
0.0
  0
LINE
  8
1
  6
CONTINUOUS
 62
   250
 10
-0.155306
 20
0.080398
 30
0.0
 11
-0.153602
 21
0.080398
 31
0.0
  0
LINE
  8
1
  6
CONTINUOUS
 62
   250
 10
-0.153602
 20
0.080398
 30
0.0
 11
-0.151897
 21
0.08125
 31
0.0
  0
LINE
  8
1
  6
CONTINUOUS
 62
   250
 10
-0.151897
 20
0.08125
 30
0.0
 11
-0.150476
 21
0.082386
 31
0.0
  0
LINE
  8
1
  6
CONTINUOUS
 62
   250
 10
-0.150476
 20
0.082386
 30
0.0
 11
-0.149624
 21
0.083807
 31
0.0
  0
LINE
  8
1
  6
CONTINUOUS
 62
   250
 10
-0.149624
 20
0.083807
 30
0.0
 11
-0.148772
 21
0.085511
 31
0.0
  0
LINE
  8
1
  6
CONTINUOUS
 62
   250
 10
-0.148772
 20
0.085511
 30
0.0
 11
-0.148488
 21
0.087216
 31
0.0
  0
LINE
  8
1
  6
CONTINUOUS
 62
   250
 10
-0.155875
 20
0.087216
 30
0.0
 11
-0.156442
 21
0.088068
 31
0.0
  0
LINE
  8
1
  6
CONTINUOUS
 62
   250
 10
-0.156442
 20
0.088068
 30
0.0
 11
-0.15559
 21
0.0875
 31
0.0
  0
LINE
  8
1
  6
CONTINUOUS
 62
   250
 10
-0.15559
 20
0.0875
 30
0.0
 11
-0.15559
 21
0.088352
 31
0.0
  0
LINE
  8
1
  6
CONTINUOUS
 62
   250
 10
-0.15559
 20
0.088352
 30
0.0
 11
-0.155875
 21
0.087216
 31
0.0
  0
LINE
  8
1
  6
CONTINUOUS
 62
   250
 10
-0.155875
 20
0.087216
 30
0.0
 11
-0.156727
 21
0.087216
 31
0.0
  0
LINE
  8
1
  6
CONTINUOUS
 62
   250
 10
-0.156727
 20
0.087216
 30
0.0
 11
-0.156727
 21
0.086648
 31
0.0
  0
LINE
  8
1
  6
CONTINUOUS
 62
   250
 10
-0.156727
 20
0.086648
 30
0.0
 11
-0.155875
 21
0.086648
 31
0.0
  0
LINE
  8
1
  6
CONTINUOUS
 62
   250
 10
-0.155875
 20
0.086648
 30
0.0
 11
-0.156442
 21
0.08608
 31
0.0
  0
LINE
  8
1
  6
CONTINUOUS
 62
   250
 10
-0.156442
 20
0.08608
 30
0.0
 11
-0.15559
 21
0.085795
 31
0.0
  0
LINE
  8
1
  6
CONTINUOUS
 62
   250
 10
-0.15559
 20
0.085795
 30
0.0
 11
-0.15559
 21
0.086364
 31
0.0
  0
LINE
  8
1
  6
CONTINUOUS
 62
   250
 10
-0.15559
 20
0.086364
 30
0.0
 11
-0.154738
 21
0.086364
 31
0.0
  0
LINE
  8
1
  6
CONTINUOUS
 62
   250
 10
-0.154738
 20
0.086364
 30
0.0
 11
-0.154738
 21
0.085795
 31
0.0
  0
LINE
  8
1
  6
CONTINUOUS
 62
   250
 10
-0.154738
 20
0.085795
 30
0.0
 11
-0.15417
 21
0.08608
 31
0.0
  0
LINE
  8
1
  6
CONTINUOUS
 62
   250
 10
-0.15417
 20
0.08608
 30
0.0
 11
-0.154454
 21
0.086648
 31
0.0
  0
LINE
  8
1
  6
CONTINUOUS
 62
   250
 10
-0.154454
 20
0.086648
 30
0.0
 11
-0.153885
 21
0.086648
 31
0.0
  0
LINE
  8
1
  6
CONTINUOUS
 62
   250
 10
-0.153885
 20
0.086648
 30
0.0
 11
-0.153885
 21
0.087216
 31
0.0
  0
LINE
  8
1
  6
CONTINUOUS
 62
   250
 10
-0.153885
 20
0.087216
 30
0.0
 11
-0.154454
 21
0.087216
 31
0.0
  0
LINE
  8
1
  6
CONTINUOUS
 62
   250
 10
-0.154454
 20
0.087216
 30
0.0
 11
-0.15417
 21
0.088068
 31
0.0
  0
LINE
  8
1
  6
CONTINUOUS
 62
   250
 10
-0.15417
 20
0.088068
 30
0.0
 11
-0.154738
 21
0.0875
 31
0.0
  0
LINE
  8
1
  6
CONTINUOUS
 62
   250
 10
-0.154738
 20
0.0875
 30
0.0
 11
-0.154738
 21
0.088352
 31
0.0
  0
LINE
  8
1
  6
CONTINUOUS
 62
   250
 10
-0.155306
 20
0.090625
 30
0.0
 11
-0.156727
 21
0.090341
 31
0.0
  0
LINE
  8
1
  6
CONTINUOUS
 62
   250
 10
-0.156727
 20
0.090341
 30
0.0
 11
-0.15758
 21
0.089489
 31
0.0
  0
LINE
  8
1
  6
CONTINUOUS
 62
   250
 10
-0.15758
 20
0.089489
 30
0.0
 11
-0.158432
 21
0.088352
 31
0.0
  0
LINE
  8
1
  6
CONTINUOUS
 62
   250
 10
-0.158432
 20
0.088352
 30
0.0
 11
-0.158715
 21
0.087216
 31
0.0
  0
LINE
  8
1
  6
CONTINUOUS
 62
   250
 10
-0.158715
 20
0.087216
 30
0.0
 11
-0.158432
 21
0.085795
 31
0.0
  0
LINE
  8
1
  6
CONTINUOUS
 62
   250
 10
-0.158432
 20
0.085795
 30
0.0
 11
-0.15758
 21
0.084659
 31
0.0
  0
LINE
  8
1
  6
CONTINUOUS
 62
   250
 10
-0.15758
 20
0.084659
 30
0.0
 11
-0.156727
 21
0.083807
 31
0.0
  0
LINE
  8
1
  6
CONTINUOUS
 62
   250
 10
-0.156727
 20
0.083807
 30
0.0
 11
-0.155306
 21
0.083523
 31
0.0
  0
LINE
  8
1
  6
CONTINUOUS
 62
   250
 10
-0.155306
 20
0.083523
 30
0.0
 11
-0.153885
 21
0.083807
 31
0.0
  0
LINE
  8
1
  6
CONTINUOUS
 62
   250
 10
-0.153885
 20
0.083807
 30
0.0
 11
-0.152749
 21
0.084659
 31
0.0
  0
LINE
  8
1
  6
CONTINUOUS
 62
   250
 10
-0.152749
 20
0.084659
 30
0.0
 11
-0.151897
 21
0.085795
 31
0.0
  0
LINE
  8
1
  6
CONTINUOUS
 62
   250
 10
-0.151897
 20
0.085795
 30
0.0
 11
-0.151897
 21
0.087216
 31
0.0
  0
LINE
  8
1
  6
CONTINUOUS
 62
   250
 10
-0.151897
 20
0.087216
 30
0.0
 11
-0.151897
 21
0.088352
 31
0.0
  0
LINE
  8
1
  6
CONTINUOUS
 62
   250
 10
-0.151897
 20
0.088352
 30
0.0
 11
-0.152749
 21
0.089489
 31
0.0
  0
LINE
  8
1
  6
CONTINUOUS
 62
   250
 10
-0.152749
 20
0.089489
 30
0.0
 11
-0.153885
 21
0.090341
 31
0.0
  0
LINE
  8
1
  6
CONTINUOUS
 62
   250
 10
-0.153885
 20
0.090341
 30
0.0
 11
-0.155306
 21
0.090625
 31
0.0
  0
LINE
  8
1
  6
CONTINUOUS
 62
   250
 10
-0.203034
 20
0.090341
 30
0.0
 11
-0.203886
 21
0.091761
 31
0.0
  0
LINE
  8
1
  6
CONTINUOUS
 62
   250
 10
-0.203886
 20
0.091761
 30
0.0
 11
-0.205307
 21
0.092898
 31
0.0
  0
LINE
  8
1
  6
CONTINUOUS
 62
   250
 10
-0.205307
 20
0.092898
 30
0.0
 11
-0.207011
 21
0.093466
 31
0.0
  0
LINE
  8
1
  6
CONTINUOUS
 62
   250
 10
-0.207011
 20
0.093466
 30
0.0
 11
-0.208716
 21
0.09375
 31
0.0
  0
LINE
  8
1
  6
CONTINUOUS
 62
   250
 10
-0.208716
 20
0.09375
 30
0.0
 11
-0.21042
 21
0.093466
 31
0.0
  0
LINE
  8
1
  6
CONTINUOUS
 62
   250
 10
-0.21042
 20
0.093466
 30
0.0
 11
-0.212125
 21
0.092898
 31
0.0
  0
LINE
  8
1
  6
CONTINUOUS
 62
   250
 10
-0.212125
 20
0.092898
 30
0.0
 11
-0.213261
 21
0.091761
 31
0.0
  0
LINE
  8
1
  6
CONTINUOUS
 62
   250
 10
-0.213261
 20
0.091761
 30
0.0
 11
-0.214397
 21
0.090341
 31
0.0
  0
LINE
  8
1
  6
CONTINUOUS
 62
   250
 10
-0.214397
 20
0.090341
 30
0.0
 11
-0.215249
 21
0.088636
 31
0.0
  0
LINE
  8
1
  6
CONTINUOUS
 62
   250
 10
-0.215249
 20
0.088636
 30
0.0
 11
-0.215249
 21
0.087216
 31
0.0
  0
LINE
  8
1
  6
CONTINUOUS
 62
   250
 10
-0.215249
 20
0.087216
 30
0.0
 11
-0.215249
 21
0.085511
 31
0.0
  0
LINE
  8
1
  6
CONTINUOUS
 62
   250
 10
-0.215249
 20
0.085511
 30
0.0
 11
-0.214397
 21
0.083807
 31
0.0
  0
LINE
  8
1
  6
CONTINUOUS
 62
   250
 10
-0.214397
 20
0.083807
 30
0.0
 11
-0.213261
 21
0.082386
 31
0.0
  0
LINE
  8
1
  6
CONTINUOUS
 62
   250
 10
-0.213261
 20
0.082386
 30
0.0
 11
-0.212125
 21
0.08125
 31
0.0
  0
LINE
  8
1
  6
CONTINUOUS
 62
   250
 10
-0.212125
 20
0.08125
 30
0.0
 11
-0.21042
 21
0.080398
 31
0.0
  0
LINE
  8
1
  6
CONTINUOUS
 62
   250
 10
-0.21042
 20
0.080398
 30
0.0
 11
-0.208716
 21
0.080398
 31
0.0
  0
LINE
  8
1
  6
CONTINUOUS
 62
   250
 10
-0.208716
 20
0.080398
 30
0.0
 11
-0.207011
 21
0.080398
 31
0.0
  0
LINE
  8
1
  6
CONTINUOUS
 62
   250
 10
-0.207011
 20
0.080398
 30
0.0
 11
-0.205307
 21
0.08125
 31
0.0
  0
LINE
  8
1
  6
CONTINUOUS
 62
   250
 10
-0.205307
 20
0.08125
 30
0.0
 11
-0.203886
 21
0.082386
 31
0.0
  0
LINE
  8
1
  6
CONTINUOUS
 62
   250
 10
-0.203886
 20
0.082386
 30
0.0
 11
-0.203034
 21
0.083807
 31
0.0
  0
LINE
  8
1
  6
CONTINUOUS
 62
   250
 10
-0.203034
 20
0.083807
 30
0.0
 11
-0.202181
 21
0.085511
 31
0.0
  0
LINE
  8
1
  6
CONTINUOUS
 62
   250
 10
-0.202181
 20
0.085511
 30
0.0
 11
-0.201898
 21
0.087216
 31
0.0
  0
LINE
  8
1
  6
CONTINUOUS
 62
   250
 10
-0.201898
 20
0.087216
 30
0.0
 11
-0.202181
 21
0.088636
 31
0.0
  0
LINE
  8
1
  6
CONTINUOUS
 62
   250
 10
-0.202181
 20
0.088636
 30
0.0
 11
-0.203034
 21
0.090341
 31
0.0
  0
LINE
  8
1
  6
CONTINUOUS
 62
   250
 10
-0.206159
 20
0.089489
 30
0.0
 11
-0.207295
 21
0.090341
 31
0.0
  0
LINE
  8
1
  6
CONTINUOUS
 62
   250
 10
-0.207295
 20
0.090341
 30
0.0
 11
-0.208716
 21
0.090625
 31
0.0
  0
LINE
  8
1
  6
CONTINUOUS
 62
   250
 10
-0.208716
 20
0.090625
 30
0.0
 11
-0.210135
 21
0.090341
 31
0.0
  0
LINE
  8
1
  6
CONTINUOUS
 62
   250
 10
-0.210135
 20
0.090341
 30
0.0
 11
-0.210988
 21
0.089489
 31
0.0
  0
LINE
  8
1
  6
CONTINUOUS
 62
   250
 10
-0.210988
 20
0.089489
 30
0.0
 11
-0.21184
 21
0.088352
 31
0.0
  0
LINE
  8
1
  6
CONTINUOUS
 62
   250
 10
-0.21184
 20
0.088352
 30
0.0
 11
-0.212125
 21
0.087216
 31
0.0
  0
LINE
  8
1
  6
CONTINUOUS
 62
   250
 10
-0.212125
 20
0.087216
 30
0.0
 11
-0.21184
 21
0.085795
 31
0.0
  0
LINE
  8
1
  6
CONTINUOUS
 62
   250
 10
-0.21184
 20
0.085795
 30
0.0
 11
-0.210988
 21
0.084659
 31
0.0
  0
LINE
  8
1
  6
CONTINUOUS
 62
   250
 10
-0.210988
 20
0.084659
 30
0.0
 11
-0.210135
 21
0.083807
 31
0.0
  0
LINE
  8
1
  6
CONTINUOUS
 62
   250
 10
-0.210135
 20
0.083807
 30
0.0
 11
-0.208716
 21
0.083523
 31
0.0
  0
LINE
  8
1
  6
CONTINUOUS
 62
   250
 10
-0.208716
 20
0.083523
 30
0.0
 11
-0.207295
 21
0.083807
 31
0.0
  0
LINE
  8
1
  6
CONTINUOUS
 62
   250
 10
-0.207295
 20
0.083807
 30
0.0
 11
-0.206159
 21
0.084659
 31
0.0
  0
LINE
  8
1
  6
CONTINUOUS
 62
   250
 10
-0.206159
 20
0.084659
 30
0.0
 11
-0.205307
 21
0.085795
 31
0.0
  0
LINE
  8
1
  6
CONTINUOUS
 62
   250
 10
-0.205307
 20
0.085795
 30
0.0
 11
-0.205022
 21
0.087216
 31
0.0
  0
LINE
  8
1
  6
CONTINUOUS
 62
   250
 10
-0.205022
 20
0.087216
 30
0.0
 11
-0.205307
 21
0.088352
 31
0.0
  0
LINE
  8
1
  6
CONTINUOUS
 62
   250
 10
-0.205307
 20
0.088352
 30
0.0
 11
-0.206159
 21
0.089489
 31
0.0
  0
LINE
  8
1
  6
CONTINUOUS
 62
   250
 10
-0.208999
 20
0.088352
 30
0.0
 11
-0.208999
 21
0.0875
 31
0.0
  0
LINE
  8
1
  6
CONTINUOUS
 62
   250
 10
-0.208999
 20
0.0875
 30
0.0
 11
-0.209283
 21
0.087216
 31
0.0
  0
LINE
  8
1
  6
CONTINUOUS
 62
   250
 10
-0.209283
 20
0.087216
 30
0.0
 11
-0.209852
 21
0.088068
 31
0.0
  0
LINE
  8
1
  6
CONTINUOUS
 62
   250
 10
-0.209852
 20
0.088068
 30
0.0
 11
-0.210135
 21
0.087216
 31
0.0
  0
LINE
  8
1
  6
CONTINUOUS
 62
   250
 10
-0.210135
 20
0.087216
 30
0.0
 11
-0.209283
 21
0.087216
 31
0.0
  0
LINE
  8
1
  6
CONTINUOUS
 62
   250
 10
-0.209283
 20
0.087216
 30
0.0
 11
-0.209283
 21
0.086648
 31
0.0
  0
LINE
  8
1
  6
CONTINUOUS
 62
   250
 10
-0.209283
 20
0.086648
 30
0.0
 11
-0.210135
 21
0.086648
 31
0.0
  0
LINE
  8
1
  6
CONTINUOUS
 62
   250
 10
-0.210135
 20
0.086648
 30
0.0
 11
-0.209283
 21
0.086648
 31
0.0
  0
LINE
  8
1
  6
CONTINUOUS
 62
   250
 10
-0.209283
 20
0.086648
 30
0.0
 11
-0.209852
 21
0.08608
 31
0.0
  0
LINE
  8
1
  6
CONTINUOUS
 62
   250
 10
-0.209852
 20
0.08608
 30
0.0
 11
-0.208999
 21
0.085795
 31
0.0
  0
LINE
  8
1
  6
CONTINUOUS
 62
   250
 10
-0.208999
 20
0.085795
 30
0.0
 11
-0.208999
 21
0.086364
 31
0.0
  0
LINE
  8
1
  6
CONTINUOUS
 62
   250
 10
-0.208999
 20
0.086364
 30
0.0
 11
-0.208147
 21
0.086364
 31
0.0
  0
LINE
  8
1
  6
CONTINUOUS
 62
   250
 10
-0.208147
 20
0.086364
 30
0.0
 11
-0.208147
 21
0.085795
 31
0.0
  0
LINE
  8
1
  6
CONTINUOUS
 62
   250
 10
-0.208147
 20
0.085795
 30
0.0
 11
-0.207579
 21
0.08608
 31
0.0
  0
LINE
  8
1
  6
CONTINUOUS
 62
   250
 10
-0.207579
 20
0.08608
 30
0.0
 11
-0.207864
 21
0.086648
 31
0.0
  0
LINE
  8
1
  6
CONTINUOUS
 62
   250
 10
-0.207864
 20
0.086648
 30
0.0
 11
-0.207295
 21
0.086648
 31
0.0
  0
LINE
  8
1
  6
CONTINUOUS
 62
   250
 10
-0.207295
 20
0.086648
 30
0.0
 11
-0.207295
 21
0.087216
 31
0.0
  0
LINE
  8
1
  6
CONTINUOUS
 62
   250
 10
-0.207295
 20
0.087216
 30
0.0
 11
-0.207864
 21
0.087216
 31
0.0
  0
LINE
  8
1
  6
CONTINUOUS
 62
   250
 10
-0.207864
 20
0.087216
 30
0.0
 11
-0.207579
 21
0.088068
 31
0.0
  0
LINE
  8
1
  6
CONTINUOUS
 62
   250
 10
-0.207579
 20
0.088068
 30
0.0
 11
-0.208147
 21
0.0875
 31
0.0
  0
LINE
  8
1
  6
CONTINUOUS
 62
   250
 10
-0.208147
 20
0.0875
 30
0.0
 11
-0.208147
 21
0.088352
 31
0.0
  0
LINE
  8
1
  6
CONTINUOUS
 62
   250
 10
-0.175477
 20
0.088636
 30
0.0
 11
-0.176044
 21
0.090341
 31
0.0
  0
LINE
  8
1
  6
CONTINUOUS
 62
   250
 10
-0.176044
 20
0.090341
 30
0.0
 11
-0.177182
 21
0.091761
 31
0.0
  0
LINE
  8
1
  6
CONTINUOUS
 62
   250
 10
-0.177182
 20
0.091761
 30
0.0
 11
-0.178601
 21
0.092898
 31
0.0
  0
LINE
  8
1
  6
CONTINUOUS
 62
   250
 10
-0.178601
 20
0.092898
 30
0.0
 11
-0.180306
 21
0.093466
 31
0.0
  0
LINE
  8
1
  6
CONTINUOUS
 62
   250
 10
-0.180306
 20
0.093466
 30
0.0
 11
-0.181727
 21
0.09375
 31
0.0
  0
LINE
  8
1
  6
CONTINUOUS
 62
   250
 10
-0.181727
 20
0.09375
 30
0.0
 11
-0.183715
 21
0.093466
 31
0.0
  0
LINE
  8
1
  6
CONTINUOUS
 62
   250
 10
-0.183715
 20
0.093466
 30
0.0
 11
-0.185136
 21
0.092898
 31
0.0
  0
LINE
  8
1
  6
CONTINUOUS
 62
   250
 10
-0.185136
 20
0.092898
 30
0.0
 11
-0.186557
 21
0.091761
 31
0.0
  0
LINE
  8
1
  6
CONTINUOUS
 62
   250
 10
-0.186557
 20
0.091761
 30
0.0
 11
-0.187693
 21
0.090341
 31
0.0
  0
LINE
  8
1
  6
CONTINUOUS
 62
   250
 10
-0.187693
 20
0.090341
 30
0.0
 11
-0.188545
 21
0.088636
 31
0.0
  0
LINE
  8
1
  6
CONTINUOUS
 62
   250
 10
-0.188545
 20
0.088636
 30
0.0
 11
-0.188545
 21
0.087216
 31
0.0
  0
LINE
  8
1
  6
CONTINUOUS
 62
   250
 10
-0.188545
 20
0.087216
 30
0.0
 11
-0.188545
 21
0.085511
 31
0.0
  0
LINE
  8
1
  6
CONTINUOUS
 62
   250
 10
-0.188545
 20
0.085511
 30
0.0
 11
-0.187693
 21
0.083807
 31
0.0
  0
LINE
  8
1
  6
CONTINUOUS
 62
   250
 10
-0.187693
 20
0.083807
 30
0.0
 11
-0.186557
 21
0.082386
 31
0.0
  0
LINE
  8
1
  6
CONTINUOUS
 62
   250
 10
-0.186557
 20
0.082386
 30
0.0
 11
-0.185136
 21
0.08125
 31
0.0
  0
LINE
  8
1
  6
CONTINUOUS
 62
   250
 10
-0.185136
 20
0.08125
 30
0.0
 11
-0.183715
 21
0.080398
 31
0.0
  0
LINE
  8
1
  6
CONTINUOUS
 62
   250
 10
-0.183715
 20
0.080398
 30
0.0
 11
-0.181727
 21
0.080398
 31
0.0
  0
LINE
  8
1
  6
CONTINUOUS
 62
   250
 10
-0.181727
 20
0.080398
 30
0.0
 11
-0.180306
 21
0.080398
 31
0.0
  0
LINE
  8
1
  6
CONTINUOUS
 62
   250
 10
-0.180306
 20
0.080398
 30
0.0
 11
-0.178601
 21
0.08125
 31
0.0
  0
LINE
  8
1
  6
CONTINUOUS
 62
   250
 10
-0.178601
 20
0.08125
 30
0.0
 11
-0.177182
 21
0.082386
 31
0.0
  0
LINE
  8
1
  6
CONTINUOUS
 62
   250
 10
-0.177182
 20
0.082386
 30
0.0
 11
-0.176044
 21
0.083807
 31
0.0
  0
LINE
  8
1
  6
CONTINUOUS
 62
   250
 10
-0.176044
 20
0.083807
 30
0.0
 11
-0.175477
 21
0.085511
 31
0.0
  0
LINE
  8
1
  6
CONTINUOUS
 62
   250
 10
-0.175477
 20
0.085511
 30
0.0
 11
-0.175192
 21
0.087216
 31
0.0
  0
LINE
  8
1
  6
CONTINUOUS
 62
   250
 10
-0.175192
 20
0.087216
 30
0.0
 11
-0.175477
 21
0.088636
 31
0.0
  0
LINE
  8
1
  6
CONTINUOUS
 62
   250
 10
-0.182295
 20
0.088352
 30
0.0
 11
-0.182295
 21
0.0875
 31
0.0
  0
LINE
  8
1
  6
CONTINUOUS
 62
   250
 10
-0.182295
 20
0.0875
 30
0.0
 11
-0.182579
 21
0.087216
 31
0.0
  0
LINE
  8
1
  6
CONTINUOUS
 62
   250
 10
-0.182579
 20
0.087216
 30
0.0
 11
-0.182863
 21
0.088068
 31
0.0
  0
LINE
  8
1
  6
CONTINUOUS
 62
   250
 10
-0.182863
 20
0.088068
 30
0.0
 11
-0.183431
 21
0.087216
 31
0.0
  0
LINE
  8
1
  6
CONTINUOUS
 62
   250
 10
-0.183431
 20
0.087216
 30
0.0
 11
-0.182579
 21
0.087216
 31
0.0
  0
LINE
  8
1
  6
CONTINUOUS
 62
   250
 10
-0.182579
 20
0.087216
 30
0.0
 11
-0.182579
 21
0.086648
 31
0.0
  0
LINE
  8
1
  6
CONTINUOUS
 62
   250
 10
-0.182579
 20
0.086648
 30
0.0
 11
-0.183431
 21
0.086648
 31
0.0
  0
LINE
  8
1
  6
CONTINUOUS
 62
   250
 10
-0.183431
 20
0.086648
 30
0.0
 11
-0.182579
 21
0.086648
 31
0.0
  0
LINE
  8
1
  6
CONTINUOUS
 62
   250
 10
-0.182579
 20
0.086648
 30
0.0
 11
-0.182863
 21
0.08608
 31
0.0
  0
LINE
  8
1
  6
CONTINUOUS
 62
   250
 10
-0.182863
 20
0.08608
 30
0.0
 11
-0.182295
 21
0.085795
 31
0.0
  0
LINE
  8
1
  6
CONTINUOUS
 62
   250
 10
-0.182295
 20
0.085795
 30
0.0
 11
-0.182295
 21
0.086364
 31
0.0
  0
LINE
  8
1
  6
CONTINUOUS
 62
   250
 10
-0.182295
 20
0.086364
 30
0.0
 11
-0.181443
 21
0.086364
 31
0.0
  0
LINE
  8
1
  6
CONTINUOUS
 62
   250
 10
-0.181443
 20
0.086364
 30
0.0
 11
-0.181443
 21
0.085795
 31
0.0
  0
LINE
  8
1
  6
CONTINUOUS
 62
   250
 10
-0.181443
 20
0.085795
 30
0.0
 11
-0.180874
 21
0.08608
 31
0.0
  0
LINE
  8
1
  6
CONTINUOUS
 62
   250
 10
-0.180874
 20
0.08608
 30
0.0
 11
-0.181158
 21
0.086648
 31
0.0
  0
LINE
  8
1
  6
CONTINUOUS
 62
   250
 10
-0.181158
 20
0.086648
 30
0.0
 11
-0.180591
 21
0.086648
 31
0.0
  0
LINE
  8
1
  6
CONTINUOUS
 62
   250
 10
-0.180591
 20
0.086648
 30
0.0
 11
-0.180591
 21
0.087216
 31
0.0
  0
LINE
  8
1
  6
CONTINUOUS
 62
   250
 10
-0.180591
 20
0.087216
 30
0.0
 11
-0.181158
 21
0.087216
 31
0.0
  0
LINE
  8
1
  6
CONTINUOUS
 62
   250
 10
-0.181158
 20
0.087216
 30
0.0
 11
-0.180874
 21
0.088068
 31
0.0
  0
LINE
  8
1
  6
CONTINUOUS
 62
   250
 10
-0.180874
 20
0.088068
 30
0.0
 11
-0.181443
 21
0.0875
 31
0.0
  0
LINE
  8
1
  6
CONTINUOUS
 62
   250
 10
-0.181443
 20
0.0875
 30
0.0
 11
-0.181443
 21
0.088352
 31
0.0
  0
LINE
  8
1
  6
CONTINUOUS
 62
   250
 10
-0.226045
 20
0.112216
 30
0.0
 11
-0.226045
 21
0.073579
 31
0.0
  0
LINE
  8
1
  6
CONTINUOUS
 62
   250
 10
-0.217806
 20
0.073579
 30
0.0
 11
-0.217806
 21
0.112216
 31
0.0
  0
LINE
  8
1
  6
CONTINUOUS
 62
   250
 10
-0.222636
 20
0.112216
 30
0.0
 11
-0.222636
 21
0.038636
 31
0.0
  0
LINE
  8
1
  6
CONTINUOUS
 62
   250
 10
-0.222636
 20
0.038636
 30
0.0
 11
-0.222636
 21
0.112216
 31
0.0
  0
LINE
  8
1
  6
CONTINUOUS
 62
   250
 10
-0.232863
 20
0.089204
 30
0.0
 11
-0.233999
 21
0.090057
 31
0.0
  0
LINE
  8
1
  6
CONTINUOUS
 62
   250
 10
-0.233999
 20
0.090057
 30
0.0
 11
-0.23542
 21
0.090341
 31
0.0
  0
LINE
  8
1
  6
CONTINUOUS
 62
   250
 10
-0.23542
 20
0.090341
 30
0.0
 11
-0.236841
 21
0.090057
 31
0.0
  0
LINE
  8
1
  6
CONTINUOUS
 62
   250
 10
-0.236841
 20
0.090057
 30
0.0
 11
-0.237977
 21
0.089204
 31
0.0
  0
LINE
  8
1
  6
CONTINUOUS
 62
   250
 10
-0.237977
 20
0.089204
 30
0.0
 11
-0.238829
 21
0.088068
 31
0.0
  0
LINE
  8
1
  6
CONTINUOUS
 62
   250
 10
-0.238829
 20
0.088068
 30
0.0
 11
-0.239113
 21
0.086648
 31
0.0
  0
LINE
  8
1
  6
CONTINUOUS
 62
   250
 10
-0.239113
 20
0.086648
 30
0.0
 11
-0.238829
 21
0.085511
 31
0.0
  0
LINE
  8
1
  6
CONTINUOUS
 62
   250
 10
-0.238829
 20
0.085511
 30
0.0
 11
-0.237977
 21
0.084091
 31
0.0
  0
LINE
  8
1
  6
CONTINUOUS
 62
   250
 10
-0.237977
 20
0.084091
 30
0.0
 11
-0.236841
 21
0.083523
 31
0.0
  0
LINE
  8
1
  6
CONTINUOUS
 62
   250
 10
-0.236841
 20
0.083523
 30
0.0
 11
-0.23542
 21
0.083239
 31
0.0
  0
LINE
  8
1
  6
CONTINUOUS
 62
   250
 10
-0.23542
 20
0.083239
 30
0.0
 11
-0.233999
 21
0.083523
 31
0.0
  0
LINE
  8
1
  6
CONTINUOUS
 62
   250
 10
-0.233999
 20
0.083523
 30
0.0
 11
-0.232863
 21
0.084091
 31
0.0
  0
LINE
  8
1
  6
CONTINUOUS
 62
   250
 10
-0.232863
 20
0.084091
 30
0.0
 11
-0.232294
 21
0.085511
 31
0.0
  0
LINE
  8
1
  6
CONTINUOUS
 62
   250
 10
-0.232294
 20
0.085511
 30
0.0
 11
-0.232011
 21
0.086648
 31
0.0
  0
LINE
  8
1
  6
CONTINUOUS
 62
   250
 10
-0.232011
 20
0.086648
 30
0.0
 11
-0.232294
 21
0.088068
 31
0.0
  0
LINE
  8
1
  6
CONTINUOUS
 62
   250
 10
-0.232294
 20
0.088068
 30
0.0
 11
-0.232863
 21
0.089204
 31
0.0
  0
LINE
  8
1
  6
CONTINUOUS
 62
   250
 10
-0.229738
 20
0.090057
 30
0.0
 11
-0.23059
 21
0.091477
 31
0.0
  0
LINE
  8
1
  6
CONTINUOUS
 62
   250
 10
-0.23059
 20
0.091477
 30
0.0
 11
-0.232011
 21
0.092614
 31
0.0
  0
LINE
  8
1
  6
CONTINUOUS
 62
   250
 10
-0.232011
 20
0.092614
 30
0.0
 11
-0.233715
 21
0.093466
 31
0.0
  0
LINE
  8
1
  6
CONTINUOUS
 62
   250
 10
-0.233715
 20
0.093466
 30
0.0
 11
-0.23542
 21
0.093466
 31
0.0
  0
LINE
  8
1
  6
CONTINUOUS
 62
   250
 10
-0.23542
 20
0.093466
 30
0.0
 11
-0.237124
 21
0.093466
 31
0.0
  0
LINE
  8
1
  6
CONTINUOUS
 62
   250
 10
-0.237124
 20
0.093466
 30
0.0
 11
-0.238829
 21
0.092614
 31
0.0
  0
LINE
  8
1
  6
CONTINUOUS
 62
   250
 10
-0.238829
 20
0.092614
 30
0.0
 11
-0.24025
 21
0.091477
 31
0.0
  0
LINE
  8
1
  6
CONTINUOUS
 62
   250
 10
-0.24025
 20
0.091477
 30
0.0
 11
-0.241102
 21
0.090057
 31
0.0
  0
LINE
  8
1
  6
CONTINUOUS
 62
   250
 10
-0.241102
 20
0.090057
 30
0.0
 11
-0.241954
 21
0.088352
 31
0.0
  0
LINE
  8
1
  6
CONTINUOUS
 62
   250
 10
-0.241954
 20
0.088352
 30
0.0
 11
-0.241954
 21
0.086648
 31
0.0
  0
LINE
  8
1
  6
CONTINUOUS
 62
   250
 10
-0.241954
 20
0.086648
 30
0.0
 11
-0.241954
 21
0.085227
 31
0.0
  0
LINE
  8
1
  6
CONTINUOUS
 62
   250
 10
-0.241954
 20
0.085227
 30
0.0
 11
-0.241102
 21
0.083523
 31
0.0
  0
LINE
  8
1
  6
CONTINUOUS
 62
   250
 10
-0.241102
 20
0.083523
 30
0.0
 11
-0.24025
 21
0.082102
 31
0.0
  0
LINE
  8
1
  6
CONTINUOUS
 62
   250
 10
-0.24025
 20
0.082102
 30
0.0
 11
-0.238829
 21
0.080682
 31
0.0
  0
LINE
  8
1
  6
CONTINUOUS
 62
   250
 10
-0.238829
 20
0.080682
 30
0.0
 11
-0.237124
 21
0.080398
 31
0.0
  0
LINE
  8
1
  6
CONTINUOUS
 62
   250
 10
-0.237124
 20
0.080398
 30
0.0
 11
-0.23542
 21
0.080114
 31
0.0
  0
LINE
  8
1
  6
CONTINUOUS
 62
   250
 10
-0.23542
 20
0.080114
 30
0.0
 11
-0.233715
 21
0.080398
 31
0.0
  0
LINE
  8
1
  6
CONTINUOUS
 62
   250
 10
-0.233715
 20
0.080398
 30
0.0
 11
-0.232011
 21
0.080682
 31
0.0
  0
LINE
  8
1
  6
CONTINUOUS
 62
   250
 10
-0.232011
 20
0.080682
 30
0.0
 11
-0.23059
 21
0.082102
 31
0.0
  0
LINE
  8
1
  6
CONTINUOUS
 62
   250
 10
-0.23059
 20
0.082102
 30
0.0
 11
-0.229738
 21
0.083523
 31
0.0
  0
LINE
  8
1
  6
CONTINUOUS
 62
   250
 10
-0.229738
 20
0.083523
 30
0.0
 11
-0.228885
 21
0.085227
 31
0.0
  0
LINE
  8
1
  6
CONTINUOUS
 62
   250
 10
-0.228885
 20
0.085227
 30
0.0
 11
-0.228602
 21
0.086648
 31
0.0
  0
LINE
  8
1
  6
CONTINUOUS
 62
   250
 10
-0.228602
 20
0.086648
 30
0.0
 11
-0.228885
 21
0.088352
 31
0.0
  0
LINE
  8
1
  6
CONTINUOUS
 62
   250
 10
-0.228885
 20
0.088352
 30
0.0
 11
-0.229738
 21
0.090057
 31
0.0
  0
LINE
  8
1
  6
CONTINUOUS
 62
   250
 10
-0.234284
 20
0.0875
 30
0.0
 11
-0.234851
 21
0.087216
 31
0.0
  0
LINE
  8
1
  6
CONTINUOUS
 62
   250
 10
-0.234851
 20
0.087216
 30
0.0
 11
-0.233999
 21
0.087216
 31
0.0
  0
LINE
  8
1
  6
CONTINUOUS
 62
   250
 10
-0.233999
 20
0.087216
 30
0.0
 11
-0.233999
 21
0.086364
 31
0.0
  0
LINE
  8
1
  6
CONTINUOUS
 62
   250
 10
-0.233999
 20
0.086364
 30
0.0
 11
-0.234851
 21
0.086364
 31
0.0
  0
LINE
  8
1
  6
CONTINUOUS
 62
   250
 10
-0.234851
 20
0.086364
 30
0.0
 11
-0.234284
 21
0.085795
 31
0.0
  0
LINE
  8
1
  6
CONTINUOUS
 62
   250
 10
-0.234284
 20
0.085795
 30
0.0
 11
-0.234851
 21
0.08608
 31
0.0
  0
LINE
  8
1
  6
CONTINUOUS
 62
   250
 10
-0.234851
 20
0.08608
 30
0.0
 11
-0.234851
 21
0.085511
 31
0.0
  0
LINE
  8
1
  6
CONTINUOUS
 62
   250
 10
-0.234851
 20
0.085511
 30
0.0
 11
-0.235704
 21
0.085511
 31
0.0
  0
LINE
  8
1
  6
CONTINUOUS
 62
   250
 10
-0.235704
 20
0.085511
 30
0.0
 11
-0.235704
 21
0.08608
 31
0.0
  0
LINE
  8
1
  6
CONTINUOUS
 62
   250
 10
-0.235704
 20
0.08608
 30
0.0
 11
-0.235989
 21
0.086364
 31
0.0
  0
LINE
  8
1
  6
CONTINUOUS
 62
   250
 10
-0.235989
 20
0.086364
 30
0.0
 11
-0.236841
 21
0.086364
 31
0.0
  0
LINE
  8
1
  6
CONTINUOUS
 62
   250
 10
-0.236841
 20
0.086364
 30
0.0
 11
-0.236841
 21
0.087216
 31
0.0
  0
LINE
  8
1
  6
CONTINUOUS
 62
   250
 10
-0.236841
 20
0.087216
 30
0.0
 11
-0.235989
 21
0.087216
 31
0.0
  0
LINE
  8
1
  6
CONTINUOUS
 62
   250
 10
-0.235989
 20
0.087216
 30
0.0
 11
-0.236556
 21
0.0875
 31
0.0
  0
LINE
  8
1
  6
CONTINUOUS
 62
   250
 10
-0.236556
 20
0.0875
 30
0.0
 11
-0.235704
 21
0.087216
 31
0.0
  0
LINE
  8
1
  6
CONTINUOUS
 62
   250
 10
-0.235704
 20
0.087216
 30
0.0
 11
-0.235704
 21
0.088352
 31
0.0
  0
LINE
  8
1
  6
CONTINUOUS
 62
   250
 10
-0.235704
 20
0.088352
 30
0.0
 11
-0.234851
 21
0.088352
 31
0.0
  0
LINE
  8
1
  6
CONTINUOUS
 62
   250
 10
-0.234851
 20
0.088352
 30
0.0
 11
-0.234851
 21
0.087216
 31
0.0
  0
LINE
  8
1
  6
CONTINUOUS
 62
   250
 10
-0.235989
 20
0.086364
 30
0.0
 11
-0.236556
 21
0.085795
 31
0.0
  0
LINE
  8
1
  6
CONTINUOUS
 62
   250
 10
-0.235989
 20
0.068182
 30
0.0
 11
-0.237693
 21
0.068182
 31
0.0
  0
LINE
  8
1
  6
CONTINUOUS
 62
   250
 10
-0.237693
 20
0.068182
 30
0.0
 11
-0.239398
 21
0.067045
 31
0.0
  0
LINE
  8
1
  6
CONTINUOUS
 62
   250
 10
-0.239398
 20
0.067045
 30
0.0
 11
-0.240817
 21
0.066477
 31
0.0
  0
LINE
  8
1
  6
CONTINUOUS
 62
   250
 10
-0.240817
 20
0.066477
 30
0.0
 11
-0.241954
 21
0.065057
 31
0.0
  0
LINE
  8
1
  6
CONTINUOUS
 62
   250
 10
-0.241954
 20
0.065057
 30
0.0
 11
-0.242522
 21
0.063352
 31
0.0
  0
LINE
  8
1
  6
CONTINUOUS
 62
   250
 10
-0.242522
 20
0.063352
 30
0.0
 11
-0.242522
 21
0.061648
 31
0.0
  0
LINE
  8
1
  6
CONTINUOUS
 62
   250
 10
-0.242522
 20
0.061648
 30
0.0
 11
-0.229454
 21
0.061648
 31
0.0
  0
LINE
  8
1
  6
CONTINUOUS
 62
   250
 10
-0.229454
 20
0.061648
 30
0.0
 11
-0.229454
 21
0.063352
 31
0.0
  0
LINE
  8
1
  6
CONTINUOUS
 62
   250
 10
-0.229454
 20
0.063352
 30
0.0
 11
-0.230023
 21
0.065057
 31
0.0
  0
LINE
  8
1
  6
CONTINUOUS
 62
   250
 10
-0.230023
 20
0.065057
 30
0.0
 11
-0.231159
 21
0.066477
 31
0.0
  0
LINE
  8
1
  6
CONTINUOUS
 62
   250
 10
-0.231159
 20
0.066477
 30
0.0
 11
-0.232579
 21
0.067045
 31
0.0
  0
LINE
  8
1
  6
CONTINUOUS
 62
   250
 10
-0.232579
 20
0.067045
 30
0.0
 11
-0.234284
 21
0.068182
 31
0.0
  0
LINE
  8
1
  6
CONTINUOUS
 62
   250
 10
-0.234284
 20
0.068182
 30
0.0
 11
-0.235989
 21
0.068182
 31
0.0
  0
LINE
  8
1
  6
CONTINUOUS
 62
   250
 10
-0.242522
 20
0.061648
 30
0.0
 11
-0.242522
 21
0.059943
 31
0.0
  0
LINE
  8
1
  6
CONTINUOUS
 62
   250
 10
-0.242522
 20
0.059943
 30
0.0
 11
-0.241954
 21
0.058239
 31
0.0
  0
LINE
  8
1
  6
CONTINUOUS
 62
   250
 10
-0.241954
 20
0.058239
 30
0.0
 11
-0.240817
 21
0.056534
 31
0.0
  0
LINE
  8
1
  6
CONTINUOUS
 62
   250
 10
-0.240817
 20
0.056534
 30
0.0
 11
-0.239398
 21
0.055682
 31
0.0
  0
LINE
  8
1
  6
CONTINUOUS
 62
   250
 10
-0.239398
 20
0.055682
 30
0.0
 11
-0.237693
 21
0.055114
 31
0.0
  0
LINE
  8
1
  6
CONTINUOUS
 62
   250
 10
-0.237693
 20
0.055114
 30
0.0
 11
-0.235989
 21
0.054829
 31
0.0
  0
LINE
  8
1
  6
CONTINUOUS
 62
   250
 10
-0.235989
 20
0.054829
 30
0.0
 11
-0.234284
 21
0.055114
 31
0.0
  0
LINE
  8
1
  6
CONTINUOUS
 62
   250
 10
-0.234284
 20
0.055114
 30
0.0
 11
-0.232579
 21
0.055682
 31
0.0
  0
LINE
  8
1
  6
CONTINUOUS
 62
   250
 10
-0.232579
 20
0.055682
 30
0.0
 11
-0.231159
 21
0.056534
 31
0.0
  0
LINE
  8
1
  6
CONTINUOUS
 62
   250
 10
-0.231159
 20
0.056534
 30
0.0
 11
-0.230023
 21
0.058239
 31
0.0
  0
LINE
  8
1
  6
CONTINUOUS
 62
   250
 10
-0.230023
 20
0.058239
 30
0.0
 11
-0.229454
 21
0.059943
 31
0.0
  0
LINE
  8
1
  6
CONTINUOUS
 62
   250
 10
-0.229454
 20
0.059943
 30
0.0
 11
-0.229454
 21
0.061648
 31
0.0
  0
LINE
  8
1
  6
CONTINUOUS
 62
   250
 10
-0.215818
 20
0.060795
 30
0.0
 11
-0.215534
 21
0.059091
 31
0.0
  0
LINE
  8
1
  6
CONTINUOUS
 62
   250
 10
-0.215534
 20
0.059091
 30
0.0
 11
-0.214965
 21
0.057386
 31
0.0
  0
LINE
  8
1
  6
CONTINUOUS
 62
   250
 10
-0.214965
 20
0.057386
 30
0.0
 11
-0.214113
 21
0.05625
 31
0.0
  0
LINE
  8
1
  6
CONTINUOUS
 62
   250
 10
-0.214113
 20
0.05625
 30
0.0
 11
-0.212692
 21
0.055114
 31
0.0
  0
LINE
  8
1
  6
CONTINUOUS
 62
   250
 10
-0.212692
 20
0.055114
 30
0.0
 11
-0.210988
 21
0.054261
 31
0.0
  0
LINE
  8
1
  6
CONTINUOUS
 62
   250
 10
-0.210988
 20
0.054261
 30
0.0
 11
-0.209283
 21
0.054261
 31
0.0
  0
LINE
  8
1
  6
CONTINUOUS
 62
   250
 10
-0.209283
 20
0.054261
 30
0.0
 11
-0.207579
 21
0.054261
 31
0.0
  0
LINE
  8
1
  6
CONTINUOUS
 62
   250
 10
-0.207579
 20
0.054261
 30
0.0
 11
-0.205874
 21
0.055114
 31
0.0
  0
LINE
  8
1
  6
CONTINUOUS
 62
   250
 10
-0.205874
 20
0.055114
 30
0.0
 11
-0.204454
 21
0.05625
 31
0.0
  0
LINE
  8
1
  6
CONTINUOUS
 62
   250
 10
-0.204454
 20
0.05625
 30
0.0
 11
-0.203317
 21
0.057386
 31
0.0
  0
LINE
  8
1
  6
CONTINUOUS
 62
   250
 10
-0.203317
 20
0.057386
 30
0.0
 11
-0.20275
 21
0.059091
 31
0.0
  0
LINE
  8
1
  6
CONTINUOUS
 62
   250
 10
-0.20275
 20
0.059091
 30
0.0
 11
-0.202465
 21
0.060795
 31
0.0
  0
LINE
  8
1
  6
CONTINUOUS
 62
   250
 10
-0.202465
 20
0.060795
 30
0.0
 11
-0.215818
 21
0.060795
 31
0.0
  0
LINE
  8
1
  6
CONTINUOUS
 62
   250
 10
-0.215818
 20
0.060795
 30
0.0
 11
-0.215534
 21
0.0625
 31
0.0
  0
LINE
  8
1
  6
CONTINUOUS
 62
   250
 10
-0.215534
 20
0.0625
 30
0.0
 11
-0.214965
 21
0.064204
 31
0.0
  0
LINE
  8
1
  6
CONTINUOUS
 62
   250
 10
-0.214965
 20
0.064204
 30
0.0
 11
-0.214113
 21
0.065625
 31
0.0
  0
LINE
  8
1
  6
CONTINUOUS
 62
   250
 10
-0.214113
 20
0.065625
 30
0.0
 11
-0.212692
 21
0.066477
 31
0.0
  0
LINE
  8
1
  6
CONTINUOUS
 62
   250
 10
-0.212692
 20
0.066477
 30
0.0
 11
-0.210988
 21
0.067045
 31
0.0
  0
LINE
  8
1
  6
CONTINUOUS
 62
   250
 10
-0.210988
 20
0.067045
 30
0.0
 11
-0.209283
 21
0.067614
 31
0.0
  0
LINE
  8
1
  6
CONTINUOUS
 62
   250
 10
-0.209283
 20
0.067614
 30
0.0
 11
-0.207579
 21
0.067045
 31
0.0
  0
LINE
  8
1
  6
CONTINUOUS
 62
   250
 10
-0.207579
 20
0.067045
 30
0.0
 11
-0.205874
 21
0.066477
 31
0.0
  0
LINE
  8
1
  6
CONTINUOUS
 62
   250
 10
-0.205874
 20
0.066477
 30
0.0
 11
-0.204454
 21
0.065625
 31
0.0
  0
LINE
  8
1
  6
CONTINUOUS
 62
   250
 10
-0.204454
 20
0.065625
 30
0.0
 11
-0.203317
 21
0.064204
 31
0.0
  0
LINE
  8
1
  6
CONTINUOUS
 62
   250
 10
-0.203317
 20
0.064204
 30
0.0
 11
-0.20275
 21
0.0625
 31
0.0
  0
LINE
  8
1
  6
CONTINUOUS
 62
   250
 10
-0.20275
 20
0.0625
 30
0.0
 11
-0.202465
 21
0.060795
 31
0.0
  0
LINE
  8
1
  6
CONTINUOUS
 62
   250
 10
-0.189114
 20
0.060795
 30
0.0
 11
-0.188829
 21
0.059091
 31
0.0
  0
LINE
  8
1
  6
CONTINUOUS
 62
   250
 10
-0.188829
 20
0.059091
 30
0.0
 11
-0.188261
 21
0.057386
 31
0.0
  0
LINE
  8
1
  6
CONTINUOUS
 62
   250
 10
-0.188261
 20
0.057386
 30
0.0
 11
-0.187124
 21
0.05625
 31
0.0
  0
LINE
  8
1
  6
CONTINUOUS
 62
   250
 10
-0.187124
 20
0.05625
 30
0.0
 11
-0.185988
 21
0.055114
 31
0.0
  0
LINE
  8
1
  6
CONTINUOUS
 62
   250
 10
-0.185988
 20
0.055114
 30
0.0
 11
-0.184284
 21
0.054261
 31
0.0
  0
LINE
  8
1
  6
CONTINUOUS
 62
   250
 10
-0.184284
 20
0.054261
 30
0.0
 11
-0.182579
 21
0.054261
 31
0.0
  0
LINE
  8
1
  6
CONTINUOUS
 62
   250
 10
-0.182579
 20
0.054261
 30
0.0
 11
-0.180874
 21
0.054261
 31
0.0
  0
LINE
  8
1
  6
CONTINUOUS
 62
   250
 10
-0.180874
 20
0.054261
 30
0.0
 11
-0.17917
 21
0.055114
 31
0.0
  0
LINE
  8
1
  6
CONTINUOUS
 62
   250
 10
-0.17917
 20
0.055114
 30
0.0
 11
-0.177749
 21
0.05625
 31
0.0
  0
LINE
  8
1
  6
CONTINUOUS
 62
   250
 10
-0.177749
 20
0.05625
 30
0.0
 11
-0.176613
 21
0.057386
 31
0.0
  0
LINE
  8
1
  6
CONTINUOUS
 62
   250
 10
-0.176613
 20
0.057386
 30
0.0
 11
-0.176044
 21
0.059091
 31
0.0
  0
LINE
  8
1
  6
CONTINUOUS
 62
   250
 10
-0.176044
 20
0.059091
 30
0.0
 11
-0.175761
 21
0.060795
 31
0.0
  0
LINE
  8
1
  6
CONTINUOUS
 62
   250
 10
-0.175761
 20
0.060795
 30
0.0
 11
-0.176044
 21
0.0625
 31
0.0
  0
LINE
  8
1
  6
CONTINUOUS
 62
   250
 10
-0.176044
 20
0.0625
 30
0.0
 11
-0.176613
 21
0.064204
 31
0.0
  0
LINE
  8
1
  6
CONTINUOUS
 62
   250
 10
-0.176613
 20
0.064204
 30
0.0
 11
-0.177749
 21
0.065625
 31
0.0
  0
LINE
  8
1
  6
CONTINUOUS
 62
   250
 10
-0.177749
 20
0.065625
 30
0.0
 11
-0.17917
 21
0.066477
 31
0.0
  0
LINE
  8
1
  6
CONTINUOUS
 62
   250
 10
-0.17917
 20
0.066477
 30
0.0
 11
-0.180874
 21
0.067045
 31
0.0
  0
LINE
  8
1
  6
CONTINUOUS
 62
   250
 10
-0.180874
 20
0.067045
 30
0.0
 11
-0.182579
 21
0.067614
 31
0.0
  0
LINE
  8
1
  6
CONTINUOUS
 62
   250
 10
-0.182579
 20
0.067614
 30
0.0
 11
-0.184284
 21
0.067045
 31
0.0
  0
LINE
  8
1
  6
CONTINUOUS
 62
   250
 10
-0.184284
 20
0.067045
 30
0.0
 11
-0.185988
 21
0.066477
 31
0.0
  0
LINE
  8
1
  6
CONTINUOUS
 62
   250
 10
-0.185988
 20
0.066477
 30
0.0
 11
-0.187124
 21
0.065625
 31
0.0
  0
LINE
  8
1
  6
CONTINUOUS
 62
   250
 10
-0.187124
 20
0.065625
 30
0.0
 11
-0.188261
 21
0.064204
 31
0.0
  0
LINE
  8
1
  6
CONTINUOUS
 62
   250
 10
-0.188261
 20
0.064204
 30
0.0
 11
-0.188829
 21
0.0625
 31
0.0
  0
LINE
  8
1
  6
CONTINUOUS
 62
   250
 10
-0.188829
 20
0.0625
 30
0.0
 11
-0.189114
 21
0.060795
 31
0.0
  0
LINE
  8
1
  6
CONTINUOUS
 62
   250
 10
-0.187124
 20
0.05625
 30
0.0
 11
-0.177749
 21
0.065625
 31
0.0
  0
LINE
  8
1
  6
CONTINUOUS
 62
   250
 10
-0.168943
 20
0.073579
 30
0.0
 11
-0.222636
 21
0.073579
 31
0.0
  0
LINE
  8
1
  6
CONTINUOUS
 62
   250
 10
-0.222636
 20
0.050852
 30
0.0
 11
-0.168943
 21
0.050852
 31
0.0
  0
LINE
  8
1
  6
CONTINUOUS
 62
   250
 10
-0.168943
 20
0.040625
 30
0.0
 11
-0.222636
 21
0.040625
 31
0.0
  0
LINE
  8
1
  6
CONTINUOUS
 62
   250
 10
-0.222636
 20
0.038636
 30
0.0
 11
-0.168943
 21
0.038636
 31
0.0
  0
LINE
  8
1
  6
CONTINUOUS
 62
   250
 10
-0.160704
 20
0.05625
 30
0.0
 11
-0.159284
 21
0.055114
 31
0.0
  0
LINE
  8
1
  6
CONTINUOUS
 62
   250
 10
-0.159284
 20
0.055114
 30
0.0
 11
-0.15758
 21
0.054261
 31
0.0
  0
LINE
  8
1
  6
CONTINUOUS
 62
   250
 10
-0.15758
 20
0.054261
 30
0.0
 11
-0.155875
 21
0.054261
 31
0.0
  0
LINE
  8
1
  6
CONTINUOUS
 62
   250
 10
-0.155875
 20
0.054261
 30
0.0
 11
-0.15417
 21
0.054261
 31
0.0
  0
LINE
  8
1
  6
CONTINUOUS
 62
   250
 10
-0.15417
 20
0.054261
 30
0.0
 11
-0.152466
 21
0.055114
 31
0.0
  0
LINE
  8
1
  6
CONTINUOUS
 62
   250
 10
-0.152466
 20
0.055114
 30
0.0
 11
-0.151045
 21
0.05625
 31
0.0
  0
LINE
  8
1
  6
CONTINUOUS
 62
   250
 10
-0.151045
 20
0.05625
 30
0.0
 11
-0.149909
 21
0.057386
 31
0.0
  0
LINE
  8
1
  6
CONTINUOUS
 62
   250
 10
-0.149909
 20
0.057386
 30
0.0
 11
-0.14934
 21
0.059091
 31
0.0
  0
LINE
  8
1
  6
CONTINUOUS
 62
   250
 10
-0.14934
 20
0.059091
 30
0.0
 11
-0.14934
 21
0.060795
 31
0.0
  0
LINE
  8
1
  6
CONTINUOUS
 62
   250
 10
-0.14934
 20
0.060795
 30
0.0
 11
-0.162408
 21
0.060795
 31
0.0
  0
LINE
  8
1
  6
CONTINUOUS
 62
   250
 10
-0.162408
 20
0.060795
 30
0.0
 11
-0.162408
 21
0.059091
 31
0.0
  0
LINE
  8
1
  6
CONTINUOUS
 62
   250
 10
-0.162408
 20
0.059091
 30
0.0
 11
-0.161556
 21
0.057386
 31
0.0
  0
LINE
  8
1
  6
CONTINUOUS
 62
   250
 10
-0.161556
 20
0.057386
 30
0.0
 11
-0.160704
 21
0.05625
 31
0.0
  0
LINE
  8
1
  6
CONTINUOUS
 62
   250
 10
-0.162408
 20
0.060795
 30
0.0
 11
-0.162408
 21
0.0625
 31
0.0
  0
LINE
  8
1
  6
CONTINUOUS
 62
   250
 10
-0.162408
 20
0.0625
 30
0.0
 11
-0.161556
 21
0.064204
 31
0.0
  0
LINE
  8
1
  6
CONTINUOUS
 62
   250
 10
-0.161556
 20
0.064204
 30
0.0
 11
-0.160704
 21
0.065625
 31
0.0
  0
LINE
  8
1
  6
CONTINUOUS
 62
   250
 10
-0.160704
 20
0.065625
 30
0.0
 11
-0.159284
 21
0.066477
 31
0.0
  0
LINE
  8
1
  6
CONTINUOUS
 62
   250
 10
-0.159284
 20
0.066477
 30
0.0
 11
-0.15758
 21
0.067045
 31
0.0
  0
LINE
  8
1
  6
CONTINUOUS
 62
   250
 10
-0.15758
 20
0.067045
 30
0.0
 11
-0.155875
 21
0.067614
 31
0.0
  0
LINE
  8
1
  6
CONTINUOUS
 62
   250
 10
-0.155875
 20
0.067614
 30
0.0
 11
-0.15417
 21
0.067045
 31
0.0
  0
LINE
  8
1
  6
CONTINUOUS
 62
   250
 10
-0.15417
 20
0.067045
 30
0.0
 11
-0.152466
 21
0.066477
 31
0.0
  0
LINE
  8
1
  6
CONTINUOUS
 62
   250
 10
-0.152466
 20
0.066477
 30
0.0
 11
-0.151045
 21
0.065625
 31
0.0
  0
LINE
  8
1
  6
CONTINUOUS
 62
   250
 10
-0.151045
 20
0.065625
 30
0.0
 11
-0.149909
 21
0.064204
 31
0.0
  0
LINE
  8
1
  6
CONTINUOUS
 62
   250
 10
-0.149909
 20
0.064204
 30
0.0
 11
-0.14934
 21
0.0625
 31
0.0
  0
LINE
  8
1
  6
CONTINUOUS
 62
   250
 10
-0.14934
 20
0.0625
 30
0.0
 11
-0.14934
 21
0.060795
 31
0.0
  0
LINE
  8
1
  6
CONTINUOUS
 62
   250
 10
-0.179454
 20
0.084659
 30
0.0
 11
-0.178601
 21
0.085795
 31
0.0
  0
LINE
  8
1
  6
CONTINUOUS
 62
   250
 10
-0.178601
 20
0.085795
 30
0.0
 11
-0.178318
 21
0.087216
 31
0.0
  0
LINE
  8
1
  6
CONTINUOUS
 62
   250
 10
-0.178318
 20
0.087216
 30
0.0
 11
-0.178601
 21
0.088352
 31
0.0
  0
LINE
  8
1
  6
CONTINUOUS
 62
   250
 10
-0.178601
 20
0.088352
 30
0.0
 11
-0.179454
 21
0.089489
 31
0.0
  0
LINE
  8
1
  6
CONTINUOUS
 62
   250
 10
-0.179454
 20
0.089489
 30
0.0
 11
-0.180591
 21
0.090341
 31
0.0
  0
LINE
  8
1
  6
CONTINUOUS
 62
   250
 10
-0.180591
 20
0.090341
 30
0.0
 11
-0.181727
 21
0.090625
 31
0.0
  0
LINE
  8
1
  6
CONTINUOUS
 62
   250
 10
-0.181727
 20
0.090625
 30
0.0
 11
-0.183148
 21
0.090341
 31
0.0
  0
LINE
  8
1
  6
CONTINUOUS
 62
   250
 10
-0.183148
 20
0.090341
 30
0.0
 11
-0.184284
 21
0.089489
 31
0.0
  0
LINE
  8
1
  6
CONTINUOUS
 62
   250
 10
-0.184284
 20
0.089489
 30
0.0
 11
-0.185136
 21
0.088352
 31
0.0
  0
LINE
  8
1
  6
CONTINUOUS
 62
   250
 10
-0.185136
 20
0.088352
 30
0.0
 11
-0.185419
 21
0.087216
 31
0.0
  0
LINE
  8
1
  6
CONTINUOUS
 62
   250
 10
-0.185419
 20
0.087216
 30
0.0
 11
-0.185136
 21
0.085795
 31
0.0
  0
LINE
  8
1
  6
CONTINUOUS
 62
   250
 10
-0.185136
 20
0.085795
 30
0.0
 11
-0.184284
 21
0.084659
 31
0.0
  0
LINE
  8
1
  6
CONTINUOUS
 62
   250
 10
-0.184284
 20
0.084659
 30
0.0
 11
-0.183148
 21
0.083807
 31
0.0
  0
LINE
  8
1
  6
CONTINUOUS
 62
   250
 10
-0.183148
 20
0.083807
 30
0.0
 11
-0.181727
 21
0.083523
 31
0.0
  0
LINE
  8
1
  6
CONTINUOUS
 62
   250
 10
-0.181727
 20
0.083523
 30
0.0
 11
-0.180591
 21
0.083807
 31
0.0
  0
LINE
  8
1
  6
CONTINUOUS
 62
   250
 10
-0.180591
 20
0.083807
 30
0.0
 11
-0.179454
 21
0.084659
 31
0.0
  0
LINE
  8
1
  6
CONTINUOUS
 62
   250
 10
-0.168943
 20
0.109659
 30
0.0
 11
-0.166954
 21
0.109659
 31
0.0
  0
LINE
  8
1
  6
CONTINUOUS
 62
   250
 10
-0.168943
 20
0.112216
 30
0.0
 11
-0.222636
 21
0.112216
 31
0.0
  0
LINE
  8
1
  6
CONTINUOUS
 62
   250
 10
-0.123772
 20
0.091761
 30
0.0
 11
-0.125193
 21
0.092898
 31
0.0
  0
LINE
  8
1
  6
CONTINUOUS
 62
   250
 10
-0.125193
 20
0.092898
 30
0.0
 11
-0.126898
 21
0.093466
 31
0.0
  0
LINE
  8
1
  6
CONTINUOUS
 62
   250
 10
-0.126898
 20
0.093466
 30
0.0
 11
-0.128602
 21
0.09375
 31
0.0
  0
LINE
  8
1
  6
CONTINUOUS
 62
   250
 10
-0.128602
 20
0.09375
 30
0.0
 11
-0.130022
 21
0.093466
 31
0.0
  0
LINE
  8
1
  6
CONTINUOUS
 62
   250
 10
-0.130022
 20
0.093466
 30
0.0
 11
-0.131726
 21
0.092898
 31
0.0
  0
LINE
  8
1
  6
CONTINUOUS
 62
   250
 10
-0.131726
 20
0.092898
 30
0.0
 11
-0.133147
 21
0.091761
 31
0.0
  0
LINE
  8
1
  6
CONTINUOUS
 62
   250
 10
-0.133147
 20
0.091761
 30
0.0
 11
-0.134283
 21
0.090341
 31
0.0
  0
LINE
  8
1
  6
CONTINUOUS
 62
   250
 10
-0.134283
 20
0.090341
 30
0.0
 11
-0.134852
 21
0.088636
 31
0.0
  0
LINE
  8
1
  6
CONTINUOUS
 62
   250
 10
-0.134852
 20
0.088636
 30
0.0
 11
-0.135135
 21
0.087216
 31
0.0
  0
LINE
  8
1
  6
CONTINUOUS
 62
   250
 10
-0.135135
 20
0.087216
 30
0.0
 11
-0.134852
 21
0.085511
 31
0.0
  0
LINE
  8
1
  6
CONTINUOUS
 62
   250
 10
-0.134852
 20
0.085511
 30
0.0
 11
-0.134283
 21
0.083807
 31
0.0
  0
LINE
  8
1
  6
CONTINUOUS
 62
   250
 10
-0.134283
 20
0.083807
 30
0.0
 11
-0.133147
 21
0.082386
 31
0.0
  0
LINE
  8
1
  6
CONTINUOUS
 62
   250
 10
-0.133147
 20
0.082386
 30
0.0
 11
-0.131726
 21
0.08125
 31
0.0
  0
LINE
  8
1
  6
CONTINUOUS
 62
   250
 10
-0.131726
 20
0.08125
 30
0.0
 11
-0.130022
 21
0.080398
 31
0.0
  0
LINE
  8
1
  6
CONTINUOUS
 62
   250
 10
-0.130022
 20
0.080398
 30
0.0
 11
-0.128602
 21
0.080398
 31
0.0
  0
LINE
  8
1
  6
CONTINUOUS
 62
   250
 10
-0.128602
 20
0.080398
 30
0.0
 11
-0.126898
 21
0.080398
 31
0.0
  0
LINE
  8
1
  6
CONTINUOUS
 62
   250
 10
-0.126898
 20
0.080398
 30
0.0
 11
-0.125193
 21
0.08125
 31
0.0
  0
LINE
  8
1
  6
CONTINUOUS
 62
   250
 10
-0.125193
 20
0.08125
 30
0.0
 11
-0.123772
 21
0.082386
 31
0.0
  0
LINE
  8
1
  6
CONTINUOUS
 62
   250
 10
-0.123772
 20
0.082386
 30
0.0
 11
-0.122636
 21
0.083807
 31
0.0
  0
LINE
  8
1
  6
CONTINUOUS
 62
   250
 10
-0.122636
 20
0.083807
 30
0.0
 11
-0.122068
 21
0.085511
 31
0.0
  0
LINE
  8
1
  6
CONTINUOUS
 62
   250
 10
-0.122068
 20
0.085511
 30
0.0
 11
-0.121784
 21
0.087216
 31
0.0
  0
LINE
  8
1
  6
CONTINUOUS
 62
   250
 10
-0.121784
 20
0.087216
 30
0.0
 11
-0.122068
 21
0.088636
 31
0.0
  0
LINE
  8
1
  6
CONTINUOUS
 62
   250
 10
-0.122068
 20
0.088636
 30
0.0
 11
-0.122636
 21
0.090341
 31
0.0
  0
LINE
  8
1
  6
CONTINUOUS
 62
   250
 10
-0.122636
 20
0.090341
 30
0.0
 11
-0.123772
 21
0.091761
 31
0.0
  0
LINE
  8
1
  6
CONTINUOUS
 62
   250
 10
-0.126045
 20
0.089489
 30
0.0
 11
-0.127181
 21
0.090341
 31
0.0
  0
LINE
  8
1
  6
CONTINUOUS
 62
   250
 10
-0.127181
 20
0.090341
 30
0.0
 11
-0.128602
 21
0.090625
 31
0.0
  0
LINE
  8
1
  6
CONTINUOUS
 62
   250
 10
-0.128602
 20
0.090625
 30
0.0
 11
-0.130022
 21
0.090341
 31
0.0
  0
LINE
  8
1
  6
CONTINUOUS
 62
   250
 10
-0.130022
 20
0.090341
 30
0.0
 11
-0.130874
 21
0.089489
 31
0.0
  0
LINE
  8
1
  6
CONTINUOUS
 62
   250
 10
-0.130874
 20
0.089489
 30
0.0
 11
-0.131726
 21
0.088352
 31
0.0
  0
LINE
  8
1
  6
CONTINUOUS
 62
   250
 10
-0.131726
 20
0.088352
 30
0.0
 11
-0.132011
 21
0.087216
 31
0.0
  0
LINE
  8
1
  6
CONTINUOUS
 62
   250
 10
-0.132011
 20
0.087216
 30
0.0
 11
-0.131726
 21
0.085795
 31
0.0
  0
LINE
  8
1
  6
CONTINUOUS
 62
   250
 10
-0.131726
 20
0.085795
 30
0.0
 11
-0.130874
 21
0.084659
 31
0.0
  0
LINE
  8
1
  6
CONTINUOUS
 62
   250
 10
-0.130874
 20
0.084659
 30
0.0
 11
-0.130022
 21
0.083807
 31
0.0
  0
LINE
  8
1
  6
CONTINUOUS
 62
   250
 10
-0.130022
 20
0.083807
 30
0.0
 11
-0.128602
 21
0.083523
 31
0.0
  0
LINE
  8
1
  6
CONTINUOUS
 62
   250
 10
-0.128602
 20
0.083523
 30
0.0
 11
-0.127181
 21
0.083807
 31
0.0
  0
LINE
  8
1
  6
CONTINUOUS
 62
   250
 10
-0.127181
 20
0.083807
 30
0.0
 11
-0.126045
 21
0.084659
 31
0.0
  0
LINE
  8
1
  6
CONTINUOUS
 62
   250
 10
-0.126045
 20
0.084659
 30
0.0
 11
-0.125193
 21
0.085795
 31
0.0
  0
LINE
  8
1
  6
CONTINUOUS
 62
   250
 10
-0.125193
 20
0.085795
 30
0.0
 11
-0.124908
 21
0.087216
 31
0.0
  0
LINE
  8
1
  6
CONTINUOUS
 62
   250
 10
-0.124908
 20
0.087216
 30
0.0
 11
-0.125193
 21
0.088352
 31
0.0
  0
LINE
  8
1
  6
CONTINUOUS
 62
   250
 10
-0.125193
 20
0.088352
 30
0.0
 11
-0.126045
 21
0.089489
 31
0.0
  0
LINE
  8
1
  6
CONTINUOUS
 62
   250
 10
-0.127465
 20
0.088068
 30
0.0
 11
-0.12775
 21
0.087216
 31
0.0
  0
LINE
  8
1
  6
CONTINUOUS
 62
   250
 10
-0.12775
 20
0.087216
 30
0.0
 11
-0.127181
 21
0.087216
 31
0.0
  0
LINE
  8
1
  6
CONTINUOUS
 62
   250
 10
-0.127181
 20
0.087216
 30
0.0
 11
-0.127181
 21
0.086648
 31
0.0
  0
LINE
  8
1
  6
CONTINUOUS
 62
   250
 10
-0.127181
 20
0.086648
 30
0.0
 11
-0.12775
 21
0.086648
 31
0.0
  0
LINE
  8
1
  6
CONTINUOUS
 62
   250
 10
-0.12775
 20
0.086648
 30
0.0
 11
-0.127465
 21
0.08608
 31
0.0
  0
LINE
  8
1
  6
CONTINUOUS
 62
   250
 10
-0.127465
 20
0.08608
 30
0.0
 11
-0.128034
 21
0.086364
 31
0.0
  0
LINE
  8
1
  6
CONTINUOUS
 62
   250
 10
-0.128034
 20
0.086364
 30
0.0
 11
-0.128034
 21
0.085795
 31
0.0
  0
LINE
  8
1
  6
CONTINUOUS
 62
   250
 10
-0.128034
 20
0.085795
 30
0.0
 11
-0.128886
 21
0.085795
 31
0.0
  0
LINE
  8
1
  6
CONTINUOUS
 62
   250
 10
-0.128886
 20
0.085795
 30
0.0
 11
-0.128886
 21
0.086364
 31
0.0
  0
LINE
  8
1
  6
CONTINUOUS
 62
   250
 10
-0.128886
 20
0.086364
 30
0.0
 11
-0.129169
 21
0.086648
 31
0.0
  0
LINE
  8
1
  6
CONTINUOUS
 62
   250
 10
-0.129169
 20
0.086648
 30
0.0
 11
-0.130022
 21
0.086648
 31
0.0
  0
LINE
  8
1
  6
CONTINUOUS
 62
   250
 10
-0.130022
 20
0.086648
 30
0.0
 11
-0.130022
 21
0.087216
 31
0.0
  0
LINE
  8
1
  6
CONTINUOUS
 62
   250
 10
-0.130022
 20
0.087216
 30
0.0
 11
-0.129169
 21
0.087216
 31
0.0
  0
LINE
  8
1
  6
CONTINUOUS
 62
   250
 10
-0.129169
 20
0.087216
 30
0.0
 11
-0.129455
 21
0.088068
 31
0.0
  0
LINE
  8
1
  6
CONTINUOUS
 62
   250
 10
-0.129455
 20
0.088068
 30
0.0
 11
-0.128886
 21
0.0875
 31
0.0
  0
LINE
  8
1
  6
CONTINUOUS
 62
   250
 10
-0.128886
 20
0.0875
 30
0.0
 11
-0.128886
 21
0.088352
 31
0.0
  0
LINE
  8
1
  6
CONTINUOUS
 62
   250
 10
-0.128886
 20
0.088352
 30
0.0
 11
-0.128034
 21
0.088352
 31
0.0
  0
LINE
  8
1
  6
CONTINUOUS
 62
   250
 10
-0.128034
 20
0.088352
 30
0.0
 11
-0.128034
 21
0.0875
 31
0.0
  0
LINE
  8
1
  6
CONTINUOUS
 62
   250
 10
-0.129169
 20
0.086648
 30
0.0
 11
-0.129455
 21
0.08608
 31
0.0
  0
LINE
  8
1
  6
CONTINUOUS
 62
   250
 10
-0.129169
 20
0.067614
 30
0.0
 11
-0.130874
 21
0.067045
 31
0.0
  0
LINE
  8
1
  6
CONTINUOUS
 62
   250
 10
-0.130874
 20
0.067045
 30
0.0
 11
-0.132579
 21
0.066477
 31
0.0
  0
LINE
  8
1
  6
CONTINUOUS
 62
   250
 10
-0.132579
 20
0.066477
 30
0.0
 11
-0.133716
 21
0.065625
 31
0.0
  0
LINE
  8
1
  6
CONTINUOUS
 62
   250
 10
-0.133716
 20
0.065625
 30
0.0
 11
-0.134852
 21
0.064204
 31
0.0
  0
LINE
  8
1
  6
CONTINUOUS
 62
   250
 10
-0.134852
 20
0.064204
 30
0.0
 11
-0.13542
 21
0.0625
 31
0.0
  0
LINE
  8
1
  6
CONTINUOUS
 62
   250
 10
-0.13542
 20
0.0625
 30
0.0
 11
-0.135704
 21
0.060795
 31
0.0
  0
LINE
  8
1
  6
CONTINUOUS
 62
   250
 10
-0.135704
 20
0.060795
 30
0.0
 11
-0.13542
 21
0.059091
 31
0.0
  0
LINE
  8
1
  6
CONTINUOUS
 62
   250
 10
-0.13542
 20
0.059091
 30
0.0
 11
-0.134852
 21
0.057386
 31
0.0
  0
LINE
  8
1
  6
CONTINUOUS
 62
   250
 10
-0.134852
 20
0.057386
 30
0.0
 11
-0.133716
 21
0.05625
 31
0.0
  0
LINE
  8
1
  6
CONTINUOUS
 62
   250
 10
-0.133716
 20
0.05625
 30
0.0
 11
-0.132579
 21
0.055114
 31
0.0
  0
LINE
  8
1
  6
CONTINUOUS
 62
   250
 10
-0.132579
 20
0.055114
 30
0.0
 11
-0.130874
 21
0.054261
 31
0.0
  0
LINE
  8
1
  6
CONTINUOUS
 62
   250
 10
-0.130874
 20
0.054261
 30
0.0
 11
-0.129169
 21
0.054261
 31
0.0
  0
LINE
  8
1
  6
CONTINUOUS
 62
   250
 10
-0.129169
 20
0.054261
 30
0.0
 11
-0.127465
 21
0.054261
 31
0.0
  0
LINE
  8
1
  6
CONTINUOUS
 62
   250
 10
-0.127465
 20
0.054261
 30
0.0
 11
-0.12576
 21
0.055114
 31
0.0
  0
LINE
  8
1
  6
CONTINUOUS
 62
   250
 10
-0.12576
 20
0.055114
 30
0.0
 11
-0.124341
 21
0.05625
 31
0.0
  0
LINE
  8
1
  6
CONTINUOUS
 62
   250
 10
-0.124341
 20
0.05625
 30
0.0
 11
-0.123204
 21
0.057386
 31
0.0
  0
LINE
  8
1
  6
CONTINUOUS
 62
   250
 10
-0.123204
 20
0.057386
 30
0.0
 11
-0.122636
 21
0.059091
 31
0.0
  0
LINE
  8
1
  6
CONTINUOUS
 62
   250
 10
-0.122636
 20
0.059091
 30
0.0
 11
-0.122351
 21
0.060795
 31
0.0
  0
LINE
  8
1
  6
CONTINUOUS
 62
   250
 10
-0.122351
 20
0.060795
 30
0.0
 11
-0.122636
 21
0.0625
 31
0.0
  0
LINE
  8
1
  6
CONTINUOUS
 62
   250
 10
-0.122636
 20
0.0625
 30
0.0
 11
-0.123204
 21
0.064204
 31
0.0
  0
LINE
  8
1
  6
CONTINUOUS
 62
   250
 10
-0.123204
 20
0.064204
 30
0.0
 11
-0.124341
 21
0.065625
 31
0.0
  0
LINE
  8
1
  6
CONTINUOUS
 62
   250
 10
-0.124341
 20
0.065625
 30
0.0
 11
-0.12576
 21
0.066477
 31
0.0
  0
LINE
  8
1
  6
CONTINUOUS
 62
   250
 10
-0.12576
 20
0.066477
 30
0.0
 11
-0.127465
 21
0.067045
 31
0.0
  0
LINE
  8
1
  6
CONTINUOUS
 62
   250
 10
-0.127465
 20
0.067045
 30
0.0
 11
-0.129169
 21
0.067614
 31
0.0
  0
LINE
  8
1
  6
CONTINUOUS
 62
   250
 10
-0.124341
 20
0.065625
 30
0.0
 11
-0.133716
 21
0.05625
 31
0.0
  0
LINE
  8
1
  6
CONTINUOUS
 62
   250
 10
-0.129455
 20
0.038636
 30
0.0
 11
-0.127465
 21
0.038636
 31
0.0
  0
LINE
  8
1
  6
CONTINUOUS
 62
   250
 10
-0.115818
 20
0.038636
 30
0.0
 11
-0.115818
 21
0.112216
 31
0.0
  0
LINE
  8
1
  6
CONTINUOUS
 62
   250
 10
-0.115818
 20
0.109659
 30
0.0
 11
-0.113545
 21
0.109659
 31
0.0
  0
LINE
  8
1
  6
CONTINUOUS
 62
   250
 10
-0.113545
 20
0.109659
 30
0.0
 11
-0.113545
 21
0.067614
 31
0.0
  0
LINE
  8
1
  6
CONTINUOUS
 62
   250
 10
-0.113545
 20
0.067614
 30
0.0
 11
-0.115818
 21
0.067614
 31
0.0
  0
LINE
  8
1
  6
CONTINUOUS
 62
   250
 10
-0.119795
 20
0.073579
 30
0.0
 11
-0.119795
 21
0.112216
 31
0.0
  0
LINE
  8
1
  6
CONTINUOUS
 62
   250
 10
-0.302181
 20
0.050568
 30
0.0
 11
-0.222636
 21
0.050568
 31
0.0
  0
LINE
  8
1
  6
CONTINUOUS
 62
   250
 10
-0.222636
 20
0.040625
 30
0.0
 11
-0.302181
 21
0.040625
 31
0.0
  0
LINE
  8
1
  6
CONTINUOUS
 62
   250
 10
-0.302181
 20
0.038636
 30
0.0
 11
-0.222636
 21
0.038636
 31
0.0
  0
LINE
  8
1
  6
CONTINUOUS
 62
   250
 10
-0.222636
 20
0.073579
 30
0.0
 11
-0.302181
 21
0.073579
 31
0.0
  0
LINE
  8
1
  6
CONTINUOUS
 62
   250
 10
-0.093633
 20
0.046307
 30
0.0
 11
-0.093633
 21
0.111079
 31
0.0
  0
LINE
  8
1
  6
CONTINUOUS
 62
   250
 10
-0.079712
 20
0.097727
 30
0.0
 11
-0.079712
 21
0.058239
 31
0.0
  0
LINE
  8
1
  6
CONTINUOUS
 62
   250
 10
-0.078007
 20
0.058239
 30
0.0
 11
-0.078007
 21
0.097727
 31
0.0
  0
LINE
  8
1
  6
CONTINUOUS
 62
   250
 10
-0.065223
 20
0.111079
 30
0.0
 11
-0.065223
 21
0.046307
 31
0.0
  0
LINE
  8
1
  6
CONTINUOUS
 62
   250
 10
-0.065223
 20
0.046307
 30
0.0
 11
-0.093633
 21
0.046307
 31
0.0
  0
LINE
  8
1
  6
CONTINUOUS
 62
   250
 10
-0.057553
 20
0.046307
 30
0.0
 11
-0.029428
 21
0.046307
 31
0.0
  0
LINE
  8
1
  6
CONTINUOUS
 62
   250
 10
-0.029428
 20
0.046307
 30
0.0
 11
-0.029428
 21
0.111079
 31
0.0
  0
LINE
  8
1
  6
CONTINUOUS
 62
   250
 10
-0.041928
 20
0.097727
 30
0.0
 11
-0.041928
 21
0.058239
 31
0.0
  0
LINE
  8
1
  6
CONTINUOUS
 62
   250
 10
-0.043632
 20
0.058239
 30
0.0
 11
-0.043632
 21
0.097727
 31
0.0
  0
LINE
  8
1
  6
CONTINUOUS
 62
   250
 10
-0.057553
 20
0.111079
 30
0.0
 11
-0.057553
 21
0.046307
 31
0.0
  0
LINE
  8
1
  6
CONTINUOUS
 62
   250
 10
-0.057553
 20
0.111079
 30
0.0
 11
-0.029428
 21
0.111079
 31
0.0
  0
LINE
  8
1
  6
CONTINUOUS
 62
   250
 10
-0.065223
 20
0.111079
 30
0.0
 11
-0.093633
 21
0.111079
 31
0.0
  0
LINE
  8
1
  6
CONTINUOUS
 62
   250
 10
0.258356
 20
0.111079
 30
0.0
 11
0.229947
 21
0.111079
 31
0.0
  0
LINE
  8
1
  6
CONTINUOUS
 62
   250
 10
0.229947
 20
0.046307
 30
0.0
 11
0.258356
 21
0.046307
 31
0.0
  0
LINE
  8
1
  6
CONTINUOUS
 62
   250
 10
0.114607
 20
0.046307
 30
0.0
 11
0.085913
 21
0.046307
 31
0.0
  0
LINE
  8
1
  6
CONTINUOUS
 62
   250
 10
0.085913
 20
0.046307
 30
0.0
 11
0.085913
 21
0.111079
 31
0.0
  0
LINE
  8
1
  6
CONTINUOUS
 62
   250
 10
0.085913
 20
0.111079
 30
0.0
 11
0.114607
 21
0.111079
 31
0.0
  0
LINE
  8
1
  6
CONTINUOUS
 62
   250
 10
0.101823
 20
0.097727
 30
0.0
 11
0.101823
 21
0.058239
 31
0.0
  0
LINE
  8
1
  6
CONTINUOUS
 62
   250
 10
0.099833
 20
0.058239
 30
0.0
 11
0.099833
 21
0.097727
 31
0.0
  0
LINE
  8
1
  6
CONTINUOUS
 62
   250
 10
0.065742
 20
0.097727
 30
0.0
 11
0.065742
 21
0.058239
 31
0.0
  0
LINE
  8
1
  6
CONTINUOUS
 62
   250
 10
0.063754
 20
0.058239
 30
0.0
 11
0.063754
 21
0.097727
 31
0.0
  0
LINE
  8
1
  6
CONTINUOUS
 62
   250
 10
0.050118
 20
0.111079
 30
0.0
 11
0.050118
 21
0.046307
 31
0.0
  0
LINE
  8
1
  6
CONTINUOUS
 62
   250
 10
0.042447
 20
0.046307
 30
0.0
 11
0.042447
 21
0.111079
 31
0.0
  0
LINE
  8
1
  6
CONTINUOUS
 62
   250
 10
0.029663
 20
0.097727
 30
0.0
 11
0.029663
 21
0.058239
 31
0.0
  0
LINE
  8
1
  6
CONTINUOUS
 62
   250
 10
0.027958
 20
0.058239
 30
0.0
 11
0.027958
 21
0.097727
 31
0.0
  0
LINE
  8
1
  6
CONTINUOUS
 62
   250
 10
0.014038
 20
0.111079
 30
0.0
 11
0.014038
 21
0.046307
 31
0.0
  0
LINE
  8
1
  6
CONTINUOUS
 62
   250
 10
0.014038
 20
0.046307
 30
0.0
 11
0.042447
 21
0.046307
 31
0.0
  0
LINE
  8
1
  6
CONTINUOUS
 62
   250
 10
0.078811
 20
0.046307
 30
0.0
 11
0.078811
 21
0.111079
 31
0.0
  0
LINE
  8
1
  6
CONTINUOUS
 62
   250
 10
0.006651
 20
0.111079
 30
0.0
 11
0.006651
 21
0.046307
 31
0.0
  0
LINE
  8
1
  6
CONTINUOUS
 62
   250
 10
0.006651
 20
0.046307
 30
0.0
 11
-0.021757
 21
0.046307
 31
0.0
  0
LINE
  8
1
  6
CONTINUOUS
 62
   250
 10
-0.021757
 20
0.046307
 30
0.0
 11
-0.021757
 21
0.111079
 31
0.0
  0
LINE
  8
1
  6
CONTINUOUS
 62
   250
 10
-0.008121
 20
0.097727
 30
0.0
 11
-0.008121
 21
0.058239
 31
0.0
  0
LINE
  8
1
  6
CONTINUOUS
 62
   250
 10
-0.006416
 20
0.058239
 30
0.0
 11
-0.006416
 21
0.097727
 31
0.0
  0
LINE
  8
1
  6
CONTINUOUS
 62
   250
 10
0.050118
 20
0.046307
 30
0.0
 11
0.078811
 21
0.046307
 31
0.0
  0
LINE
  8
1
  6
CONTINUOUS
 62
   250
 10
0.014038
 20
0.111079
 30
0.0
 11
0.042447
 21
0.111079
 31
0.0
  0
LINE
  8
1
  6
CONTINUOUS
 62
   250
 10
0.006651
 20
0.111079
 30
0.0
 11
-0.021757
 21
0.111079
 31
0.0
  0
LINE
  8
1
  6
CONTINUOUS
 62
   250
 10
0.078811
 20
0.111079
 30
0.0
 11
0.050118
 21
0.111079
 31
0.0
  0
LINE
  8
1
  6
CONTINUOUS
 62
   250
 10
0.114607
 20
0.046307
 30
0.0
 11
0.114607
 21
0.111079
 31
0.0
  0
LINE
  8
1
  6
CONTINUOUS
 62
   250
 10
0.121992
 20
0.111079
 30
0.0
 11
0.121992
 21
0.046307
 31
0.0
  0
LINE
  8
1
  6
CONTINUOUS
 62
   250
 10
0.135913
 20
0.058239
 30
0.0
 11
0.135913
 21
0.097727
 31
0.0
  0
LINE
  8
1
  6
CONTINUOUS
 62
   250
 10
0.137618
 20
0.097727
 30
0.0
 11
0.137618
 21
0.058239
 31
0.0
  0
LINE
  8
1
  6
CONTINUOUS
 62
   250
 10
0.150402
 20
0.046307
 30
0.0
 11
0.150402
 21
0.111079
 31
0.0
  0
LINE
  8
1
  6
CONTINUOUS
 62
   250
 10
0.158072
 20
0.111079
 30
0.0
 11
0.158072
 21
0.046307
 31
0.0
  0
LINE
  8
1
  6
CONTINUOUS
 62
   250
 10
0.150402
 20
0.046307
 30
0.0
 11
0.121992
 21
0.046307
 31
0.0
  0
LINE
  8
1
  6
CONTINUOUS
 62
   250
 10
0.171709
 20
0.058239
 30
0.0
 11
0.171709
 21
0.097727
 31
0.0
  0
LINE
  8
1
  6
CONTINUOUS
 62
   250
 10
0.173697
 20
0.097727
 30
0.0
 11
0.173697
 21
0.058239
 31
0.0
  0
LINE
  8
1
  6
CONTINUOUS
 62
   250
 10
0.186481
 20
0.046307
 30
0.0
 11
0.186481
 21
0.111079
 31
0.0
  0
LINE
  8
1
  6
CONTINUOUS
 62
   250
 10
0.193868
 20
0.111079
 30
0.0
 11
0.193868
 21
0.046307
 31
0.0
  0
LINE
  8
1
  6
CONTINUOUS
 62
   250
 10
0.207788
 20
0.058239
 30
0.0
 11
0.207788
 21
0.097727
 31
0.0
  0
LINE
  8
1
  6
CONTINUOUS
 62
   250
 10
0.209492
 20
0.097727
 30
0.0
 11
0.209492
 21
0.058239
 31
0.0
  0
LINE
  8
1
  6
CONTINUOUS
 62
   250
 10
0.22256
 20
0.046307
 30
0.0
 11
0.22256
 21
0.111079
 31
0.0
  0
LINE
  8
1
  6
CONTINUOUS
 62
   250
 10
0.229947
 20
0.111079
 30
0.0
 11
0.229947
 21
0.046307
 31
0.0
  0
LINE
  8
1
  6
CONTINUOUS
 62
   250
 10
0.22256
 20
0.046307
 30
0.0
 11
0.193868
 21
0.046307
 31
0.0
  0
LINE
  8
1
  6
CONTINUOUS
 62
   250
 10
0.158072
 20
0.046307
 30
0.0
 11
0.186481
 21
0.046307
 31
0.0
  0
LINE
  8
1
  6
CONTINUOUS
 62
   250
 10
0.150402
 20
0.111079
 30
0.0
 11
0.121992
 21
0.111079
 31
0.0
  0
LINE
  8
1
  6
CONTINUOUS
 62
   250
 10
0.186481
 20
0.111079
 30
0.0
 11
0.158072
 21
0.111079
 31
0.0
  0
LINE
  8
1
  6
CONTINUOUS
 62
   250
 10
0.193868
 20
0.111079
 30
0.0
 11
0.22256
 21
0.111079
 31
0.0
  0
LINE
  8
1
  6
CONTINUOUS
 62
   250
 10
0.243583
 20
0.058239
 30
0.0
 11
0.243583
 21
0.097727
 31
0.0
  0
LINE
  8
1
  6
CONTINUOUS
 62
   250
 10
0.245857
 20
0.097727
 30
0.0
 11
0.245857
 21
0.058239
 31
0.0
  0
LINE
  8
1
  6
CONTINUOUS
 62
   250
 10
0.258356
 20
0.046307
 30
0.0
 11
0.258356
 21
0.111079
 31
0.0
  0
LINE
  8
1
  6
CONTINUOUS
 62
   250
 10
0.265743
 20
0.111079
 30
0.0
 11
0.265743
 21
0.046307
 31
0.0
  0
LINE
  8
1
  6
CONTINUOUS
 62
   250
 10
0.265743
 20
0.046307
 30
0.0
 11
0.294436
 21
0.046307
 31
0.0
  0
LINE
  8
1
  6
CONTINUOUS
 62
   250
 10
0.294436
 20
0.046307
 30
0.0
 11
0.294436
 21
0.111079
 31
0.0
  0
LINE
  8
1
  6
CONTINUOUS
 62
   250
 10
0.301822
 20
0.111079
 30
0.0
 11
0.301822
 21
0.046307
 31
0.0
  0
LINE
  8
1
  6
CONTINUOUS
 62
   250
 10
0.301822
 20
0.046307
 30
0.0
 11
0.330515
 21
0.046307
 31
0.0
  0
LINE
  8
1
  6
CONTINUOUS
 62
   250
 10
0.330515
 20
0.046307
 30
0.0
 11
0.330515
 21
0.111079
 31
0.0
  0
LINE
  8
1
  6
CONTINUOUS
 62
   250
 10
0.317447
 20
0.097727
 30
0.0
 11
0.317447
 21
0.058239
 31
0.0
  0
LINE
  8
1
  6
CONTINUOUS
 62
   250
 10
0.315743
 20
0.058239
 30
0.0
 11
0.315743
 21
0.097727
 31
0.0
  0
LINE
  8
1
  6
CONTINUOUS
 62
   250
 10
0.281652
 20
0.097727
 30
0.0
 11
0.281652
 21
0.058239
 31
0.0
  0
LINE
  8
1
  6
CONTINUOUS
 62
   250
 10
0.279948
 20
0.058239
 30
0.0
 11
0.279948
 21
0.097727
 31
0.0
  0
LINE
  8
1
  6
CONTINUOUS
 62
   250
 10
0.294436
 20
0.111079
 30
0.0
 11
0.265743
 21
0.111079
 31
0.0
  0
LINE
  8
1
  6
CONTINUOUS
 62
   250
 10
0.301822
 20
0.111079
 30
0.0
 11
0.330515
 21
0.111079
 31
0.0
  0
LINE
  8
1
  6
CONTINUOUS
 62
   250
 10
0.367302
 20
0.111079
 30
0.0
 11
0.338894
 21
0.111079
 31
0.0
  0
LINE
  8
1
  6
CONTINUOUS
 62
   250
 10
0.338894
 20
0.046307
 30
0.0
 11
0.367302
 21
0.046307
 31
0.0
  0
LINE
  8
1
  6
CONTINUOUS
 62
   250
 10
0.338894
 20
0.111079
 30
0.0
 11
0.338894
 21
0.046307
 31
0.0
  0
LINE
  8
1
  6
CONTINUOUS
 62
   250
 10
0.35253
 20
0.058239
 30
0.0
 11
0.35253
 21
0.097727
 31
0.0
  0
LINE
  8
1
  6
CONTINUOUS
 62
   250
 10
0.354803
 20
0.097727
 30
0.0
 11
0.354803
 21
0.058239
 31
0.0
  0
LINE
  8
1
  6
CONTINUOUS
 62
   250
 10
0.367302
 20
0.046307
 30
0.0
 11
0.367302
 21
0.111079
 31
0.0
  0
LINE
  8
1
  6
CONTINUOUS
 62
   250
 10
0.374689
 20
0.111079
 30
0.0
 11
0.374689
 21
0.046307
 31
0.0
  0
LINE
  8
1
  6
CONTINUOUS
 62
   250
 10
0.374689
 20
0.046307
 30
0.0
 11
0.403383
 21
0.046307
 31
0.0
  0
LINE
  8
1
  6
CONTINUOUS
 62
   250
 10
0.403383
 20
0.046307
 30
0.0
 11
0.403383
 21
0.111079
 31
0.0
  0
LINE
  8
1
  6
CONTINUOUS
 62
   250
 10
0.410768
 20
0.111079
 30
0.0
 11
0.410768
 21
0.046307
 31
0.0
  0
LINE
  8
1
  6
CONTINUOUS
 62
   250
 10
0.410768
 20
0.046307
 30
0.0
 11
0.439462
 21
0.046307
 31
0.0
  0
LINE
  8
1
  6
CONTINUOUS
 62
   250
 10
0.439462
 20
0.046307
 30
0.0
 11
0.439462
 21
0.111079
 31
0.0
  0
LINE
  8
1
  6
CONTINUOUS
 62
   250
 10
0.426394
 20
0.097727
 30
0.0
 11
0.426394
 21
0.058239
 31
0.0
  0
LINE
  8
1
  6
CONTINUOUS
 62
   250
 10
0.42469
 20
0.058239
 30
0.0
 11
0.42469
 21
0.097727
 31
0.0
  0
LINE
  8
1
  6
CONTINUOUS
 62
   250
 10
0.390599
 20
0.097727
 30
0.0
 11
0.390599
 21
0.058239
 31
0.0
  0
LINE
  8
1
  6
CONTINUOUS
 62
   250
 10
0.388894
 20
0.058239
 30
0.0
 11
0.388894
 21
0.097727
 31
0.0
  0
LINE
  8
1
  6
CONTINUOUS
 62
   250
 10
0.403383
 20
0.111079
 30
0.0
 11
0.374689
 21
0.111079
 31
0.0
  0
LINE
  8
1
  6
CONTINUOUS
 62
   250
 10
0.410768
 20
0.111079
 30
0.0
 11
0.439462
 21
0.111079
 31
0.0
  0
LINE
  8
1
  6
CONTINUOUS
 62
     7
 10
0.534801
 20
0.025852
 30
0.0
 11
0.448152
 21
0.025852
 31
0.0
  0
LINE
  8
1
  6
CONTINUOUS
 62
   250
 10
0.441346
 20
0.136523
 30
0.0
 11
0.441346
 21
0.234251
 31
0.0
  0
LINE
  8
1
  6
CONTINUOUS
 62
   250
 10
0.383391
 20
0.234251
 30
0.0
 11
0.383391
 21
0.136523
 31
0.0
  0
LINE
  8
1
  6
CONTINUOUS
 62
   250
 10
0.372028
 20
0.234251
 30
0.0
 11
0.372028
 21
0.136523
 31
0.0
  0
LINE
  8
1
  6
CONTINUOUS
 62
   250
 10
0.314073
 20
0.234251
 30
0.0
 11
0.314073
 21
0.136523
 31
0.0
  0
LINE
  8
1
  6
CONTINUOUS
 62
   250
 10
0.216445
 20
0.404852
 30
0.0
 11
0.193718
 21
0.404852
 31
0.0
  0
LINE
  8
1
  6
CONTINUOUS
 62
   250
 10
0.193718
 20
0.404852
 30
0.0
 11
0.193718
 21
0.393205
 31
0.0
  0
LINE
  8
1
  6
CONTINUOUS
 62
   250
 10
0.193718
 20
0.393205
 30
0.0
 11
0.193718
 21
0.381841
 31
0.0
  0
LINE
  8
1
  6
CONTINUOUS
 62
   250
 10
0.193718
 20
0.381841
 30
0.0
 11
0.216445
 21
0.381841
 31
0.0
  0
LINE
  8
1
  6
CONTINUOUS
 62
   250
 10
0.216445
 20
0.381841
 30
0.0
 11
0.216445
 21
0.393205
 31
0.0
  0
LINE
  8
1
  6
CONTINUOUS
 62
   250
 10
0.216445
 20
0.393205
 30
0.0
 11
0.216445
 21
0.404852
 31
0.0
  0
LINE
  8
1
  6
CONTINUOUS
 62
   250
 10
0.211332
 20
0.400024
 30
0.0
 11
0.210763
 21
0.400307
 31
0.0
  0
LINE
  8
1
  6
CONTINUOUS
 62
   250
 10
0.210763
 20
0.400307
 30
0.0
 11
0.210479
 21
0.400024
 31
0.0
  0
LINE
  8
1
  6
CONTINUOUS
 62
   250
 10
0.210479
 20
0.400024
 30
0.0
 11
0.209911
 21
0.399455
 31
0.0
  0
LINE
  8
1
  6
CONTINUOUS
 62
   250
 10
0.209911
 20
0.399455
 30
0.0
 11
0.209627
 21
0.398886
 31
0.0
  0
LINE
  8
1
  6
CONTINUOUS
 62
   250
 10
0.209627
 20
0.398886
 30
0.0
 11
0.209911
 21
0.398319
 31
0.0
  0
LINE
  8
1
  6
CONTINUOUS
 62
   250
 10
0.209911
 20
0.398319
 30
0.0
 11
0.210479
 21
0.398034
 31
0.0
  0
LINE
  8
1
  6
CONTINUOUS
 62
   250
 10
0.210479
 20
0.398034
 30
0.0
 11
0.210763
 21
0.39775
 31
0.0
  0
LINE
  8
1
  6
CONTINUOUS
 62
   250
 10
0.210763
 20
0.39775
 30
0.0
 11
0.211332
 21
0.398034
 31
0.0
  0
LINE
  8
1
  6
CONTINUOUS
 62
   250
 10
0.211332
 20
0.398034
 30
0.0
 11
0.211615
 21
0.398319
 31
0.0
  0
LINE
  8
1
  6
CONTINUOUS
 62
   250
 10
0.211615
 20
0.398319
 30
0.0
 11
0.211899
 21
0.398886
 31
0.0
  0
LINE
  8
1
  6
CONTINUOUS
 62
   250
 10
0.211899
 20
0.398886
 30
0.0
 11
0.211615
 21
0.399455
 31
0.0
  0
LINE
  8
1
  6
CONTINUOUS
 62
   250
 10
0.211615
 20
0.399455
 30
0.0
 11
0.211332
 21
0.400024
 31
0.0
  0
LINE
  8
1
  6
CONTINUOUS
 62
   250
 10
0.200252
 20
0.400024
 30
0.0
 11
0.1994
 21
0.400307
 31
0.0
  0
LINE
  8
1
  6
CONTINUOUS
 62
   250
 10
0.1994
 20
0.400307
 30
0.0
 11
0.198831
 21
0.400024
 31
0.0
  0
LINE
  8
1
  6
CONTINUOUS
 62
   250
 10
0.198831
 20
0.400024
 30
0.0
 11
0.198263
 21
0.399455
 31
0.0
  0
LINE
  8
1
  6
CONTINUOUS
 62
   250
 10
0.198263
 20
0.399455
 30
0.0
 11
0.198263
 21
0.398886
 31
0.0
  0
LINE
  8
1
  6
CONTINUOUS
 62
   250
 10
0.198263
 20
0.398886
 30
0.0
 11
0.198263
 21
0.398319
 31
0.0
  0
LINE
  8
1
  6
CONTINUOUS
 62
   250
 10
0.198263
 20
0.398319
 30
0.0
 11
0.198831
 21
0.398034
 31
0.0
  0
LINE
  8
1
  6
CONTINUOUS
 62
   250
 10
0.198831
 20
0.398034
 30
0.0
 11
0.1994
 21
0.39775
 31
0.0
  0
LINE
  8
1
  6
CONTINUOUS
 62
   250
 10
0.1994
 20
0.39775
 30
0.0
 11
0.200252
 21
0.398034
 31
0.0
  0
LINE
  8
1
  6
CONTINUOUS
 62
   250
 10
0.200252
 20
0.398034
 30
0.0
 11
0.200252
 21
0.398319
 31
0.0
  0
LINE
  8
1
  6
CONTINUOUS
 62
   250
 10
0.200252
 20
0.398319
 30
0.0
 11
0.200536
 21
0.398886
 31
0.0
  0
LINE
  8
1
  6
CONTINUOUS
 62
   250
 10
0.200536
 20
0.398886
 30
0.0
 11
0.200252
 21
0.399455
 31
0.0
  0
LINE
  8
1
  6
CONTINUOUS
 62
   250
 10
0.200252
 20
0.399455
 30
0.0
 11
0.200252
 21
0.400024
 31
0.0
  0
LINE
  8
1
  6
CONTINUOUS
 62
   250
 10
0.200252
 20
0.388376
 30
0.0
 11
0.1994
 21
0.388659
 31
0.0
  0
LINE
  8
1
  6
CONTINUOUS
 62
   250
 10
0.1994
 20
0.388659
 30
0.0
 11
0.198831
 21
0.388376
 31
0.0
  0
LINE
  8
1
  6
CONTINUOUS
 62
   250
 10
0.198831
 20
0.388376
 30
0.0
 11
0.198263
 21
0.388092
 31
0.0
  0
LINE
  8
1
  6
CONTINUOUS
 62
   250
 10
0.198263
 20
0.388092
 30
0.0
 11
0.198263
 21
0.387523
 31
0.0
  0
LINE
  8
1
  6
CONTINUOUS
 62
   250
 10
0.198263
 20
0.387523
 30
0.0
 11
0.198263
 21
0.386955
 31
0.0
  0
LINE
  8
1
  6
CONTINUOUS
 62
   250
 10
0.198263
 20
0.386955
 30
0.0
 11
0.198831
 21
0.386387
 31
0.0
  0
LINE
  8
1
  6
CONTINUOUS
 62
   250
 10
0.198831
 20
0.386387
 30
0.0
 11
0.1994
 21
0.386387
 31
0.0
  0
LINE
  8
1
  6
CONTINUOUS
 62
   250
 10
0.1994
 20
0.386387
 30
0.0
 11
0.200252
 21
0.386387
 31
0.0
  0
LINE
  8
1
  6
CONTINUOUS
 62
   250
 10
0.200252
 20
0.386387
 30
0.0
 11
0.200252
 21
0.386955
 31
0.0
  0
LINE
  8
1
  6
CONTINUOUS
 62
   250
 10
0.200252
 20
0.386955
 30
0.0
 11
0.200536
 21
0.387523
 31
0.0
  0
LINE
  8
1
  6
CONTINUOUS
 62
   250
 10
0.200536
 20
0.387523
 30
0.0
 11
0.200252
 21
0.388092
 31
0.0
  0
LINE
  8
1
  6
CONTINUOUS
 62
   250
 10
0.200252
 20
0.388092
 30
0.0
 11
0.200252
 21
0.388376
 31
0.0
  0
LINE
  8
1
  6
CONTINUOUS
 62
   250
 10
0.210479
 20
0.388376
 30
0.0
 11
0.209911
 21
0.388092
 31
0.0
  0
LINE
  8
1
  6
CONTINUOUS
 62
   250
 10
0.209911
 20
0.388092
 30
0.0
 11
0.209627
 21
0.387523
 31
0.0
  0
LINE
  8
1
  6
CONTINUOUS
 62
   250
 10
0.209627
 20
0.387523
 30
0.0
 11
0.209911
 21
0.386955
 31
0.0
  0
LINE
  8
1
  6
CONTINUOUS
 62
   250
 10
0.209911
 20
0.386955
 30
0.0
 11
0.210479
 21
0.386387
 31
0.0
  0
LINE
  8
1
  6
CONTINUOUS
 62
   250
 10
0.210479
 20
0.386387
 30
0.0
 11
0.210763
 21
0.386387
 31
0.0
  0
LINE
  8
1
  6
CONTINUOUS
 62
   250
 10
0.210763
 20
0.386387
 30
0.0
 11
0.211332
 21
0.386387
 31
0.0
  0
LINE
  8
1
  6
CONTINUOUS
 62
   250
 10
0.211332
 20
0.386387
 30
0.0
 11
0.211615
 21
0.386955
 31
0.0
  0
LINE
  8
1
  6
CONTINUOUS
 62
   250
 10
0.211615
 20
0.386955
 30
0.0
 11
0.211899
 21
0.387523
 31
0.0
  0
LINE
  8
1
  6
CONTINUOUS
 62
   250
 10
0.211899
 20
0.387523
 30
0.0
 11
0.211615
 21
0.388092
 31
0.0
  0
LINE
  8
1
  6
CONTINUOUS
 62
   250
 10
0.211615
 20
0.388092
 30
0.0
 11
0.211332
 21
0.388376
 31
0.0
  0
LINE
  8
1
  6
CONTINUOUS
 62
   250
 10
0.211332
 20
0.388376
 30
0.0
 11
0.210763
 21
0.388659
 31
0.0
  0
LINE
  8
1
  6
CONTINUOUS
 62
   250
 10
0.210763
 20
0.388659
 30
0.0
 11
0.210479
 21
0.388376
 31
0.0
  0
LINE
  8
1
  6
CONTINUOUS
 62
   250
 10
0.216445
 20
0.393205
 30
0.0
 11
0.193718
 21
0.393205
 31
0.0
  0
LINE
  8
1
  6
CONTINUOUS
 62
   250
 10
0.347722
 20
0.436793
 30
0.0
 11
0.324994
 21
0.436793
 31
0.0
  0
LINE
  8
1
  6
CONTINUOUS
 62
   250
 10
0.329539
 20
0.441623
 30
0.0
 11
0.330108
 21
0.441623
 31
0.0
  0
LINE
  8
1
  6
CONTINUOUS
 62
   250
 10
0.330108
 20
0.441623
 30
0.0
 11
0.330677
 21
0.44134
 31
0.0
  0
LINE
  8
1
  6
CONTINUOUS
 62
   250
 10
0.330677
 20
0.44134
 30
0.0
 11
0.331529
 21
0.441623
 31
0.0
  0
LINE
  8
1
  6
CONTINUOUS
 62
   250
 10
0.331529
 20
0.441623
 30
0.0
 11
0.331529
 21
0.441623
 31
0.0
  0
LINE
  8
1
  6
CONTINUOUS
 62
   250
 10
0.331529
 20
0.441623
 30
0.0
 11
0.331812
 21
0.442476
 31
0.0
  0
LINE
  8
1
  6
CONTINUOUS
 62
   250
 10
0.331812
 20
0.442476
 30
0.0
 11
0.331529
 21
0.443044
 31
0.0
  0
LINE
  8
1
  6
CONTINUOUS
 62
   250
 10
0.331529
 20
0.443044
 30
0.0
 11
0.331529
 21
0.443611
 31
0.0
  0
LINE
  8
1
  6
CONTINUOUS
 62
   250
 10
0.331529
 20
0.443611
 30
0.0
 11
0.330677
 21
0.443611
 31
0.0
  0
LINE
  8
1
  6
CONTINUOUS
 62
   250
 10
0.330677
 20
0.443611
 30
0.0
 11
0.330108
 21
0.443611
 31
0.0
  0
LINE
  8
1
  6
CONTINUOUS
 62
   250
 10
0.330108
 20
0.443611
 30
0.0
 11
0.329539
 21
0.443044
 31
0.0
  0
LINE
  8
1
  6
CONTINUOUS
 62
   250
 10
0.329539
 20
0.443044
 30
0.0
 11
0.329539
 21
0.442476
 31
0.0
  0
LINE
  8
1
  6
CONTINUOUS
 62
   250
 10
0.329539
 20
0.442476
 30
0.0
 11
0.329539
 21
0.441623
 31
0.0
  0
LINE
  8
1
  6
CONTINUOUS
 62
   250
 10
0.341187
 20
0.441623
 30
0.0
 11
0.341756
 21
0.441623
 31
0.0
  0
LINE
  8
1
  6
CONTINUOUS
 62
   250
 10
0.341756
 20
0.441623
 30
0.0
 11
0.34204
 21
0.44134
 31
0.0
  0
LINE
  8
1
  6
CONTINUOUS
 62
   250
 10
0.34204
 20
0.44134
 30
0.0
 11
0.342608
 21
0.441623
 31
0.0
  0
LINE
  8
1
  6
CONTINUOUS
 62
   250
 10
0.342608
 20
0.441623
 30
0.0
 11
0.342892
 21
0.441623
 31
0.0
  0
LINE
  8
1
  6
CONTINUOUS
 62
   250
 10
0.342892
 20
0.441623
 30
0.0
 11
0.343176
 21
0.442476
 31
0.0
  0
LINE
  8
1
  6
CONTINUOUS
 62
   250
 10
0.343176
 20
0.442476
 30
0.0
 11
0.342892
 21
0.443044
 31
0.0
  0
LINE
  8
1
  6
CONTINUOUS
 62
   250
 10
0.342892
 20
0.443044
 30
0.0
 11
0.342608
 21
0.443611
 31
0.0
  0
LINE
  8
1
  6
CONTINUOUS
 62
   250
 10
0.342608
 20
0.443611
 30
0.0
 11
0.34204
 21
0.443611
 31
0.0
  0
LINE
  8
1
  6
CONTINUOUS
 62
   250
 10
0.34204
 20
0.443611
 30
0.0
 11
0.341756
 21
0.443611
 31
0.0
  0
LINE
  8
1
  6
CONTINUOUS
 62
   250
 10
0.341756
 20
0.443611
 30
0.0
 11
0.341187
 21
0.443044
 31
0.0
  0
LINE
  8
1
  6
CONTINUOUS
 62
   250
 10
0.341187
 20
0.443044
 30
0.0
 11
0.340904
 21
0.442476
 31
0.0
  0
LINE
  8
1
  6
CONTINUOUS
 62
   250
 10
0.340904
 20
0.442476
 30
0.0
 11
0.341187
 21
0.441623
 31
0.0
  0
LINE
  8
1
  6
CONTINUOUS
 62
   250
 10
0.347722
 20
0.448158
 30
0.0
 11
0.324994
 21
0.448158
 31
0.0
  0
LINE
  8
1
  6
CONTINUOUS
 62
   250
 10
0.324994
 20
0.448158
 30
0.0
 11
0.324994
 21
0.436793
 31
0.0
  0
LINE
  8
1
  6
CONTINUOUS
 62
   250
 10
0.347722
 20
0.436793
 30
0.0
 11
0.347722
 21
0.448158
 31
0.0
  0
LINE
  8
1
  6
CONTINUOUS
 62
   250
 10
0.324994
 20
0.4621
 30
0.0
 11
0.347722
 21
0.4621
 31
0.0
  0
LINE
  8
1
  6
CONTINUOUS
 62
   250
 10
0.347722
 20
0.4621
 30
0.0
 11
0.347722
 21
0.473464
 31
0.0
  0
LINE
  8
1
  6
CONTINUOUS
 62
   250
 10
0.324994
 20
0.473464
 30
0.0
 11
0.324994
 21
0.4621
 31
0.0
  0
LINE
  8
1
  6
CONTINUOUS
 62
   250
 10
0.329539
 20
0.467213
 30
0.0
 11
0.330108
 21
0.46693
 31
0.0
  0
LINE
  8
1
  6
CONTINUOUS
 62
   250
 10
0.330108
 20
0.46693
 30
0.0
 11
0.330677
 21
0.466646
 31
0.0
  0
LINE
  8
1
  6
CONTINUOUS
 62
   250
 10
0.330677
 20
0.466646
 30
0.0
 11
0.331529
 21
0.46693
 31
0.0
  0
LINE
  8
1
  6
CONTINUOUS
 62
   250
 10
0.331529
 20
0.46693
 30
0.0
 11
0.331529
 21
0.467213
 31
0.0
  0
LINE
  8
1
  6
CONTINUOUS
 62
   250
 10
0.331529
 20
0.467213
 30
0.0
 11
0.331812
 21
0.467782
 31
0.0
  0
LINE
  8
1
  6
CONTINUOUS
 62
   250
 10
0.331812
 20
0.467782
 30
0.0
 11
0.331529
 21
0.468351
 31
0.0
  0
LINE
  8
1
  6
CONTINUOUS
 62
   250
 10
0.331529
 20
0.468351
 30
0.0
 11
0.331529
 21
0.468634
 31
0.0
  0
LINE
  8
1
  6
CONTINUOUS
 62
   250
 10
0.331529
 20
0.468634
 30
0.0
 11
0.330677
 21
0.468918
 31
0.0
  0
LINE
  8
1
  6
CONTINUOUS
 62
   250
 10
0.330677
 20
0.468918
 30
0.0
 11
0.330108
 21
0.468634
 31
0.0
  0
LINE
  8
1
  6
CONTINUOUS
 62
   250
 10
0.330108
 20
0.468634
 30
0.0
 11
0.329539
 21
0.468351
 31
0.0
  0
LINE
  8
1
  6
CONTINUOUS
 62
   250
 10
0.329539
 20
0.468351
 30
0.0
 11
0.329539
 21
0.467782
 31
0.0
  0
LINE
  8
1
  6
CONTINUOUS
 62
   250
 10
0.329539
 20
0.467782
 30
0.0
 11
0.329539
 21
0.467213
 31
0.0
  0
LINE
  8
1
  6
CONTINUOUS
 62
   250
 10
0.324994
 20
0.473464
 30
0.0
 11
0.347722
 21
0.473464
 31
0.0
  0
LINE
  8
1
  6
CONTINUOUS
 62
   250
 10
0.341756
 20
0.468634
 30
0.0
 11
0.341187
 21
0.468351
 31
0.0
  0
LINE
  8
1
  6
CONTINUOUS
 62
   250
 10
0.341187
 20
0.468351
 30
0.0
 11
0.340904
 21
0.467782
 31
0.0
  0
LINE
  8
1
  6
CONTINUOUS
 62
   250
 10
0.340904
 20
0.467782
 30
0.0
 11
0.341187
 21
0.467213
 31
0.0
  0
LINE
  8
1
  6
CONTINUOUS
 62
   250
 10
0.341187
 20
0.467213
 30
0.0
 11
0.341756
 21
0.46693
 31
0.0
  0
LINE
  8
1
  6
CONTINUOUS
 62
   250
 10
0.341756
 20
0.46693
 30
0.0
 11
0.34204
 21
0.466646
 31
0.0
  0
LINE
  8
1
  6
CONTINUOUS
 62
   250
 10
0.34204
 20
0.466646
 30
0.0
 11
0.342608
 21
0.46693
 31
0.0
  0
LINE
  8
1
  6
CONTINUOUS
 62
   250
 10
0.342608
 20
0.46693
 30
0.0
 11
0.342892
 21
0.467213
 31
0.0
  0
LINE
  8
1
  6
CONTINUOUS
 62
   250
 10
0.342892
 20
0.467213
 30
0.0
 11
0.343176
 21
0.467782
 31
0.0
  0
LINE
  8
1
  6
CONTINUOUS
 62
   250
 10
0.343176
 20
0.467782
 30
0.0
 11
0.342892
 21
0.468351
 31
0.0
  0
LINE
  8
1
  6
CONTINUOUS
 62
   250
 10
0.342892
 20
0.468351
 30
0.0
 11
0.342608
 21
0.468634
 31
0.0
  0
LINE
  8
1
  6
CONTINUOUS
 62
   250
 10
0.342608
 20
0.468634
 30
0.0
 11
0.34204
 21
0.468918
 31
0.0
  0
LINE
  8
1
  6
CONTINUOUS
 62
   250
 10
0.34204
 20
0.468918
 30
0.0
 11
0.341756
 21
0.468634
 31
0.0
  0
LINE
  8
1
  6
CONTINUOUS
 62
   250
 10
0.460123
 20
0.309162
 30
0.0
 11
0.478594
 21
0.309162
 31
0.0
  0
LINE
  8
1
  6
CONTINUOUS
 62
   250
 10
0.478594
 20
0.309162
 30
0.0
 11
0.480585
 21
0.312004
 31
0.0
  0
LINE
  8
1
  6
CONTINUOUS
 62
   250
 10
0.480585
 20
0.312004
 30
0.0
 11
0.480585
 21
0.313424
 31
0.0
  0
LINE
  8
1
  6
CONTINUOUS
 62
   250
 10
0.480585
 20
0.313424
 30
0.0
 11
0.456998
 21
0.313424
 31
0.0
  0
LINE
  8
1
  6
CONTINUOUS
 62
   250
 10
0.456998
 20
0.313424
 30
0.0
 11
0.456998
 21
0.312004
 31
0.0
  0
LINE
  8
1
  6
CONTINUOUS
 62
   250
 10
0.456998
 20
0.312004
 30
0.0
 11
0.460123
 21
0.309162
 31
0.0
  0
LINE
  8
1
  6
CONTINUOUS
 62
   250
 10
0.497903
 20
0.359731
 30
0.0
 11
0.497903
 21
0.365129
 31
0.0
  0
LINE
  8
1
  6
CONTINUOUS
 62
   250
 10
0.497903
 20
0.360867
 30
0.0
 11
0.439385
 21
0.360867
 31
0.0
  0
LINE
  8
1
  6
CONTINUOUS
 62
   250
 10
0.439385
 20
0.360867
 30
0.0
 11
0.439385
 21
0.359731
 31
0.0
  0
LINE
  8
1
  6
CONTINUOUS
 62
   250
 10
0.439385
 20
0.359731
 30
0.0
 11
0.439385
 21
0.365129
 31
0.0
  0
LINE
  8
1
  6
CONTINUOUS
 62
   250
 10
0.439385
 20
0.365129
 30
0.0
 11
0.438816
 21
0.36456
 31
0.0
  0
LINE
  8
1
  6
CONTINUOUS
 62
   250
 10
0.438816
 20
0.36456
 30
0.0
 11
0.440237
 21
0.365697
 31
0.0
  0
LINE
  8
1
  6
CONTINUOUS
 62
   250
 10
0.440237
 20
0.365697
 30
0.0
 11
0.441657
 21
0.366833
 31
0.0
  0
LINE
  8
1
  6
CONTINUOUS
 62
   250
 10
0.441657
 20
0.366833
 30
0.0
 11
0.442509
 21
0.368254
 31
0.0
  0
LINE
  8
1
  6
CONTINUOUS
 62
   250
 10
0.442509
 20
0.368254
 30
0.0
 11
0.442794
 21
0.370242
 31
0.0
  0
LINE
  8
1
  6
CONTINUOUS
 62
   250
 10
0.442794
 20
0.370242
 30
0.0
 11
0.442509
 21
0.371947
 31
0.0
  0
LINE
  8
1
  6
CONTINUOUS
 62
   250
 10
0.442509
 20
0.371947
 30
0.0
 11
0.441657
 21
0.373651
 31
0.0
  0
LINE
  8
1
  6
CONTINUOUS
 62
   250
 10
0.441657
 20
0.373651
 30
0.0
 11
0.440237
 21
0.375072
 31
0.0
  0
LINE
  8
1
  6
CONTINUOUS
 62
   250
 10
0.440237
 20
0.375072
 30
0.0
 11
0.438816
 21
0.37564
 31
0.0
  0
LINE
  8
1
  6
CONTINUOUS
 62
   250
 10
0.438816
 20
0.37564
 30
0.0
 11
0.436828
 21
0.375925
 31
0.0
  0
LINE
  8
1
  6
CONTINUOUS
 62
   250
 10
0.436828
 20
0.375925
 30
0.0
 11
0.435124
 21
0.37564
 31
0.0
  0
LINE
  8
1
  6
CONTINUOUS
 62
   250
 10
0.435124
 20
0.37564
 30
0.0
 11
0.433419
 21
0.375072
 31
0.0
  0
LINE
  8
1
  6
CONTINUOUS
 62
   250
 10
0.433419
 20
0.375072
 30
0.0
 11
0.431998
 21
0.373651
 31
0.0
  0
LINE
  8
1
  6
CONTINUOUS
 62
   250
 10
0.431998
 20
0.373651
 30
0.0
 11
0.43143
 21
0.371947
 31
0.0
  0
LINE
  8
1
  6
CONTINUOUS
 62
   250
 10
0.43143
 20
0.371947
 30
0.0
 11
0.431146
 21
0.370242
 31
0.0
  0
LINE
  8
1
  6
CONTINUOUS
 62
   250
 10
0.431146
 20
0.370242
 30
0.0
 11
0.43143
 21
0.368254
 31
0.0
  0
LINE
  8
1
  6
CONTINUOUS
 62
   250
 10
0.43143
 20
0.368254
 30
0.0
 11
0.431998
 21
0.366833
 31
0.0
  0
LINE
  8
1
  6
CONTINUOUS
 62
   250
 10
0.431998
 20
0.366833
 30
0.0
 11
0.433419
 21
0.365697
 31
0.0
  0
LINE
  8
1
  6
CONTINUOUS
 62
   250
 10
0.433419
 20
0.365697
 30
0.0
 11
0.435124
 21
0.36456
 31
0.0
  0
LINE
  8
1
  6
CONTINUOUS
 62
   250
 10
0.435124
 20
0.36456
 30
0.0
 11
0.436828
 21
0.364276
 31
0.0
  0
LINE
  8
1
  6
CONTINUOUS
 62
   250
 10
0.436828
 20
0.364276
 30
0.0
 11
0.438816
 21
0.36456
 31
0.0
  0
LINE
  8
1
  6
CONTINUOUS
 62
   250
 10
0.439385
 20
0.359731
 30
0.0
 11
0.497903
 21
0.359731
 31
0.0
  0
LINE
  8
1
  6
CONTINUOUS
 62
   250
 10
0.499048
 20
0.36456
 30
0.0
 11
0.500466
 21
0.364276
 31
0.0
  0
LINE
  8
1
  6
CONTINUOUS
 62
   250
 10
0.500466
 20
0.364276
 30
0.0
 11
0.502457
 21
0.36456
 31
0.0
  0
LINE
  8
1
  6
CONTINUOUS
 62
   250
 10
0.502457
 20
0.36456
 30
0.0
 11
0.504162
 21
0.365697
 31
0.0
  0
LINE
  8
1
  6
CONTINUOUS
 62
   250
 10
0.504162
 20
0.365697
 30
0.0
 11
0.505294
 21
0.366833
 31
0.0
  0
LINE
  8
1
  6
CONTINUOUS
 62
   250
 10
0.505294
 20
0.366833
 30
0.0
 11
0.506153
 21
0.368254
 31
0.0
  0
LINE
  8
1
  6
CONTINUOUS
 62
   250
 10
0.506153
 20
0.368254
 30
0.0
 11
0.506425
 21
0.370242
 31
0.0
  0
LINE
  8
1
  6
CONTINUOUS
 62
   250
 10
0.506425
 20
0.370242
 30
0.0
 11
0.506153
 21
0.371947
 31
0.0
  0
LINE
  8
1
  6
CONTINUOUS
 62
   250
 10
0.506153
 20
0.371947
 30
0.0
 11
0.505294
 21
0.373651
 31
0.0
  0
LINE
  8
1
  6
CONTINUOUS
 62
   250
 10
0.505294
 20
0.373651
 30
0.0
 11
0.504162
 21
0.375072
 31
0.0
  0
LINE
  8
1
  6
CONTINUOUS
 62
   250
 10
0.504162
 20
0.375072
 30
0.0
 11
0.502457
 21
0.37564
 31
0.0
  0
LINE
  8
1
  6
CONTINUOUS
 62
   250
 10
0.502457
 20
0.37564
 30
0.0
 11
0.500466
 21
0.375925
 31
0.0
  0
LINE
  8
1
  6
CONTINUOUS
 62
   250
 10
0.500466
 20
0.375925
 30
0.0
 11
0.499048
 21
0.37564
 31
0.0
  0
LINE
  8
1
  6
CONTINUOUS
 62
   250
 10
0.499048
 20
0.37564
 30
0.0
 11
0.497344
 21
0.375072
 31
0.0
  0
LINE
  8
1
  6
CONTINUOUS
 62
   250
 10
0.497344
 20
0.375072
 30
0.0
 11
0.495925
 21
0.373651
 31
0.0
  0
LINE
  8
1
  6
CONTINUOUS
 62
   250
 10
0.495925
 20
0.373651
 30
0.0
 11
0.495066
 21
0.371947
 31
0.0
  0
LINE
  8
1
  6
CONTINUOUS
 62
   250
 10
0.495066
 20
0.371947
 30
0.0
 11
0.49478
 21
0.370242
 31
0.0
  0
LINE
  8
1
  6
CONTINUOUS
 62
   250
 10
0.49478
 20
0.370242
 30
0.0
 11
0.495066
 21
0.368254
 31
0.0
  0
LINE
  8
1
  6
CONTINUOUS
 62
   250
 10
0.495066
 20
0.368254
 30
0.0
 11
0.495925
 21
0.366833
 31
0.0
  0
LINE
  8
1
  6
CONTINUOUS
 62
   250
 10
0.495925
 20
0.366833
 30
0.0
 11
0.497344
 21
0.365697
 31
0.0
  0
LINE
  8
1
  6
CONTINUOUS
 62
   250
 10
0.497344
 20
0.365697
 30
0.0
 11
0.499048
 21
0.36456
 31
0.0
  0
LINE
  8
1
  6
CONTINUOUS
 62
   250
 10
0.49478
 20
0.371378
 30
0.0
 11
0.442509
 21
0.371378
 31
0.0
  0
LINE
  8
1
  6
CONTINUOUS
 62
   250
 10
0.431146
 20
0.371378
 30
0.0
 11
0.414953
 21
0.371378
 31
0.0
  0
LINE
  8
1
  6
CONTINUOUS
 62
   250
 10
0.414953
 20
0.371378
 30
0.0
 11
0.414953
 21
0.420243
 31
0.0
  0
LINE
  8
1
  6
CONTINUOUS
 62
   250
 10
0.414953
 20
0.420243
 30
0.0
 11
0.431146
 21
0.420243
 31
0.0
  0
LINE
  8
1
  6
CONTINUOUS
 62
   250
 10
0.431146
 20
0.420243
 30
0.0
 11
0.43143
 21
0.419674
 31
0.0
  0
LINE
  8
1
  6
CONTINUOUS
 62
   250
 10
0.43143
 20
0.419674
 30
0.0
 11
0.431998
 21
0.41797
 31
0.0
  0
LINE
  8
1
  6
CONTINUOUS
 62
   250
 10
0.431998
 20
0.41797
 30
0.0
 11
0.433419
 21
0.416833
 31
0.0
  0
LINE
  8
1
  6
CONTINUOUS
 62
   250
 10
0.433419
 20
0.416833
 30
0.0
 11
0.435124
 21
0.415981
 31
0.0
  0
LINE
  8
1
  6
CONTINUOUS
 62
   250
 10
0.435124
 20
0.415981
 30
0.0
 11
0.436828
 21
0.415696
 31
0.0
  0
LINE
  8
1
  6
CONTINUOUS
 62
   250
 10
0.436828
 20
0.415696
 30
0.0
 11
0.438816
 21
0.415981
 31
0.0
  0
LINE
  8
1
  6
CONTINUOUS
 62
   250
 10
0.438816
 20
0.415981
 30
0.0
 11
0.440237
 21
0.416833
 31
0.0
  0
LINE
  8
1
  6
CONTINUOUS
 62
   250
 10
0.440237
 20
0.416833
 30
0.0
 11
0.441657
 21
0.41797
 31
0.0
  0
LINE
  8
1
  6
CONTINUOUS
 62
   250
 10
0.441657
 20
0.41797
 30
0.0
 11
0.442509
 21
0.419674
 31
0.0
  0
LINE
  8
1
  6
CONTINUOUS
 62
   250
 10
0.442509
 20
0.419674
 30
0.0
 11
0.442794
 21
0.421379
 31
0.0
  0
LINE
  8
1
  6
CONTINUOUS
 62
   250
 10
0.442794
 20
0.421379
 30
0.0
 11
0.442509
 21
0.423367
 31
0.0
  0
LINE
  8
1
  6
CONTINUOUS
 62
   250
 10
0.442509
 20
0.423367
 30
0.0
 11
0.441657
 21
0.424788
 31
0.0
  0
LINE
  8
1
  6
CONTINUOUS
 62
   250
 10
0.441657
 20
0.424788
 30
0.0
 11
0.440237
 21
0.426209
 31
0.0
  0
LINE
  8
1
  6
CONTINUOUS
 62
   250
 10
0.440237
 20
0.426209
 30
0.0
 11
0.438816
 21
0.426776
 31
0.0
  0
LINE
  8
1
  6
CONTINUOUS
 62
   250
 10
0.438816
 20
0.426776
 30
0.0
 11
0.436828
 21
0.427344
 31
0.0
  0
LINE
  8
1
  6
CONTINUOUS
 62
   250
 10
0.436828
 20
0.427344
 30
0.0
 11
0.435124
 21
0.426776
 31
0.0
  0
LINE
  8
1
  6
CONTINUOUS
 62
   250
 10
0.435124
 20
0.426776
 30
0.0
 11
0.433419
 21
0.426209
 31
0.0
  0
LINE
  8
1
  6
CONTINUOUS
 62
   250
 10
0.433419
 20
0.426209
 30
0.0
 11
0.431998
 21
0.424788
 31
0.0
  0
LINE
  8
1
  6
CONTINUOUS
 62
   250
 10
0.431998
 20
0.424788
 30
0.0
 11
0.43143
 21
0.423367
 31
0.0
  0
LINE
  8
1
  6
CONTINUOUS
 62
   250
 10
0.43143
 20
0.423367
 30
0.0
 11
0.431146
 21
0.421379
 31
0.0
  0
LINE
  8
1
  6
CONTINUOUS
 62
   250
 10
0.431146
 20
0.421379
 30
0.0
 11
0.43143
 21
0.419674
 31
0.0
  0
LINE
  8
1
  6
CONTINUOUS
 62
   250
 10
0.442509
 20
0.420243
 30
0.0
 11
0.49478
 21
0.420243
 31
0.0
  0
LINE
  8
1
  6
CONTINUOUS
 62
   250
 10
0.49478
 20
0.420243
 30
0.0
 11
0.495066
 21
0.419674
 31
0.0
  0
LINE
  8
1
  6
CONTINUOUS
 62
   250
 10
0.495066
 20
0.419674
 30
0.0
 11
0.495925
 21
0.41797
 31
0.0
  0
LINE
  8
1
  6
CONTINUOUS
 62
   250
 10
0.495925
 20
0.41797
 30
0.0
 11
0.497344
 21
0.416833
 31
0.0
  0
LINE
  8
1
  6
CONTINUOUS
 62
   250
 10
0.497344
 20
0.416833
 30
0.0
 11
0.499048
 21
0.415981
 31
0.0
  0
LINE
  8
1
  6
CONTINUOUS
 62
   250
 10
0.499048
 20
0.415981
 30
0.0
 11
0.500466
 21
0.415696
 31
0.0
  0
LINE
  8
1
  6
CONTINUOUS
 62
   250
 10
0.500466
 20
0.415696
 30
0.0
 11
0.502457
 21
0.415981
 31
0.0
  0
LINE
  8
1
  6
CONTINUOUS
 62
   250
 10
0.502457
 20
0.415981
 30
0.0
 11
0.504162
 21
0.416833
 31
0.0
  0
LINE
  8
1
  6
CONTINUOUS
 62
   250
 10
0.504162
 20
0.416833
 30
0.0
 11
0.505294
 21
0.41797
 31
0.0
  0
LINE
  8
1
  6
CONTINUOUS
 62
   250
 10
0.505294
 20
0.41797
 30
0.0
 11
0.506153
 21
0.419674
 31
0.0
  0
LINE
  8
1
  6
CONTINUOUS
 62
   250
 10
0.506153
 20
0.419674
 30
0.0
 11
0.506425
 21
0.421379
 31
0.0
  0
LINE
  8
1
  6
CONTINUOUS
 62
   250
 10
0.506425
 20
0.421379
 30
0.0
 11
0.506153
 21
0.423367
 31
0.0
  0
LINE
  8
1
  6
CONTINUOUS
 62
   250
 10
0.506153
 20
0.423367
 30
0.0
 11
0.505294
 21
0.424788
 31
0.0
  0
LINE
  8
1
  6
CONTINUOUS
 62
   250
 10
0.505294
 20
0.424788
 30
0.0
 11
0.504162
 21
0.426209
 31
0.0
  0
LINE
  8
1
  6
CONTINUOUS
 62
   250
 10
0.504162
 20
0.426209
 30
0.0
 11
0.502457
 21
0.426776
 31
0.0
  0
LINE
  8
1
  6
CONTINUOUS
 62
   250
 10
0.502457
 20
0.426776
 30
0.0
 11
0.500466
 21
0.427344
 31
0.0
  0
LINE
  8
1
  6
CONTINUOUS
 62
   250
 10
0.500466
 20
0.427344
 30
0.0
 11
0.499048
 21
0.426776
 31
0.0
  0
LINE
  8
1
  6
CONTINUOUS
 62
   250
 10
0.499048
 20
0.426776
 30
0.0
 11
0.497344
 21
0.426209
 31
0.0
  0
LINE
  8
1
  6
CONTINUOUS
 62
   250
 10
0.497344
 20
0.426209
 30
0.0
 11
0.495925
 21
0.424788
 31
0.0
  0
LINE
  8
1
  6
CONTINUOUS
 62
   250
 10
0.495925
 20
0.424788
 30
0.0
 11
0.495066
 21
0.423367
 31
0.0
  0
LINE
  8
1
  6
CONTINUOUS
 62
   250
 10
0.495066
 20
0.423367
 30
0.0
 11
0.49478
 21
0.421379
 31
0.0
  0
LINE
  8
1
  6
CONTINUOUS
 62
   250
 10
0.49478
 20
0.421379
 30
0.0
 11
0.495066
 21
0.419674
 31
0.0
  0
LINE
  8
1
  6
CONTINUOUS
 62
   250
 10
0.497903
 20
0.426209
 30
0.0
 11
0.439385
 21
0.426209
 31
0.0
  0
LINE
  8
1
  6
CONTINUOUS
 62
   250
 10
0.456998
 20
0.426209
 30
0.0
 11
0.456998
 21
0.473936
 31
0.0
  0
LINE
  8
1
  6
CONTINUOUS
 62
   250
 10
0.456998
 20
0.473936
 30
0.0
 11
0.480585
 21
0.473936
 31
0.0
  0
LINE
  8
1
  6
CONTINUOUS
 62
   250
 10
0.480585
 20
0.473936
 30
0.0
 11
0.478594
 21
0.47706
 31
0.0
  0
LINE
  8
1
  6
CONTINUOUS
 62
   250
 10
0.478594
 20
0.47706
 30
0.0
 11
0.460123
 21
0.47706
 31
0.0
  0
LINE
  8
1
  6
CONTINUOUS
 62
   250
 10
0.460123
 20
0.47706
 30
0.0
 11
0.456998
 21
0.473936
 31
0.0
  0
LINE
  8
1
  6
CONTINUOUS
 62
   250
 10
0.456998
 20
0.473936
 30
0.0
 11
0.456998
 21
0.472799
 31
0.0
  0
LINE
  8
1
  6
CONTINUOUS
 62
   250
 10
0.456998
 20
0.472799
 30
0.0
 11
0.480585
 21
0.472799
 31
0.0
  0
LINE
  8
1
  6
CONTINUOUS
 62
   250
 10
0.480585
 20
0.472799
 30
0.0
 11
0.480585
 21
0.473936
 31
0.0
  0
LINE
  8
1
  6
CONTINUOUS
 62
   250
 10
0.480585
 20
0.473936
 30
0.0
 11
0.480585
 21
0.426209
 31
0.0
  0
LINE
  8
1
  6
CONTINUOUS
 62
   250
 10
0.506425
 20
0.420243
 30
0.0
 11
0.522339
 21
0.420243
 31
0.0
  0
LINE
  8
1
  6
CONTINUOUS
 62
   250
 10
0.522339
 20
0.420243
 30
0.0
 11
0.522339
 21
0.371378
 31
0.0
  0
LINE
  8
1
  6
CONTINUOUS
 62
   250
 10
0.522339
 20
0.371378
 30
0.0
 11
0.506425
 21
0.371378
 31
0.0
  0
LINE
  8
1
  6
CONTINUOUS
 62
   250
 10
0.521207
 20
0.371378
 30
0.0
 11
0.521207
 21
0.420243
 31
0.0
  0
LINE
  8
1
  6
CONTINUOUS
 62
   250
 10
0.480585
 20
0.359731
 30
0.0
 11
0.480585
 21
0.312004
 31
0.0
  0
LINE
  8
1
  6
CONTINUOUS
 62
   250
 10
0.480585
 20
0.312004
 30
0.0
 11
0.456998
 21
0.312004
 31
0.0
  0
LINE
  8
1
  6
CONTINUOUS
 62
   250
 10
0.456998
 20
0.312004
 30
0.0
 11
0.456998
 21
0.359731
 31
0.0
  0
LINE
  8
1
  6
CONTINUOUS
 62
   250
 10
0.416088
 20
0.371378
 30
0.0
 11
0.416088
 21
0.420243
 31
0.0
  0
LINE
  8
1
  6
CONTINUOUS
 62
   250
 10
-0.035729
 20
0.424559
 30
0.0
 11
-0.035729
 21
0.412911
 31
0.0
  0
LINE
  8
1
  6
CONTINUOUS
 62
   250
 10
-0.035729
 20
0.412911
 30
0.0
 11
-0.035729
 21
0.401548
 31
0.0
  0
LINE
  8
1
  6
CONTINUOUS
 62
   250
 10
-0.035729
 20
0.401548
 30
0.0
 11
-0.012718
 21
0.401548
 31
0.0
  0
LINE
  8
1
  6
CONTINUOUS
 62
   250
 10
-0.012718
 20
0.401548
 30
0.0
 11
-0.012718
 21
0.412911
 31
0.0
  0
LINE
  8
1
  6
CONTINUOUS
 62
   250
 10
-0.012718
 20
0.412911
 30
0.0
 11
-0.012718
 21
0.424559
 31
0.0
  0
LINE
  8
1
  6
CONTINUOUS
 62
   250
 10
-0.012718
 20
0.424559
 30
0.0
 11
-0.035729
 21
0.424559
 31
0.0
  0
LINE
  8
1
  6
CONTINUOUS
 62
   250
 10
-0.030616
 20
0.419729
 30
0.0
 11
-0.0309
 21
0.419445
 31
0.0
  0
LINE
  8
1
  6
CONTINUOUS
 62
   250
 10
-0.0309
 20
0.419445
 30
0.0
 11
-0.031184
 21
0.418877
 31
0.0
  0
LINE
  8
1
  6
CONTINUOUS
 62
   250
 10
-0.031184
 20
0.418877
 30
0.0
 11
-0.0309
 21
0.418309
 31
0.0
  0
LINE
  8
1
  6
CONTINUOUS
 62
   250
 10
-0.0309
 20
0.418309
 30
0.0
 11
-0.030616
 21
0.417741
 31
0.0
  0
LINE
  8
1
  6
CONTINUOUS
 62
   250
 10
-0.030616
 20
0.417741
 30
0.0
 11
-0.030048
 21
0.417741
 31
0.0
  0
LINE
  8
1
  6
CONTINUOUS
 62
   250
 10
-0.030048
 20
0.417741
 30
0.0
 11
-0.029479
 21
0.417741
 31
0.0
  0
LINE
  8
1
  6
CONTINUOUS
 62
   250
 10
-0.029479
 20
0.417741
 30
0.0
 11
-0.028911
 21
0.418309
 31
0.0
  0
LINE
  8
1
  6
CONTINUOUS
 62
   250
 10
-0.028911
 20
0.418309
 30
0.0
 11
-0.028911
 21
0.418877
 31
0.0
  0
LINE
  8
1
  6
CONTINUOUS
 62
   250
 10
-0.028911
 20
0.418877
 30
0.0
 11
-0.028911
 21
0.419445
 31
0.0
  0
LINE
  8
1
  6
CONTINUOUS
 62
   250
 10
-0.028911
 20
0.419445
 30
0.0
 11
-0.029479
 21
0.419729
 31
0.0
  0
LINE
  8
1
  6
CONTINUOUS
 62
   250
 10
-0.029479
 20
0.419729
 30
0.0
 11
-0.030048
 21
0.419729
 31
0.0
  0
LINE
  8
1
  6
CONTINUOUS
 62
   250
 10
-0.030048
 20
0.419729
 30
0.0
 11
-0.030616
 21
0.419729
 31
0.0
  0
LINE
  8
1
  6
CONTINUOUS
 62
   250
 10
-0.019537
 20
0.419445
 30
0.0
 11
-0.01982
 21
0.418877
 31
0.0
  0
LINE
  8
1
  6
CONTINUOUS
 62
   250
 10
-0.01982
 20
0.418877
 30
0.0
 11
-0.019537
 21
0.418309
 31
0.0
  0
LINE
  8
1
  6
CONTINUOUS
 62
   250
 10
-0.019537
 20
0.418309
 30
0.0
 11
-0.018968
 21
0.417741
 31
0.0
  0
LINE
  8
1
  6
CONTINUOUS
 62
   250
 10
-0.018968
 20
0.417741
 30
0.0
 11
-0.018399
 21
0.417741
 31
0.0
  0
LINE
  8
1
  6
CONTINUOUS
 62
   250
 10
-0.018399
 20
0.417741
 30
0.0
 11
-0.017832
 21
0.417741
 31
0.0
  0
LINE
  8
1
  6
CONTINUOUS
 62
   250
 10
-0.017832
 20
0.417741
 30
0.0
 11
-0.017547
 21
0.418309
 31
0.0
  0
LINE
  8
1
  6
CONTINUOUS
 62
   250
 10
-0.017547
 20
0.418309
 30
0.0
 11
-0.017547
 21
0.418877
 31
0.0
  0
LINE
  8
1
  6
CONTINUOUS
 62
   250
 10
-0.017547
 20
0.418877
 30
0.0
 11
-0.017547
 21
0.419445
 31
0.0
  0
LINE
  8
1
  6
CONTINUOUS
 62
   250
 10
-0.017547
 20
0.419445
 30
0.0
 11
-0.017832
 21
0.419729
 31
0.0
  0
LINE
  8
1
  6
CONTINUOUS
 62
   250
 10
-0.017832
 20
0.419729
 30
0.0
 11
-0.018399
 21
0.419729
 31
0.0
  0
LINE
  8
1
  6
CONTINUOUS
 62
   250
 10
-0.018399
 20
0.419729
 30
0.0
 11
-0.018968
 21
0.419729
 31
0.0
  0
LINE
  8
1
  6
CONTINUOUS
 62
   250
 10
-0.018968
 20
0.419729
 30
0.0
 11
-0.019537
 21
0.419445
 31
0.0
  0
LINE
  8
1
  6
CONTINUOUS
 62
   250
 10
-0.019537
 20
0.408082
 30
0.0
 11
-0.01982
 21
0.407514
 31
0.0
  0
LINE
  8
1
  6
CONTINUOUS
 62
   250
 10
-0.01982
 20
0.407514
 30
0.0
 11
-0.019537
 21
0.406661
 31
0.0
  0
LINE
  8
1
  6
CONTINUOUS
 62
   250
 10
-0.019537
 20
0.406661
 30
0.0
 11
-0.018968
 21
0.406093
 31
0.0
  0
LINE
  8
1
  6
CONTINUOUS
 62
   250
 10
-0.018968
 20
0.406093
 30
0.0
 11
-0.018399
 21
0.405809
 31
0.0
  0
LINE
  8
1
  6
CONTINUOUS
 62
   250
 10
-0.018399
 20
0.405809
 30
0.0
 11
-0.017832
 21
0.406093
 31
0.0
  0
LINE
  8
1
  6
CONTINUOUS
 62
   250
 10
-0.017832
 20
0.406093
 30
0.0
 11
-0.017547
 21
0.406661
 31
0.0
  0
LINE
  8
1
  6
CONTINUOUS
 62
   250
 10
-0.017547
 20
0.406661
 30
0.0
 11
-0.017547
 21
0.407514
 31
0.0
  0
LINE
  8
1
  6
CONTINUOUS
 62
   250
 10
-0.017547
 20
0.407514
 30
0.0
 11
-0.017547
 21
0.408082
 31
0.0
  0
LINE
  8
1
  6
CONTINUOUS
 62
   250
 10
-0.017547
 20
0.408082
 30
0.0
 11
-0.017832
 21
0.408366
 31
0.0
  0
LINE
  8
1
  6
CONTINUOUS
 62
   250
 10
-0.017832
 20
0.408366
 30
0.0
 11
-0.018399
 21
0.408366
 31
0.0
  0
LINE
  8
1
  6
CONTINUOUS
 62
   250
 10
-0.018399
 20
0.408366
 30
0.0
 11
-0.018968
 21
0.408366
 31
0.0
  0
LINE
  8
1
  6
CONTINUOUS
 62
   250
 10
-0.018968
 20
0.408366
 30
0.0
 11
-0.019537
 21
0.408082
 31
0.0
  0
LINE
  8
1
  6
CONTINUOUS
 62
   250
 10
-0.028911
 20
0.408082
 30
0.0
 11
-0.029479
 21
0.408366
 31
0.0
  0
LINE
  8
1
  6
CONTINUOUS
 62
   250
 10
-0.029479
 20
0.408366
 30
0.0
 11
-0.030048
 21
0.408366
 31
0.0
  0
LINE
  8
1
  6
CONTINUOUS
 62
   250
 10
-0.030048
 20
0.408366
 30
0.0
 11
-0.030616
 21
0.408366
 31
0.0
  0
LINE
  8
1
  6
CONTINUOUS
 62
   250
 10
-0.030616
 20
0.408366
 30
0.0
 11
-0.0309
 21
0.408082
 31
0.0
  0
LINE
  8
1
  6
CONTINUOUS
 62
   250
 10
-0.0309
 20
0.408082
 30
0.0
 11
-0.031184
 21
0.407514
 31
0.0
  0
LINE
  8
1
  6
CONTINUOUS
 62
   250
 10
-0.031184
 20
0.407514
 30
0.0
 11
-0.0309
 21
0.406661
 31
0.0
  0
LINE
  8
1
  6
CONTINUOUS
 62
   250
 10
-0.0309
 20
0.406661
 30
0.0
 11
-0.030616
 21
0.406093
 31
0.0
  0
LINE
  8
1
  6
CONTINUOUS
 62
   250
 10
-0.030616
 20
0.406093
 30
0.0
 11
-0.030048
 21
0.405809
 31
0.0
  0
LINE
  8
1
  6
CONTINUOUS
 62
   250
 10
-0.030048
 20
0.405809
 30
0.0
 11
-0.029479
 21
0.406093
 31
0.0
  0
LINE
  8
1
  6
CONTINUOUS
 62
   250
 10
-0.029479
 20
0.406093
 30
0.0
 11
-0.028911
 21
0.406661
 31
0.0
  0
LINE
  8
1
  6
CONTINUOUS
 62
   250
 10
-0.028911
 20
0.406661
 30
0.0
 11
-0.028911
 21
0.407514
 31
0.0
  0
LINE
  8
1
  6
CONTINUOUS
 62
   250
 10
-0.028911
 20
0.407514
 30
0.0
 11
-0.028911
 21
0.408082
 31
0.0
  0
LINE
  8
1
  6
CONTINUOUS
 62
   250
 10
-0.035729
 20
0.412911
 30
0.0
 11
-0.012718
 21
0.412911
 31
0.0
  0
LINE
  8
1
  6
CONTINUOUS
 62
   250
 10
-0.156393
 20
0.143403
 30
0.0
 11
-0.156678
 21
0.144824
 31
0.0
  0
LINE
  8
1
  6
CONTINUOUS
 62
   250
 10
-0.156678
 20
0.144824
 30
0.0
 11
-0.15753
 21
0.144824
 31
0.0
  0
LINE
  8
1
  6
CONTINUOUS
 62
   250
 10
-0.15753
 20
0.144824
 30
0.0
 11
-0.158382
 21
0.14596
 31
0.0
  0
LINE
  8
1
  6
CONTINUOUS
 62
   250
 10
-0.158382
 20
0.14596
 30
0.0
 11
-0.158382
 21
0.147948
 31
0.0
  0
LINE
  8
1
  6
CONTINUOUS
 62
   250
 10
-0.158382
 20
0.147948
 30
0.0
 11
-0.156961
 21
0.1488
 31
0.0
  0
LINE
  8
1
  6
CONTINUOUS
 62
   250
 10
-0.156961
 20
0.1488
 30
0.0
 11
-0.156961
 21
0.153061
 31
0.0
  0
LINE
  8
1
  6
CONTINUOUS
 62
   250
 10
-0.156961
 20
0.153061
 30
0.0
 11
-0.157814
 21
0.15363
 31
0.0
  0
LINE
  8
1
  6
CONTINUOUS
 62
   250
 10
-0.157814
 20
0.15363
 30
0.0
 11
-0.157814
 21
0.155335
 31
0.0
  0
LINE
  8
1
  6
CONTINUOUS
 62
   250
 10
-0.157814
 20
0.155335
 30
0.0
 11
-0.158097
 21
0.155618
 31
0.0
  0
LINE
  8
1
  6
CONTINUOUS
 62
   250
 10
-0.158097
 20
0.155618
 30
0.0
 11
-0.159234
 21
0.155618
 31
0.0
  0
LINE
  8
1
  6
CONTINUOUS
 62
   250
 10
-0.159234
 20
0.155618
 30
0.0
 11
-0.159802
 21
0.155335
 31
0.0
  0
LINE
  8
1
  6
CONTINUOUS
 62
   250
 10
-0.159802
 20
0.155335
 30
0.0
 11
-0.159802
 21
0.151926
 31
0.0
  0
LINE
  8
1
  6
CONTINUOUS
 62
   250
 10
-0.159802
 20
0.151926
 30
0.0
 11
-0.162359
 21
0.150221
 31
0.0
  0
LINE
  8
1
  6
CONTINUOUS
 62
   250
 10
-0.162359
 20
0.150221
 30
0.0
 11
-0.162927
 21
0.150221
 31
0.0
  0
LINE
  8
1
  6
CONTINUOUS
 62
   250
 10
-0.162927
 20
0.150221
 30
0.0
 11
-0.162927
 21
0.147096
 31
0.0
  0
LINE
  8
1
  6
CONTINUOUS
 62
   250
 10
-0.162927
 20
0.147096
 30
0.0
 11
-0.16037
 21
0.147096
 31
0.0
  0
LINE
  8
1
  6
CONTINUOUS
 62
   250
 10
-0.16037
 20
0.147096
 30
0.0
 11
-0.159802
 21
0.149369
 31
0.0
  0
LINE
  8
1
  6
CONTINUOUS
 62
   250
 10
-0.159802
 20
0.149369
 30
0.0
 11
-0.159518
 21
0.149369
 31
0.0
  0
LINE
  8
1
  6
CONTINUOUS
 62
   250
 10
-0.159518
 20
0.149369
 30
0.0
 11
-0.159518
 21
0.146243
 31
0.0
  0
LINE
  8
1
  6
CONTINUOUS
 62
   250
 10
-0.159518
 20
0.146243
 30
0.0
 11
-0.164063
 21
0.146243
 31
0.0
  0
LINE
  8
1
  6
CONTINUOUS
 62
   250
 10
-0.164063
 20
0.146243
 30
0.0
 11
-0.164348
 21
0.143403
 31
0.0
  0
LINE
  8
1
  6
CONTINUOUS
 62
   250
 10
-0.164348
 20
0.143403
 30
0.0
 11
-0.156393
 21
0.143403
 31
0.0
  0
LINE
  8
1
  6
CONTINUOUS
 62
   250
 10
-0.154688
 20
0.145676
 30
0.0
 11
-0.154688
 21
0.17238
 31
0.0
  0
LINE
  8
1
  6
CONTINUOUS
 62
   250
 10
-0.154688
 20
0.17238
 30
0.0
 11
-0.154404
 21
0.17238
 31
0.0
  0
LINE
  8
1
  6
CONTINUOUS
 62
   250
 10
-0.154404
 20
0.17238
 30
0.0
 11
-0.154404
 21
0.145676
 31
0.0
  0
LINE
  8
1
  6
CONTINUOUS
 62
   250
 10
-0.154404
 20
0.145676
 30
0.0
 11
-0.158097
 21
0.145676
 31
0.0
  0
LINE
  8
1
  6
CONTINUOUS
 62
   250
 10
-0.158097
 20
0.145676
 30
0.0
 11
-0.158097
 21
0.14596
 31
0.0
  0
LINE
  8
1
  6
CONTINUOUS
 62
   250
 10
-0.158097
 20
0.14596
 30
0.0
 11
-0.154404
 21
0.14596
 31
0.0
  0
LINE
  8
1
  6
CONTINUOUS
 62
   250
 10
-0.164063
 20
0.14596
 30
0.0
 11
-0.172586
 21
0.14596
 31
0.0
  0
LINE
  8
1
  6
CONTINUOUS
 62
   250
 10
-0.172586
 20
0.14596
 30
0.0
 11
-0.172871
 21
0.146243
 31
0.0
  0
LINE
  8
1
  6
CONTINUOUS
 62
   250
 10
-0.172871
 20
0.146243
 30
0.0
 11
-0.172302
 21
0.143403
 31
0.0
  0
LINE
  8
1
  6
CONTINUOUS
 62
   250
 10
-0.172302
 20
0.143403
 30
0.0
 11
-0.180256
 21
0.143403
 31
0.0
  0
LINE
  8
1
  6
CONTINUOUS
 62
   250
 10
-0.180256
 20
0.143403
 30
0.0
 11
-0.179973
 21
0.144824
 31
0.0
  0
LINE
  8
1
  6
CONTINUOUS
 62
   250
 10
-0.179973
 20
0.144824
 30
0.0
 11
-0.17912
 21
0.144824
 31
0.0
  0
LINE
  8
1
  6
CONTINUOUS
 62
   250
 10
-0.17912
 20
0.144824
 30
0.0
 11
-0.178268
 21
0.14596
 31
0.0
  0
LINE
  8
1
  6
CONTINUOUS
 62
   250
 10
-0.178268
 20
0.14596
 30
0.0
 11
-0.178268
 21
0.147948
 31
0.0
  0
LINE
  8
1
  6
CONTINUOUS
 62
   250
 10
-0.178268
 20
0.147948
 30
0.0
 11
-0.179973
 21
0.1488
 31
0.0
  0
LINE
  8
1
  6
CONTINUOUS
 62
   250
 10
-0.179973
 20
0.1488
 30
0.0
 11
-0.179973
 21
0.153061
 31
0.0
  0
LINE
  8
1
  6
CONTINUOUS
 62
   250
 10
-0.179973
 20
0.153061
 30
0.0
 11
-0.178837
 21
0.15363
 31
0.0
  0
LINE
  8
1
  6
CONTINUOUS
 62
   250
 10
-0.178837
 20
0.15363
 30
0.0
 11
-0.178837
 21
0.155335
 31
0.0
  0
LINE
  8
1
  6
CONTINUOUS
 62
   250
 10
-0.178837
 20
0.155335
 30
0.0
 11
-0.178552
 21
0.155618
 31
0.0
  0
LINE
  8
1
  6
CONTINUOUS
 62
   250
 10
-0.178552
 20
0.155618
 30
0.0
 11
-0.177416
 21
0.155618
 31
0.0
  0
LINE
  8
1
  6
CONTINUOUS
 62
   250
 10
-0.177416
 20
0.155618
 30
0.0
 11
-0.176847
 21
0.155335
 31
0.0
  0
LINE
  8
1
  6
CONTINUOUS
 62
   250
 10
-0.176847
 20
0.155335
 30
0.0
 11
-0.176847
 21
0.151926
 31
0.0
  0
LINE
  8
1
  6
CONTINUOUS
 62
   250
 10
-0.176847
 20
0.151926
 30
0.0
 11
-0.17429
 21
0.150221
 31
0.0
  0
LINE
  8
1
  6
CONTINUOUS
 62
   250
 10
-0.17429
 20
0.150221
 30
0.0
 11
-0.174007
 21
0.150221
 31
0.0
  0
LINE
  8
1
  6
CONTINUOUS
 62
   250
 10
-0.174007
 20
0.150221
 30
0.0
 11
-0.174007
 21
0.147096
 31
0.0
  0
LINE
  8
1
  6
CONTINUOUS
 62
   250
 10
-0.174007
 20
0.147096
 30
0.0
 11
-0.17628
 21
0.147096
 31
0.0
  0
LINE
  8
1
  6
CONTINUOUS
 62
   250
 10
-0.17628
 20
0.147096
 30
0.0
 11
-0.176847
 21
0.149369
 31
0.0
  0
LINE
  8
1
  6
CONTINUOUS
 62
   250
 10
-0.176847
 20
0.149369
 30
0.0
 11
-0.177416
 21
0.149369
 31
0.0
  0
LINE
  8
1
  6
CONTINUOUS
 62
   250
 10
-0.177416
 20
0.149369
 30
0.0
 11
-0.177416
 21
0.146243
 31
0.0
  0
LINE
  8
1
  6
CONTINUOUS
 62
   250
 10
-0.177416
 20
0.146243
 30
0.0
 11
-0.172871
 21
0.146243
 31
0.0
  0
LINE
  8
1
  6
CONTINUOUS
 62
   250
 10
-0.172871
 20
0.146243
 30
0.0
 11
-0.172586
 21
0.145676
 31
0.0
  0
LINE
  8
1
  6
CONTINUOUS
 62
   250
 10
-0.172586
 20
0.145676
 30
0.0
 11
-0.164063
 21
0.145676
 31
0.0
  0
LINE
  8
1
  6
CONTINUOUS
 62
   250
 10
-0.164348
 20
0.151642
 30
0.0
 11
-0.162359
 21
0.153061
 31
0.0
  0
LINE
  8
1
  6
CONTINUOUS
 62
   250
 10
-0.162359
 20
0.153061
 30
0.0
 11
-0.161223
 21
0.154766
 31
0.0
  0
LINE
  8
1
  6
CONTINUOUS
 62
   250
 10
-0.161223
 20
0.154766
 30
0.0
 11
-0.160087
 21
0.156756
 31
0.0
  0
LINE
  8
1
  6
CONTINUOUS
 62
   250
 10
-0.160087
 20
0.156756
 30
0.0
 11
-0.159802
 21
0.159027
 31
0.0
  0
LINE
  8
1
  6
CONTINUOUS
 62
   250
 10
-0.159802
 20
0.159027
 30
0.0
 11
-0.160087
 21
0.161301
 31
0.0
  0
LINE
  8
1
  6
CONTINUOUS
 62
   250
 10
-0.160087
 20
0.161301
 30
0.0
 11
-0.161223
 21
0.163289
 31
0.0
  0
LINE
  8
1
  6
CONTINUOUS
 62
   250
 10
-0.161223
 20
0.163289
 30
0.0
 11
-0.162359
 21
0.164993
 31
0.0
  0
LINE
  8
1
  6
CONTINUOUS
 62
   250
 10
-0.162359
 20
0.164993
 30
0.0
 11
-0.164348
 21
0.166414
 31
0.0
  0
LINE
  8
1
  6
CONTINUOUS
 62
   250
 10
-0.164348
 20
0.166414
 30
0.0
 11
-0.166336
 21
0.167266
 31
0.0
  0
LINE
  8
1
  6
CONTINUOUS
 62
   250
 10
-0.166336
 20
0.167266
 30
0.0
 11
-0.168324
 21
0.16755
 31
0.0
  0
LINE
  8
1
  6
CONTINUOUS
 62
   250
 10
-0.168324
 20
0.16755
 30
0.0
 11
-0.170598
 21
0.167266
 31
0.0
  0
LINE
  8
1
  6
CONTINUOUS
 62
   250
 10
-0.170598
 20
0.167266
 30
0.0
 11
-0.172586
 21
0.166414
 31
0.0
  0
LINE
  8
1
  6
CONTINUOUS
 62
   250
 10
-0.172586
 20
0.166414
 30
0.0
 11
-0.17429
 21
0.164993
 31
0.0
  0
LINE
  8
1
  6
CONTINUOUS
 62
   250
 10
-0.17429
 20
0.164993
 30
0.0
 11
-0.175711
 21
0.163289
 31
0.0
  0
LINE
  8
1
  6
CONTINUOUS
 62
   250
 10
-0.175711
 20
0.163289
 30
0.0
 11
-0.176564
 21
0.161301
 31
0.0
  0
LINE
  8
1
  6
CONTINUOUS
 62
   250
 10
-0.176564
 20
0.161301
 30
0.0
 11
-0.176847
 21
0.159027
 31
0.0
  0
LINE
  8
1
  6
CONTINUOUS
 62
   250
 10
-0.176847
 20
0.159027
 30
0.0
 11
-0.176564
 21
0.156756
 31
0.0
  0
LINE
  8
1
  6
CONTINUOUS
 62
   250
 10
-0.176564
 20
0.156756
 30
0.0
 11
-0.175711
 21
0.154766
 31
0.0
  0
LINE
  8
1
  6
CONTINUOUS
 62
   250
 10
-0.175711
 20
0.154766
 30
0.0
 11
-0.17429
 21
0.153061
 31
0.0
  0
LINE
  8
1
  6
CONTINUOUS
 62
   250
 10
-0.17429
 20
0.153061
 30
0.0
 11
-0.172586
 21
0.151642
 31
0.0
  0
LINE
  8
1
  6
CONTINUOUS
 62
   250
 10
-0.172586
 20
0.151642
 30
0.0
 11
-0.170598
 21
0.15079
 31
0.0
  0
LINE
  8
1
  6
CONTINUOUS
 62
   250
 10
-0.170598
 20
0.15079
 30
0.0
 11
-0.168324
 21
0.15079
 31
0.0
  0
LINE
  8
1
  6
CONTINUOUS
 62
   250
 10
-0.168324
 20
0.15079
 30
0.0
 11
-0.166336
 21
0.15079
 31
0.0
  0
LINE
  8
1
  6
CONTINUOUS
 62
   250
 10
-0.166336
 20
0.15079
 30
0.0
 11
-0.164348
 21
0.151642
 31
0.0
  0
LINE
  8
1
  6
CONTINUOUS
 62
   250
 10
-0.164348
 20
0.151642
 30
0.0
 11
-0.164348
 21
0.151926
 31
0.0
  0
LINE
  8
1
  6
CONTINUOUS
 62
   250
 10
-0.164348
 20
0.151926
 30
0.0
 11
-0.162644
 21
0.153346
 31
0.0
  0
LINE
  8
1
  6
CONTINUOUS
 62
   250
 10
-0.162644
 20
0.153346
 30
0.0
 11
-0.161506
 21
0.155051
 31
0.0
  0
LINE
  8
1
  6
CONTINUOUS
 62
   250
 10
-0.161506
 20
0.155051
 30
0.0
 11
-0.160654
 21
0.157039
 31
0.0
  0
LINE
  8
1
  6
CONTINUOUS
 62
   250
 10
-0.160654
 20
0.157039
 30
0.0
 11
-0.16037
 21
0.159027
 31
0.0
  0
LINE
  8
1
  6
CONTINUOUS
 62
   250
 10
-0.16037
 20
0.159027
 30
0.0
 11
-0.160654
 21
0.161017
 31
0.0
  0
LINE
  8
1
  6
CONTINUOUS
 62
   250
 10
-0.160654
 20
0.161017
 30
0.0
 11
-0.161506
 21
0.163005
 31
0.0
  0
LINE
  8
1
  6
CONTINUOUS
 62
   250
 10
-0.161506
 20
0.163005
 30
0.0
 11
-0.162644
 21
0.16471
 31
0.0
  0
LINE
  8
1
  6
CONTINUOUS
 62
   250
 10
-0.162644
 20
0.16471
 30
0.0
 11
-0.164348
 21
0.165846
 31
0.0
  0
LINE
  8
1
  6
CONTINUOUS
 62
   250
 10
-0.164348
 20
0.165846
 30
0.0
 11
-0.166336
 21
0.166698
 31
0.0
  0
LINE
  8
1
  6
CONTINUOUS
 62
   250
 10
-0.166336
 20
0.166698
 30
0.0
 11
-0.168324
 21
0.166983
 31
0.0
  0
LINE
  8
1
  6
CONTINUOUS
 62
   250
 10
-0.168324
 20
0.166983
 30
0.0
 11
-0.170598
 21
0.166698
 31
0.0
  0
LINE
  8
1
  6
CONTINUOUS
 62
   250
 10
-0.170598
 20
0.166698
 30
0.0
 11
-0.172302
 21
0.165846
 31
0.0
  0
LINE
  8
1
  6
CONTINUOUS
 62
   250
 10
-0.172302
 20
0.165846
 30
0.0
 11
-0.174007
 21
0.16471
 31
0.0
  0
LINE
  8
1
  6
CONTINUOUS
 62
   250
 10
-0.174007
 20
0.16471
 30
0.0
 11
-0.175428
 21
0.163005
 31
0.0
  0
LINE
  8
1
  6
CONTINUOUS
 62
   250
 10
-0.175428
 20
0.163005
 30
0.0
 11
-0.17628
 21
0.161017
 31
0.0
  0
LINE
  8
1
  6
CONTINUOUS
 62
   250
 10
-0.17628
 20
0.161017
 30
0.0
 11
-0.176564
 21
0.159027
 31
0.0
  0
LINE
  8
1
  6
CONTINUOUS
 62
   250
 10
-0.176564
 20
0.159027
 30
0.0
 11
-0.17628
 21
0.157039
 31
0.0
  0
LINE
  8
1
  6
CONTINUOUS
 62
   250
 10
-0.17628
 20
0.157039
 30
0.0
 11
-0.175428
 21
0.155051
 31
0.0
  0
LINE
  8
1
  6
CONTINUOUS
 62
   250
 10
-0.175428
 20
0.155051
 30
0.0
 11
-0.174007
 21
0.153346
 31
0.0
  0
LINE
  8
1
  6
CONTINUOUS
 62
   250
 10
-0.174007
 20
0.153346
 30
0.0
 11
-0.172302
 21
0.151926
 31
0.0
  0
LINE
  8
1
  6
CONTINUOUS
 62
   250
 10
-0.172302
 20
0.151926
 30
0.0
 11
-0.170598
 21
0.151073
 31
0.0
  0
LINE
  8
1
  6
CONTINUOUS
 62
   250
 10
-0.170598
 20
0.151073
 30
0.0
 11
-0.168324
 21
0.15079
 31
0.0
  0
LINE
  8
1
  6
CONTINUOUS
 62
   250
 10
-0.168324
 20
0.15079
 30
0.0
 11
-0.166336
 21
0.151073
 31
0.0
  0
LINE
  8
1
  6
CONTINUOUS
 62
   250
 10
-0.166336
 20
0.151073
 30
0.0
 11
-0.164348
 21
0.151926
 31
0.0
  0
LINE
  8
1
  6
CONTINUOUS
 62
   250
 10
-0.167189
 20
0.152778
 30
0.0
 11
-0.167189
 21
0.157891
 31
0.0
  0
LINE
  8
1
  6
CONTINUOUS
 62
   250
 10
-0.167189
 20
0.157891
 30
0.0
 11
-0.162075
 21
0.157891
 31
0.0
  0
LINE
  8
1
  6
CONTINUOUS
 62
   250
 10
-0.162075
 20
0.157891
 30
0.0
 11
-0.162075
 21
0.159027
 31
0.0
  0
LINE
  8
1
  6
CONTINUOUS
 62
   250
 10
-0.162075
 20
0.159027
 30
0.0
 11
-0.162075
 21
0.160165
 31
0.0
  0
LINE
  8
1
  6
CONTINUOUS
 62
   250
 10
-0.162075
 20
0.160165
 30
0.0
 11
-0.167189
 21
0.160165
 31
0.0
  0
LINE
  8
1
  6
CONTINUOUS
 62
   250
 10
-0.167189
 20
0.160165
 30
0.0
 11
-0.167189
 21
0.165278
 31
0.0
  0
LINE
  8
1
  6
CONTINUOUS
 62
   250
 10
-0.167189
 20
0.165278
 30
0.0
 11
-0.168324
 21
0.165278
 31
0.0
  0
LINE
  8
1
  6
CONTINUOUS
 62
   250
 10
-0.168324
 20
0.165278
 30
0.0
 11
-0.169462
 21
0.165278
 31
0.0
  0
LINE
  8
1
  6
CONTINUOUS
 62
   250
 10
-0.169462
 20
0.165278
 30
0.0
 11
-0.169462
 21
0.160165
 31
0.0
  0
LINE
  8
1
  6
CONTINUOUS
 62
   250
 10
-0.169462
 20
0.160165
 30
0.0
 11
-0.174575
 21
0.160165
 31
0.0
  0
LINE
  8
1
  6
CONTINUOUS
 62
   250
 10
-0.174575
 20
0.160165
 30
0.0
 11
-0.174575
 21
0.159027
 31
0.0
  0
LINE
  8
1
  6
CONTINUOUS
 62
   250
 10
-0.174575
 20
0.159027
 30
0.0
 11
-0.174575
 21
0.157891
 31
0.0
  0
LINE
  8
1
  6
CONTINUOUS
 62
   250
 10
-0.174575
 20
0.157891
 30
0.0
 11
-0.169462
 21
0.157891
 31
0.0
  0
LINE
  8
1
  6
CONTINUOUS
 62
   250
 10
-0.169462
 20
0.157891
 30
0.0
 11
-0.169462
 21
0.152778
 31
0.0
  0
LINE
  8
1
  6
CONTINUOUS
 62
   250
 10
-0.169462
 20
0.152778
 30
0.0
 11
-0.168324
 21
0.152778
 31
0.0
  0
LINE
  8
1
  6
CONTINUOUS
 62
   250
 10
-0.168324
 20
0.152778
 30
0.0
 11
-0.167189
 21
0.152778
 31
0.0
  0
LINE
  8
1
  6
CONTINUOUS
 62
   250
 10
-0.168324
 20
0.153914
 30
0.0
 11
-0.168324
 21
0.159027
 31
0.0
  0
LINE
  8
1
  6
CONTINUOUS
 62
   250
 10
-0.168324
 20
0.159027
 30
0.0
 11
-0.173438
 21
0.159027
 31
0.0
  0
LINE
  8
1
  6
CONTINUOUS
 62
   250
 10
-0.168324
 20
0.159027
 30
0.0
 11
-0.168324
 21
0.164141
 31
0.0
  0
LINE
  8
1
  6
CONTINUOUS
 62
   250
 10
-0.168324
 20
0.159027
 30
0.0
 11
-0.163211
 21
0.159027
 31
0.0
  0
LINE
  8
1
  6
CONTINUOUS
 62
   250
 10
-0.154404
 20
0.172096
 30
0.0
 11
-0.182246
 21
0.172096
 31
0.0
  0
LINE
  8
1
  6
CONTINUOUS
 62
   250
 10
-0.182246
 20
0.172096
 30
0.0
 11
-0.182246
 21
0.17238
 31
0.0
  0
LINE
  8
1
  6
CONTINUOUS
 62
   250
 10
-0.182246
 20
0.17238
 30
0.0
 11
-0.154404
 21
0.17238
 31
0.0
  0
LINE
  8
1
  6
CONTINUOUS
 62
   250
 10
-0.181961
 20
0.17238
 30
0.0
 11
-0.181961
 21
0.145676
 31
0.0
  0
LINE
  8
1
  6
CONTINUOUS
 62
   250
 10
-0.181961
 20
0.145676
 30
0.0
 11
-0.182246
 21
0.145676
 31
0.0
  0
LINE
  8
1
  6
CONTINUOUS
 62
   250
 10
-0.182246
 20
0.145676
 30
0.0
 11
-0.182246
 21
0.17238
 31
0.0
  0
LINE
  8
1
  6
CONTINUOUS
 62
   250
 10
-0.182246
 20
0.14596
 30
0.0
 11
-0.178552
 21
0.14596
 31
0.0
  0
LINE
  8
1
  6
CONTINUOUS
 62
   250
 10
-0.178552
 20
0.14596
 30
0.0
 11
-0.178552
 21
0.145676
 31
0.0
  0
LINE
  8
1
  6
CONTINUOUS
 62
   250
 10
-0.178552
 20
0.145676
 30
0.0
 11
-0.182246
 21
0.145676
 31
0.0
  0
LINE
  8
1
  6
CONTINUOUS
 62
   250
 10
-0.371406
 20
0.153926
 30
0.0
 11
-0.37112
 21
0.155347
 31
0.0
  0
LINE
  8
1
  6
CONTINUOUS
 62
   250
 10
-0.37112
 20
0.155347
 30
0.0
 11
-0.370268
 21
0.155347
 31
0.0
  0
LINE
  8
1
  6
CONTINUOUS
 62
   250
 10
-0.370268
 20
0.155347
 30
0.0
 11
-0.369416
 21
0.156483
 31
0.0
  0
LINE
  8
1
  6
CONTINUOUS
 62
   250
 10
-0.369416
 20
0.156483
 30
0.0
 11
-0.369416
 21
0.158471
 31
0.0
  0
LINE
  8
1
  6
CONTINUOUS
 62
   250
 10
-0.369416
 20
0.158471
 30
0.0
 11
-0.370837
 21
0.159323
 31
0.0
  0
LINE
  8
1
  6
CONTINUOUS
 62
   250
 10
-0.370837
 20
0.159323
 30
0.0
 11
-0.370837
 21
0.163585
 31
0.0
  0
LINE
  8
1
  6
CONTINUOUS
 62
   250
 10
-0.370837
 20
0.163585
 30
0.0
 11
-0.369984
 21
0.164153
 31
0.0
  0
LINE
  8
1
  6
CONTINUOUS
 62
   250
 10
-0.369984
 20
0.164153
 30
0.0
 11
-0.369984
 21
0.165858
 31
0.0
  0
LINE
  8
1
  6
CONTINUOUS
 62
   250
 10
-0.369984
 20
0.165858
 30
0.0
 11
-0.369701
 21
0.166142
 31
0.0
  0
LINE
  8
1
  6
CONTINUOUS
 62
   250
 10
-0.369701
 20
0.166142
 30
0.0
 11
-0.368564
 21
0.166142
 31
0.0
  0
LINE
  8
1
  6
CONTINUOUS
 62
   250
 10
-0.368564
 20
0.166142
 30
0.0
 11
-0.367996
 21
0.165858
 31
0.0
  0
LINE
  8
1
  6
CONTINUOUS
 62
   250
 10
-0.367996
 20
0.165858
 30
0.0
 11
-0.367996
 21
0.162449
 31
0.0
  0
LINE
  8
1
  6
CONTINUOUS
 62
   250
 10
-0.367996
 20
0.162449
 30
0.0
 11
-0.365439
 21
0.160744
 31
0.0
  0
LINE
  8
1
  6
CONTINUOUS
 62
   250
 10
-0.365439
 20
0.160744
 30
0.0
 11
-0.364871
 21
0.160744
 31
0.0
  0
LINE
  8
1
  6
CONTINUOUS
 62
   250
 10
-0.364871
 20
0.160744
 30
0.0
 11
-0.364871
 21
0.157619
 31
0.0
  0
LINE
  8
1
  6
CONTINUOUS
 62
   250
 10
-0.364871
 20
0.157619
 30
0.0
 11
-0.367428
 21
0.157619
 31
0.0
  0
LINE
  8
1
  6
CONTINUOUS
 62
   250
 10
-0.367428
 20
0.157619
 30
0.0
 11
-0.36828
 21
0.159892
 31
0.0
  0
LINE
  8
1
  6
CONTINUOUS
 62
   250
 10
-0.36828
 20
0.159892
 30
0.0
 11
-0.36828
 21
0.156767
 31
0.0
  0
LINE
  8
1
  6
CONTINUOUS
 62
   250
 10
-0.36828
 20
0.156767
 30
0.0
 11
-0.363735
 21
0.156767
 31
0.0
  0
LINE
  8
1
  6
CONTINUOUS
 62
   250
 10
-0.363735
 20
0.156767
 30
0.0
 11
-0.36345
 21
0.153926
 31
0.0
  0
LINE
  8
1
  6
CONTINUOUS
 62
   250
 10
-0.36345
 20
0.153926
 30
0.0
 11
-0.371406
 21
0.153926
 31
0.0
  0
LINE
  8
1
  6
CONTINUOUS
 62
   250
 10
-0.369701
 20
0.156199
 30
0.0
 11
-0.373394
 21
0.156199
 31
0.0
  0
LINE
  8
1
  6
CONTINUOUS
 62
   250
 10
-0.373394
 20
0.156199
 30
0.0
 11
-0.373394
 21
0.182903
 31
0.0
  0
LINE
  8
1
  6
CONTINUOUS
 62
   250
 10
-0.373394
 20
0.182903
 30
0.0
 11
-0.345552
 21
0.182903
 31
0.0
  0
LINE
  8
1
  6
CONTINUOUS
 62
   250
 10
-0.345552
 20
0.182903
 30
0.0
 11
-0.345552
 21
0.156199
 31
0.0
  0
LINE
  8
1
  6
CONTINUOUS
 62
   250
 10
-0.345552
 20
0.156199
 30
0.0
 11
-0.349246
 21
0.156199
 31
0.0
  0
LINE
  8
1
  6
CONTINUOUS
 62
   250
 10
-0.349246
 20
0.156199
 30
0.0
 11
-0.349246
 21
0.156483
 31
0.0
  0
LINE
  8
1
  6
CONTINUOUS
 62
   250
 10
-0.349246
 20
0.156483
 30
0.0
 11
-0.345552
 21
0.156483
 31
0.0
  0
LINE
  8
1
  6
CONTINUOUS
 62
   250
 10
-0.345552
 20
0.156483
 30
0.0
 11
-0.345837
 21
0.156199
 31
0.0
  0
LINE
  8
1
  6
CONTINUOUS
 62
   250
 10
-0.345837
 20
0.156199
 30
0.0
 11
-0.345837
 21
0.182903
 31
0.0
  0
LINE
  8
1
  6
CONTINUOUS
 62
   250
 10
-0.345837
 20
0.182903
 30
0.0
 11
-0.345552
 21
0.18262
 31
0.0
  0
LINE
  8
1
  6
CONTINUOUS
 62
   250
 10
-0.345552
 20
0.18262
 30
0.0
 11
-0.373394
 21
0.18262
 31
0.0
  0
LINE
  8
1
  6
CONTINUOUS
 62
   250
 10
-0.373394
 20
0.18262
 30
0.0
 11
-0.37311
 21
0.182903
 31
0.0
  0
LINE
  8
1
  6
CONTINUOUS
 62
   250
 10
-0.37311
 20
0.182903
 30
0.0
 11
-0.37311
 21
0.156199
 31
0.0
  0
LINE
  8
1
  6
CONTINUOUS
 62
   250
 10
-0.37311
 20
0.156199
 30
0.0
 11
-0.373394
 21
0.156483
 31
0.0
  0
LINE
  8
1
  6
CONTINUOUS
 62
   250
 10
-0.373394
 20
0.156483
 30
0.0
 11
-0.369701
 21
0.156483
 31
0.0
  0
LINE
  8
1
  6
CONTINUOUS
 62
   250
 10
-0.363735
 20
0.156483
 30
0.0
 11
-0.355212
 21
0.156483
 31
0.0
  0
LINE
  8
1
  6
CONTINUOUS
 62
   250
 10
-0.355212
 20
0.156483
 30
0.0
 11
-0.354927
 21
0.156767
 31
0.0
  0
LINE
  8
1
  6
CONTINUOUS
 62
   250
 10
-0.354927
 20
0.156767
 30
0.0
 11
-0.355496
 21
0.153926
 31
0.0
  0
LINE
  8
1
  6
CONTINUOUS
 62
   250
 10
-0.355496
 20
0.153926
 30
0.0
 11
-0.347542
 21
0.153926
 31
0.0
  0
LINE
  8
1
  6
CONTINUOUS
 62
   250
 10
-0.347542
 20
0.153926
 30
0.0
 11
-0.347826
 21
0.155347
 31
0.0
  0
LINE
  8
1
  6
CONTINUOUS
 62
   250
 10
-0.347826
 20
0.155347
 30
0.0
 11
-0.348678
 21
0.155347
 31
0.0
  0
LINE
  8
1
  6
CONTINUOUS
 62
   250
 10
-0.348678
 20
0.155347
 30
0.0
 11
-0.34953
 21
0.156483
 31
0.0
  0
LINE
  8
1
  6
CONTINUOUS
 62
   250
 10
-0.34953
 20
0.156483
 30
0.0
 11
-0.34953
 21
0.158471
 31
0.0
  0
LINE
  8
1
  6
CONTINUOUS
 62
   250
 10
-0.34953
 20
0.158471
 30
0.0
 11
-0.347826
 21
0.159323
 31
0.0
  0
LINE
  8
1
  6
CONTINUOUS
 62
   250
 10
-0.347826
 20
0.159323
 30
0.0
 11
-0.347826
 21
0.163585
 31
0.0
  0
LINE
  8
1
  6
CONTINUOUS
 62
   250
 10
-0.347826
 20
0.163585
 30
0.0
 11
-0.348961
 21
0.164153
 31
0.0
  0
LINE
  8
1
  6
CONTINUOUS
 62
   250
 10
-0.348961
 20
0.164153
 30
0.0
 11
-0.348961
 21
0.165858
 31
0.0
  0
LINE
  8
1
  6
CONTINUOUS
 62
   250
 10
-0.348961
 20
0.165858
 30
0.0
 11
-0.349246
 21
0.166142
 31
0.0
  0
LINE
  8
1
  6
CONTINUOUS
 62
   250
 10
-0.349246
 20
0.166142
 30
0.0
 11
-0.350382
 21
0.166142
 31
0.0
  0
LINE
  8
1
  6
CONTINUOUS
 62
   250
 10
-0.350382
 20
0.166142
 30
0.0
 11
-0.350951
 21
0.165858
 31
0.0
  0
LINE
  8
1
  6
CONTINUOUS
 62
   250
 10
-0.350951
 20
0.165858
 30
0.0
 11
-0.350951
 21
0.162449
 31
0.0
  0
LINE
  8
1
  6
CONTINUOUS
 62
   250
 10
-0.350951
 20
0.162449
 30
0.0
 11
-0.353508
 21
0.160744
 31
0.0
  0
LINE
  8
1
  6
CONTINUOUS
 62
   250
 10
-0.353508
 20
0.160744
 30
0.0
 11
-0.353791
 21
0.160744
 31
0.0
  0
LINE
  8
1
  6
CONTINUOUS
 62
   250
 10
-0.353791
 20
0.160744
 30
0.0
 11
-0.353791
 21
0.157619
 31
0.0
  0
LINE
  8
1
  6
CONTINUOUS
 62
   250
 10
-0.353791
 20
0.157619
 30
0.0
 11
-0.351518
 21
0.157619
 31
0.0
  0
LINE
  8
1
  6
CONTINUOUS
 62
   250
 10
-0.351518
 20
0.157619
 30
0.0
 11
-0.350951
 21
0.159892
 31
0.0
  0
LINE
  8
1
  6
CONTINUOUS
 62
   250
 10
-0.350951
 20
0.159892
 30
0.0
 11
-0.350666
 21
0.159892
 31
0.0
  0
LINE
  8
1
  6
CONTINUOUS
 62
   250
 10
-0.350666
 20
0.159892
 30
0.0
 11
-0.350666
 21
0.156767
 31
0.0
  0
LINE
  8
1
  6
CONTINUOUS
 62
   250
 10
-0.350666
 20
0.156767
 30
0.0
 11
-0.354927
 21
0.156767
 31
0.0
  0
LINE
  8
1
  6
CONTINUOUS
 62
   250
 10
-0.354927
 20
0.156767
 30
0.0
 11
-0.355212
 21
0.156199
 31
0.0
  0
LINE
  8
1
  6
CONTINUOUS
 62
   250
 10
-0.355212
 20
0.156199
 30
0.0
 11
-0.363735
 21
0.156199
 31
0.0
  0
LINE
  8
1
  6
CONTINUOUS
 62
   250
 10
-0.363735
 20
0.162165
 30
0.0
 11
-0.361462
 21
0.161313
 31
0.0
  0
LINE
  8
1
  6
CONTINUOUS
 62
   250
 10
-0.361462
 20
0.161313
 30
0.0
 11
-0.359474
 21
0.161313
 31
0.0
  0
LINE
  8
1
  6
CONTINUOUS
 62
   250
 10
-0.359474
 20
0.161313
 30
0.0
 11
-0.3572
 21
0.161313
 31
0.0
  0
LINE
  8
1
  6
CONTINUOUS
 62
   250
 10
-0.3572
 20
0.161313
 30
0.0
 11
-0.355212
 21
0.162165
 31
0.0
  0
LINE
  8
1
  6
CONTINUOUS
 62
   250
 10
-0.355212
 20
0.162165
 30
0.0
 11
-0.353508
 21
0.163585
 31
0.0
  0
LINE
  8
1
  6
CONTINUOUS
 62
   250
 10
-0.353508
 20
0.163585
 30
0.0
 11
-0.352087
 21
0.165289
 31
0.0
  0
LINE
  8
1
  6
CONTINUOUS
 62
   250
 10
-0.352087
 20
0.165289
 30
0.0
 11
-0.351234
 21
0.167279
 31
0.0
  0
LINE
  8
1
  6
CONTINUOUS
 62
   250
 10
-0.351234
 20
0.167279
 30
0.0
 11
-0.350951
 21
0.169551
 31
0.0
  0
LINE
  8
1
  6
CONTINUOUS
 62
   250
 10
-0.350951
 20
0.169551
 30
0.0
 11
-0.351234
 21
0.171824
 31
0.0
  0
LINE
  8
1
  6
CONTINUOUS
 62
   250
 10
-0.351234
 20
0.171824
 30
0.0
 11
-0.352087
 21
0.173812
 31
0.0
  0
LINE
  8
1
  6
CONTINUOUS
 62
   250
 10
-0.352087
 20
0.173812
 30
0.0
 11
-0.353508
 21
0.175517
 31
0.0
  0
LINE
  8
1
  6
CONTINUOUS
 62
   250
 10
-0.353508
 20
0.175517
 30
0.0
 11
-0.355212
 21
0.176938
 31
0.0
  0
LINE
  8
1
  6
CONTINUOUS
 62
   250
 10
-0.355212
 20
0.176938
 30
0.0
 11
-0.3572
 21
0.17779
 31
0.0
  0
LINE
  8
1
  6
CONTINUOUS
 62
   250
 10
-0.3572
 20
0.17779
 30
0.0
 11
-0.359474
 21
0.178073
 31
0.0
  0
LINE
  8
1
  6
CONTINUOUS
 62
   250
 10
-0.359474
 20
0.178073
 30
0.0
 11
-0.361462
 21
0.17779
 31
0.0
  0
LINE
  8
1
  6
CONTINUOUS
 62
   250
 10
-0.361462
 20
0.17779
 30
0.0
 11
-0.363735
 21
0.176938
 31
0.0
  0
LINE
  8
1
  6
CONTINUOUS
 62
   250
 10
-0.363735
 20
0.176938
 30
0.0
 11
-0.365439
 21
0.175517
 31
0.0
  0
LINE
  8
1
  6
CONTINUOUS
 62
   250
 10
-0.365439
 20
0.175517
 30
0.0
 11
-0.366859
 21
0.173812
 31
0.0
  0
LINE
  8
1
  6
CONTINUOUS
 62
   250
 10
-0.366859
 20
0.173812
 30
0.0
 11
-0.367711
 21
0.171824
 31
0.0
  0
LINE
  8
1
  6
CONTINUOUS
 62
   250
 10
-0.367711
 20
0.171824
 30
0.0
 11
-0.367996
 21
0.169551
 31
0.0
  0
LINE
  8
1
  6
CONTINUOUS
 62
   250
 10
-0.367996
 20
0.169551
 30
0.0
 11
-0.367711
 21
0.167279
 31
0.0
  0
LINE
  8
1
  6
CONTINUOUS
 62
   250
 10
-0.367711
 20
0.167279
 30
0.0
 11
-0.366859
 21
0.165289
 31
0.0
  0
LINE
  8
1
  6
CONTINUOUS
 62
   250
 10
-0.366859
 20
0.165289
 30
0.0
 11
-0.365439
 21
0.163585
 31
0.0
  0
LINE
  8
1
  6
CONTINUOUS
 62
   250
 10
-0.365439
 20
0.163585
 30
0.0
 11
-0.363735
 21
0.162165
 31
0.0
  0
LINE
  8
1
  6
CONTINUOUS
 62
   250
 10
-0.363735
 20
0.162165
 30
0.0
 11
-0.36345
 21
0.162449
 31
0.0
  0
LINE
  8
1
  6
CONTINUOUS
 62
   250
 10
-0.36345
 20
0.162449
 30
0.0
 11
-0.361462
 21
0.161597
 31
0.0
  0
LINE
  8
1
  6
CONTINUOUS
 62
   250
 10
-0.361462
 20
0.161597
 30
0.0
 11
-0.359474
 21
0.161313
 31
0.0
  0
LINE
  8
1
  6
CONTINUOUS
 62
   250
 10
-0.359474
 20
0.161313
 30
0.0
 11
-0.357484
 21
0.161597
 31
0.0
  0
LINE
  8
1
  6
CONTINUOUS
 62
   250
 10
-0.357484
 20
0.161597
 30
0.0
 11
-0.355496
 21
0.162449
 31
0.0
  0
LINE
  8
1
  6
CONTINUOUS
 62
   250
 10
-0.355496
 20
0.162449
 30
0.0
 11
-0.353791
 21
0.16387
 31
0.0
  0
LINE
  8
1
  6
CONTINUOUS
 62
   250
 10
-0.353791
 20
0.16387
 30
0.0
 11
-0.352371
 21
0.165574
 31
0.0
  0
LINE
  8
1
  6
CONTINUOUS
 62
   250
 10
-0.352371
 20
0.165574
 30
0.0
 11
-0.351518
 21
0.167563
 31
0.0
  0
LINE
  8
1
  6
CONTINUOUS
 62
   250
 10
-0.351518
 20
0.167563
 30
0.0
 11
-0.351234
 21
0.169551
 31
0.0
  0
LINE
  8
1
  6
CONTINUOUS
 62
   250
 10
-0.351234
 20
0.169551
 30
0.0
 11
-0.351518
 21
0.17154
 31
0.0
  0
LINE
  8
1
  6
CONTINUOUS
 62
   250
 10
-0.351518
 20
0.17154
 30
0.0
 11
-0.352371
 21
0.173528
 31
0.0
  0
LINE
  8
1
  6
CONTINUOUS
 62
   250
 10
-0.352371
 20
0.173528
 30
0.0
 11
-0.353791
 21
0.175233
 31
0.0
  0
LINE
  8
1
  6
CONTINUOUS
 62
   250
 10
-0.353791
 20
0.175233
 30
0.0
 11
-0.355496
 21
0.176369
 31
0.0
  0
LINE
  8
1
  6
CONTINUOUS
 62
   250
 10
-0.355496
 20
0.176369
 30
0.0
 11
-0.357484
 21
0.177221
 31
0.0
  0
LINE
  8
1
  6
CONTINUOUS
 62
   250
 10
-0.357484
 20
0.177221
 30
0.0
 11
-0.359474
 21
0.177506
 31
0.0
  0
LINE
  8
1
  6
CONTINUOUS
 62
   250
 10
-0.359474
 20
0.177506
 30
0.0
 11
-0.361462
 21
0.177221
 31
0.0
  0
LINE
  8
1
  6
CONTINUOUS
 62
   250
 10
-0.361462
 20
0.177221
 30
0.0
 11
-0.36345
 21
0.176369
 31
0.0
  0
LINE
  8
1
  6
CONTINUOUS
 62
   250
 10
-0.36345
 20
0.176369
 30
0.0
 11
-0.365155
 21
0.175233
 31
0.0
  0
LINE
  8
1
  6
CONTINUOUS
 62
   250
 10
-0.365155
 20
0.175233
 30
0.0
 11
-0.366292
 21
0.173528
 31
0.0
  0
LINE
  8
1
  6
CONTINUOUS
 62
   250
 10
-0.366292
 20
0.173528
 30
0.0
 11
-0.367144
 21
0.17154
 31
0.0
  0
LINE
  8
1
  6
CONTINUOUS
 62
   250
 10
-0.367144
 20
0.17154
 30
0.0
 11
-0.367428
 21
0.169551
 31
0.0
  0
LINE
  8
1
  6
CONTINUOUS
 62
   250
 10
-0.367428
 20
0.169551
 30
0.0
 11
-0.367144
 21
0.167563
 31
0.0
  0
LINE
  8
1
  6
CONTINUOUS
 62
   250
 10
-0.367144
 20
0.167563
 30
0.0
 11
-0.366292
 21
0.165574
 31
0.0
  0
LINE
  8
1
  6
CONTINUOUS
 62
   250
 10
-0.366292
 20
0.165574
 30
0.0
 11
-0.365155
 21
0.16387
 31
0.0
  0
LINE
  8
1
  6
CONTINUOUS
 62
   250
 10
-0.365155
 20
0.16387
 30
0.0
 11
-0.36345
 21
0.162449
 31
0.0
  0
LINE
  8
1
  6
CONTINUOUS
 62
   250
 10
-0.36061
 20
0.163301
 30
0.0
 11
-0.36061
 21
0.168415
 31
0.0
  0
LINE
  8
1
  6
CONTINUOUS
 62
   250
 10
-0.36061
 20
0.168415
 30
0.0
 11
-0.365723
 21
0.168415
 31
0.0
  0
LINE
  8
1
  6
CONTINUOUS
 62
   250
 10
-0.365723
 20
0.168415
 30
0.0
 11
-0.365723
 21
0.169551
 31
0.0
  0
LINE
  8
1
  6
CONTINUOUS
 62
   250
 10
-0.365723
 20
0.169551
 30
0.0
 11
-0.365723
 21
0.170688
 31
0.0
  0
LINE
  8
1
  6
CONTINUOUS
 62
   250
 10
-0.365723
 20
0.170688
 30
0.0
 11
-0.36061
 21
0.170688
 31
0.0
  0
LINE
  8
1
  6
CONTINUOUS
 62
   250
 10
-0.36061
 20
0.170688
 30
0.0
 11
-0.36061
 21
0.175802
 31
0.0
  0
LINE
  8
1
  6
CONTINUOUS
 62
   250
 10
-0.36061
 20
0.175802
 30
0.0
 11
-0.359474
 21
0.175802
 31
0.0
  0
LINE
  8
1
  6
CONTINUOUS
 62
   250
 10
-0.359474
 20
0.175802
 30
0.0
 11
-0.358336
 21
0.175802
 31
0.0
  0
LINE
  8
1
  6
CONTINUOUS
 62
   250
 10
-0.358336
 20
0.175802
 30
0.0
 11
-0.358336
 21
0.170688
 31
0.0
  0
LINE
  8
1
  6
CONTINUOUS
 62
   250
 10
-0.358336
 20
0.170688
 30
0.0
 11
-0.353223
 21
0.170688
 31
0.0
  0
LINE
  8
1
  6
CONTINUOUS
 62
   250
 10
-0.353223
 20
0.170688
 30
0.0
 11
-0.353223
 21
0.169551
 31
0.0
  0
LINE
  8
1
  6
CONTINUOUS
 62
   250
 10
-0.353223
 20
0.169551
 30
0.0
 11
-0.353223
 21
0.168415
 31
0.0
  0
LINE
  8
1
  6
CONTINUOUS
 62
   250
 10
-0.353223
 20
0.168415
 30
0.0
 11
-0.358336
 21
0.168415
 31
0.0
  0
LINE
  8
1
  6
CONTINUOUS
 62
   250
 10
-0.358336
 20
0.168415
 30
0.0
 11
-0.358336
 21
0.163301
 31
0.0
  0
LINE
  8
1
  6
CONTINUOUS
 62
   250
 10
-0.358336
 20
0.163301
 30
0.0
 11
-0.359474
 21
0.163301
 31
0.0
  0
LINE
  8
1
  6
CONTINUOUS
 62
   250
 10
-0.359474
 20
0.163301
 30
0.0
 11
-0.36061
 21
0.163301
 31
0.0
  0
LINE
  8
1
  6
CONTINUOUS
 62
   250
 10
-0.359474
 20
0.164437
 30
0.0
 11
-0.359474
 21
0.169551
 31
0.0
  0
LINE
  8
1
  6
CONTINUOUS
 62
   250
 10
-0.359474
 20
0.169551
 30
0.0
 11
-0.364587
 21
0.169551
 31
0.0
  0
LINE
  8
1
  6
CONTINUOUS
 62
   250
 10
-0.359474
 20
0.169551
 30
0.0
 11
-0.359474
 21
0.174664
 31
0.0
  0
LINE
  8
1
  6
CONTINUOUS
 62
   250
 10
-0.359474
 20
0.169551
 30
0.0
 11
-0.35436
 21
0.169551
 31
0.0
  0
LINE
  8
2
  6
CONTINUOUS
 62
   250
 10
-0.079712
 20
0.058239
 30
0.0
 11
-0.078007
 21
0.058239
 31
0.0
  0
LINE
  8
2
  6
CONTINUOUS
 62
   250
 10
-0.043632
 20
0.058239
 30
0.0
 11
-0.041928
 21
0.058239
 31
0.0
  0
LINE
  8
2
  6
CONTINUOUS
 62
   250
 10
-0.008121
 20
0.058239
 30
0.0
 11
-0.006416
 21
0.058239
 31
0.0
  0
LINE
  8
2
  6
CONTINUOUS
 62
   250
 10
0.027958
 20
0.058239
 30
0.0
 11
0.029663
 21
0.058239
 31
0.0
  0
LINE
  8
2
  6
CONTINUOUS
 62
   250
 10
-0.079712
 20
0.097727
 30
0.0
 11
-0.078007
 21
0.097727
 31
0.0
  0
LINE
  8
2
  6
CONTINUOUS
 62
   250
 10
-0.043632
 20
0.097727
 30
0.0
 11
-0.041928
 21
0.097727
 31
0.0
  0
LINE
  8
2
  6
CONTINUOUS
 62
   250
 10
-0.008121
 20
0.097727
 30
0.0
 11
-0.006416
 21
0.097727
 31
0.0
  0
LINE
  8
2
  6
CONTINUOUS
 62
   250
 10
0.027958
 20
0.097727
 30
0.0
 11
0.029663
 21
0.097727
 31
0.0
  0
LINE
  8
2
  6
CONTINUOUS
 62
   250
 10
0.063754
 20
0.058239
 30
0.0
 11
0.065742
 21
0.058239
 31
0.0
  0
LINE
  8
2
  6
CONTINUOUS
 62
   250
 10
0.099833
 20
0.058239
 30
0.0
 11
0.101823
 21
0.058239
 31
0.0
  0
LINE
  8
2
  6
CONTINUOUS
 62
   250
 10
0.135913
 20
0.058239
 30
0.0
 11
0.137618
 21
0.058239
 31
0.0
  0
LINE
  8
2
  6
CONTINUOUS
 62
   250
 10
0.171709
 20
0.058239
 30
0.0
 11
0.173697
 21
0.058239
 31
0.0
  0
LINE
  8
2
  6
CONTINUOUS
 62
   250
 10
0.063754
 20
0.097727
 30
0.0
 11
0.065742
 21
0.097727
 31
0.0
  0
LINE
  8
2
  6
CONTINUOUS
 62
   250
 10
0.099833
 20
0.097727
 30
0.0
 11
0.101823
 21
0.097727
 31
0.0
  0
LINE
  8
2
  6
CONTINUOUS
 62
   250
 10
0.135913
 20
0.097727
 30
0.0
 11
0.137618
 21
0.097727
 31
0.0
  0
LINE
  8
2
  6
CONTINUOUS
 62
   250
 10
0.171709
 20
0.097727
 30
0.0
 11
0.173697
 21
0.097727
 31
0.0
  0
LINE
  8
2
  6
CONTINUOUS
 62
   250
 10
0.207788
 20
0.058239
 30
0.0
 11
0.209492
 21
0.058239
 31
0.0
  0
LINE
  8
2
  6
CONTINUOUS
 62
   250
 10
0.243583
 20
0.058239
 30
0.0
 11
0.245857
 21
0.058239
 31
0.0
  0
LINE
  8
2
  6
CONTINUOUS
 62
   250
 10
0.279948
 20
0.058239
 30
0.0
 11
0.281652
 21
0.058239
 31
0.0
  0
LINE
  8
2
  6
CONTINUOUS
 62
   250
 10
0.315743
 20
0.058239
 30
0.0
 11
0.317447
 21
0.058239
 31
0.0
  0
LINE
  8
2
  6
CONTINUOUS
 62
   250
 10
0.207788
 20
0.097727
 30
0.0
 11
0.209492
 21
0.097727
 31
0.0
  0
LINE
  8
2
  6
CONTINUOUS
 62
   250
 10
0.243583
 20
0.097727
 30
0.0
 11
0.245857
 21
0.097727
 31
0.0
  0
LINE
  8
2
  6
CONTINUOUS
 62
   250
 10
0.279948
 20
0.097727
 30
0.0
 11
0.281652
 21
0.097727
 31
0.0
  0
LINE
  8
2
  6
CONTINUOUS
 62
   250
 10
0.315743
 20
0.097727
 30
0.0
 11
0.317447
 21
0.097727
 31
0.0
  0
LINE
  8
2
  6
CONTINUOUS
 62
   250
 10
0.35253
 20
0.058239
 30
0.0
 11
0.354803
 21
0.058239
 31
0.0
  0
LINE
  8
2
  6
CONTINUOUS
 62
   250
 10
0.388894
 20
0.058239
 30
0.0
 11
0.390599
 21
0.058239
 31
0.0
  0
LINE
  8
2
  6
CONTINUOUS
 62
   250
 10
0.42469
 20
0.058239
 30
0.0
 11
0.426394
 21
0.058239
 31
0.0
  0
LINE
  8
2
  6
CONTINUOUS
 62
   250
 10
0.35253
 20
0.097727
 30
0.0
 11
0.354803
 21
0.097727
 31
0.0
  0
LINE
  8
2
  6
CONTINUOUS
 62
   250
 10
0.388894
 20
0.097727
 30
0.0
 11
0.390599
 21
0.097727
 31
0.0
  0
LINE
  8
2
  6
CONTINUOUS
 62
   250
 10
0.42469
 20
0.097727
 30
0.0
 11
0.426394
 21
0.097727
 31
0.0
  0
LINE
  8
2
  6
CONTINUOUS
 62
   250
 10
0.372028
 20
0.136523
 30
0.0
 11
0.314073
 21
0.136523
 31
0.0
  0
LINE
  8
2
  6
CONTINUOUS
 62
   250
 10
0.383391
 20
0.136523
 30
0.0
 11
0.441346
 21
0.136523
 31
0.0
  0
LINE
  8
2
  6
CONTINUOUS
 62
   250
 10
0.314073
 20
0.234251
 30
0.0
 11
0.372028
 21
0.234251
 31
0.0
  0
LINE
  8
2
  6
CONTINUOUS
 62
   250
 10
0.383391
 20
0.234251
 30
0.0
 11
0.441346
 21
0.234251
 31
0.0
  0
TEXT
  8
2
  6
CONTINUOUS
 62
   250
 10
0.203025
 20
0.508407
 30
0.0
 40
0.008182
  1
TC ZERO
 41
0.9
  7
ROMANS
 72
     2
 11
0.252116
 21
0.508407
 31
0.0
  0
TEXT
  8
2
  6
CONTINUOUS
 62
   250
 10
0.20548
 20
0.473841
 30
0.0
 40
0.008182
  1
TC GAIN
 41
0.9
  7
ROMANS
 72
     2
 11
0.252116
 21
0.473841
 31
0.0
  0
TEXT
  8
2
  6
CONTINUOUS
 62
   250
 10
0.210389
 20
0.439276
 30
0.0
 40
0.008182
  1
B ZERO
 41
0.9
  7
ROMANS
 72
     2
 11
0.252116
 21
0.439276
 31
0.0
  0
TEXT
  8
2
  6
CONTINUOUS
 62
   250
 10
0.168664
 20
0.395206
 30
0.0
 40
0.008182
  1
EXT
 41
0.9
  7
ROMANS
 72
     2
 11
0.1883
 21
0.395206
 31
0.0
  0
TEXT
  8
2
  6
CONTINUOUS
 62
   250
 10
0.171118
 20
0.383108
 30
0.0
 40
0.008182
  1
INT
 41
0.9
  7
ROMANS
 72
     2
 11
0.1883
 21
0.383108
 31
0.0
  0
TEXT
  8
2
  6
CONTINUOUS
 62
   250
 10
0.327107
 20
0.475611
 30
0.0
 40
0.008182
  1
JP5
 41
0.9
  7
ROMANS
 72
     1
 11
0.336925
 21
0.475611
 31
0.0
  0
TEXT
  8
2
  6
CONTINUOUS
 62
   250
 10
0.327107
 20
0.449908
 30
0.0
 40
0.008182
  1
JP6
 41
0.9
  7
ROMANS
 72
     1
 11
0.336925
 21
0.449908
 31
0.0
  0
TEXT
  8
2
  6
CONTINUOUS
 62
   250
 10
0.176027
 20
0.409896
 30
0.0
 40
0.008182
  1
PRESSURE
 41
0.9
  7
ROMANS
 72
     1
 11
0.204254
 21
0.409896
 31
0.0
  0
TEXT
  8
2
  6
CONTINUOUS
 62
   250
 10
0.214653
 20
0.31657
 30
0.0
 40
0.008182
  1
GAIN
 41
0.9
  7
ROMANS
 72
     1
 11
0.226926
 21
0.31657
 31
0.0
  0
TEXT
  8
2
  6
CONTINUOUS
 62
   250
 10
-0.004828
 20
0.414216
 30
0.0
 40
0.008182
  1
4.8K
 41
0.9
  7
ROMANS
  0
TEXT
  8
2
  6
CONTINUOUS
 62
   250
 10
-0.004828
 20
0.402119
 30
0.0
 40
0.008182
  1
9.6K
 41
0.9
  7
ROMANS
  0
TEXT
  8
2
  6
CONTINUOUS
 62
   250
 10
-0.039255
 20
0.430635
 30
0.0
 40
0.008182
  1
SELECT
 41
0.9
  7
ROMANS
  0
TEXT
  8
2
  6
CONTINUOUS
 62
   250
 10
-0.039255
 20
0.442733
 30
0.0
 40
0.008182
  1
BAUD RATE
 41
0.9
  7
ROMANS
  0
LINE
  8
2
  6
CONTINUOUS
 62
   250
 10
0.062074
 20
0.198187
 30
0.0
 11
0.05863
 21
0.198187
 31
0.0
  0
LINE
  8
2
  6
CONTINUOUS
 62
   250
 10
0.05863
 20
0.198187
 30
0.0
 11
0.05863
 21
0.20529
 31
0.0
  0
LINE
  8
2
  6
CONTINUOUS
 62
   250
 10
0.05863
 20
0.20529
 30
0.0
 11
0.062074
 21
0.20529
 31
0.0
  0
LINE
  8
2
  6
CONTINUOUS
 62
   250
 10
0.062074
 20
0.210743
 30
0.0
 11
0.05863
 21
0.210743
 31
0.0
  0
LINE
  8
2
  6
CONTINUOUS
 62
   250
 10
0.05863
 20
0.210743
 30
0.0
 11
0.05863
 21
0.217846
 31
0.0
  0
LINE
  8
2
  6
CONTINUOUS
 62
   250
 10
0.05863
 20
0.217846
 30
0.0
 11
0.062074
 21
0.217846
 31
0.0
  0
LINE
  8
2
  6
CONTINUOUS
 62
   250
 10
0.062074
 20
0.223299
 30
0.0
 11
0.05863
 21
0.223299
 31
0.0
  0
LINE
  8
2
  6
CONTINUOUS
 62
   250
 10
0.05863
 20
0.223299
 30
0.0
 11
0.05863
 21
0.230402
 31
0.0
  0
LINE
  8
2
  6
CONTINUOUS
 62
   250
 10
0.05863
 20
0.230402
 30
0.0
 11
0.062074
 21
0.230402
 31
0.0
  0
LINE
  8
2
  6
CONTINUOUS
 62
   250
 10
0.062074
 20
0.235855
 30
0.0
 11
0.05863
 21
0.235855
 31
0.0
  0
LINE
  8
2
  6
CONTINUOUS
 62
   250
 10
0.05863
 20
0.235855
 30
0.0
 11
0.05863
 21
0.242958
 31
0.0
  0
LINE
  8
2
  6
CONTINUOUS
 62
   250
 10
0.05863
 20
0.242958
 30
0.0
 11
0.062074
 21
0.242958
 31
0.0
  0
LINE
  8
2
  6
CONTINUOUS
 62
   250
 10
0.062074
 20
0.248411
 30
0.0
 11
0.05863
 21
0.248411
 31
0.0
  0
LINE
  8
2
  6
CONTINUOUS
 62
   250
 10
0.05863
 20
0.248411
 30
0.0
 11
0.05863
 21
0.255514
 31
0.0
  0
LINE
  8
2
  6
CONTINUOUS
 62
   250
 10
0.05863
 20
0.255514
 30
0.0
 11
0.062074
 21
0.255514
 31
0.0
  0
LINE
  8
2
  6
CONTINUOUS
 62
   250
 10
0.062074
 20
0.260967
 30
0.0
 11
0.05863
 21
0.260967
 31
0.0
  0
LINE
  8
2
  6
CONTINUOUS
 62
   250
 10
0.05863
 20
0.260967
 30
0.0
 11
0.05863
 21
0.26807
 31
0.0
  0
LINE
  8
2
  6
CONTINUOUS
 62
   250
 10
0.05863
 20
0.26807
 30
0.0
 11
0.062074
 21
0.26807
 31
0.0
  0
LINE
  8
2
  6
CONTINUOUS
 62
   250
 10
0.062074
 20
0.273523
 30
0.0
 11
0.05863
 21
0.273523
 31
0.0
  0
LINE
  8
2
  6
CONTINUOUS
 62
   250
 10
0.05863
 20
0.273523
 30
0.0
 11
0.05863
 21
0.280626
 31
0.0
  0
LINE
  8
2
  6
CONTINUOUS
 62
   250
 10
0.05863
 20
0.280626
 30
0.0
 11
0.062074
 21
0.280626
 31
0.0
  0
LINE
  8
2
  6
CONTINUOUS
 62
   250
 10
0.062074
 20
0.286078
 30
0.0
 11
0.05863
 21
0.286078
 31
0.0
  0
LINE
  8
2
  6
CONTINUOUS
 62
   250
 10
0.05863
 20
0.286078
 30
0.0
 11
0.05863
 21
0.293182
 31
0.0
  0
LINE
  8
2
  6
CONTINUOUS
 62
   250
 10
0.05863
 20
0.293182
 30
0.0
 11
0.062074
 21
0.293182
 31
0.0
  0
LINE
  8
2
  6
CONTINUOUS
 62
   250
 10
0.062074
 20
0.298634
 30
0.0
 11
0.05863
 21
0.298634
 31
0.0
  0
LINE
  8
2
  6
CONTINUOUS
 62
   250
 10
0.05863
 20
0.298634
 30
0.0
 11
0.05863
 21
0.305738
 31
0.0
  0
LINE
  8
2
  6
CONTINUOUS
 62
   250
 10
0.05863
 20
0.305738
 30
0.0
 11
0.062074
 21
0.305738
 31
0.0
  0
LINE
  8
2
  6
CONTINUOUS
 62
   250
 10
0.062074
 20
0.31119
 30
0.0
 11
0.05863
 21
0.31119
 31
0.0
  0
LINE
  8
2
  6
CONTINUOUS
 62
   250
 10
0.05863
 20
0.31119
 30
0.0
 11
0.05863
 21
0.318294
 31
0.0
  0
LINE
  8
2
  6
CONTINUOUS
 62
   250
 10
0.05863
 20
0.318294
 30
0.0
 11
0.062074
 21
0.318294
 31
0.0
  0
LINE
  8
2
  6
CONTINUOUS
 62
   250
 10
0.062074
 20
0.323746
 30
0.0
 11
0.05863
 21
0.323746
 31
0.0
  0
LINE
  8
2
  6
CONTINUOUS
 62
   250
 10
0.05863
 20
0.323746
 30
0.0
 11
0.05863
 21
0.330849
 31
0.0
  0
LINE
  8
2
  6
CONTINUOUS
 62
   250
 10
0.05863
 20
0.330849
 30
0.0
 11
0.062074
 21
0.330849
 31
0.0
  0
LINE
  8
2
  6
CONTINUOUS
 62
   250
 10
0.062074
 20
0.336302
 30
0.0
 11
0.05863
 21
0.336302
 31
0.0
  0
LINE
  8
2
  6
CONTINUOUS
 62
   250
 10
0.05863
 20
0.336302
 30
0.0
 11
0.05863
 21
0.343405
 31
0.0
  0
LINE
  8
2
  6
CONTINUOUS
 62
   250
 10
0.05863
 20
0.343405
 30
0.0
 11
0.062074
 21
0.343405
 31
0.0
  0
LINE
  8
2
  6
CONTINUOUS
 62
   250
 10
0.062074
 20
0.348858
 30
0.0
 11
0.05863
 21
0.348858
 31
0.0
  0
LINE
  8
2
  6
CONTINUOUS
 62
   250
 10
0.05863
 20
0.348858
 30
0.0
 11
0.05863
 21
0.355961
 31
0.0
  0
LINE
  8
2
  6
CONTINUOUS
 62
   250
 10
0.05863
 20
0.355961
 30
0.0
 11
0.062074
 21
0.355961
 31
0.0
  0
LINE
  8
2
  6
CONTINUOUS
 62
   250
 10
0.062074
 20
0.361414
 30
0.0
 11
0.05863
 21
0.361414
 31
0.0
  0
LINE
  8
2
  6
CONTINUOUS
 62
   250
 10
0.05863
 20
0.361414
 30
0.0
 11
0.05863
 21
0.368517
 31
0.0
  0
LINE
  8
2
  6
CONTINUOUS
 62
   250
 10
0.05863
 20
0.368517
 30
0.0
 11
0.062074
 21
0.368517
 31
0.0
  0
LINE
  8
2
  6
CONTINUOUS
 62
   250
 10
0.062074
 20
0.37397
 30
0.0
 11
0.05863
 21
0.37397
 31
0.0
  0
LINE
  8
2
  6
CONTINUOUS
 62
   250
 10
0.05863
 20
0.37397
 30
0.0
 11
0.05863
 21
0.381073
 31
0.0
  0
LINE
  8
2
  6
CONTINUOUS
 62
   250
 10
0.05863
 20
0.381073
 30
0.0
 11
0.062074
 21
0.381073
 31
0.0
  0
LINE
  8
2
  6
CONTINUOUS
 62
   250
 10
0.062074
 20
0.386526
 30
0.0
 11
0.05863
 21
0.386526
 31
0.0
  0
LINE
  8
2
  6
CONTINUOUS
 62
   250
 10
0.05863
 20
0.386526
 30
0.0
 11
0.05863
 21
0.393629
 31
0.0
  0
LINE
  8
2
  6
CONTINUOUS
 62
   250
 10
0.05863
 20
0.393629
 30
0.0
 11
0.062074
 21
0.393629
 31
0.0
  0
LINE
  8
2
  6
CONTINUOUS
 62
   250
 10
0.062074
 20
0.399082
 30
0.0
 11
0.05863
 21
0.399082
 31
0.0
  0
LINE
  8
2
  6
CONTINUOUS
 62
   250
 10
0.05863
 20
0.399082
 30
0.0
 11
0.05863
 21
0.406185
 31
0.0
  0
LINE
  8
2
  6
CONTINUOUS
 62
   250
 10
0.05863
 20
0.406185
 30
0.0
 11
0.062074
 21
0.406185
 31
0.0
  0
LINE
  8
2
  6
CONTINUOUS
 62
   250
 10
0.062074
 20
0.411638
 30
0.0
 11
0.05863
 21
0.411638
 31
0.0
  0
LINE
  8
2
  6
CONTINUOUS
 62
   250
 10
0.05863
 20
0.411638
 30
0.0
 11
0.05863
 21
0.418741
 31
0.0
  0
LINE
  8
2
  6
CONTINUOUS
 62
   250
 10
0.05863
 20
0.418741
 30
0.0
 11
0.062074
 21
0.418741
 31
0.0
  0
LINE
  8
2
  6
CONTINUOUS
 62
   250
 10
0.062074
 20
0.424194
 30
0.0
 11
0.05863
 21
0.424194
 31
0.0
  0
LINE
  8
2
  6
CONTINUOUS
 62
   250
 10
0.05863
 20
0.424194
 30
0.0
 11
0.05863
 21
0.431297
 31
0.0
  0
LINE
  8
2
  6
CONTINUOUS
 62
   250
 10
0.05863
 20
0.431297
 30
0.0
 11
0.062074
 21
0.431297
 31
0.0
  0
LINE
  8
2
  6
CONTINUOUS
 62
   250
 10
0.062074
 20
0.43675
 30
0.0
 11
0.05863
 21
0.43675
 31
0.0
  0
LINE
  8
2
  6
CONTINUOUS
 62
   250
 10
0.05863
 20
0.43675
 30
0.0
 11
0.05863
 21
0.443853
 31
0.0
  0
LINE
  8
2
  6
CONTINUOUS
 62
   250
 10
0.05863
 20
0.443853
 30
0.0
 11
0.062074
 21
0.443853
 31
0.0
  0
LINE
  8
2
  6
CONTINUOUS
 62
   250
 10
0.062074
 20
0.449305
 30
0.0
 11
0.05863
 21
0.449305
 31
0.0
  0
LINE
  8
2
  6
CONTINUOUS
 62
   250
 10
0.05863
 20
0.449305
 30
0.0
 11
0.05863
 21
0.456409
 31
0.0
  0
LINE
  8
2
  6
CONTINUOUS
 62
   250
 10
0.05863
 20
0.456409
 30
0.0
 11
0.062074
 21
0.456409
 31
0.0
  0
LINE
  8
2
  6
CONTINUOUS
 62
   250
 10
0.121164
 20
0.198187
 30
0.0
 11
0.124608
 21
0.198187
 31
0.0
  0
LINE
  8
2
  6
CONTINUOUS
 62
   250
 10
0.124608
 20
0.198187
 30
0.0
 11
0.124608
 21
0.20529
 31
0.0
  0
LINE
  8
2
  6
CONTINUOUS
 62
   250
 10
0.124608
 20
0.20529
 30
0.0
 11
0.121164
 21
0.20529
 31
0.0
  0
LINE
  8
2
  6
CONTINUOUS
 62
   250
 10
0.121164
 20
0.210743
 30
0.0
 11
0.124608
 21
0.210743
 31
0.0
  0
LINE
  8
2
  6
CONTINUOUS
 62
   250
 10
0.124608
 20
0.210743
 30
0.0
 11
0.124608
 21
0.217846
 31
0.0
  0
LINE
  8
2
  6
CONTINUOUS
 62
   250
 10
0.124608
 20
0.217846
 30
0.0
 11
0.121164
 21
0.217846
 31
0.0
  0
LINE
  8
2
  6
CONTINUOUS
 62
   250
 10
0.121164
 20
0.223299
 30
0.0
 11
0.124608
 21
0.223299
 31
0.0
  0
LINE
  8
2
  6
CONTINUOUS
 62
   250
 10
0.124608
 20
0.223299
 30
0.0
 11
0.124608
 21
0.230402
 31
0.0
  0
LINE
  8
2
  6
CONTINUOUS
 62
   250
 10
0.124608
 20
0.230402
 30
0.0
 11
0.121164
 21
0.230402
 31
0.0
  0
LINE
  8
2
  6
CONTINUOUS
 62
   250
 10
0.121164
 20
0.235855
 30
0.0
 11
0.124608
 21
0.235855
 31
0.0
  0
LINE
  8
2
  6
CONTINUOUS
 62
   250
 10
0.124608
 20
0.235855
 30
0.0
 11
0.124608
 21
0.242958
 31
0.0
  0
LINE
  8
2
  6
CONTINUOUS
 62
   250
 10
0.124608
 20
0.242958
 30
0.0
 11
0.121164
 21
0.242958
 31
0.0
  0
LINE
  8
2
  6
CONTINUOUS
 62
   250
 10
0.121164
 20
0.248411
 30
0.0
 11
0.124608
 21
0.248411
 31
0.0
  0
LINE
  8
2
  6
CONTINUOUS
 62
   250
 10
0.124608
 20
0.248411
 30
0.0
 11
0.124608
 21
0.255514
 31
0.0
  0
LINE
  8
2
  6
CONTINUOUS
 62
   250
 10
0.124608
 20
0.255514
 30
0.0
 11
0.121164
 21
0.255514
 31
0.0
  0
LINE
  8
2
  6
CONTINUOUS
 62
   250
 10
0.121164
 20
0.260967
 30
0.0
 11
0.124608
 21
0.260967
 31
0.0
  0
LINE
  8
2
  6
CONTINUOUS
 62
   250
 10
0.124608
 20
0.260967
 30
0.0
 11
0.124608
 21
0.26807
 31
0.0
  0
LINE
  8
2
  6
CONTINUOUS
 62
   250
 10
0.124608
 20
0.26807
 30
0.0
 11
0.121164
 21
0.26807
 31
0.0
  0
LINE
  8
2
  6
CONTINUOUS
 62
   250
 10
0.121164
 20
0.273523
 30
0.0
 11
0.124608
 21
0.273523
 31
0.0
  0
LINE
  8
2
  6
CONTINUOUS
 62
   250
 10
0.124608
 20
0.273523
 30
0.0
 11
0.124608
 21
0.280626
 31
0.0
  0
LINE
  8
2
  6
CONTINUOUS
 62
   250
 10
0.124608
 20
0.280626
 30
0.0
 11
0.121164
 21
0.280626
 31
0.0
  0
LINE
  8
2
  6
CONTINUOUS
 62
   250
 10
0.121164
 20
0.286078
 30
0.0
 11
0.124608
 21
0.286078
 31
0.0
  0
LINE
  8
2
  6
CONTINUOUS
 62
   250
 10
0.124608
 20
0.286078
 30
0.0
 11
0.124608
 21
0.293182
 31
0.0
  0
LINE
  8
2
  6
CONTINUOUS
 62
   250
 10
0.124608
 20
0.293182
 30
0.0
 11
0.121164
 21
0.293182
 31
0.0
  0
LINE
  8
2
  6
CONTINUOUS
 62
   250
 10
0.121164
 20
0.298634
 30
0.0
 11
0.124608
 21
0.298634
 31
0.0
  0
LINE
  8
2
  6
CONTINUOUS
 62
   250
 10
0.124608
 20
0.298634
 30
0.0
 11
0.124608
 21
0.305738
 31
0.0
  0
LINE
  8
2
  6
CONTINUOUS
 62
   250
 10
0.124608
 20
0.305738
 30
0.0
 11
0.121164
 21
0.305738
 31
0.0
  0
LINE
  8
2
  6
CONTINUOUS
 62
   250
 10
0.121164
 20
0.31119
 30
0.0
 11
0.124608
 21
0.31119
 31
0.0
  0
LINE
  8
2
  6
CONTINUOUS
 62
   250
 10
0.124608
 20
0.31119
 30
0.0
 11
0.124608
 21
0.318294
 31
0.0
  0
LINE
  8
2
  6
CONTINUOUS
 62
   250
 10
0.124608
 20
0.318294
 30
0.0
 11
0.121164
 21
0.318294
 31
0.0
  0
LINE
  8
2
  6
CONTINUOUS
 62
   250
 10
0.121164
 20
0.323746
 30
0.0
 11
0.124608
 21
0.323746
 31
0.0
  0
LINE
  8
2
  6
CONTINUOUS
 62
   250
 10
0.124608
 20
0.323746
 30
0.0
 11
0.124608
 21
0.330849
 31
0.0
  0
LINE
  8
2
  6
CONTINUOUS
 62
   250
 10
0.124608
 20
0.330849
 30
0.0
 11
0.121164
 21
0.330849
 31
0.0
  0
LINE
  8
2
  6
CONTINUOUS
 62
   250
 10
0.121164
 20
0.336302
 30
0.0
 11
0.124608
 21
0.336302
 31
0.0
  0
LINE
  8
2
  6
CONTINUOUS
 62
   250
 10
0.124608
 20
0.336302
 30
0.0
 11
0.124608
 21
0.343405
 31
0.0
  0
LINE
  8
2
  6
CONTINUOUS
 62
   250
 10
0.124608
 20
0.343405
 30
0.0
 11
0.121164
 21
0.343405
 31
0.0
  0
LINE
  8
2
  6
CONTINUOUS
 62
   250
 10
0.121164
 20
0.348858
 30
0.0
 11
0.124608
 21
0.348858
 31
0.0
  0
LINE
  8
2
  6
CONTINUOUS
 62
   250
 10
0.124608
 20
0.348858
 30
0.0
 11
0.124608
 21
0.355961
 31
0.0
  0
LINE
  8
2
  6
CONTINUOUS
 62
   250
 10
0.124608
 20
0.355961
 30
0.0
 11
0.121164
 21
0.355961
 31
0.0
  0
LINE
  8
2
  6
CONTINUOUS
 62
   250
 10
0.121164
 20
0.361414
 30
0.0
 11
0.124608
 21
0.361414
 31
0.0
  0
LINE
  8
2
  6
CONTINUOUS
 62
   250
 10
0.124608
 20
0.361414
 30
0.0
 11
0.124608
 21
0.368517
 31
0.0
  0
LINE
  8
2
  6
CONTINUOUS
 62
   250
 10
0.124608
 20
0.368517
 30
0.0
 11
0.121164
 21
0.368517
 31
0.0
  0
LINE
  8
2
  6
CONTINUOUS
 62
   250
 10
0.121164
 20
0.37397
 30
0.0
 11
0.124608
 21
0.37397
 31
0.0
  0
LINE
  8
2
  6
CONTINUOUS
 62
   250
 10
0.124608
 20
0.37397
 30
0.0
 11
0.124608
 21
0.381073
 31
0.0
  0
LINE
  8
2
  6
CONTINUOUS
 62
   250
 10
0.124608
 20
0.381073
 30
0.0
 11
0.121164
 21
0.381073
 31
0.0
  0
LINE
  8
2
  6
CONTINUOUS
 62
   250
 10
0.121164
 20
0.386526
 30
0.0
 11
0.124608
 21
0.386526
 31
0.0
  0
LINE
  8
2
  6
CONTINUOUS
 62
   250
 10
0.124608
 20
0.386526
 30
0.0
 11
0.124608
 21
0.393629
 31
0.0
  0
LINE
  8
2
  6
CONTINUOUS
 62
   250
 10
0.124608
 20
0.393629
 30
0.0
 11
0.121164
 21
0.393629
 31
0.0
  0
LINE
  8
2
  6
CONTINUOUS
 62
   250
 10
0.121164
 20
0.399082
 30
0.0
 11
0.124608
 21
0.399082
 31
0.0
  0
LINE
  8
2
  6
CONTINUOUS
 62
   250
 10
0.124608
 20
0.399082
 30
0.0
 11
0.124608
 21
0.406185
 31
0.0
  0
LINE
  8
2
  6
CONTINUOUS
 62
   250
 10
0.124608
 20
0.406185
 30
0.0
 11
0.121164
 21
0.406185
 31
0.0
  0
LINE
  8
2
  6
CONTINUOUS
 62
   250
 10
0.121164
 20
0.411638
 30
0.0
 11
0.124608
 21
0.411638
 31
0.0
  0
LINE
  8
2
  6
CONTINUOUS
 62
   250
 10
0.124608
 20
0.411638
 30
0.0
 11
0.124608
 21
0.418741
 31
0.0
  0
LINE
  8
2
  6
CONTINUOUS
 62
   250
 10
0.124608
 20
0.418741
 30
0.0
 11
0.121164
 21
0.418741
 31
0.0
  0
LINE
  8
2
  6
CONTINUOUS
 62
   250
 10
0.121164
 20
0.424194
 30
0.0
 11
0.124608
 21
0.424194
 31
0.0
  0
LINE
  8
2
  6
CONTINUOUS
 62
   250
 10
0.124608
 20
0.424194
 30
0.0
 11
0.124608
 21
0.431297
 31
0.0
  0
LINE
  8
2
  6
CONTINUOUS
 62
   250
 10
0.124608
 20
0.431297
 30
0.0
 11
0.121164
 21
0.431297
 31
0.0
  0
LINE
  8
2
  6
CONTINUOUS
 62
   250
 10
0.121164
 20
0.43675
 30
0.0
 11
0.124608
 21
0.43675
 31
0.0
  0
LINE
  8
2
  6
CONTINUOUS
 62
   250
 10
0.124608
 20
0.43675
 30
0.0
 11
0.124608
 21
0.443853
 31
0.0
  0
LINE
  8
2
  6
CONTINUOUS
 62
   250
 10
0.124608
 20
0.443853
 30
0.0
 11
0.121164
 21
0.443853
 31
0.0
  0
LINE
  8
2
  6
CONTINUOUS
 62
   250
 10
0.121164
 20
0.449305
 30
0.0
 11
0.124608
 21
0.449305
 31
0.0
  0
LINE
  8
2
  6
CONTINUOUS
 62
   250
 10
0.124608
 20
0.449305
 30
0.0
 11
0.124608
 21
0.456409
 31
0.0
  0
LINE
  8
2
  6
CONTINUOUS
 62
   250
 10
0.124608
 20
0.456409
 30
0.0
 11
0.121164
 21
0.456409
 31
0.0
  0
TEXT
  8
2
 62
   250
 10
0.474654
 20
0.317499
 30
0.0
 40
0.008182
  1
LOW
 50
90.0
  0
TEXT
  8
2
 62
   250
 10
0.474794
 20
0.440586
 30
0.0
 40
0.008182
  1
HIGH
 50
90.0
  0
TEXT
  8
2
 62
   250
 10
-0.406883
 20
0.310378
 30
0.0
 40
0.008182
  1
+5V
  0
TEXT
  8
2
 62
   250
 10
-0.372432
 20
0.138241
 30
0.0
 40
0.008182
  1
RTD1
  0
TEXT
  8
2
 62
   250
 10
-0.178546
 20
0.128633
 30
0.0
 40
0.008182
  1
RTD2
  0
TEXT
  8
2
 62
   250
 10
-0.402877
 20
0.022148
 30
0.0
 40
0.008182
  1
A
  0
TEXT
  8
2
 62
   250
 10
-0.373233
 20
0.021347
 30
0.0
 40
0.008182
  1
B
  0
TEXT
  8
2
 62
   250
 10
-0.339583
 20
0.006936
 30
0.0
 40
0.008182
  1
24V
 50
90.0
  0
TEXT
  8
2
 62
   250
 10
-0.313144
 20
0.006936
 30
0.0
 40
0.008182
  1
GND
 50
90.0
  0
TEXT
  8
2
 62
   250
 10
-0.285904
 20
0.006135
 30
0.0
 40
0.008182
  1
VSP
 50
90.0
  0
TEXT
  8
2
 62
   250
 10
-0.259465
 20
0.006135
 30
0.0
 40
0.008182
  1
SP
 50
90.0
  0
TEXT
  8
2
 62
   250
 10
-0.232225
 20
0.006936
 30
0.0
 40
0.008182
  1
GND
 50
90.0
  0
TEXT
  8
2
 62
   250
 10
-0.205786
 20
0.006936
 30
0.0
 40
0.008182
  1
RTD1
 50
90.0
  0
TEXT
  8
2
 62
   250
 10
-0.178546
 20
0.006936
 30
0.0
 40
0.008182
  1
RTD2
 50
90.0
  0
TEXT
  8
2
 62
   250
 10
-0.152107
 20
0.006936
 30
0.0
 40
0.008182
  1
PIN
 50
90.0
  0
TEXT
  8
2
 62
   250
 10
-0.125668
 20
0.006936
 30
0.0
 40
0.008182
  1
+P
 50
90.0
  0
TEXT
  8
2
 62
   250
 10
-0.075162
 20
0.006415
 30
0.0
 40
0.008182
  1
AO1
 50
90.0
  0
TEXT
  8
2
 62
   250
 10
-0.038052
 20
0.006938
 30
0.0
 40
0.008182
  1
AO2
 50
90.0
  0
TEXT
  8
2
 62
   250
 10
-0.003034
 20
0.006415
 30
0.0
 40
0.008182
  1
GND
 50
90.0
  0
TEXT
  8
2
 62
   250
 10
0.031985
 20
0.006415
 30
0.0
 40
0.008182
  1
DI1
 50
90.0
  0
TEXT
  8
2
 62
   250
 10
0.07014
 20
0.006938
 30
0.0
 40
0.008182
  1
DI2
 50
90.0
  0
TEXT
  8
2
 62
   250
 10
0.104636
 20
0.006415
 30
0.0
 40
0.008182
  1
GND
 50
90.0
  0
TEXT
  8
2
 62
   250
 10
0.140177
 20
0.006415
 30
0.0
 40
0.008182
  1
CW1
 50
90.0
  0
TEXT
  8
2
 62
   250
 10
0.249414
 20
0.006415
 30
0.0
 40
0.008182
  1
CW2
 50
90.0
  0
TEXT
  8
2
 62
   250
 10
0.212827
 20
0.006938
 30
0.0
 40
0.008182
  1
CCW1
 50
90.0
  0
TEXT
  8
2
 62
   250
 10
0.176241
 20
0.006415
 30
0.0
 40
0.008182
  1
COM1
 50
90.0
  0
TEXT
  8
2
 62
   250
 10
0.390011
 20
0.006415
 30
0.0
 40
0.008182
  1
L5/6
 50
90.0
  0
TEXT
  8
2
 62
   250
 10
0.358651
 20
0.006938
 30
0.0
 40
0.008182
  1
M5
 50
90.0
  0
TEXT
  8
2
 62
   250
 10
0.320497
 20
0.006938
 30
0.0
 40
0.008182
  1
CCW2
 50
90.0
  0
TEXT
  8
2
 62
   250
 10
0.283387
 20
0.005893
 30
0.0
 40
0.008182
  1
COM2
 50
90.0
  0
TEXT
  8
2
 62
   250
 10
0.425553
 20
0.006415
 30
0.0
 40
0.008182
  1
M6
 50
90.0
  0
ENDSEC
  0
EOF
