  0
SECTION
  2
HEADER
  9
$ACADVER
  1
AC1009
  9
$INSBASE
 10
0.0
 20
0.0
 30
0.0
  9
$EXTMIN
 10
2.89124
 20
2.37292
 30
0.0
  9
$EXTMAX
 10
3.6476
 20
3.68368
 30
0.0
  9
$LIMMIN
 10
0.0
 20
0.0
  9
$LIMMAX
 10
12.0
 20
9.0
  9
$ORTHOMODE
 70
     0
  9
$REGENMODE
 70
     1
  9
$FILLMODE
 70
     1
  9
$QTEXTMODE
 70
     0
  9
$MIRRTEXT
 70
     1
  9
$DRAGMODE
 70
     2
  9
$LTSCALE
 40
0.044
  9
$OSMODE
 70
     0
  9
$ATTMODE
 70
     1
  9
$TEXTSIZE
 40
0.2
  9
$TRACEWID
 40
0.05
  9
$TEXTSTYLE
  7
STANDARD
  9
$CLAYER
  8
0
  9
$CELTYPE
  6
BYLAYER
  9
$CECOLOR
 62
   256
  9
$DIMSCALE
 40
1.0
  9
$DIMASZ
 40
0.18
  9
$DIMEXO
 40
0.0625
  9
$DIMDLI
 40
0.38
  9
$DIMRND
 40
0.0
  9
$DIMDLE
 40
0.0
  9
$DIMEXE
 40
0.18
  9
$DIMTP
 40
0.0
  9
$DIMTM
 40
0.0
  9
$DIMTXT
 40
0.18
  9
$DIMCEN
 40
0.09
  9
$DIMTSZ
 40
0.0
  9
$DIMTOL
 70
     0
  9
$DIMLIM
 70
     0
  9
$DIMTIH
 70
     1
  9
$DIMTOH
 70
     1
  9
$DIMSE1
 70
     0
  9
$DIMSE2
 70
     0
  9
$DIMTAD
 70
     0
  9
$DIMZIN
 70
     0
  9
$DIMBLK
  1

  9
$DIMASO
 70
     1
  9
$DIMSHO
 70
     1
  9
$DIMPOST
  1

  9
$DIMAPOST
  1

  9
$DIMALT
 70
     0
  9
$DIMALTD
 70
     2
  9
$DIMALTF
 40
25.4
  9
$DIMLFAC
 40
1.0
  9
$DIMTOFL
 70
     0
  9
$DIMTVP
 40
0.0
  9
$DIMTIX
 70
     0
  9
$DIMSOXD
 70
     0
  9
$DIMSAH
 70
     0
  9
$DIMBLK1
  1

  9
$DIMBLK2
  1

  9
$DIMSTYLE
  2
*UNNAMED
  9
$DIMCLRD
 70
     0
  9
$DIMCLRE
 70
     0
  9
$DIMCLRT
 70
     0
  9
$DIMTFAC
 40
1.0
  9
$DIMGAP
 40
0.09
  9
$LUNITS
 70
     2
  9
$LUPREC
 70
     4
  9
$SKETCHINC
 40
0.1
  9
$FILLETRAD
 40
0.0
  9
$AUNITS
 70
     0
  9
$AUPREC
 70
     0
  9
$MENU
  1
acad
  9
$ELEVATION
 40
0.0
  9
$PELEVATION
 40
0.0
  9
$THICKNESS
 40
0.0
  9
$LIMCHECK
 70
     0
  9
$BLIPMODE
 70
     0
  9
$CHAMFERA
 40
0.0
  9
$CHAMFERB
 40
0.0
  9
$SKPOLY
 70
     0
  9
$TDCREATE
 40
2451092.586873148
  9
$TDUPDATE
 40
2451092.586873148
  9
$TDINDWG
 40
0.0000000000
  9
$TDUSRTIMER
 40
0.0000000000
  9
$USRTIMER
 70
     1
  9
$ANGBASE
 50
0.0
  9
$ANGDIR
 70
     0
  9
$PDMODE
 70
    35
  9
$PDSIZE
 40
0.0352
  9
$PLINEWID
 40
0.0
  9
$COORDS
 70
     1
  9
$SPLFRAME
 70
     0
  9
$SPLINETYPE
 70
     6
  9
$SPLINESEGS
 70
     8
  9
$ATTDIA
 70
     0
  9
$ATTREQ
 70
     1
  9
$HANDLING
 70
     0
  9
$HANDSEED
  5
0
  9
$SURFTAB1
 70
     6
  9
$SURFTAB2
 70
     6
  9
$SURFTYPE
 70
     6
  9
$SURFU
 70
     6
  9
$SURFV
 70
     6
  9
$UCSNAME
  2

  9
$UCSORG
 10
0.0
 20
0.0
 30
0.0
  9
$UCSXDIR
 10
1.0
 20
0.0
 30
0.0
  9
$UCSYDIR
 10
0.0
 20
1.0
 30
0.0
  9
$PUCSNAME
  2

  9
$PUCSORG
 10
0.0
 20
0.0
 30
0.0
  9
$PUCSXDIR
 10
1.0
 20
0.0
 30
0.0
  9
$PUCSYDIR
 10
0.0
 20
1.0
 30
0.0
  9
$USERI1
 70
     0
  9
$USERI2
 70
     0
  9
$USERI3
 70
     0
  9
$USERI4
 70
     0
  9
$USERI5
 70
     0
  9
$USERR1
 40
0.0
  9
$USERR2
 40
0.0
  9
$USERR3
 40
0.0
  9
$USERR4
 40
0.0
  9
$USERR5
 40
0.0
  9
$WORLDVIEW
 70
     1
  9
$SHADEDGE
 70
     3
  9
$SHADEDIF
 70
    70
  9
$TILEMODE
 70
     1
  9
$MAXACTVP
 70
    16
  9
$PINSBASE
 10
0.0
 20
0.0
 30
0.0
  9
$PLIMCHECK
 70
     0
  9
$PEXTMIN
 10
1.000000E+20
 20
1.000000E+20
 30
1.000000E+20
  9
$PEXTMAX
 10
-1.000000E+20
 20
-1.000000E+20
 30
-1.000000E+20
  9
$PLIMMIN
 10
0.0
 20
0.0
  9
$PLIMMAX
 10
12.0
 20
9.0
  9
$UNITMODE
 70
     0
  9
$VISRETAIN
 70
     0
  9
$PLINEGEN
 70
     0
  9
$PSLTSCALE
 70
     1
  9
$TREEDEPTH
 70
  3020
  9
$DWGCODEPAGE
  3
ascii
  0
ENDSEC
  0
SECTION
  2
TABLES
  0
TABLE
  2
VPORT
 70
     2
  0
VPORT
  2
*ACTIVE
 70
     0
 10
0.0
 20
0.0
 11
1.0
 21
1.0
 12
3.966706
 22
3.054348
 13
0.0
 23
0.0
 14
1.0
 24
1.0
 15
0.0
 25
0.0
 16
0.0
 26
0.0
 36
1.0
 17
0.0
 27
0.0
 37
0.0
 40
1.782609
 41
1.387409
 42
50.0
 43
0.0
 44
0.0
 50
0.0
 51
0.0
 71
     0
 72
   100
 73
     1
 74
     1
 75
     0
 76
     0
 77
     0
 78
     0
  0
ENDTAB
  0
TABLE
  2
LTYPE
 70
    10
  0
LTYPE
  2
CONTINUOUS
 70
    64
  3
Solid line
 72
    65
 73
     0
 40
0.0
  0
LTYPE
  2
DASHED
 70
    64
  3
__ __ __ __ __ __ __ __ __ __ __ __ __ __ __
 72
    65
 73
     2
 40
0.00033
 49
0.00022
 49
-0.00011
  0
LTYPE
  2
HIDDEN
 70
    64
  3
 _ _ _ _ _ _ _ _ _ _ _ _ _ _ _ _ _ _ _ _ _ _
 72
    65
 73
     2
 40
0.000165
 49
0.00011
 49
-0.000055
  0
LTYPE
  2
CENTER
 70
    64
  3
____ _ ____ _ ____ _ ____ _ ____ _ ____ _ ____
 72
    65
 73
     4
 40
0.00088
 49
0.00055
 49
-0.00011
 49
0.00011
 49
-0.00011
  0
LTYPE
  2
PHANTOM
 70
    64
  3
_____ _ _ _____ _ _ _____ _ _ _____ _ _ ____
 72
    65
 73
     6
 40
0.0011
 49
0.00055
 49
-0.00011
 49
0.00011
 49
-0.00011
 49
0.00011
 49
-0.00011
  0
LTYPE
  2
DOT
 70
    64
  3
...............................................
 72
    65
 73
     2
 40
0.00011
 49
0.0
 49
-0.00011
  0
LTYPE
  2
DASHDOT
 70
    64
  3
__ . __ . __ . __ . __ . __ . __ . __ . __ . __
 72
    65
 73
     4
 40
0.00044
 49
0.00022
 49
-0.00011
 49
0.0
 49
-0.00011
  0
LTYPE
  2
BORDER
 70
    64
  3
__ __ . __ __ . __ __ . __ __ . __ __ . __ __
 72
    65
 73
     6
 40
0.00077
 49
0.00022
 49
-0.00011
 49
0.00022
 49
-0.00011
 49
0.0
 49
-0.00011
  0
LTYPE
  2
DIVIDE
 70
    64
  3
__ . . __ . . __ . . __ . . __ . . __ . . __
 72
    65
 73
     6
 40
0.00055
 49
0.00022
 49
-0.00011
 49
0.0
 49
-0.00011
 49
0.0
 49
-0.00011
  0
LTYPE
  2
DOTDOT
 70
    64
  3
 . .  . .  . .  . .  . .  . . 
 72
    65
 73
     5
 40
0.000242
 49
-0.00011
 49
0.0
 49
-0.00011
 49
0.0
 49
-0.00011
  0
ENDTAB
  0
TABLE
  2
LAYER
 70
     3
  0
LAYER
  2
0
 70
    64
 62
     7
  6
CONTINUOUS
  0
LAYER
  2
FOREGROUND
 70
    64
 62
     7
  6
CONTINUOUS
  0
LAYER
  2
BACKGROUND
 70
    65
 62
    -7
  6
CONTINUOUS
  0
ENDTAB
  0
TABLE
  2
STYLE
 70
     1
  0
STYLE
  2
STANDARD
 70
     0
 40
0.0
 41
1.0
 50
0.0
 71
     0
 42
0.2
  3
txt
  4

  0
ENDTAB
  0
TABLE
  2
VIEW
 70
     0
  0
ENDTAB
  0
TABLE
  2
UCS
 70
     0
  0
ENDTAB
  0
TABLE
  2
APPID
 70
     1
  0
APPID
  2
ACAD
 70
    64
  0
ENDTAB
  0
TABLE
  2
DIMSTYLE
 70
     0
  0
ENDTAB
  0
ENDSEC
  0
SECTION
  2
BLOCKS
  0
ENDSEC
  0
SECTION
  2
ENTITIES
  0
LINE
  8
0
  6
CONTINUOUS
 62
   250
 10
2.91632
 20
3.58292
 30
0.0
 11
3.62208
 21
3.58292
 31
0.0
  0
LINE
  8
0
  6
CONTINUOUS
 62
   250
 10
3.62208
 20
3.58292
 30
0.0
 11
3.62648
 21
3.58248
 31
0.0
  0
LINE
  8
0
  6
CONTINUOUS
 62
   250
 10
3.62648
 20
3.58248
 30
0.0
 11
3.63088
 21
3.5816
 31
0.0
  0
LINE
  8
0
  6
CONTINUOUS
 62
   250
 10
3.63088
 20
3.5816
 30
0.0
 11
3.63484
 21
3.5794
 31
0.0
  0
LINE
  8
0
  6
CONTINUOUS
 62
   250
 10
3.63484
 20
3.5794
 30
0.0
 11
3.63836
 21
3.57676
 31
0.0
  0
LINE
  8
0
  6
CONTINUOUS
 62
   250
 10
3.63836
 20
3.57676
 30
0.0
 11
3.64144
 21
3.57368
 31
0.0
  0
LINE
  8
0
  6
CONTINUOUS
 62
   250
 10
3.64144
 20
3.57368
 30
0.0
 11
3.64408
 21
3.57016
 31
0.0
  0
LINE
  8
0
  6
CONTINUOUS
 62
   250
 10
3.64408
 20
3.57016
 30
0.0
 11
3.64584
 21
3.5662
 31
0.0
  0
LINE
  8
0
  6
CONTINUOUS
 62
   250
 10
3.64584
 20
3.5662
 30
0.0
 11
3.64672
 21
3.56224
 31
0.0
  0
LINE
  8
0
  6
CONTINUOUS
 62
   250
 10
3.64672
 20
3.56224
 30
0.0
 11
3.6476
 21
3.55784
 31
0.0
  0
LINE
  8
0
  6
CONTINUOUS
 62
   250
 10
3.6476
 20
3.55784
 30
0.0
 11
3.6476
 21
3.02808
 31
0.0
  0
LINE
  8
0
  6
CONTINUOUS
 62
   250
 10
3.6476
 20
3.02808
 30
0.0
 11
3.6476
 21
2.53704
 31
0.0
  0
LINE
  8
0
  6
CONTINUOUS
 62
   250
 10
3.63044
 20
2.5168
 30
0.0
 11
3.62736
 21
2.51988
 31
0.0
  0
LINE
  8
0
  6
CONTINUOUS
 62
   250
 10
3.62736
 20
2.51988
 30
0.0
 11
3.62384
 21
2.52208
 31
0.0
  0
LINE
  8
0
  6
CONTINUOUS
 62
   250
 10
3.62384
 20
2.52208
 30
0.0
 11
3.61988
 21
2.5234
 31
0.0
  0
LINE
  8
0
  6
CONTINUOUS
 62
   250
 10
3.61988
 20
2.5234
 30
0.0
 11
3.61592
 21
2.52384
 31
0.0
  0
LINE
  8
0
  6
CONTINUOUS
 62
   250
 10
3.61592
 20
2.52384
 30
0.0
 11
3.61152
 21
2.5234
 31
0.0
  0
LINE
  8
0
  6
CONTINUOUS
 62
   250
 10
3.61152
 20
2.5234
 30
0.0
 11
3.60756
 21
2.52208
 31
0.0
  0
LINE
  8
0
  6
CONTINUOUS
 62
   250
 10
3.60756
 20
2.52208
 30
0.0
 11
3.60404
 21
2.51988
 31
0.0
  0
LINE
  8
0
  6
CONTINUOUS
 62
   250
 10
3.60404
 20
2.51988
 30
0.0
 11
3.60096
 21
2.5168
 31
0.0
  0
LINE
  8
0
  6
CONTINUOUS
 62
   250
 10
3.60096
 20
2.5168
 30
0.0
 11
3.59876
 21
2.51328
 31
0.0
  0
LINE
  8
0
  6
CONTINUOUS
 62
   250
 10
3.59876
 20
2.51328
 30
0.0
 11
3.59744
 21
2.50932
 31
0.0
  0
LINE
  8
0
  6
CONTINUOUS
 62
   250
 10
3.59744
 20
2.50932
 30
0.0
 11
3.597
 21
2.50492
 31
0.0
  0
LINE
  8
0
  6
CONTINUOUS
 62
   250
 10
3.597
 20
2.50492
 30
0.0
 11
3.59744
 21
2.50096
 31
0.0
  0
LINE
  8
0
  6
CONTINUOUS
 62
   250
 10
3.59744
 20
2.50096
 30
0.0
 11
3.59876
 21
2.497
 31
0.0
  0
LINE
  8
0
  6
CONTINUOUS
 62
   250
 10
3.59876
 20
2.497
 30
0.0
 11
3.60096
 21
2.49348
 31
0.0
  0
LINE
  8
0
  6
CONTINUOUS
 62
   250
 10
3.60096
 20
2.49348
 30
0.0
 11
3.60404
 21
2.4904
 31
0.0
  0
LINE
  8
0
  6
CONTINUOUS
 62
   250
 10
3.60404
 20
2.4904
 30
0.0
 11
3.60756
 21
2.4882
 31
0.0
  0
LINE
  8
0
  6
CONTINUOUS
 62
   250
 10
3.60756
 20
2.4882
 30
0.0
 11
3.61152
 21
2.48688
 31
0.0
  0
LINE
  8
0
  6
CONTINUOUS
 62
   250
 10
3.61152
 20
2.48688
 30
0.0
 11
3.61592
 21
2.48644
 31
0.0
  0
LINE
  8
0
  6
CONTINUOUS
 62
   250
 10
3.61592
 20
2.48644
 30
0.0
 11
3.61988
 21
2.48688
 31
0.0
  0
LINE
  8
0
  6
CONTINUOUS
 62
   250
 10
3.61988
 20
2.48688
 30
0.0
 11
3.62384
 21
2.4882
 31
0.0
  0
LINE
  8
0
  6
CONTINUOUS
 62
   250
 10
3.62384
 20
2.4882
 30
0.0
 11
3.62736
 21
2.4904
 31
0.0
  0
LINE
  8
0
  6
CONTINUOUS
 62
   250
 10
3.62736
 20
2.4904
 30
0.0
 11
3.63044
 21
2.49348
 31
0.0
  0
LINE
  8
0
  6
CONTINUOUS
 62
   250
 10
3.63044
 20
2.49348
 30
0.0
 11
3.63264
 21
2.497
 31
0.0
  0
LINE
  8
0
  6
CONTINUOUS
 62
   250
 10
3.63264
 20
2.497
 30
0.0
 11
3.6344
 21
2.50096
 31
0.0
  0
LINE
  8
0
  6
CONTINUOUS
 62
   250
 10
3.6344
 20
2.50096
 30
0.0
 11
3.63484
 21
2.50492
 31
0.0
  0
LINE
  8
0
  6
CONTINUOUS
 62
   250
 10
3.63484
 20
2.50492
 30
0.0
 11
3.6344
 21
2.50932
 31
0.0
  0
LINE
  8
0
  6
CONTINUOUS
 62
   250
 10
3.6344
 20
2.50932
 30
0.0
 11
3.63264
 21
2.51328
 31
0.0
  0
LINE
  8
0
  6
CONTINUOUS
 62
   250
 10
3.63264
 20
2.51328
 30
0.0
 11
3.63044
 21
2.5168
 31
0.0
  0
LINE
  8
0
  6
CONTINUOUS
 62
   250
 10
3.63484
 20
2.50492
 30
0.0
 11
3.597
 21
2.50492
 31
0.0
  0
LINE
  8
0
  6
CONTINUOUS
 62
   250
 10
3.597
 20
2.50492
 30
0.0
 11
3.61592
 21
2.50492
 31
0.0
  0
LINE
  8
0
  6
CONTINUOUS
 62
   250
 10
3.61592
 20
2.48644
 30
0.0
 11
3.61592
 21
2.52384
 31
0.0
  0
LINE
  8
0
  6
CONTINUOUS
 62
   250
 10
2.93744
 20
2.5168
 30
0.0
 11
2.93436
 21
2.51988
 31
0.0
  0
LINE
  8
0
  6
CONTINUOUS
 62
   250
 10
2.93436
 20
2.51988
 30
0.0
 11
2.93084
 21
2.52208
 31
0.0
  0
LINE
  8
0
  6
CONTINUOUS
 62
   250
 10
2.93084
 20
2.52208
 30
0.0
 11
2.92688
 21
2.5234
 31
0.0
  0
LINE
  8
0
  6
CONTINUOUS
 62
   250
 10
2.92688
 20
2.5234
 30
0.0
 11
2.92248
 21
2.52384
 31
0.0
  0
LINE
  8
0
  6
CONTINUOUS
 62
   250
 10
2.92248
 20
2.52384
 30
0.0
 11
2.91852
 21
2.5234
 31
0.0
  0
LINE
  8
0
  6
CONTINUOUS
 62
   250
 10
2.91852
 20
2.5234
 30
0.0
 11
2.91412
 21
2.52208
 31
0.0
  0
LINE
  8
0
  6
CONTINUOUS
 62
   250
 10
2.91412
 20
2.52208
 30
0.0
 11
2.9106
 21
2.51988
 31
0.0
  0
LINE
  8
0
  6
CONTINUOUS
 62
   250
 10
2.9106
 20
2.51988
 30
0.0
 11
2.90752
 21
2.5168
 31
0.0
  0
LINE
  8
0
  6
CONTINUOUS
 62
   250
 10
2.90752
 20
2.5168
 30
0.0
 11
2.90532
 21
2.51328
 31
0.0
  0
LINE
  8
0
  6
CONTINUOUS
 62
   250
 10
2.90532
 20
2.51328
 30
0.0
 11
2.904
 21
2.50932
 31
0.0
  0
LINE
  8
0
  6
CONTINUOUS
 62
   250
 10
2.904
 20
2.50932
 30
0.0
 11
2.90356
 21
2.50492
 31
0.0
  0
LINE
  8
0
  6
CONTINUOUS
 62
   250
 10
2.90356
 20
2.50492
 30
0.0
 11
2.904
 21
2.50096
 31
0.0
  0
LINE
  8
0
  6
CONTINUOUS
 62
   250
 10
2.904
 20
2.50096
 30
0.0
 11
2.90532
 21
2.497
 31
0.0
  0
LINE
  8
0
  6
CONTINUOUS
 62
   250
 10
2.90532
 20
2.497
 30
0.0
 11
2.90752
 21
2.49348
 31
0.0
  0
LINE
  8
0
  6
CONTINUOUS
 62
   250
 10
2.90752
 20
2.49348
 30
0.0
 11
2.9106
 21
2.4904
 31
0.0
  0
LINE
  8
0
  6
CONTINUOUS
 62
   250
 10
2.9106
 20
2.4904
 30
0.0
 11
2.91412
 21
2.4882
 31
0.0
  0
LINE
  8
0
  6
CONTINUOUS
 62
   250
 10
2.91412
 20
2.4882
 30
0.0
 11
2.91852
 21
2.48688
 31
0.0
  0
LINE
  8
0
  6
CONTINUOUS
 62
   250
 10
2.91852
 20
2.48688
 30
0.0
 11
2.92248
 21
2.48644
 31
0.0
  0
LINE
  8
0
  6
CONTINUOUS
 62
   250
 10
2.92248
 20
2.48644
 30
0.0
 11
2.92688
 21
2.48688
 31
0.0
  0
LINE
  8
0
  6
CONTINUOUS
 62
   250
 10
2.92688
 20
2.48688
 30
0.0
 11
2.93084
 21
2.4882
 31
0.0
  0
LINE
  8
0
  6
CONTINUOUS
 62
   250
 10
2.93084
 20
2.4882
 30
0.0
 11
2.93436
 21
2.4904
 31
0.0
  0
LINE
  8
0
  6
CONTINUOUS
 62
   250
 10
2.93436
 20
2.4904
 30
0.0
 11
2.93744
 21
2.49348
 31
0.0
  0
LINE
  8
0
  6
CONTINUOUS
 62
   250
 10
2.93744
 20
2.49348
 30
0.0
 11
2.93964
 21
2.497
 31
0.0
  0
LINE
  8
0
  6
CONTINUOUS
 62
   250
 10
2.93964
 20
2.497
 30
0.0
 11
2.94096
 21
2.50096
 31
0.0
  0
LINE
  8
0
  6
CONTINUOUS
 62
   250
 10
2.94096
 20
2.50096
 30
0.0
 11
2.9414
 21
2.50492
 31
0.0
  0
LINE
  8
0
  6
CONTINUOUS
 62
   250
 10
2.9414
 20
2.50492
 30
0.0
 11
2.94096
 21
2.50932
 31
0.0
  0
LINE
  8
0
  6
CONTINUOUS
 62
   250
 10
2.94096
 20
2.50932
 30
0.0
 11
2.93964
 21
2.51328
 31
0.0
  0
LINE
  8
0
  6
CONTINUOUS
 62
   250
 10
2.93964
 20
2.51328
 30
0.0
 11
2.93744
 21
2.5168
 31
0.0
  0
LINE
  8
0
  6
CONTINUOUS
 62
   250
 10
2.9414
 20
2.50492
 30
0.0
 11
2.90356
 21
2.50492
 31
0.0
  0
LINE
  8
0
  6
CONTINUOUS
 62
   250
 10
2.90356
 20
2.50492
 30
0.0
 11
2.92248
 21
2.50492
 31
0.0
  0
LINE
  8
0
  6
CONTINUOUS
 62
   250
 10
2.92248
 20
2.50492
 30
0.0
 11
2.92248
 21
2.48644
 31
0.0
  0
LINE
  8
0
  6
CONTINUOUS
 62
   250
 10
2.92248
 20
2.48644
 30
0.0
 11
2.92248
 21
2.52384
 31
0.0
  0
LINE
  8
0
  6
CONTINUOUS
 62
   250
 10
2.89124
 20
2.49876
 30
0.0
 11
2.89124
 21
3.02808
 31
0.0
  0
LINE
  8
0
  6
CONTINUOUS
 62
   250
 10
2.89124
 20
3.02808
 30
0.0
 11
2.89124
 21
3.55784
 31
0.0
  0
LINE
  8
0
  6
CONTINUOUS
 62
   250
 10
2.89124
 20
3.55784
 30
0.0
 11
2.89168
 21
3.56224
 31
0.0
  0
LINE
  8
0
  6
CONTINUOUS
 62
   250
 10
2.89168
 20
3.56224
 30
0.0
 11
2.89256
 21
3.5662
 31
0.0
  0
LINE
  8
0
  6
CONTINUOUS
 62
   250
 10
2.89256
 20
3.5662
 30
0.0
 11
2.89432
 21
3.57016
 31
0.0
  0
LINE
  8
0
  6
CONTINUOUS
 62
   250
 10
2.89432
 20
3.57016
 30
0.0
 11
2.89696
 21
3.57368
 31
0.0
  0
LINE
  8
0
  6
CONTINUOUS
 62
   250
 10
2.89696
 20
3.57368
 30
0.0
 11
2.90004
 21
3.57676
 31
0.0
  0
LINE
  8
0
  6
CONTINUOUS
 62
   250
 10
2.90004
 20
3.57676
 30
0.0
 11
2.90356
 21
3.5794
 31
0.0
  0
LINE
  8
0
  6
CONTINUOUS
 62
   250
 10
2.90356
 20
3.5794
 30
0.0
 11
2.90752
 21
3.5816
 31
0.0
  0
LINE
  8
0
  6
CONTINUOUS
 62
   250
 10
2.90752
 20
3.5816
 30
0.0
 11
2.91192
 21
3.58248
 31
0.0
  0
LINE
  8
0
  6
CONTINUOUS
 62
   250
 10
2.91192
 20
3.58248
 30
0.0
 11
2.91632
 21
3.58292
 31
0.0
  0
LINE
  8
0
  6
CONTINUOUS
 62
   250
 10
2.91852
 20
3.56972
 30
0.0
 11
2.91412
 21
3.5684
 31
0.0
  0
LINE
  8
0
  6
CONTINUOUS
 62
   250
 10
2.91412
 20
3.5684
 30
0.0
 11
2.9106
 21
3.5662
 31
0.0
  0
LINE
  8
0
  6
CONTINUOUS
 62
   250
 10
2.9106
 20
3.5662
 30
0.0
 11
2.90752
 21
3.56312
 31
0.0
  0
LINE
  8
0
  6
CONTINUOUS
 62
   250
 10
2.90752
 20
3.56312
 30
0.0
 11
2.90532
 21
3.5596
 31
0.0
  0
LINE
  8
0
  6
CONTINUOUS
 62
   250
 10
2.90532
 20
3.5596
 30
0.0
 11
2.904
 21
3.55564
 31
0.0
  0
LINE
  8
0
  6
CONTINUOUS
 62
   250
 10
2.904
 20
3.55564
 30
0.0
 11
2.90356
 21
3.55124
 31
0.0
  0
LINE
  8
0
  6
CONTINUOUS
 62
   250
 10
2.90356
 20
3.55124
 30
0.0
 11
2.904
 21
3.54728
 31
0.0
  0
LINE
  8
0
  6
CONTINUOUS
 62
   250
 10
2.904
 20
3.54728
 30
0.0
 11
2.90532
 21
3.54332
 31
0.0
  0
LINE
  8
0
  6
CONTINUOUS
 62
   250
 10
2.90532
 20
3.54332
 30
0.0
 11
2.90752
 21
3.53936
 31
0.0
  0
LINE
  8
0
  6
CONTINUOUS
 62
   250
 10
2.90752
 20
3.53936
 30
0.0
 11
2.9106
 21
3.53628
 31
0.0
  0
LINE
  8
0
  6
CONTINUOUS
 62
   250
 10
2.9106
 20
3.53628
 30
0.0
 11
2.91412
 21
3.53408
 31
0.0
  0
LINE
  8
0
  6
CONTINUOUS
 62
   250
 10
2.91412
 20
3.53408
 30
0.0
 11
2.91852
 21
3.53276
 31
0.0
  0
LINE
  8
0
  6
CONTINUOUS
 62
   250
 10
2.91852
 20
3.53276
 30
0.0
 11
2.92248
 21
3.53232
 31
0.0
  0
LINE
  8
0
  6
CONTINUOUS
 62
   250
 10
2.92248
 20
3.53232
 30
0.0
 11
2.92688
 21
3.53276
 31
0.0
  0
LINE
  8
0
  6
CONTINUOUS
 62
   250
 10
2.92688
 20
3.53276
 30
0.0
 11
2.93084
 21
3.53408
 31
0.0
  0
LINE
  8
0
  6
CONTINUOUS
 62
   250
 10
2.93084
 20
3.53408
 30
0.0
 11
2.93436
 21
3.53628
 31
0.0
  0
LINE
  8
0
  6
CONTINUOUS
 62
   250
 10
2.93436
 20
3.53628
 30
0.0
 11
2.93744
 21
3.53936
 31
0.0
  0
LINE
  8
0
  6
CONTINUOUS
 62
   250
 10
2.93744
 20
3.53936
 30
0.0
 11
2.93964
 21
3.54332
 31
0.0
  0
LINE
  8
0
  6
CONTINUOUS
 62
   250
 10
2.93964
 20
3.54332
 30
0.0
 11
2.94096
 21
3.54728
 31
0.0
  0
LINE
  8
0
  6
CONTINUOUS
 62
   250
 10
2.94096
 20
3.54728
 30
0.0
 11
2.9414
 21
3.55124
 31
0.0
  0
LINE
  8
0
  6
CONTINUOUS
 62
   250
 10
2.9414
 20
3.55124
 30
0.0
 11
2.90356
 21
3.55124
 31
0.0
  0
LINE
  8
0
  6
CONTINUOUS
 62
   250
 10
2.92248
 20
3.55124
 30
0.0
 11
2.9414
 21
3.55124
 31
0.0
  0
LINE
  8
0
  6
CONTINUOUS
 62
   250
 10
2.9414
 20
3.55124
 30
0.0
 11
2.94096
 21
3.55564
 31
0.0
  0
LINE
  8
0
  6
CONTINUOUS
 62
   250
 10
2.94096
 20
3.55564
 30
0.0
 11
2.93964
 21
3.5596
 31
0.0
  0
LINE
  8
0
  6
CONTINUOUS
 62
   250
 10
2.93964
 20
3.5596
 30
0.0
 11
2.93744
 21
3.56312
 31
0.0
  0
LINE
  8
0
  6
CONTINUOUS
 62
   250
 10
2.93744
 20
3.56312
 30
0.0
 11
2.93436
 21
3.5662
 31
0.0
  0
LINE
  8
0
  6
CONTINUOUS
 62
   250
 10
2.93436
 20
3.5662
 30
0.0
 11
2.93084
 21
3.5684
 31
0.0
  0
LINE
  8
0
  6
CONTINUOUS
 62
   250
 10
2.93084
 20
3.5684
 30
0.0
 11
2.92688
 21
3.56972
 31
0.0
  0
LINE
  8
0
  6
CONTINUOUS
 62
   250
 10
2.92688
 20
3.56972
 30
0.0
 11
2.92248
 21
3.57016
 31
0.0
  0
LINE
  8
0
  6
CONTINUOUS
 62
   250
 10
2.92248
 20
3.57016
 30
0.0
 11
2.91852
 21
3.56972
 31
0.0
  0
LINE
  8
0
  6
CONTINUOUS
 62
   250
 10
2.92248
 20
3.57016
 30
0.0
 11
2.92248
 21
3.53232
 31
0.0
  0
LINE
  8
0
  6
CONTINUOUS
 62
   250
 10
3.60096
 20
3.53936
 30
0.0
 11
3.60404
 21
3.53628
 31
0.0
  0
LINE
  8
0
  6
CONTINUOUS
 62
   250
 10
3.60404
 20
3.53628
 30
0.0
 11
3.60756
 21
3.53408
 31
0.0
  0
LINE
  8
0
  6
CONTINUOUS
 62
   250
 10
3.60756
 20
3.53408
 30
0.0
 11
3.61152
 21
3.53276
 31
0.0
  0
LINE
  8
0
  6
CONTINUOUS
 62
   250
 10
3.61152
 20
3.53276
 30
0.0
 11
3.61592
 21
3.53232
 31
0.0
  0
LINE
  8
0
  6
CONTINUOUS
 62
   250
 10
3.61592
 20
3.53232
 30
0.0
 11
3.61988
 21
3.53276
 31
0.0
  0
LINE
  8
0
  6
CONTINUOUS
 62
   250
 10
3.61988
 20
3.53276
 30
0.0
 11
3.62384
 21
3.53408
 31
0.0
  0
LINE
  8
0
  6
CONTINUOUS
 62
   250
 10
3.62384
 20
3.53408
 30
0.0
 11
3.62736
 21
3.53628
 31
0.0
  0
LINE
  8
0
  6
CONTINUOUS
 62
   250
 10
3.62736
 20
3.53628
 30
0.0
 11
3.63044
 21
3.53936
 31
0.0
  0
LINE
  8
0
  6
CONTINUOUS
 62
   250
 10
3.63044
 20
3.53936
 30
0.0
 11
3.63264
 21
3.54332
 31
0.0
  0
LINE
  8
0
  6
CONTINUOUS
 62
   250
 10
3.63264
 20
3.54332
 30
0.0
 11
3.6344
 21
3.54728
 31
0.0
  0
LINE
  8
0
  6
CONTINUOUS
 62
   250
 10
3.6344
 20
3.54728
 30
0.0
 11
3.63484
 21
3.55124
 31
0.0
  0
LINE
  8
0
  6
CONTINUOUS
 62
   250
 10
3.63484
 20
3.55124
 30
0.0
 11
3.597
 21
3.55124
 31
0.0
  0
LINE
  8
0
  6
CONTINUOUS
 62
   250
 10
3.597
 20
3.55124
 30
0.0
 11
3.59744
 21
3.54728
 31
0.0
  0
LINE
  8
0
  6
CONTINUOUS
 62
   250
 10
3.59744
 20
3.54728
 30
0.0
 11
3.59876
 21
3.54332
 31
0.0
  0
LINE
  8
0
  6
CONTINUOUS
 62
   250
 10
3.59876
 20
3.54332
 30
0.0
 11
3.60096
 21
3.53936
 31
0.0
  0
LINE
  8
0
  6
CONTINUOUS
 62
   250
 10
3.597
 20
3.55124
 30
0.0
 11
3.59744
 21
3.55564
 31
0.0
  0
LINE
  8
0
  6
CONTINUOUS
 62
   250
 10
3.59744
 20
3.55564
 30
0.0
 11
3.59876
 21
3.5596
 31
0.0
  0
LINE
  8
0
  6
CONTINUOUS
 62
   250
 10
3.59876
 20
3.5596
 30
0.0
 11
3.60096
 21
3.56312
 31
0.0
  0
LINE
  8
0
  6
CONTINUOUS
 62
   250
 10
3.60096
 20
3.56312
 30
0.0
 11
3.60404
 21
3.5662
 31
0.0
  0
LINE
  8
0
  6
CONTINUOUS
 62
   250
 10
3.60404
 20
3.5662
 30
0.0
 11
3.60756
 21
3.5684
 31
0.0
  0
LINE
  8
0
  6
CONTINUOUS
 62
   250
 10
3.60756
 20
3.5684
 30
0.0
 11
3.61152
 21
3.56972
 31
0.0
  0
LINE
  8
0
  6
CONTINUOUS
 62
   250
 10
3.61152
 20
3.56972
 30
0.0
 11
3.61592
 21
3.57016
 31
0.0
  0
LINE
  8
0
  6
CONTINUOUS
 62
   250
 10
3.61592
 20
3.57016
 30
0.0
 11
3.61592
 21
3.53232
 31
0.0
  0
LINE
  8
0
  6
CONTINUOUS
 62
   250
 10
3.61592
 20
3.55124
 30
0.0
 11
3.63484
 21
3.55124
 31
0.0
  0
LINE
  8
0
  6
CONTINUOUS
 62
   250
 10
3.63484
 20
3.55124
 30
0.0
 11
3.6344
 21
3.55564
 31
0.0
  0
LINE
  8
0
  6
CONTINUOUS
 62
   250
 10
3.6344
 20
3.55564
 30
0.0
 11
3.63264
 21
3.5596
 31
0.0
  0
LINE
  8
0
  6
CONTINUOUS
 62
   250
 10
3.63264
 20
3.5596
 30
0.0
 11
3.63044
 21
3.56312
 31
0.0
  0
LINE
  8
0
  6
CONTINUOUS
 62
   250
 10
3.63044
 20
3.56312
 30
0.0
 11
3.62736
 21
3.5662
 31
0.0
  0
LINE
  8
0
  6
CONTINUOUS
 62
   250
 10
3.62736
 20
3.5662
 30
0.0
 11
3.62384
 21
3.5684
 31
0.0
  0
LINE
  8
0
  6
CONTINUOUS
 62
   250
 10
3.62384
 20
3.5684
 30
0.0
 11
3.61988
 21
3.56972
 31
0.0
  0
LINE
  8
0
  6
CONTINUOUS
 62
   250
 10
3.61988
 20
3.56972
 30
0.0
 11
3.61592
 21
3.57016
 31
0.0
  0
LINE
  8
0
  6
CONTINUOUS
 62
   250
 10
3.61592
 20
3.57016
 30
0.0
 11
3.61592
 21
3.55124
 31
0.0
  0
LINE
  8
0
  6
CONTINUOUS
 62
   250
 10
2.91632
 20
2.47368
 30
0.0
 11
2.91192
 21
2.47412
 31
0.0
  0
LINE
  8
0
  6
CONTINUOUS
 62
   250
 10
2.91192
 20
2.47412
 30
0.0
 11
2.90752
 21
2.475
 31
0.0
  0
LINE
  8
0
  6
CONTINUOUS
 62
   250
 10
2.90752
 20
2.475
 30
0.0
 11
2.90356
 21
2.4772
 31
0.0
  0
LINE
  8
0
  6
CONTINUOUS
 62
   250
 10
2.90356
 20
2.4772
 30
0.0
 11
2.90004
 21
2.4794
 31
0.0
  0
LINE
  8
0
  6
CONTINUOUS
 62
   250
 10
2.90004
 20
2.4794
 30
0.0
 11
2.89696
 21
2.48292
 31
0.0
  0
LINE
  8
0
  6
CONTINUOUS
 62
   250
 10
2.89696
 20
2.48292
 30
0.0
 11
2.89432
 21
2.48644
 31
0.0
  0
LINE
  8
0
  6
CONTINUOUS
 62
   250
 10
2.89432
 20
2.48644
 30
0.0
 11
2.89256
 21
2.4904
 31
0.0
  0
LINE
  8
0
  6
CONTINUOUS
 62
   250
 10
2.89256
 20
2.4904
 30
0.0
 11
2.89168
 21
2.49436
 31
0.0
  0
LINE
  8
0
  6
CONTINUOUS
 62
   250
 10
2.89168
 20
2.49436
 30
0.0
 11
2.89124
 21
2.49876
 31
0.0
  0
LINE
  8
0
  6
CONTINUOUS
 62
   250
 10
2.981
 20
2.84108
 30
0.0
 11
2.9832
 21
2.83976
 31
0.0
  0
LINE
  8
0
  6
CONTINUOUS
 62
   250
 10
2.9832
 20
2.83976
 30
0.0
 11
2.9854
 21
2.83932
 31
0.0
  0
LINE
  8
0
  6
CONTINUOUS
 62
   250
 10
2.9854
 20
2.83932
 30
0.0
 11
3.07384
 21
2.83932
 31
0.0
  0
LINE
  8
0
  6
CONTINUOUS
 62
   250
 10
3.07384
 20
2.83932
 30
0.0
 11
3.07604
 21
2.83976
 31
0.0
  0
LINE
  8
0
  6
CONTINUOUS
 62
   250
 10
3.07604
 20
2.83976
 30
0.0
 11
3.07824
 21
2.84108
 31
0.0
  0
LINE
  8
0
  6
CONTINUOUS
 62
   250
 10
3.07824
 20
2.84108
 30
0.0
 11
3.07956
 21
2.84284
 31
0.0
  0
LINE
  8
0
  6
CONTINUOUS
 62
   250
 10
3.07956
 20
2.84284
 30
0.0
 11
3.08
 21
2.84548
 31
0.0
  0
LINE
  8
0
  6
CONTINUOUS
 62
   250
 10
3.08
 20
2.84548
 30
0.0
 11
3.08
 21
3.02192
 31
0.0
  0
LINE
  8
0
  6
CONTINUOUS
 62
   250
 10
3.08
 20
3.02192
 30
0.0
 11
3.07956
 21
3.02412
 31
0.0
  0
LINE
  8
0
  6
CONTINUOUS
 62
   250
 10
3.07956
 20
3.02412
 30
0.0
 11
3.07824
 21
3.02632
 31
0.0
  0
LINE
  8
0
  6
CONTINUOUS
 62
   250
 10
3.07824
 20
3.02632
 30
0.0
 11
3.07604
 21
3.02764
 31
0.0
  0
LINE
  8
0
  6
CONTINUOUS
 62
   250
 10
3.07604
 20
3.02764
 30
0.0
 11
3.07384
 21
3.02808
 31
0.0
  0
LINE
  8
0
  6
CONTINUOUS
 62
   250
 10
3.07384
 20
3.047
 30
0.0
 11
3.07604
 21
3.04744
 31
0.0
  0
LINE
  8
0
  6
CONTINUOUS
 62
   250
 10
3.07604
 20
3.04744
 30
0.0
 11
3.07824
 21
3.04876
 31
0.0
  0
LINE
  8
0
  6
CONTINUOUS
 62
   250
 10
3.07824
 20
3.04876
 30
0.0
 11
3.07956
 21
3.05096
 31
0.0
  0
LINE
  8
0
  6
CONTINUOUS
 62
   250
 10
3.07956
 20
3.05096
 30
0.0
 11
3.08
 21
3.0536
 31
0.0
  0
LINE
  8
0
  6
CONTINUOUS
 62
   250
 10
3.08
 20
3.0536
 30
0.0
 11
3.08
 21
3.1856
 31
0.0
  0
LINE
  8
0
  6
CONTINUOUS
 62
   250
 10
3.08
 20
3.1856
 30
0.0
 11
3.07956
 21
3.18824
 31
0.0
  0
LINE
  8
0
  6
CONTINUOUS
 62
   250
 10
3.07956
 20
3.18824
 30
0.0
 11
3.07824
 21
3.19044
 31
0.0
  0
LINE
  8
0
  6
CONTINUOUS
 62
   250
 10
3.07824
 20
3.19044
 30
0.0
 11
3.07604
 21
3.19176
 31
0.0
  0
LINE
  8
0
  6
CONTINUOUS
 62
   250
 10
3.07604
 20
3.19176
 30
0.0
 11
3.07384
 21
3.1922
 31
0.0
  0
LINE
  8
0
  6
CONTINUOUS
 62
   250
 10
3.07384
 20
3.21112
 30
0.0
 11
3.07604
 21
3.21156
 31
0.0
  0
LINE
  8
0
  6
CONTINUOUS
 62
   250
 10
3.07604
 20
3.21156
 30
0.0
 11
3.07824
 21
3.21288
 31
0.0
  0
LINE
  8
0
  6
CONTINUOUS
 62
   250
 10
3.07824
 20
3.21288
 30
0.0
 11
3.07956
 21
3.21508
 31
0.0
  0
LINE
  8
0
  6
CONTINUOUS
 62
   250
 10
3.07956
 20
3.21508
 30
0.0
 11
3.08
 21
3.21728
 31
0.0
  0
LINE
  8
0
  6
CONTINUOUS
 62
   250
 10
3.08
 20
3.21728
 30
0.0
 11
3.08
 21
3.30572
 31
0.0
  0
LINE
  8
0
  6
CONTINUOUS
 62
   250
 10
3.08
 20
3.30572
 30
0.0
 11
3.07956
 21
3.30792
 31
0.0
  0
LINE
  8
0
  6
CONTINUOUS
 62
   250
 10
3.07956
 20
3.30792
 30
0.0
 11
3.07824
 21
3.30968
 31
0.0
  0
LINE
  8
0
  6
CONTINUOUS
 62
   250
 10
3.07824
 20
3.30968
 30
0.0
 11
3.07604
 21
3.31144
 31
0.0
  0
LINE
  8
0
  6
CONTINUOUS
 62
   250
 10
3.07604
 20
3.31144
 30
0.0
 11
3.07384
 21
3.31188
 31
0.0
  0
LINE
  8
0
  6
CONTINUOUS
 62
   250
 10
3.07384
 20
3.3308
 30
0.0
 11
3.07604
 21
3.33124
 31
0.0
  0
LINE
  8
0
  6
CONTINUOUS
 62
   250
 10
3.07604
 20
3.33124
 30
0.0
 11
3.07824
 21
3.33256
 31
0.0
  0
LINE
  8
0
  6
CONTINUOUS
 62
   250
 10
3.07824
 20
3.33256
 30
0.0
 11
3.07956
 21
3.33476
 31
0.0
  0
LINE
  8
0
  6
CONTINUOUS
 62
   250
 10
3.07956
 20
3.33476
 30
0.0
 11
3.08
 21
3.33696
 31
0.0
  0
LINE
  8
0
  6
CONTINUOUS
 62
   250
 10
3.08
 20
3.33696
 30
0.0
 11
3.08
 21
3.4254
 31
0.0
  0
LINE
  8
0
  6
CONTINUOUS
 62
   250
 10
3.08
 20
3.4254
 30
0.0
 11
3.07956
 21
3.4276
 31
0.0
  0
LINE
  8
0
  6
CONTINUOUS
 62
   250
 10
3.07956
 20
3.4276
 30
0.0
 11
3.07824
 21
3.4298
 31
0.0
  0
LINE
  8
0
  6
CONTINUOUS
 62
   250
 10
3.07824
 20
3.4298
 30
0.0
 11
3.07604
 21
3.43112
 31
0.0
  0
LINE
  8
0
  6
CONTINUOUS
 62
   250
 10
3.07604
 20
3.43112
 30
0.0
 11
3.07384
 21
3.43156
 31
0.0
  0
LINE
  8
0
  6
CONTINUOUS
 62
   250
 10
3.07384
 20
3.43156
 30
0.0
 11
2.9854
 21
3.43156
 31
0.0
  0
LINE
  8
0
  6
CONTINUOUS
 62
   250
 10
2.9854
 20
3.43156
 30
0.0
 11
2.9832
 21
3.43112
 31
0.0
  0
LINE
  8
0
  6
CONTINUOUS
 62
   250
 10
2.9832
 20
3.43112
 30
0.0
 11
2.981
 21
3.4298
 31
0.0
  0
LINE
  8
0
  6
CONTINUOUS
 62
   250
 10
2.981
 20
3.4298
 30
0.0
 11
2.97968
 21
3.4276
 31
0.0
  0
LINE
  8
0
  6
CONTINUOUS
 62
   250
 10
2.97968
 20
3.4276
 30
0.0
 11
2.97924
 21
3.4254
 31
0.0
  0
LINE
  8
0
  6
CONTINUOUS
 62
   250
 10
2.97924
 20
3.4254
 30
0.0
 11
2.97924
 21
3.4188
 31
0.0
  0
LINE
  8
0
  6
CONTINUOUS
 62
   250
 10
2.97924
 20
3.4188
 30
0.0
 11
3.06768
 21
3.4188
 31
0.0
  0
LINE
  8
0
  6
CONTINUOUS
 62
   250
 10
3.06768
 20
3.4188
 30
0.0
 11
3.01708
 21
3.4188
 31
0.0
  0
LINE
  8
0
  6
CONTINUOUS
 62
   250
 10
3.01708
 20
3.4188
 30
0.0
 11
2.97924
 21
3.4188
 31
0.0
  0
LINE
  8
0
  6
CONTINUOUS
 62
   250
 10
2.97924
 20
3.4188
 30
0.0
 11
2.97924
 21
3.34356
 31
0.0
  0
LINE
  8
0
  6
CONTINUOUS
 62
   250
 10
2.97924
 20
3.34356
 30
0.0
 11
2.97924
 21
3.33696
 31
0.0
  0
LINE
  8
0
  6
CONTINUOUS
 62
   250
 10
2.97924
 20
3.33696
 30
0.0
 11
2.97968
 21
3.33476
 31
0.0
  0
LINE
  8
0
  6
CONTINUOUS
 62
   250
 10
2.97968
 20
3.33476
 30
0.0
 11
2.981
 21
3.33256
 31
0.0
  0
LINE
  8
0
  6
CONTINUOUS
 62
   250
 10
2.981
 20
3.33256
 30
0.0
 11
2.9832
 21
3.33124
 31
0.0
  0
LINE
  8
0
  6
CONTINUOUS
 62
   250
 10
2.9832
 20
3.33124
 30
0.0
 11
2.9854
 21
3.3308
 31
0.0
  0
LINE
  8
0
  6
CONTINUOUS
 62
   250
 10
2.9854
 20
3.3308
 30
0.0
 11
3.07384
 21
3.3308
 31
0.0
  0
LINE
  8
0
  6
CONTINUOUS
 62
   250
 10
3.06768
 20
3.29912
 30
0.0
 11
3.01708
 21
3.29912
 31
0.0
  0
LINE
  8
0
  6
CONTINUOUS
 62
   250
 10
3.01708
 20
3.29912
 30
0.0
 11
2.97924
 21
3.29912
 31
0.0
  0
LINE
  8
0
  6
CONTINUOUS
 62
   250
 10
2.97924
 20
3.29912
 30
0.0
 11
3.06768
 21
3.29912
 31
0.0
  0
LINE
  8
0
  6
CONTINUOUS
 62
   250
 10
3.06768
 20
3.22344
 30
0.0
 11
3.01708
 21
3.22344
 31
0.0
  0
LINE
  8
0
  6
CONTINUOUS
 62
   250
 10
3.01708
 20
3.22344
 30
0.0
 11
2.97924
 21
3.22344
 31
0.0
  0
LINE
  8
0
  6
CONTINUOUS
 62
   250
 10
2.97924
 20
3.22344
 30
0.0
 11
2.97924
 21
3.21728
 31
0.0
  0
LINE
  8
0
  6
CONTINUOUS
 62
   250
 10
2.97924
 20
3.21728
 30
0.0
 11
2.97968
 21
3.21508
 31
0.0
  0
LINE
  8
0
  6
CONTINUOUS
 62
   250
 10
2.97968
 20
3.21508
 30
0.0
 11
2.981
 21
3.21288
 31
0.0
  0
LINE
  8
0
  6
CONTINUOUS
 62
   250
 10
2.981
 20
3.21288
 30
0.0
 11
2.9832
 21
3.21156
 31
0.0
  0
LINE
  8
0
  6
CONTINUOUS
 62
   250
 10
2.9832
 20
3.21156
 30
0.0
 11
2.9854
 21
3.21112
 31
0.0
  0
LINE
  8
0
  6
CONTINUOUS
 62
   250
 10
2.9854
 20
3.21112
 30
0.0
 11
3.07384
 21
3.21112
 31
0.0
  0
LINE
  8
0
  6
CONTINUOUS
 62
   250
 10
3.06768
 20
3.17944
 30
0.0
 11
3.01708
 21
3.17944
 31
0.0
  0
LINE
  8
0
  6
CONTINUOUS
 62
   250
 10
3.01708
 20
3.17944
 30
0.0
 11
3.06768
 21
3.17944
 31
0.0
  0
LINE
  8
0
  6
CONTINUOUS
 62
   250
 10
3.036
 20
3.22344
 30
0.0
 11
3.02984
 21
3.22344
 31
0.0
  0
LINE
  8
0
  6
CONTINUOUS
 62
   250
 10
3.03336
 20
3.2362
 30
0.0
 11
3.036
 21
3.2362
 31
0.0
  0
LINE
  8
0
  6
CONTINUOUS
 62
   250
 10
3.036
 20
3.2362
 30
0.0
 11
3.036
 21
3.24236
 31
0.0
  0
LINE
  8
0
  6
CONTINUOUS
 62
   250
 10
3.036
 20
3.24236
 30
0.0
 11
3.03336
 21
3.24236
 31
0.0
  0
LINE
  8
0
  6
CONTINUOUS
 62
   250
 10
2.97924
 20
3.22344
 30
0.0
 11
2.97924
 21
3.29912
 31
0.0
  0
LINE
  8
0
  6
CONTINUOUS
 62
   250
 10
2.97924
 20
3.29912
 30
0.0
 11
2.97924
 21
3.30572
 31
0.0
  0
LINE
  8
0
  6
CONTINUOUS
 62
   250
 10
2.97924
 20
3.30572
 30
0.0
 11
2.97968
 21
3.30792
 31
0.0
  0
LINE
  8
0
  6
CONTINUOUS
 62
   250
 10
2.97968
 20
3.30792
 30
0.0
 11
2.981
 21
3.30968
 31
0.0
  0
LINE
  8
0
  6
CONTINUOUS
 62
   250
 10
2.981
 20
3.30968
 30
0.0
 11
2.9832
 21
3.31144
 31
0.0
  0
LINE
  8
0
  6
CONTINUOUS
 62
   250
 10
2.9832
 20
3.31144
 30
0.0
 11
2.9854
 21
3.31188
 31
0.0
  0
LINE
  8
0
  6
CONTINUOUS
 62
   250
 10
2.9854
 20
3.1922
 30
0.0
 11
2.9832
 21
3.19176
 31
0.0
  0
LINE
  8
0
  6
CONTINUOUS
 62
   250
 10
2.9832
 20
3.19176
 30
0.0
 11
2.981
 21
3.19044
 31
0.0
  0
LINE
  8
0
  6
CONTINUOUS
 62
   250
 10
2.981
 20
3.19044
 30
0.0
 11
2.97968
 21
3.18824
 31
0.0
  0
LINE
  8
0
  6
CONTINUOUS
 62
   250
 10
2.97968
 20
3.18824
 30
0.0
 11
2.97924
 21
3.1856
 31
0.0
  0
LINE
  8
0
  6
CONTINUOUS
 62
   250
 10
2.97924
 20
3.1856
 30
0.0
 11
2.97924
 21
3.17944
 31
0.0
  0
LINE
  8
0
  6
CONTINUOUS
 62
   250
 10
2.97924
 20
3.17944
 30
0.0
 11
2.97924
 21
3.0536
 31
0.0
  0
LINE
  8
0
  6
CONTINUOUS
 62
   250
 10
2.97924
 20
3.0536
 30
0.0
 11
2.97968
 21
3.05096
 31
0.0
  0
LINE
  8
0
  6
CONTINUOUS
 62
   250
 10
2.97968
 20
3.05096
 30
0.0
 11
2.981
 21
3.04876
 31
0.0
  0
LINE
  8
0
  6
CONTINUOUS
 62
   250
 10
2.981
 20
3.04876
 30
0.0
 11
2.9832
 21
3.04744
 31
0.0
  0
LINE
  8
0
  6
CONTINUOUS
 62
   250
 10
2.9832
 20
3.04744
 30
0.0
 11
2.9854
 21
3.047
 31
0.0
  0
LINE
  8
0
  6
CONTINUOUS
 62
   250
 10
2.9854
 20
3.047
 30
0.0
 11
3.07384
 21
3.047
 31
0.0
  0
LINE
  8
0
  6
CONTINUOUS
 62
   250
 10
3.06768
 20
3.05976
 30
0.0
 11
2.9854
 21
3.05976
 31
0.0
  0
LINE
  8
0
  6
CONTINUOUS
 62
   250
 10
2.97924
 20
3.05976
 30
0.0
 11
3.01708
 21
3.05976
 31
0.0
  0
LINE
  8
0
  6
CONTINUOUS
 62
   250
 10
3.02984
 20
3.05976
 30
0.0
 11
3.036
 21
3.05976
 31
0.0
  0
LINE
  8
0
  6
CONTINUOUS
 62
   250
 10
2.97924
 20
3.05976
 30
0.0
 11
2.97924
 21
3.10376
 31
0.0
  0
LINE
  8
0
  6
CONTINUOUS
 62
   250
 10
2.97924
 20
3.10376
 30
0.0
 11
2.97924
 21
3.17944
 31
0.0
  0
LINE
  8
0
  6
CONTINUOUS
 62
   250
 10
2.97924
 20
3.10376
 30
0.0
 11
2.97924
 21
3.05976
 31
0.0
  0
LINE
  8
0
  6
CONTINUOUS
 62
   250
 10
2.981
 20
3.02632
 30
0.0
 11
2.97968
 21
3.02412
 31
0.0
  0
LINE
  8
0
  6
CONTINUOUS
 62
   250
 10
2.97968
 20
3.02412
 30
0.0
 11
2.97924
 21
3.02192
 31
0.0
  0
LINE
  8
0
  6
CONTINUOUS
 62
   250
 10
2.97924
 20
3.02192
 30
0.0
 11
2.97924
 21
3.01576
 31
0.0
  0
LINE
  8
0
  6
CONTINUOUS
 62
   250
 10
2.97924
 20
3.01576
 30
0.0
 11
3.06768
 21
3.01576
 31
0.0
  0
LINE
  8
0
  6
CONTINUOUS
 62
   250
 10
3.06768
 20
3.01576
 30
0.0
 11
3.01708
 21
3.01576
 31
0.0
  0
LINE
  8
0
  6
CONTINUOUS
 62
   250
 10
3.01708
 20
3.01576
 30
0.0
 11
2.97924
 21
3.01576
 31
0.0
  0
LINE
  8
0
  6
CONTINUOUS
 62
   250
 10
2.981
 20
3.02632
 30
0.0
 11
2.9832
 21
3.02764
 31
0.0
  0
LINE
  8
0
  6
CONTINUOUS
 62
   250
 10
2.9832
 20
3.02764
 30
0.0
 11
2.9854
 21
3.02808
 31
0.0
  0
LINE
  8
0
  6
CONTINUOUS
 62
   250
 10
2.9568
 20
2.99948
 30
0.0
 11
2.95416
 21
3.00124
 31
0.0
  0
LINE
  8
0
  6
CONTINUOUS
 62
   250
 10
2.95416
 20
3.00124
 30
0.0
 11
2.95108
 21
3.00256
 31
0.0
  0
LINE
  8
0
  6
CONTINUOUS
 62
   250
 10
2.95108
 20
3.00256
 30
0.0
 11
2.94756
 21
3.003
 31
0.0
  0
LINE
  8
0
  6
CONTINUOUS
 62
   250
 10
2.94756
 20
3.003
 30
0.0
 11
2.94448
 21
3.00256
 31
0.0
  0
LINE
  8
0
  6
CONTINUOUS
 62
   250
 10
2.94448
 20
3.00256
 30
0.0
 11
2.9414
 21
3.00124
 31
0.0
  0
LINE
  8
0
  6
CONTINUOUS
 62
   250
 10
2.9414
 20
3.00124
 30
0.0
 11
2.9392
 21
2.99948
 31
0.0
  0
LINE
  8
0
  6
CONTINUOUS
 62
   250
 10
2.9392
 20
2.99948
 30
0.0
 11
2.937
 21
2.99684
 31
0.0
  0
LINE
  8
0
  6
CONTINUOUS
 62
   250
 10
2.937
 20
2.99684
 30
0.0
 11
2.93568
 21
2.99376
 31
0.0
  0
LINE
  8
0
  6
CONTINUOUS
 62
   250
 10
2.93568
 20
2.99376
 30
0.0
 11
2.9348
 21
2.99024
 31
0.0
  0
LINE
  8
0
  6
CONTINUOUS
 62
   250
 10
2.9348
 20
2.99024
 30
0.0
 11
2.93568
 21
2.98716
 31
0.0
  0
LINE
  8
0
  6
CONTINUOUS
 62
   250
 10
2.93568
 20
2.98716
 30
0.0
 11
2.937
 21
2.98408
 31
0.0
  0
LINE
  8
0
  6
CONTINUOUS
 62
   250
 10
2.937
 20
2.98408
 30
0.0
 11
2.9392
 21
2.98144
 31
0.0
  0
LINE
  8
0
  6
CONTINUOUS
 62
   250
 10
2.9392
 20
2.98144
 30
0.0
 11
2.9414
 21
2.97924
 31
0.0
  0
LINE
  8
0
  6
CONTINUOUS
 62
   250
 10
2.9414
 20
2.97924
 30
0.0
 11
2.94448
 21
2.97836
 31
0.0
  0
LINE
  8
0
  6
CONTINUOUS
 62
   250
 10
2.94448
 20
2.97836
 30
0.0
 11
2.94756
 21
2.97792
 31
0.0
  0
LINE
  8
0
  6
CONTINUOUS
 62
   250
 10
2.94756
 20
2.97792
 30
0.0
 11
2.95108
 21
2.97836
 31
0.0
  0
LINE
  8
0
  6
CONTINUOUS
 62
   250
 10
2.95108
 20
2.97836
 30
0.0
 11
2.95416
 21
2.97924
 31
0.0
  0
LINE
  8
0
  6
CONTINUOUS
 62
   250
 10
2.95416
 20
2.97924
 30
0.0
 11
2.9568
 21
2.98144
 31
0.0
  0
LINE
  8
0
  6
CONTINUOUS
 62
   250
 10
2.9568
 20
2.98144
 30
0.0
 11
2.95856
 21
2.98408
 31
0.0
  0
LINE
  8
0
  6
CONTINUOUS
 62
   250
 10
2.95856
 20
2.98408
 30
0.0
 11
2.95988
 21
2.98716
 31
0.0
  0
LINE
  8
0
  6
CONTINUOUS
 62
   250
 10
2.95988
 20
2.98716
 30
0.0
 11
2.96032
 21
2.99024
 31
0.0
  0
LINE
  8
0
  6
CONTINUOUS
 62
   250
 10
2.96032
 20
2.99024
 30
0.0
 11
2.95988
 21
2.99376
 31
0.0
  0
LINE
  8
0
  6
CONTINUOUS
 62
   250
 10
2.95988
 20
2.99376
 30
0.0
 11
2.95856
 21
2.99684
 31
0.0
  0
LINE
  8
0
  6
CONTINUOUS
 62
   250
 10
2.95856
 20
2.99684
 30
0.0
 11
2.9568
 21
2.99948
 31
0.0
  0
LINE
  8
0
  6
CONTINUOUS
 62
   250
 10
2.9568
 20
2.9238
 30
0.0
 11
2.95416
 21
2.92556
 31
0.0
  0
LINE
  8
0
  6
CONTINUOUS
 62
   250
 10
2.95416
 20
2.92556
 30
0.0
 11
2.95108
 21
2.92688
 31
0.0
  0
LINE
  8
0
  6
CONTINUOUS
 62
   250
 10
2.95108
 20
2.92688
 30
0.0
 11
2.94756
 21
2.92732
 31
0.0
  0
LINE
  8
0
  6
CONTINUOUS
 62
   250
 10
2.94756
 20
2.92732
 30
0.0
 11
2.94448
 21
2.92688
 31
0.0
  0
LINE
  8
0
  6
CONTINUOUS
 62
   250
 10
2.94448
 20
2.92688
 30
0.0
 11
2.9414
 21
2.92556
 31
0.0
  0
LINE
  8
0
  6
CONTINUOUS
 62
   250
 10
2.9414
 20
2.92556
 30
0.0
 11
2.9392
 21
2.9238
 31
0.0
  0
LINE
  8
0
  6
CONTINUOUS
 62
   250
 10
2.9392
 20
2.9238
 30
0.0
 11
2.937
 21
2.92116
 31
0.0
  0
LINE
  8
0
  6
CONTINUOUS
 62
   250
 10
2.937
 20
2.92116
 30
0.0
 11
2.93568
 21
2.91808
 31
0.0
  0
LINE
  8
0
  6
CONTINUOUS
 62
   250
 10
2.93568
 20
2.91808
 30
0.0
 11
2.9348
 21
2.915
 31
0.0
  0
LINE
  8
0
  6
CONTINUOUS
 62
   250
 10
2.9348
 20
2.915
 30
0.0
 11
2.93568
 21
2.91148
 31
0.0
  0
LINE
  8
0
  6
CONTINUOUS
 62
   250
 10
2.93568
 20
2.91148
 30
0.0
 11
2.937
 21
2.9084
 31
0.0
  0
LINE
  8
0
  6
CONTINUOUS
 62
   250
 10
2.937
 20
2.9084
 30
0.0
 11
2.9392
 21
2.90576
 31
0.0
  0
LINE
  8
0
  6
CONTINUOUS
 62
   250
 10
2.9392
 20
2.90576
 30
0.0
 11
2.9414
 21
2.904
 31
0.0
  0
LINE
  8
0
  6
CONTINUOUS
 62
   250
 10
2.9414
 20
2.904
 30
0.0
 11
2.94448
 21
2.90268
 31
0.0
  0
LINE
  8
0
  6
CONTINUOUS
 62
   250
 10
2.94448
 20
2.90268
 30
0.0
 11
2.94756
 21
2.90224
 31
0.0
  0
LINE
  8
0
  6
CONTINUOUS
 62
   250
 10
2.94756
 20
2.90224
 30
0.0
 11
2.95108
 21
2.90268
 31
0.0
  0
LINE
  8
0
  6
CONTINUOUS
 62
   250
 10
2.95108
 20
2.90268
 30
0.0
 11
2.95416
 21
2.904
 31
0.0
  0
LINE
  8
0
  6
CONTINUOUS
 62
   250
 10
2.95416
 20
2.904
 30
0.0
 11
2.9568
 21
2.90576
 31
0.0
  0
LINE
  8
0
  6
CONTINUOUS
 62
   250
 10
2.9568
 20
2.90576
 30
0.0
 11
2.95856
 21
2.9084
 31
0.0
  0
LINE
  8
0
  6
CONTINUOUS
 62
   250
 10
2.95856
 20
2.9084
 30
0.0
 11
2.95988
 21
2.91148
 31
0.0
  0
LINE
  8
0
  6
CONTINUOUS
 62
   250
 10
2.95988
 20
2.91148
 30
0.0
 11
2.96032
 21
2.915
 31
0.0
  0
LINE
  8
0
  6
CONTINUOUS
 62
   250
 10
2.96032
 20
2.915
 30
0.0
 11
2.95988
 21
2.91808
 31
0.0
  0
LINE
  8
0
  6
CONTINUOUS
 62
   250
 10
2.95988
 20
2.91808
 30
0.0
 11
2.95856
 21
2.92116
 31
0.0
  0
LINE
  8
0
  6
CONTINUOUS
 62
   250
 10
2.95856
 20
2.92116
 30
0.0
 11
2.9568
 21
2.9238
 31
0.0
  0
LINE
  8
0
  6
CONTINUOUS
 62
   250
 10
2.97924
 20
2.85824
 30
0.0
 11
2.97924
 21
2.84548
 31
0.0
  0
LINE
  8
0
  6
CONTINUOUS
 62
   250
 10
2.97924
 20
2.84548
 30
0.0
 11
2.97968
 21
2.84284
 31
0.0
  0
LINE
  8
0
  6
CONTINUOUS
 62
   250
 10
2.97968
 20
2.84284
 30
0.0
 11
2.981
 21
2.84108
 31
0.0
  0
LINE
  8
0
  6
CONTINUOUS
 62
   250
 10
3.01488
 20
2.77596
 30
0.0
 11
3.0008
 21
2.75088
 31
0.0
  0
LINE
  8
0
  6
CONTINUOUS
 62
   250
 10
3.0008
 20
2.75088
 30
0.0
 11
3.01488
 21
2.7258
 31
0.0
  0
LINE
  8
0
  6
CONTINUOUS
 62
   250
 10
3.01488
 20
2.7258
 30
0.0
 11
3.04436
 21
2.7258
 31
0.0
  0
LINE
  8
0
  6
CONTINUOUS
 62
   250
 10
3.04436
 20
2.7258
 30
0.0
 11
3.05888
 21
2.75088
 31
0.0
  0
LINE
  8
0
  6
CONTINUOUS
 62
   250
 10
3.05888
 20
2.75088
 30
0.0
 11
3.04436
 21
2.77596
 31
0.0
  0
LINE
  8
0
  6
CONTINUOUS
 62
   250
 10
3.04436
 20
2.77596
 30
0.0
 11
3.01488
 21
2.77596
 31
0.0
  0
LINE
  8
0
  6
CONTINUOUS
 62
   250
 10
3.10596
 20
2.7918
 30
0.0
 11
3.10508
 21
2.79488
 31
0.0
  0
LINE
  8
0
  6
CONTINUOUS
 62
   250
 10
3.10508
 20
2.79488
 30
0.0
 11
3.10596
 21
2.7984
 31
0.0
  0
LINE
  8
0
  6
CONTINUOUS
 62
   250
 10
3.10596
 20
2.7984
 30
0.0
 11
3.10684
 21
2.80148
 31
0.0
  0
LINE
  8
0
  6
CONTINUOUS
 62
   250
 10
3.10684
 20
2.80148
 30
0.0
 11
3.10904
 21
2.80368
 31
0.0
  0
LINE
  8
0
  6
CONTINUOUS
 62
   250
 10
3.10904
 20
2.80368
 30
0.0
 11
3.11168
 21
2.80588
 31
0.0
  0
LINE
  8
0
  6
CONTINUOUS
 62
   250
 10
3.11168
 20
2.80588
 30
0.0
 11
3.11476
 21
2.8072
 31
0.0
  0
LINE
  8
0
  6
CONTINUOUS
 62
   250
 10
3.11476
 20
2.8072
 30
0.0
 11
3.11784
 21
2.80764
 31
0.0
  0
LINE
  8
0
  6
CONTINUOUS
 62
   250
 10
3.11784
 20
2.80764
 30
0.0
 11
3.12136
 21
2.8072
 31
0.0
  0
LINE
  8
0
  6
CONTINUOUS
 62
   250
 10
3.12136
 20
2.8072
 30
0.0
 11
3.124
 21
2.80588
 31
0.0
  0
LINE
  8
0
  6
CONTINUOUS
 62
   250
 10
3.124
 20
2.80588
 30
0.0
 11
3.12664
 21
2.80368
 31
0.0
  0
LINE
  8
0
  6
CONTINUOUS
 62
   250
 10
3.12664
 20
2.80368
 30
0.0
 11
3.12884
 21
2.80148
 31
0.0
  0
LINE
  8
0
  6
CONTINUOUS
 62
   250
 10
3.12884
 20
2.80148
 30
0.0
 11
3.13016
 21
2.7984
 31
0.0
  0
LINE
  8
0
  6
CONTINUOUS
 62
   250
 10
3.13016
 20
2.7984
 30
0.0
 11
3.1306
 21
2.79488
 31
0.0
  0
LINE
  8
0
  6
CONTINUOUS
 62
   250
 10
3.1306
 20
2.79488
 30
0.0
 11
3.13016
 21
2.7918
 31
0.0
  0
LINE
  8
0
  6
CONTINUOUS
 62
   250
 10
3.13016
 20
2.7918
 30
0.0
 11
3.12884
 21
2.78872
 31
0.0
  0
LINE
  8
0
  6
CONTINUOUS
 62
   250
 10
3.12884
 20
2.78872
 30
0.0
 11
3.12664
 21
2.78608
 31
0.0
  0
LINE
  8
0
  6
CONTINUOUS
 62
   250
 10
3.12664
 20
2.78608
 30
0.0
 11
3.124
 21
2.78388
 31
0.0
  0
LINE
  8
0
  6
CONTINUOUS
 62
   250
 10
3.124
 20
2.78388
 30
0.0
 11
3.12136
 21
2.783
 31
0.0
  0
LINE
  8
0
  6
CONTINUOUS
 62
   250
 10
3.12136
 20
2.783
 30
0.0
 11
3.11784
 21
2.78256
 31
0.0
  0
LINE
  8
0
  6
CONTINUOUS
 62
   250
 10
3.11784
 20
2.78256
 30
0.0
 11
3.11476
 21
2.783
 31
0.0
  0
LINE
  8
0
  6
CONTINUOUS
 62
   250
 10
3.11476
 20
2.783
 30
0.0
 11
3.11168
 21
2.78388
 31
0.0
  0
LINE
  8
0
  6
CONTINUOUS
 62
   250
 10
3.11168
 20
2.78388
 30
0.0
 11
3.10904
 21
2.78608
 31
0.0
  0
LINE
  8
0
  6
CONTINUOUS
 62
   250
 10
3.10904
 20
2.78608
 30
0.0
 11
3.10684
 21
2.78872
 31
0.0
  0
LINE
  8
0
  6
CONTINUOUS
 62
   250
 10
3.10684
 20
2.78872
 30
0.0
 11
3.10596
 21
2.7918
 31
0.0
  0
LINE
  8
0
  6
CONTINUOUS
 62
   250
 10
3.10904
 20
2.7412
 30
0.0
 11
3.10684
 21
2.73812
 31
0.0
  0
LINE
  8
0
  6
CONTINUOUS
 62
   250
 10
3.10684
 20
2.73812
 30
0.0
 11
3.10596
 21
2.73548
 31
0.0
  0
LINE
  8
0
  6
CONTINUOUS
 62
   250
 10
3.10596
 20
2.73548
 30
0.0
 11
3.10508
 21
2.73196
 31
0.0
  0
LINE
  8
0
  6
CONTINUOUS
 62
   250
 10
3.10508
 20
2.73196
 30
0.0
 11
3.10596
 21
2.72844
 31
0.0
  0
LINE
  8
0
  6
CONTINUOUS
 62
   250
 10
3.10596
 20
2.72844
 30
0.0
 11
3.10684
 21
2.7258
 31
0.0
  0
LINE
  8
0
  6
CONTINUOUS
 62
   250
 10
3.10684
 20
2.7258
 30
0.0
 11
3.10904
 21
2.72316
 31
0.0
  0
LINE
  8
0
  6
CONTINUOUS
 62
   250
 10
3.10904
 20
2.72316
 30
0.0
 11
3.11168
 21
2.72096
 31
0.0
  0
LINE
  8
0
  6
CONTINUOUS
 62
   250
 10
3.11168
 20
2.72096
 30
0.0
 11
3.11476
 21
2.71964
 31
0.0
  0
LINE
  8
0
  6
CONTINUOUS
 62
   250
 10
3.11476
 20
2.71964
 30
0.0
 11
3.11784
 21
2.7192
 31
0.0
  0
LINE
  8
0
  6
CONTINUOUS
 62
   250
 10
3.11784
 20
2.7192
 30
0.0
 11
3.12136
 21
2.71964
 31
0.0
  0
LINE
  8
0
  6
CONTINUOUS
 62
   250
 10
3.12136
 20
2.71964
 30
0.0
 11
3.124
 21
2.72096
 31
0.0
  0
LINE
  8
0
  6
CONTINUOUS
 62
   250
 10
3.124
 20
2.72096
 30
0.0
 11
3.12664
 21
2.72316
 31
0.0
  0
LINE
  8
0
  6
CONTINUOUS
 62
   250
 10
3.12664
 20
2.72316
 30
0.0
 11
3.12884
 21
2.7258
 31
0.0
  0
LINE
  8
0
  6
CONTINUOUS
 62
   250
 10
3.12884
 20
2.7258
 30
0.0
 11
3.13016
 21
2.72844
 31
0.0
  0
LINE
  8
0
  6
CONTINUOUS
 62
   250
 10
3.13016
 20
2.72844
 30
0.0
 11
3.1306
 21
2.73196
 31
0.0
  0
LINE
  8
0
  6
CONTINUOUS
 62
   250
 10
3.1306
 20
2.73196
 30
0.0
 11
3.13016
 21
2.73548
 31
0.0
  0
LINE
  8
0
  6
CONTINUOUS
 62
   250
 10
3.13016
 20
2.73548
 30
0.0
 11
3.12884
 21
2.73812
 31
0.0
  0
LINE
  8
0
  6
CONTINUOUS
 62
   250
 10
3.12884
 20
2.73812
 30
0.0
 11
3.12664
 21
2.7412
 31
0.0
  0
LINE
  8
0
  6
CONTINUOUS
 62
   250
 10
3.12664
 20
2.7412
 30
0.0
 11
3.124
 21
2.74296
 31
0.0
  0
LINE
  8
0
  6
CONTINUOUS
 62
   250
 10
3.124
 20
2.74296
 30
0.0
 11
3.12136
 21
2.74428
 31
0.0
  0
LINE
  8
0
  6
CONTINUOUS
 62
   250
 10
3.12136
 20
2.74428
 30
0.0
 11
3.11784
 21
2.74472
 31
0.0
  0
LINE
  8
0
  6
CONTINUOUS
 62
   250
 10
3.11784
 20
2.74472
 30
0.0
 11
3.11476
 21
2.74428
 31
0.0
  0
LINE
  8
0
  6
CONTINUOUS
 62
   250
 10
3.11476
 20
2.74428
 30
0.0
 11
3.11168
 21
2.74296
 31
0.0
  0
LINE
  8
0
  6
CONTINUOUS
 62
   250
 10
3.11168
 20
2.74296
 30
0.0
 11
3.10904
 21
2.7412
 31
0.0
  0
LINE
  8
0
  6
CONTINUOUS
 62
   250
 10
3.10904
 20
2.67784
 30
0.0
 11
3.10684
 21
2.6752
 31
0.0
  0
LINE
  8
0
  6
CONTINUOUS
 62
   250
 10
3.10684
 20
2.6752
 30
0.0
 11
3.10596
 21
2.67212
 31
0.0
  0
LINE
  8
0
  6
CONTINUOUS
 62
   250
 10
3.10596
 20
2.67212
 30
0.0
 11
3.10508
 21
2.66904
 31
0.0
  0
LINE
  8
0
  6
CONTINUOUS
 62
   250
 10
3.10508
 20
2.66904
 30
0.0
 11
3.10596
 21
2.66596
 31
0.0
  0
LINE
  8
0
  6
CONTINUOUS
 62
   250
 10
3.10596
 20
2.66596
 30
0.0
 11
3.10684
 21
2.66288
 31
0.0
  0
LINE
  8
0
  6
CONTINUOUS
 62
   250
 10
3.10684
 20
2.66288
 30
0.0
 11
3.10904
 21
2.66024
 31
0.0
  0
LINE
  8
0
  6
CONTINUOUS
 62
   250
 10
3.10904
 20
2.66024
 30
0.0
 11
3.11168
 21
2.65804
 31
0.0
  0
LINE
  8
0
  6
CONTINUOUS
 62
   250
 10
3.11168
 20
2.65804
 30
0.0
 11
3.11476
 21
2.65672
 31
0.0
  0
LINE
  8
0
  6
CONTINUOUS
 62
   250
 10
3.11476
 20
2.65672
 30
0.0
 11
3.11784
 21
2.65628
 31
0.0
  0
LINE
  8
0
  6
CONTINUOUS
 62
   250
 10
3.11784
 20
2.65628
 30
0.0
 11
3.12136
 21
2.65672
 31
0.0
  0
LINE
  8
0
  6
CONTINUOUS
 62
   250
 10
3.12136
 20
2.65672
 30
0.0
 11
3.124
 21
2.65804
 31
0.0
  0
LINE
  8
0
  6
CONTINUOUS
 62
   250
 10
3.124
 20
2.65804
 30
0.0
 11
3.12664
 21
2.66024
 31
0.0
  0
LINE
  8
0
  6
CONTINUOUS
 62
   250
 10
3.12664
 20
2.66024
 30
0.0
 11
3.12884
 21
2.66288
 31
0.0
  0
LINE
  8
0
  6
CONTINUOUS
 62
   250
 10
3.12884
 20
2.66288
 30
0.0
 11
3.13016
 21
2.66596
 31
0.0
  0
LINE
  8
0
  6
CONTINUOUS
 62
   250
 10
3.13016
 20
2.66596
 30
0.0
 11
3.1306
 21
2.66904
 31
0.0
  0
LINE
  8
0
  6
CONTINUOUS
 62
   250
 10
3.1306
 20
2.66904
 30
0.0
 11
3.13016
 21
2.67212
 31
0.0
  0
LINE
  8
0
  6
CONTINUOUS
 62
   250
 10
3.13016
 20
2.67212
 30
0.0
 11
3.12884
 21
2.6752
 31
0.0
  0
LINE
  8
0
  6
CONTINUOUS
 62
   250
 10
3.12884
 20
2.6752
 30
0.0
 11
3.12664
 21
2.67784
 31
0.0
  0
LINE
  8
0
  6
CONTINUOUS
 62
   250
 10
3.12664
 20
2.67784
 30
0.0
 11
3.124
 21
2.68004
 31
0.0
  0
LINE
  8
0
  6
CONTINUOUS
 62
   250
 10
3.124
 20
2.68004
 30
0.0
 11
3.12136
 21
2.68136
 31
0.0
  0
LINE
  8
0
  6
CONTINUOUS
 62
   250
 10
3.12136
 20
2.68136
 30
0.0
 11
3.11784
 21
2.6818
 31
0.0
  0
LINE
  8
0
  6
CONTINUOUS
 62
   250
 10
3.11784
 20
2.6818
 30
0.0
 11
3.11476
 21
2.68136
 31
0.0
  0
LINE
  8
0
  6
CONTINUOUS
 62
   250
 10
3.11476
 20
2.68136
 30
0.0
 11
3.11168
 21
2.68004
 31
0.0
  0
LINE
  8
0
  6
CONTINUOUS
 62
   250
 10
3.11168
 20
2.68004
 30
0.0
 11
3.10904
 21
2.67784
 31
0.0
  0
LINE
  8
0
  6
CONTINUOUS
 62
   250
 10
3.10508
 20
2.66904
 30
0.0
 11
3.1306
 21
2.66904
 31
0.0
  0
LINE
  8
0
  6
CONTINUOUS
 62
   250
 10
3.25292
 20
2.44244
 30
0.0
 11
3.24984
 21
2.43936
 31
0.0
  0
LINE
  8
0
  6
CONTINUOUS
 62
   250
 10
3.24984
 20
2.43936
 30
0.0
 11
3.2472
 21
2.43584
 31
0.0
  0
LINE
  8
0
  6
CONTINUOUS
 62
   250
 10
3.2472
 20
2.43584
 30
0.0
 11
3.24544
 21
2.43188
 31
0.0
  0
LINE
  8
0
  6
CONTINUOUS
 62
   250
 10
3.24544
 20
2.43188
 30
0.0
 11
3.24412
 21
2.42748
 31
0.0
  0
LINE
  8
0
  6
CONTINUOUS
 62
   250
 10
3.24412
 20
2.42748
 30
0.0
 11
3.24368
 21
2.42308
 31
0.0
  0
LINE
  8
0
  6
CONTINUOUS
 62
   250
 10
3.24368
 20
2.42308
 30
0.0
 11
3.24412
 21
2.41868
 31
0.0
  0
LINE
  8
0
  6
CONTINUOUS
 62
   250
 10
3.24412
 20
2.41868
 30
0.0
 11
3.24544
 21
2.41472
 31
0.0
  0
LINE
  8
0
  6
CONTINUOUS
 62
   250
 10
3.24544
 20
2.41472
 30
0.0
 11
3.2472
 21
2.41076
 31
0.0
  0
LINE
  8
0
  6
CONTINUOUS
 62
   250
 10
3.2472
 20
2.41076
 30
0.0
 11
3.24984
 21
2.40724
 31
0.0
  0
LINE
  8
0
  6
CONTINUOUS
 62
   250
 10
3.24984
 20
2.40724
 30
0.0
 11
3.25292
 21
2.40372
 31
0.0
  0
LINE
  8
0
  6
CONTINUOUS
 62
   250
 10
3.25292
 20
2.40372
 30
0.0
 11
3.25688
 21
2.40152
 31
0.0
  0
LINE
  8
0
  6
CONTINUOUS
 62
   250
 10
3.25688
 20
2.40152
 30
0.0
 11
3.2604
 21
2.39976
 31
0.0
  0
LINE
  8
0
  6
CONTINUOUS
 62
   250
 10
3.2604
 20
2.39976
 30
0.0
 11
3.2648
 21
2.39844
 31
0.0
  0
LINE
  8
0
  6
CONTINUOUS
 62
   250
 10
3.2648
 20
2.39844
 30
0.0
 11
3.2692
 21
2.398
 31
0.0
  0
LINE
  8
0
  6
CONTINUOUS
 62
   250
 10
3.2692
 20
2.398
 30
0.0
 11
3.2736
 21
2.39844
 31
0.0
  0
LINE
  8
0
  6
CONTINUOUS
 62
   250
 10
3.2736
 20
2.39844
 30
0.0
 11
3.278
 21
2.39976
 31
0.0
  0
LINE
  8
0
  6
CONTINUOUS
 62
   250
 10
3.278
 20
2.39976
 30
0.0
 11
3.28152
 21
2.40152
 31
0.0
  0
LINE
  8
0
  6
CONTINUOUS
 62
   250
 10
3.28152
 20
2.40152
 30
0.0
 11
3.28548
 21
2.40372
 31
0.0
  0
LINE
  8
0
  6
CONTINUOUS
 62
   250
 10
3.28548
 20
2.40372
 30
0.0
 11
3.28856
 21
2.40724
 31
0.0
  0
LINE
  8
0
  6
CONTINUOUS
 62
   250
 10
3.28856
 20
2.40724
 30
0.0
 11
3.2912
 21
2.41076
 31
0.0
  0
LINE
  8
0
  6
CONTINUOUS
 62
   250
 10
3.2912
 20
2.41076
 30
0.0
 11
3.29296
 21
2.41472
 31
0.0
  0
LINE
  8
0
  6
CONTINUOUS
 62
   250
 10
3.29296
 20
2.41472
 30
0.0
 11
3.29428
 21
2.41868
 31
0.0
  0
LINE
  8
0
  6
CONTINUOUS
 62
   250
 10
3.29428
 20
2.41868
 30
0.0
 11
3.29428
 21
2.42308
 31
0.0
  0
LINE
  8
0
  6
CONTINUOUS
 62
   250
 10
3.29428
 20
2.42308
 30
0.0
 11
3.29428
 21
2.42748
 31
0.0
  0
LINE
  8
0
  6
CONTINUOUS
 62
   250
 10
3.29428
 20
2.42748
 30
0.0
 11
3.29296
 21
2.43188
 31
0.0
  0
LINE
  8
0
  6
CONTINUOUS
 62
   250
 10
3.29296
 20
2.43188
 30
0.0
 11
3.2912
 21
2.43584
 31
0.0
  0
LINE
  8
0
  6
CONTINUOUS
 62
   250
 10
3.2912
 20
2.43584
 30
0.0
 11
3.28856
 21
2.43936
 31
0.0
  0
LINE
  8
0
  6
CONTINUOUS
 62
   250
 10
3.28856
 20
2.43936
 30
0.0
 11
3.28548
 21
2.44244
 31
0.0
  0
LINE
  8
0
  6
CONTINUOUS
 62
   250
 10
3.28548
 20
2.44244
 30
0.0
 11
3.28152
 21
2.44508
 31
0.0
  0
LINE
  8
0
  6
CONTINUOUS
 62
   250
 10
3.28152
 20
2.44508
 30
0.0
 11
3.278
 21
2.44684
 31
0.0
  0
LINE
  8
0
  6
CONTINUOUS
 62
   250
 10
3.278
 20
2.44684
 30
0.0
 11
3.2736
 21
2.44816
 31
0.0
  0
LINE
  8
0
  6
CONTINUOUS
 62
   250
 10
3.2736
 20
2.44816
 30
0.0
 11
3.2692
 21
2.4486
 31
0.0
  0
LINE
  8
0
  6
CONTINUOUS
 62
   250
 10
3.2692
 20
2.4486
 30
0.0
 11
3.2648
 21
2.44816
 31
0.0
  0
LINE
  8
0
  6
CONTINUOUS
 62
   250
 10
3.2648
 20
2.44816
 30
0.0
 11
3.2604
 21
2.44684
 31
0.0
  0
LINE
  8
0
  6
CONTINUOUS
 62
   250
 10
3.2604
 20
2.44684
 30
0.0
 11
3.25688
 21
2.44508
 31
0.0
  0
LINE
  8
0
  6
CONTINUOUS
 62
   250
 10
3.25688
 20
2.44508
 30
0.0
 11
3.25292
 21
2.44244
 31
0.0
  0
LINE
  8
0
  6
CONTINUOUS
 62
   250
 10
3.00344
 20
2.37292
 30
0.0
 11
3.53496
 21
2.37292
 31
0.0
  0
LINE
  8
0
  6
CONTINUOUS
 62
   250
 10
3.53496
 20
2.37292
 30
0.0
 11
3.53936
 21
2.37292
 31
0.0
  0
LINE
  8
0
  6
CONTINUOUS
 62
   250
 10
3.53936
 20
2.37292
 30
0.0
 11
3.54332
 21
2.37424
 31
0.0
  0
LINE
  8
0
  6
CONTINUOUS
 62
   250
 10
3.54332
 20
2.37424
 30
0.0
 11
3.54728
 21
2.376
 31
0.0
  0
LINE
  8
0
  6
CONTINUOUS
 62
   250
 10
3.54728
 20
2.376
 30
0.0
 11
3.5508
 21
2.37864
 31
0.0
  0
LINE
  8
0
  6
CONTINUOUS
 62
   250
 10
3.5508
 20
2.37864
 30
0.0
 11
3.55388
 21
2.38128
 31
0.0
  0
LINE
  8
0
  6
CONTINUOUS
 62
   250
 10
3.55388
 20
2.38128
 30
0.0
 11
3.641
 21
2.48248
 31
0.0
  0
LINE
  8
0
  6
CONTINUOUS
 62
   250
 10
3.553
 20
3.27404
 30
0.0
 11
3.48964
 21
3.27404
 31
0.0
  0
LINE
  8
0
  6
CONTINUOUS
 62
   250
 10
3.48964
 20
3.29296
 30
0.0
 11
3.553
 21
3.29296
 31
0.0
  0
LINE
  8
0
  6
CONTINUOUS
 62
   250
 10
3.553
 20
3.29296
 30
0.0
 11
3.5552
 21
3.2934
 31
0.0
  0
LINE
  8
0
  6
CONTINUOUS
 62
   250
 10
3.5552
 20
3.2934
 30
0.0
 11
3.55696
 21
3.29472
 31
0.0
  0
LINE
  8
0
  6
CONTINUOUS
 62
   250
 10
3.55696
 20
3.29472
 30
0.0
 11
3.55828
 21
3.29692
 31
0.0
  0
LINE
  8
0
  6
CONTINUOUS
 62
   250
 10
3.55828
 20
3.29692
 30
0.0
 11
3.55916
 21
3.29912
 31
0.0
  0
LINE
  8
0
  6
CONTINUOUS
 62
   250
 10
3.55916
 20
3.29912
 30
0.0
 11
3.55916
 21
3.45048
 31
0.0
  0
LINE
  8
0
  6
CONTINUOUS
 62
   250
 10
3.55916
 20
3.45048
 30
0.0
 11
3.55828
 21
3.45312
 31
0.0
  0
LINE
  8
0
  6
CONTINUOUS
 62
   250
 10
3.55828
 20
3.45312
 30
0.0
 11
3.55696
 21
3.45488
 31
0.0
  0
LINE
  8
0
  6
CONTINUOUS
 62
   250
 10
3.55696
 20
3.45488
 30
0.0
 11
3.5552
 21
3.4562
 31
0.0
  0
LINE
  8
0
  6
CONTINUOUS
 62
   250
 10
3.5552
 20
3.4562
 30
0.0
 11
3.553
 21
3.45664
 31
0.0
  0
LINE
  8
0
  6
CONTINUOUS
 62
   250
 10
3.553
 20
3.45664
 30
0.0
 11
3.48964
 21
3.45664
 31
0.0
  0
LINE
  8
0
  6
CONTINUOUS
 62
   250
 10
3.48964
 20
3.45664
 30
0.0
 11
3.48744
 21
3.4562
 31
0.0
  0
LINE
  8
0
  6
CONTINUOUS
 62
   250
 10
3.48744
 20
3.4562
 30
0.0
 11
3.48524
 21
3.45488
 31
0.0
  0
LINE
  8
0
  6
CONTINUOUS
 62
   250
 10
3.48524
 20
3.45488
 30
0.0
 11
3.48392
 21
3.45312
 31
0.0
  0
LINE
  8
0
  6
CONTINUOUS
 62
   250
 10
3.48392
 20
3.45312
 30
0.0
 11
3.48348
 21
3.45048
 31
0.0
  0
LINE
  8
0
  6
CONTINUOUS
 62
   250
 10
3.48348
 20
3.45048
 30
0.0
 11
3.48348
 21
3.29912
 31
0.0
  0
LINE
  8
0
  6
CONTINUOUS
 62
   250
 10
3.48348
 20
3.29912
 30
0.0
 11
3.48392
 21
3.29692
 31
0.0
  0
LINE
  8
0
  6
CONTINUOUS
 62
   250
 10
3.48392
 20
3.29692
 30
0.0
 11
3.48524
 21
3.29472
 31
0.0
  0
LINE
  8
0
  6
CONTINUOUS
 62
   250
 10
3.48524
 20
3.29472
 30
0.0
 11
3.48744
 21
3.2934
 31
0.0
  0
LINE
  8
0
  6
CONTINUOUS
 62
   250
 10
3.48744
 20
3.2934
 30
0.0
 11
3.48964
 21
3.29296
 31
0.0
  0
LINE
  8
0
  6
CONTINUOUS
 62
   250
 10
3.50548
 20
3.33388
 30
0.0
 11
3.51164
 21
3.33388
 31
0.0
  0
LINE
  8
0
  6
CONTINUOUS
 62
   250
 10
3.51164
 20
3.33388
 30
0.0
 11
3.51164
 21
3.34048
 31
0.0
  0
LINE
  8
0
  6
CONTINUOUS
 62
   250
 10
3.51164
 20
3.34048
 30
0.0
 11
3.50856
 21
3.34048
 31
0.0
  0
LINE
  8
0
  6
CONTINUOUS
 62
   250
 10
3.50856
 20
3.34048
 30
0.0
 11
3.50548
 21
3.34048
 31
0.0
  0
LINE
  8
0
  6
CONTINUOUS
 62
   250
 10
3.50548
 20
3.34048
 30
0.0
 11
3.50548
 21
3.33388
 31
0.0
  0
LINE
  8
0
  6
CONTINUOUS
 62
   250
 10
3.50548
 20
3.3528
 30
0.0
 11
3.50856
 21
3.3528
 31
0.0
  0
LINE
  8
0
  6
CONTINUOUS
 62
   250
 10
3.50856
 20
3.3528
 30
0.0
 11
3.51164
 21
3.3528
 31
0.0
  0
LINE
  8
0
  6
CONTINUOUS
 62
   250
 10
3.51164
 20
3.3528
 30
0.0
 11
3.51164
 21
3.3594
 31
0.0
  0
LINE
  8
0
  6
CONTINUOUS
 62
   250
 10
3.51164
 20
3.3594
 30
0.0
 11
3.50856
 21
3.3594
 31
0.0
  0
LINE
  8
0
  6
CONTINUOUS
 62
   250
 10
3.50856
 20
3.3594
 30
0.0
 11
3.50548
 21
3.3594
 31
0.0
  0
LINE
  8
0
  6
CONTINUOUS
 62
   250
 10
3.50548
 20
3.3594
 30
0.0
 11
3.50548
 21
3.3528
 31
0.0
  0
LINE
  8
0
  6
CONTINUOUS
 62
   250
 10
3.50548
 20
3.37172
 30
0.0
 11
3.50856
 21
3.37172
 31
0.0
  0
LINE
  8
0
  6
CONTINUOUS
 62
   250
 10
3.50856
 20
3.37172
 30
0.0
 11
3.51164
 21
3.37172
 31
0.0
  0
LINE
  8
0
  6
CONTINUOUS
 62
   250
 10
3.51164
 20
3.37172
 30
0.0
 11
3.51164
 21
3.37832
 31
0.0
  0
LINE
  8
0
  6
CONTINUOUS
 62
   250
 10
3.51164
 20
3.37832
 30
0.0
 11
3.50548
 21
3.37832
 31
0.0
  0
LINE
  8
0
  6
CONTINUOUS
 62
   250
 10
3.50548
 20
3.37832
 30
0.0
 11
3.50548
 21
3.37172
 31
0.0
  0
LINE
  8
0
  6
CONTINUOUS
 62
   250
 10
3.50548
 20
3.39064
 30
0.0
 11
3.51164
 21
3.39064
 31
0.0
  0
LINE
  8
0
  6
CONTINUOUS
 62
   250
 10
3.51164
 20
3.39064
 30
0.0
 11
3.51164
 21
3.39724
 31
0.0
  0
LINE
  8
0
  6
CONTINUOUS
 62
   250
 10
3.51164
 20
3.39724
 30
0.0
 11
3.50548
 21
3.39724
 31
0.0
  0
LINE
  8
0
  6
CONTINUOUS
 62
   250
 10
3.50548
 20
3.39724
 30
0.0
 11
3.50548
 21
3.39064
 31
0.0
  0
LINE
  8
0
  6
CONTINUOUS
 62
   250
 10
3.50548
 20
3.40956
 30
0.0
 11
3.51164
 21
3.40956
 31
0.0
  0
LINE
  8
0
  6
CONTINUOUS
 62
   250
 10
3.51164
 20
3.40956
 30
0.0
 11
3.51164
 21
3.41
 31
0.0
  0
LINE
  8
0
  6
CONTINUOUS
 62
   250
 10
3.51164
 20
3.41
 30
0.0
 11
3.51164
 21
3.41616
 31
0.0
  0
LINE
  8
0
  6
CONTINUOUS
 62
   250
 10
3.51164
 20
3.41616
 30
0.0
 11
3.50548
 21
3.41616
 31
0.0
  0
LINE
  8
0
  6
CONTINUOUS
 62
   250
 10
3.50548
 20
3.41616
 30
0.0
 11
3.50548
 21
3.41
 31
0.0
  0
LINE
  8
0
  6
CONTINUOUS
 62
   250
 10
3.53056
 20
3.39064
 30
0.0
 11
3.53716
 21
3.39064
 31
0.0
  0
LINE
  8
0
  6
CONTINUOUS
 62
   250
 10
3.53716
 20
3.39724
 30
0.0
 11
3.53056
 21
3.39724
 31
0.0
  0
LINE
  8
0
  6
CONTINUOUS
 62
   250
 10
3.53056
 20
3.39724
 30
0.0
 11
3.53056
 21
3.39064
 31
0.0
  0
LINE
  8
0
  6
CONTINUOUS
 62
   250
 10
3.53716
 20
3.39064
 30
0.0
 11
3.53716
 21
3.39724
 31
0.0
  0
LINE
  8
0
  6
CONTINUOUS
 62
   250
 10
3.53716
 20
3.40956
 30
0.0
 11
3.53056
 21
3.40956
 31
0.0
  0
LINE
  8
0
  6
CONTINUOUS
 62
   250
 10
3.53056
 20
3.41616
 30
0.0
 11
3.53716
 21
3.41616
 31
0.0
  0
LINE
  8
0
  6
CONTINUOUS
 62
   250
 10
3.53056
 20
3.41616
 30
0.0
 11
3.53056
 21
3.41
 31
0.0
  0
LINE
  8
0
  6
CONTINUOUS
 62
   250
 10
3.53716
 20
3.41
 30
0.0
 11
3.53716
 21
3.41616
 31
0.0
  0
LINE
  8
0
  6
CONTINUOUS
 62
   250
 10
3.53716
 20
3.37832
 30
0.0
 11
3.53716
 21
3.37172
 31
0.0
  0
LINE
  8
0
  6
CONTINUOUS
 62
   250
 10
3.53716
 20
3.37172
 30
0.0
 11
3.53408
 21
3.37172
 31
0.0
  0
LINE
  8
0
  6
CONTINUOUS
 62
   250
 10
3.53408
 20
3.37172
 30
0.0
 11
3.53056
 21
3.37172
 31
0.0
  0
LINE
  8
0
  6
CONTINUOUS
 62
   250
 10
3.53056
 20
3.37172
 30
0.0
 11
3.53056
 21
3.37832
 31
0.0
  0
LINE
  8
0
  6
CONTINUOUS
 62
   250
 10
3.53056
 20
3.37832
 30
0.0
 11
3.53716
 21
3.37832
 31
0.0
  0
LINE
  8
0
  6
CONTINUOUS
 62
   250
 10
3.53716
 20
3.3594
 30
0.0
 11
3.53716
 21
3.3528
 31
0.0
  0
LINE
  8
0
  6
CONTINUOUS
 62
   250
 10
3.53716
 20
3.3528
 30
0.0
 11
3.53408
 21
3.3528
 31
0.0
  0
LINE
  8
0
  6
CONTINUOUS
 62
   250
 10
3.53408
 20
3.3528
 30
0.0
 11
3.53056
 21
3.3528
 31
0.0
  0
LINE
  8
0
  6
CONTINUOUS
 62
   250
 10
3.53056
 20
3.3528
 30
0.0
 11
3.53056
 21
3.3594
 31
0.0
  0
LINE
  8
0
  6
CONTINUOUS
 62
   250
 10
3.53056
 20
3.3594
 30
0.0
 11
3.53408
 21
3.3594
 31
0.0
  0
LINE
  8
0
  6
CONTINUOUS
 62
   250
 10
3.53408
 20
3.3594
 30
0.0
 11
3.53716
 21
3.3594
 31
0.0
  0
LINE
  8
0
  6
CONTINUOUS
 62
   250
 10
3.53716
 20
3.34048
 30
0.0
 11
3.53716
 21
3.33388
 31
0.0
  0
LINE
  8
0
  6
CONTINUOUS
 62
   250
 10
3.53716
 20
3.33388
 30
0.0
 11
3.53056
 21
3.33388
 31
0.0
  0
LINE
  8
0
  6
CONTINUOUS
 62
   250
 10
3.53056
 20
3.33388
 30
0.0
 11
3.53056
 21
3.34048
 31
0.0
  0
LINE
  8
0
  6
CONTINUOUS
 62
   250
 10
3.53056
 20
3.34048
 30
0.0
 11
3.53408
 21
3.34048
 31
0.0
  0
LINE
  8
0
  6
CONTINUOUS
 62
   250
 10
3.53408
 20
3.34048
 30
0.0
 11
3.53716
 21
3.34048
 31
0.0
  0
LINE
  8
0
  6
CONTINUOUS
 62
   250
 10
3.55696
 20
3.27228
 30
0.0
 11
3.55828
 21
3.27008
 31
0.0
  0
LINE
  8
0
  6
CONTINUOUS
 62
   250
 10
3.55828
 20
3.27008
 30
0.0
 11
3.55916
 21
3.26788
 31
0.0
  0
LINE
  8
0
  6
CONTINUOUS
 62
   250
 10
3.55916
 20
3.26788
 30
0.0
 11
3.55916
 21
3.11652
 31
0.0
  0
LINE
  8
0
  6
CONTINUOUS
 62
   250
 10
3.55916
 20
3.11652
 30
0.0
 11
3.55828
 21
3.11432
 31
0.0
  0
LINE
  8
0
  6
CONTINUOUS
 62
   250
 10
3.55828
 20
3.11432
 30
0.0
 11
3.55696
 21
3.11212
 31
0.0
  0
LINE
  8
0
  6
CONTINUOUS
 62
   250
 10
3.55696
 20
3.11212
 30
0.0
 11
3.5552
 21
3.1108
 31
0.0
  0
LINE
  8
0
  6
CONTINUOUS
 62
   250
 10
3.5552
 20
3.1108
 30
0.0
 11
3.553
 21
3.11036
 31
0.0
  0
LINE
  8
0
  6
CONTINUOUS
 62
   250
 10
3.553
 20
3.11036
 30
0.0
 11
3.48964
 21
3.11036
 31
0.0
  0
LINE
  8
0
  6
CONTINUOUS
 62
   250
 10
3.48964
 20
3.11036
 30
0.0
 11
3.48744
 21
3.1108
 31
0.0
  0
LINE
  8
0
  6
CONTINUOUS
 62
   250
 10
3.48744
 20
3.1108
 30
0.0
 11
3.48524
 21
3.11212
 31
0.0
  0
LINE
  8
0
  6
CONTINUOUS
 62
   250
 10
3.48524
 20
3.11212
 30
0.0
 11
3.48392
 21
3.11432
 31
0.0
  0
LINE
  8
0
  6
CONTINUOUS
 62
   250
 10
3.48392
 20
3.11432
 30
0.0
 11
3.48348
 21
3.11652
 31
0.0
  0
LINE
  8
0
  6
CONTINUOUS
 62
   250
 10
3.48348
 20
3.11652
 30
0.0
 11
3.48348
 21
3.26788
 31
0.0
  0
LINE
  8
0
  6
CONTINUOUS
 62
   250
 10
3.48348
 20
3.26788
 30
0.0
 11
3.48392
 21
3.27008
 31
0.0
  0
LINE
  8
0
  6
CONTINUOUS
 62
   250
 10
3.48392
 20
3.27008
 30
0.0
 11
3.48524
 21
3.27228
 31
0.0
  0
LINE
  8
0
  6
CONTINUOUS
 62
   250
 10
3.48524
 20
3.27228
 30
0.0
 11
3.48744
 21
3.2736
 31
0.0
  0
LINE
  8
0
  6
CONTINUOUS
 62
   250
 10
3.48744
 20
3.2736
 30
0.0
 11
3.48964
 21
3.27404
 31
0.0
  0
LINE
  8
0
  6
CONTINUOUS
 62
   250
 10
3.553
 20
3.27404
 30
0.0
 11
3.5552
 21
3.2736
 31
0.0
  0
LINE
  8
0
  6
CONTINUOUS
 62
   250
 10
3.5552
 20
3.2736
 30
0.0
 11
3.55696
 21
3.27228
 31
0.0
  0
LINE
  8
0
  6
CONTINUOUS
 62
   250
 10
3.55696
 20
3.08968
 30
0.0
 11
3.5552
 21
3.091
 31
0.0
  0
LINE
  8
0
  6
CONTINUOUS
 62
   250
 10
3.5552
 20
3.091
 30
0.0
 11
3.553
 21
3.09144
 31
0.0
  0
LINE
  8
0
  6
CONTINUOUS
 62
   250
 10
3.553
 20
3.09144
 30
0.0
 11
3.48964
 21
3.09144
 31
0.0
  0
LINE
  8
0
  6
CONTINUOUS
 62
   250
 10
3.48964
 20
3.09144
 30
0.0
 11
3.48744
 21
3.091
 31
0.0
  0
LINE
  8
0
  6
CONTINUOUS
 62
   250
 10
3.48744
 20
3.091
 30
0.0
 11
3.48524
 21
3.08968
 31
0.0
  0
LINE
  8
0
  6
CONTINUOUS
 62
   250
 10
3.48524
 20
3.08968
 30
0.0
 11
3.48392
 21
3.08748
 31
0.0
  0
LINE
  8
0
  6
CONTINUOUS
 62
   250
 10
3.48392
 20
3.08748
 30
0.0
 11
3.48348
 21
3.08484
 31
0.0
  0
LINE
  8
0
  6
CONTINUOUS
 62
   250
 10
3.48348
 20
3.08484
 30
0.0
 11
3.48348
 21
2.93392
 31
0.0
  0
LINE
  8
0
  6
CONTINUOUS
 62
   250
 10
3.48348
 20
2.93392
 30
0.0
 11
3.48392
 21
2.93128
 31
0.0
  0
LINE
  8
0
  6
CONTINUOUS
 62
   250
 10
3.48392
 20
2.93128
 30
0.0
 11
3.48524
 21
2.92908
 31
0.0
  0
LINE
  8
0
  6
CONTINUOUS
 62
   250
 10
3.48524
 20
2.92908
 30
0.0
 11
3.48744
 21
2.92776
 31
0.0
  0
LINE
  8
0
  6
CONTINUOUS
 62
   250
 10
3.48744
 20
2.92776
 30
0.0
 11
3.48964
 21
2.92732
 31
0.0
  0
LINE
  8
0
  6
CONTINUOUS
 62
   250
 10
3.48964
 20
2.92732
 30
0.0
 11
3.553
 21
2.92732
 31
0.0
  0
LINE
  8
0
  6
CONTINUOUS
 62
   250
 10
3.553
 20
2.92732
 30
0.0
 11
3.5552
 21
2.92776
 31
0.0
  0
LINE
  8
0
  6
CONTINUOUS
 62
   250
 10
3.5552
 20
2.92776
 30
0.0
 11
3.55696
 21
2.92908
 31
0.0
  0
LINE
  8
0
  6
CONTINUOUS
 62
   250
 10
3.55696
 20
2.92908
 30
0.0
 11
3.55828
 21
2.93128
 31
0.0
  0
LINE
  8
0
  6
CONTINUOUS
 62
   250
 10
3.55828
 20
2.93128
 30
0.0
 11
3.55916
 21
2.93392
 31
0.0
  0
LINE
  8
0
  6
CONTINUOUS
 62
   250
 10
3.55916
 20
2.93392
 30
0.0
 11
3.55916
 21
3.08484
 31
0.0
  0
LINE
  8
0
  6
CONTINUOUS
 62
   250
 10
3.55916
 20
3.08484
 30
0.0
 11
3.55828
 21
3.08748
 31
0.0
  0
LINE
  8
0
  6
CONTINUOUS
 62
   250
 10
3.55828
 20
3.08748
 30
0.0
 11
3.55696
 21
3.08968
 31
0.0
  0
LINE
  8
0
  6
CONTINUOUS
 62
   250
 10
3.55916
 20
2.9084
 30
0.0
 11
3.48348
 21
2.9084
 31
0.0
  0
LINE
  8
0
  6
CONTINUOUS
 62
   250
 10
3.47732
 20
2.89608
 30
0.0
 11
3.47732
 21
2.8204
 31
0.0
  0
LINE
  8
0
  6
CONTINUOUS
 62
   250
 10
3.47732
 20
2.8204
 30
0.0
 11
3.52748
 21
2.8204
 31
0.0
  0
LINE
  8
0
  6
CONTINUOUS
 62
   250
 10
3.52748
 20
2.8204
 30
0.0
 11
3.47732
 21
2.8204
 31
0.0
  0
LINE
  8
0
  6
CONTINUOUS
 62
   250
 10
3.48964
 20
2.80148
 30
0.0
 11
3.48964
 21
2.77596
 31
0.0
  0
LINE
  8
0
  6
CONTINUOUS
 62
   250
 10
3.4958
 20
2.7698
 30
0.0
 11
3.54684
 21
2.7698
 31
0.0
  0
LINE
  8
0
  6
CONTINUOUS
 62
   250
 10
3.553
 20
2.77596
 30
0.0
 11
3.553
 21
2.80148
 31
0.0
  0
LINE
  8
0
  6
CONTINUOUS
 62
   250
 10
3.56532
 20
2.8138
 30
0.0
 11
3.56532
 21
2.8204
 31
0.0
  0
LINE
  8
0
  6
CONTINUOUS
 62
   250
 10
3.56532
 20
2.8204
 30
0.0
 11
3.52748
 21
2.8204
 31
0.0
  0
LINE
  8
0
  6
CONTINUOUS
 62
   250
 10
3.5244
 20
2.79796
 30
0.0
 11
3.51824
 21
2.79796
 31
0.0
  0
LINE
  8
0
  6
CONTINUOUS
 62
   250
 10
3.51824
 20
2.79796
 30
0.0
 11
3.51824
 21
2.7918
 31
0.0
  0
LINE
  8
0
  6
CONTINUOUS
 62
   250
 10
3.51824
 20
2.7918
 30
0.0
 11
3.5244
 21
2.7918
 31
0.0
  0
LINE
  8
0
  6
CONTINUOUS
 62
   250
 10
3.5244
 20
2.7918
 30
0.0
 11
3.5244
 21
2.79796
 31
0.0
  0
LINE
  8
0
  6
CONTINUOUS
 62
   250
 10
3.5244
 20
2.78564
 30
0.0
 11
3.5244
 21
2.77904
 31
0.0
  0
LINE
  8
0
  6
CONTINUOUS
 62
   250
 10
3.5244
 20
2.77904
 30
0.0
 11
3.51824
 21
2.77904
 31
0.0
  0
LINE
  8
0
  6
CONTINUOUS
 62
   250
 10
3.51824
 20
2.77904
 30
0.0
 11
3.51824
 21
2.78564
 31
0.0
  0
LINE
  8
0
  6
CONTINUOUS
 62
   250
 10
3.51824
 20
2.78564
 30
0.0
 11
3.5244
 21
2.78564
 31
0.0
  0
LINE
  8
0
  6
CONTINUOUS
 62
   250
 10
3.53716
 20
2.78564
 30
0.0
 11
3.53716
 21
2.77904
 31
0.0
  0
LINE
  8
0
  6
CONTINUOUS
 62
   250
 10
3.53716
 20
2.77904
 30
0.0
 11
3.54332
 21
2.77904
 31
0.0
  0
LINE
  8
0
  6
CONTINUOUS
 62
   250
 10
3.54332
 20
2.77904
 30
0.0
 11
3.54332
 21
2.78564
 31
0.0
  0
LINE
  8
0
  6
CONTINUOUS
 62
   250
 10
3.54332
 20
2.78564
 30
0.0
 11
3.53716
 21
2.78564
 31
0.0
  0
LINE
  8
0
  6
CONTINUOUS
 62
   250
 10
3.53716
 20
2.7918
 30
0.0
 11
3.54332
 21
2.7918
 31
0.0
  0
LINE
  8
0
  6
CONTINUOUS
 62
   250
 10
3.53716
 20
2.7918
 30
0.0
 11
3.53716
 21
2.79796
 31
0.0
  0
LINE
  8
0
  6
CONTINUOUS
 62
   250
 10
3.53716
 20
2.79796
 30
0.0
 11
3.54332
 21
2.79796
 31
0.0
  0
LINE
  8
0
  6
CONTINUOUS
 62
   250
 10
3.54332
 20
2.79796
 30
0.0
 11
3.54332
 21
2.7918
 31
0.0
  0
LINE
  8
0
  6
CONTINUOUS
 62
   250
 10
3.54684
 20
2.80764
 30
0.0
 11
3.553
 21
2.80148
 31
0.0
  0
LINE
  8
0
  6
CONTINUOUS
 62
   250
 10
3.54684
 20
2.80764
 30
0.0
 11
3.4958
 21
2.80764
 31
0.0
  0
LINE
  8
0
  6
CONTINUOUS
 62
   250
 10
3.49932
 20
2.79796
 30
0.0
 11
3.50548
 21
2.79796
 31
0.0
  0
LINE
  8
0
  6
CONTINUOUS
 62
   250
 10
3.50548
 20
2.79796
 30
0.0
 11
3.50548
 21
2.7918
 31
0.0
  0
LINE
  8
0
  6
CONTINUOUS
 62
   250
 10
3.50548
 20
2.7918
 30
0.0
 11
3.49932
 21
2.7918
 31
0.0
  0
LINE
  8
0
  6
CONTINUOUS
 62
   250
 10
3.49932
 20
2.7918
 30
0.0
 11
3.49932
 21
2.79796
 31
0.0
  0
LINE
  8
0
  6
CONTINUOUS
 62
   250
 10
3.49932
 20
2.78564
 30
0.0
 11
3.49932
 21
2.77904
 31
0.0
  0
LINE
  8
0
  6
CONTINUOUS
 62
   250
 10
3.49932
 20
2.77904
 30
0.0
 11
3.50548
 21
2.77904
 31
0.0
  0
LINE
  8
0
  6
CONTINUOUS
 62
   250
 10
3.50548
 20
2.77904
 30
0.0
 11
3.50548
 21
2.78564
 31
0.0
  0
LINE
  8
0
  6
CONTINUOUS
 62
   250
 10
3.50548
 20
2.78564
 30
0.0
 11
3.49932
 21
2.78564
 31
0.0
  0
LINE
  8
0
  6
CONTINUOUS
 62
   250
 10
3.4958
 20
2.7698
 30
0.0
 11
3.48964
 21
2.77596
 31
0.0
  0
LINE
  8
0
  6
CONTINUOUS
 62
   250
 10
3.48964
 20
2.80148
 30
0.0
 11
3.4958
 21
2.80764
 31
0.0
  0
LINE
  8
0
  6
CONTINUOUS
 62
   250
 10
3.50856
 20
2.83272
 30
0.0
 11
3.50856
 21
2.83932
 31
0.0
  0
LINE
  8
0
  6
CONTINUOUS
 62
   250
 10
3.50856
 20
2.89608
 30
0.0
 11
3.51516
 21
2.89608
 31
0.0
  0
LINE
  8
0
  6
CONTINUOUS
 62
   250
 10
3.56532
 20
2.89608
 30
0.0
 11
3.56532
 21
2.90224
 31
0.0
  0
LINE
  8
0
  6
CONTINUOUS
 62
   250
 10
3.56532
 20
2.90224
 30
0.0
 11
3.56488
 21
2.90444
 31
0.0
  0
LINE
  8
0
  6
CONTINUOUS
 62
   250
 10
3.56488
 20
2.90444
 30
0.0
 11
3.56356
 21
2.90664
 31
0.0
  0
LINE
  8
0
  6
CONTINUOUS
 62
   250
 10
3.56356
 20
2.90664
 30
0.0
 11
3.56136
 21
2.90796
 31
0.0
  0
LINE
  8
0
  6
CONTINUOUS
 62
   250
 10
3.56136
 20
2.90796
 30
0.0
 11
3.55916
 21
2.9084
 31
0.0
  0
LINE
  8
0
  6
CONTINUOUS
 62
   250
 10
3.56532
 20
2.89608
 30
0.0
 11
3.56532
 21
2.8204
 31
0.0
  0
LINE
  8
0
  6
CONTINUOUS
 62
   250
 10
3.56532
 20
2.8138
 30
0.0
 11
3.56532
 21
2.74472
 31
0.0
  0
LINE
  8
0
  6
CONTINUOUS
 62
   250
 10
3.56532
 20
2.74472
 30
0.0
 11
3.58424
 21
2.74472
 31
0.0
  0
LINE
  8
0
  6
CONTINUOUS
 62
   250
 10
3.58424
 20
2.74472
 30
0.0
 11
3.58688
 21
2.74428
 31
0.0
  0
LINE
  8
0
  6
CONTINUOUS
 62
   250
 10
3.58688
 20
2.74428
 30
0.0
 11
3.58864
 21
2.74296
 31
0.0
  0
LINE
  8
0
  6
CONTINUOUS
 62
   250
 10
3.58864
 20
2.74296
 30
0.0
 11
3.58996
 21
2.74076
 31
0.0
  0
LINE
  8
0
  6
CONTINUOUS
 62
   250
 10
3.58996
 20
2.74076
 30
0.0
 11
3.5904
 21
2.73812
 31
0.0
  0
LINE
  8
0
  6
CONTINUOUS
 62
   250
 10
3.5904
 20
2.73812
 30
0.0
 11
3.5904
 21
2.59952
 31
0.0
  0
LINE
  8
0
  6
CONTINUOUS
 62
   250
 10
3.553
 20
2.77596
 30
0.0
 11
3.54684
 21
2.7698
 31
0.0
  0
LINE
  8
0
  6
CONTINUOUS
 62
   250
 10
3.4144
 20
2.78212
 30
0.0
 11
3.4144
 21
2.83316
 31
0.0
  0
LINE
  8
0
  6
CONTINUOUS
 62
   250
 10
3.4144
 20
2.83316
 30
0.0
 11
3.40824
 21
2.83932
 31
0.0
  0
LINE
  8
0
  6
CONTINUOUS
 62
   250
 10
3.40824
 20
2.83932
 30
0.0
 11
3.38228
 21
2.83932
 31
0.0
  0
LINE
  8
0
  6
CONTINUOUS
 62
   250
 10
3.38228
 20
2.83932
 30
0.0
 11
3.37656
 21
2.83316
 31
0.0
  0
LINE
  8
0
  6
CONTINUOUS
 62
   250
 10
3.37656
 20
2.83316
 30
0.0
 11
3.37656
 21
2.78212
 31
0.0
  0
LINE
  8
0
  6
CONTINUOUS
 62
   250
 10
3.37656
 20
2.78212
 30
0.0
 11
3.38228
 21
2.77596
 31
0.0
  0
LINE
  8
0
  6
CONTINUOUS
 62
   250
 10
3.38228
 20
2.77596
 30
0.0
 11
3.40824
 21
2.77596
 31
0.0
  0
LINE
  8
0
  6
CONTINUOUS
 62
   250
 10
3.40824
 20
2.77596
 30
0.0
 11
3.4144
 21
2.78212
 31
0.0
  0
LINE
  8
0
  6
CONTINUOUS
 62
   250
 10
3.40472
 20
2.78564
 30
0.0
 11
3.39856
 21
2.78564
 31
0.0
  0
LINE
  8
0
  6
CONTINUOUS
 62
   250
 10
3.39856
 20
2.78564
 30
0.0
 11
3.39856
 21
2.7918
 31
0.0
  0
LINE
  8
0
  6
CONTINUOUS
 62
   250
 10
3.39856
 20
2.7918
 30
0.0
 11
3.40472
 21
2.7918
 31
0.0
  0
LINE
  8
0
  6
CONTINUOUS
 62
   250
 10
3.40472
 20
2.7918
 30
0.0
 11
3.40472
 21
2.78564
 31
0.0
  0
LINE
  8
0
  6
CONTINUOUS
 62
   250
 10
3.39196
 20
2.78564
 30
0.0
 11
3.3858
 21
2.78564
 31
0.0
  0
LINE
  8
0
  6
CONTINUOUS
 62
   250
 10
3.3858
 20
2.78564
 30
0.0
 11
3.3858
 21
2.7918
 31
0.0
  0
LINE
  8
0
  6
CONTINUOUS
 62
   250
 10
3.3858
 20
2.7918
 30
0.0
 11
3.39196
 21
2.7918
 31
0.0
  0
LINE
  8
0
  6
CONTINUOUS
 62
   250
 10
3.39196
 20
2.7918
 30
0.0
 11
3.39196
 21
2.78564
 31
0.0
  0
LINE
  8
0
  6
CONTINUOUS
 62
   250
 10
3.39196
 20
2.80456
 30
0.0
 11
3.3858
 21
2.80456
 31
0.0
  0
LINE
  8
0
  6
CONTINUOUS
 62
   250
 10
3.3858
 20
2.80456
 30
0.0
 11
3.3858
 21
2.81072
 31
0.0
  0
LINE
  8
0
  6
CONTINUOUS
 62
   250
 10
3.3858
 20
2.81072
 30
0.0
 11
3.39196
 21
2.81072
 31
0.0
  0
LINE
  8
0
  6
CONTINUOUS
 62
   250
 10
3.39196
 20
2.81072
 30
0.0
 11
3.39196
 21
2.80456
 31
0.0
  0
LINE
  8
0
  6
CONTINUOUS
 62
   250
 10
3.39856
 20
2.80456
 30
0.0
 11
3.39856
 21
2.81072
 31
0.0
  0
LINE
  8
0
  6
CONTINUOUS
 62
   250
 10
3.39856
 20
2.81072
 30
0.0
 11
3.40472
 21
2.81072
 31
0.0
  0
LINE
  8
0
  6
CONTINUOUS
 62
   250
 10
3.40472
 20
2.81072
 30
0.0
 11
3.40472
 21
2.80456
 31
0.0
  0
LINE
  8
0
  6
CONTINUOUS
 62
   250
 10
3.40472
 20
2.80456
 30
0.0
 11
3.39856
 21
2.80456
 31
0.0
  0
LINE
  8
0
  6
CONTINUOUS
 62
   250
 10
3.39856
 20
2.82348
 30
0.0
 11
3.39856
 21
2.82964
 31
0.0
  0
LINE
  8
0
  6
CONTINUOUS
 62
   250
 10
3.39856
 20
2.82964
 30
0.0
 11
3.40472
 21
2.82964
 31
0.0
  0
LINE
  8
0
  6
CONTINUOUS
 62
   250
 10
3.40472
 20
2.82964
 30
0.0
 11
3.40472
 21
2.82348
 31
0.0
  0
LINE
  8
0
  6
CONTINUOUS
 62
   250
 10
3.40472
 20
2.82348
 30
0.0
 11
3.39856
 21
2.82348
 31
0.0
  0
LINE
  8
0
  6
CONTINUOUS
 62
   250
 10
3.39196
 20
2.82348
 30
0.0
 11
3.3858
 21
2.82348
 31
0.0
  0
LINE
  8
0
  6
CONTINUOUS
 62
   250
 10
3.3858
 20
2.82348
 30
0.0
 11
3.3858
 21
2.82964
 31
0.0
  0
LINE
  8
0
  6
CONTINUOUS
 62
   250
 10
3.3858
 20
2.82964
 30
0.0
 11
3.39196
 21
2.82964
 31
0.0
  0
LINE
  8
0
  6
CONTINUOUS
 62
   250
 10
3.39196
 20
2.82964
 30
0.0
 11
3.39196
 21
2.82348
 31
0.0
  0
LINE
  8
0
  6
CONTINUOUS
 62
   250
 10
3.3638
 20
2.84548
 30
0.0
 11
3.3638
 21
2.7698
 31
0.0
  0
LINE
  8
0
  6
CONTINUOUS
 62
   250
 10
3.3638
 20
2.7698
 30
0.0
 11
3.36424
 21
2.7676
 31
0.0
  0
LINE
  8
0
  6
CONTINUOUS
 62
   250
 10
3.36424
 20
2.7676
 30
0.0
 11
3.36556
 21
2.7654
 31
0.0
  0
LINE
  8
0
  6
CONTINUOUS
 62
   250
 10
3.36556
 20
2.7654
 30
0.0
 11
3.36776
 21
2.76408
 31
0.0
  0
LINE
  8
0
  6
CONTINUOUS
 62
   250
 10
3.36776
 20
2.76408
 30
0.0
 11
3.36996
 21
2.76364
 31
0.0
  0
LINE
  8
0
  6
CONTINUOUS
 62
   250
 10
3.36996
 20
2.76364
 30
0.0
 11
3.42012
 21
2.76364
 31
0.0
  0
LINE
  8
0
  6
CONTINUOUS
 62
   250
 10
3.42012
 20
2.76364
 30
0.0
 11
3.42276
 21
2.76408
 31
0.0
  0
LINE
  8
0
  6
CONTINUOUS
 62
   250
 10
3.42276
 20
2.76408
 30
0.0
 11
3.42496
 21
2.7654
 31
0.0
  0
LINE
  8
0
  6
CONTINUOUS
 62
   250
 10
3.42496
 20
2.7654
 30
0.0
 11
3.42628
 21
2.7676
 31
0.0
  0
LINE
  8
0
  6
CONTINUOUS
 62
   250
 10
3.42628
 20
2.7676
 30
0.0
 11
3.42672
 21
2.7698
 31
0.0
  0
LINE
  8
0
  6
CONTINUOUS
 62
   250
 10
3.42672
 20
2.7698
 30
0.0
 11
3.42672
 21
2.84548
 31
0.0
  0
LINE
  8
0
  6
CONTINUOUS
 62
   250
 10
3.42672
 20
2.84548
 30
0.0
 11
3.42628
 21
2.84812
 31
0.0
  0
LINE
  8
0
  6
CONTINUOUS
 62
   250
 10
3.42628
 20
2.84812
 30
0.0
 11
3.42496
 21
2.84988
 31
0.0
  0
LINE
  8
0
  6
CONTINUOUS
 62
   250
 10
3.42496
 20
2.84988
 30
0.0
 11
3.42276
 21
2.8512
 31
0.0
  0
LINE
  8
0
  6
CONTINUOUS
 62
   250
 10
3.42276
 20
2.8512
 30
0.0
 11
3.42012
 21
2.85164
 31
0.0
  0
LINE
  8
0
  6
CONTINUOUS
 62
   250
 10
3.42012
 20
2.85164
 30
0.0
 11
3.36996
 21
2.85164
 31
0.0
  0
LINE
  8
0
  6
CONTINUOUS
 62
   250
 10
3.36996
 20
2.85164
 30
0.0
 11
3.36776
 21
2.8512
 31
0.0
  0
LINE
  8
0
  6
CONTINUOUS
 62
   250
 10
3.36776
 20
2.8512
 30
0.0
 11
3.36556
 21
2.84988
 31
0.0
  0
LINE
  8
0
  6
CONTINUOUS
 62
   250
 10
3.36556
 20
2.84988
 30
0.0
 11
3.36424
 21
2.84812
 31
0.0
  0
LINE
  8
0
  6
CONTINUOUS
 62
   250
 10
3.36424
 20
2.84812
 30
0.0
 11
3.3638
 21
2.84548
 31
0.0
  0
LINE
  8
0
  6
CONTINUOUS
 62
   250
 10
3.4584
 20
2.73196
 30
0.0
 11
3.4584
 21
2.60612
 31
0.0
  0
LINE
  8
0
  6
CONTINUOUS
 62
   250
 10
3.4518
 20
2.59952
 30
0.0
 11
3.45268
 21
2.59732
 31
0.0
  0
LINE
  8
0
  6
CONTINUOUS
 62
   250
 10
3.45268
 20
2.59732
 30
0.0
 11
3.454
 21
2.59512
 31
0.0
  0
LINE
  8
0
  6
CONTINUOUS
 62
   250
 10
3.454
 20
2.59512
 30
0.0
 11
3.45576
 21
2.5938
 31
0.0
  0
LINE
  8
0
  6
CONTINUOUS
 62
   250
 10
3.45576
 20
2.5938
 30
0.0
 11
3.4584
 21
2.59336
 31
0.0
  0
LINE
  8
0
  6
CONTINUOUS
 62
   250
 10
3.4584
 20
2.59336
 30
0.0
 11
3.58424
 21
2.59336
 31
0.0
  0
LINE
  8
0
  6
CONTINUOUS
 62
   250
 10
3.58424
 20
2.59336
 30
0.0
 11
3.58688
 21
2.5938
 31
0.0
  0
LINE
  8
0
  6
CONTINUOUS
 62
   250
 10
3.58688
 20
2.5938
 30
0.0
 11
3.58864
 21
2.59512
 31
0.0
  0
LINE
  8
0
  6
CONTINUOUS
 62
   250
 10
3.58864
 20
2.59512
 30
0.0
 11
3.58996
 21
2.59732
 31
0.0
  0
LINE
  8
0
  6
CONTINUOUS
 62
   250
 10
3.58996
 20
2.59732
 30
0.0
 11
3.5904
 21
2.59952
 31
0.0
  0
LINE
  8
0
  6
CONTINUOUS
 62
   250
 10
3.50548
 20
2.6312
 30
0.0
 11
3.49272
 21
2.6312
 31
0.0
  0
LINE
  8
0
  6
CONTINUOUS
 62
   250
 10
3.4804
 20
2.64704
 30
0.0
 11
3.47732
 21
2.64704
 31
0.0
  0
LINE
  8
0
  6
CONTINUOUS
 62
   250
 10
3.4804
 20
2.67212
 30
0.0
 11
3.4804
 21
2.6818
 31
0.0
  0
LINE
  8
0
  6
CONTINUOUS
 62
   250
 10
3.4804
 20
2.6818
 30
0.0
 11
3.4804
 21
2.70072
 31
0.0
  0
LINE
  8
0
  6
CONTINUOUS
 62
   250
 10
3.49272
 20
2.70072
 30
0.0
 11
3.49272
 21
2.70688
 31
0.0
  0
LINE
  8
0
  6
CONTINUOUS
 62
   250
 10
3.11784
 20
2.7192
 30
0.0
 11
3.11784
 21
2.74472
 31
0.0
  0
LINE
  8
0
  6
CONTINUOUS
 62
   250
 10
3.10508
 20
2.73196
 30
0.0
 11
3.1306
 21
2.73196
 31
0.0
  0
LINE
  8
0
  6
CONTINUOUS
 62
   250
 10
3.1306
 20
2.79488
 30
0.0
 11
3.10508
 21
2.79488
 31
0.0
  0
LINE
  8
0
  6
CONTINUOUS
 62
   250
 10
3.11784
 20
2.78256
 30
0.0
 11
3.11784
 21
2.80764
 31
0.0
  0
LINE
  8
0
  6
CONTINUOUS
 62
   250
 10
2.94756
 20
2.90224
 30
0.0
 11
2.94756
 21
2.92732
 31
0.0
  0
LINE
  8
0
  6
CONTINUOUS
 62
   250
 10
2.96032
 20
2.915
 30
0.0
 11
2.9348
 21
2.915
 31
0.0
  0
LINE
  8
0
  6
CONTINUOUS
 62
   250
 10
2.9348
 20
2.99024
 30
0.0
 11
2.96032
 21
2.99024
 31
0.0
  0
LINE
  8
0
  6
CONTINUOUS
 62
   250
 10
2.94756
 20
2.97792
 30
0.0
 11
2.94756
 21
3.003
 31
0.0
  0
LINE
  8
0
  6
CONTINUOUS
 62
   250
 10
2.9854
 20
3.02808
 30
0.0
 11
3.07384
 21
3.02808
 31
0.0
  0
LINE
  8
0
  6
CONTINUOUS
 62
   250
 10
3.07384
 20
3.047
 30
0.0
 11
2.9854
 21
3.047
 31
0.0
  0
LINE
  8
0
  6
CONTINUOUS
 62
   250
 10
2.9854
 20
3.1922
 30
0.0
 11
3.07384
 21
3.1922
 31
0.0
  0
LINE
  8
0
  6
CONTINUOUS
 62
   250
 10
3.07384
 20
3.31188
 30
0.0
 11
2.9854
 21
3.31188
 31
0.0
  0
LINE
  8
0
  6
CONTINUOUS
 62
   250
 10
2.89124
 20
3.4694
 30
0.0
 11
3.6476
 21
3.4694
 31
0.0
  0
LINE
  8
0
  6
CONTINUOUS
 62
   250
 10
3.6476
 20
3.48216
 30
0.0
 11
2.89124
 21
3.48216
 31
0.0
  0
LINE
  8
0
  6
CONTINUOUS
 62
   250
 10
2.89696
 20
3.57412
 30
0.0
 11
2.98452
 21
3.67488
 31
0.0
  0
LINE
  8
0
  6
CONTINUOUS
 62
   250
 10
2.98452
 20
3.67488
 30
0.0
 11
2.9876
 21
3.67796
 31
0.0
  0
LINE
  8
0
  6
CONTINUOUS
 62
   250
 10
2.9876
 20
3.67796
 30
0.0
 11
2.99068
 21
3.68016
 31
0.0
  0
LINE
  8
0
  6
CONTINUOUS
 62
   250
 10
2.99068
 20
3.68016
 30
0.0
 11
2.99508
 21
3.68236
 31
0.0
  0
LINE
  8
0
  6
CONTINUOUS
 62
   250
 10
2.99508
 20
3.68236
 30
0.0
 11
2.99904
 21
3.68324
 31
0.0
  0
LINE
  8
0
  6
CONTINUOUS
 62
   250
 10
2.99904
 20
3.68324
 30
0.0
 11
3.00344
 21
3.68368
 31
0.0
  0
LINE
  8
0
  6
CONTINUOUS
 62
   250
 10
3.00344
 20
3.68368
 30
0.0
 11
3.53496
 21
3.68368
 31
0.0
  0
LINE
  8
0
  6
CONTINUOUS
 62
   250
 10
3.53496
 20
3.68368
 30
0.0
 11
3.53936
 21
3.68324
 31
0.0
  0
LINE
  8
0
  6
CONTINUOUS
 62
   250
 10
3.53936
 20
3.68324
 30
0.0
 11
3.54332
 21
3.68236
 31
0.0
  0
LINE
  8
0
  6
CONTINUOUS
 62
   250
 10
3.54332
 20
3.68236
 30
0.0
 11
3.54728
 21
3.68016
 31
0.0
  0
LINE
  8
0
  6
CONTINUOUS
 62
   250
 10
3.54728
 20
3.68016
 30
0.0
 11
3.5508
 21
3.67796
 31
0.0
  0
LINE
  8
0
  6
CONTINUOUS
 62
   250
 10
3.5508
 20
3.67796
 30
0.0
 11
3.55388
 21
3.67488
 31
0.0
  0
LINE
  8
0
  6
CONTINUOUS
 62
   250
 10
3.55388
 20
3.67488
 30
0.0
 11
3.641
 21
3.57412
 31
0.0
  0
LINE
  8
0
  6
CONTINUOUS
 62
   250
 10
3.53408
 20
3.44432
 30
0.0
 11
3.53408
 21
3.4188
 31
0.0
  0
LINE
  8
0
  6
CONTINUOUS
 62
   250
 10
3.53408
 20
3.4188
 30
0.0
 11
3.50856
 21
3.4188
 31
0.0
  0
LINE
  8
0
  6
CONTINUOUS
 62
   250
 10
3.50856
 20
3.4188
 30
0.0
 11
3.50856
 21
3.44432
 31
0.0
  0
LINE
  8
0
  6
CONTINUOUS
 62
   250
 10
3.50856
 20
3.3308
 30
0.0
 11
3.53408
 21
3.3308
 31
0.0
  0
LINE
  8
0
  6
CONTINUOUS
 62
   250
 10
3.53408
 20
3.3308
 30
0.0
 11
3.53408
 21
3.30572
 31
0.0
  0
LINE
  8
0
  6
CONTINUOUS
 62
   250
 10
3.50856
 20
3.30572
 30
0.0
 11
3.50856
 21
3.3308
 31
0.0
  0
LINE
  8
0
  6
CONTINUOUS
 62
   250
 10
3.28856
 20
3.6168
 30
0.0
 11
3.2912
 21
3.62076
 31
0.0
  0
LINE
  8
0
  6
CONTINUOUS
 62
   250
 10
3.2912
 20
3.62076
 30
0.0
 11
3.29296
 21
3.62472
 31
0.0
  0
LINE
  8
0
  6
CONTINUOUS
 62
   250
 10
3.29296
 20
3.62472
 30
0.0
 11
3.29428
 21
3.62912
 31
0.0
  0
LINE
  8
0
  6
CONTINUOUS
 62
   250
 10
3.29428
 20
3.62912
 30
0.0
 11
3.29428
 21
3.63352
 31
0.0
  0
LINE
  8
0
  6
CONTINUOUS
 62
   250
 10
3.29428
 20
3.63352
 30
0.0
 11
3.29428
 21
3.63748
 31
0.0
  0
LINE
  8
0
  6
CONTINUOUS
 62
   250
 10
3.29428
 20
3.63748
 30
0.0
 11
3.29296
 21
3.64188
 31
0.0
  0
LINE
  8
0
  6
CONTINUOUS
 62
   250
 10
3.29296
 20
3.64188
 30
0.0
 11
3.2912
 21
3.64584
 31
0.0
  0
LINE
  8
0
  6
CONTINUOUS
 62
   250
 10
3.2912
 20
3.64584
 30
0.0
 11
3.28856
 21
3.6498
 31
0.0
  0
LINE
  8
0
  6
CONTINUOUS
 62
   250
 10
3.28856
 20
3.6498
 30
0.0
 11
3.28548
 21
3.65244
 31
0.0
  0
LINE
  8
0
  6
CONTINUOUS
 62
   250
 10
3.28548
 20
3.65244
 30
0.0
 11
3.28152
 21
3.65508
 31
0.0
  0
LINE
  8
0
  6
CONTINUOUS
 62
   250
 10
3.28152
 20
3.65508
 30
0.0
 11
3.278
 21
3.65684
 31
0.0
  0
LINE
  8
0
  6
CONTINUOUS
 62
   250
 10
3.278
 20
3.65684
 30
0.0
 11
3.2736
 21
3.65816
 31
0.0
  0
LINE
  8
0
  6
CONTINUOUS
 62
   250
 10
3.2736
 20
3.65816
 30
0.0
 11
3.2692
 21
3.6586
 31
0.0
  0
LINE
  8
0
  6
CONTINUOUS
 62
   250
 10
3.2692
 20
3.6586
 30
0.0
 11
3.2648
 21
3.65816
 31
0.0
  0
LINE
  8
0
  6
CONTINUOUS
 62
   250
 10
3.2648
 20
3.65816
 30
0.0
 11
3.2604
 21
3.65684
 31
0.0
  0
LINE
  8
0
  6
CONTINUOUS
 62
   250
 10
3.2604
 20
3.65684
 30
0.0
 11
3.25688
 21
3.65508
 31
0.0
  0
LINE
  8
0
  6
CONTINUOUS
 62
   250
 10
3.25688
 20
3.65508
 30
0.0
 11
3.25292
 21
3.65244
 31
0.0
  0
LINE
  8
0
  6
CONTINUOUS
 62
   250
 10
3.25292
 20
3.65244
 30
0.0
 11
3.24984
 21
3.6498
 31
0.0
  0
LINE
  8
0
  6
CONTINUOUS
 62
   250
 10
3.24984
 20
3.6498
 30
0.0
 11
3.2472
 21
3.64584
 31
0.0
  0
LINE
  8
0
  6
CONTINUOUS
 62
   250
 10
3.2472
 20
3.64584
 30
0.0
 11
3.24544
 21
3.64188
 31
0.0
  0
LINE
  8
0
  6
CONTINUOUS
 62
   250
 10
3.24544
 20
3.64188
 30
0.0
 11
3.24412
 21
3.63748
 31
0.0
  0
LINE
  8
0
  6
CONTINUOUS
 62
   250
 10
3.24412
 20
3.63748
 30
0.0
 11
3.24368
 21
3.63352
 31
0.0
  0
LINE
  8
0
  6
CONTINUOUS
 62
   250
 10
3.24368
 20
3.63352
 30
0.0
 11
3.24412
 21
3.62912
 31
0.0
  0
LINE
  8
0
  6
CONTINUOUS
 62
   250
 10
3.24412
 20
3.62912
 30
0.0
 11
3.24544
 21
3.62472
 31
0.0
  0
LINE
  8
0
  6
CONTINUOUS
 62
   250
 10
3.24544
 20
3.62472
 30
0.0
 11
3.2472
 21
3.62076
 31
0.0
  0
LINE
  8
0
  6
CONTINUOUS
 62
   250
 10
3.2472
 20
3.62076
 30
0.0
 11
3.24984
 21
3.6168
 31
0.0
  0
LINE
  8
0
  6
CONTINUOUS
 62
   250
 10
3.24984
 20
3.6168
 30
0.0
 11
3.25292
 21
3.61416
 31
0.0
  0
LINE
  8
0
  6
CONTINUOUS
 62
   250
 10
3.25292
 20
3.61416
 30
0.0
 11
3.25688
 21
3.61152
 31
0.0
  0
LINE
  8
0
  6
CONTINUOUS
 62
   250
 10
3.25688
 20
3.61152
 30
0.0
 11
3.2604
 21
3.60976
 31
0.0
  0
LINE
  8
0
  6
CONTINUOUS
 62
   250
 10
3.2604
 20
3.60976
 30
0.0
 11
3.2648
 21
3.60844
 31
0.0
  0
LINE
  8
0
  6
CONTINUOUS
 62
   250
 10
3.2648
 20
3.60844
 30
0.0
 11
3.2692
 21
3.608
 31
0.0
  0
LINE
  8
0
  6
CONTINUOUS
 62
   250
 10
3.2692
 20
3.608
 30
0.0
 11
3.2736
 21
3.60844
 31
0.0
  0
LINE
  8
0
  6
CONTINUOUS
 62
   250
 10
3.2736
 20
3.60844
 30
0.0
 11
3.278
 21
3.60976
 31
0.0
  0
LINE
  8
0
  6
CONTINUOUS
 62
   250
 10
3.278
 20
3.60976
 30
0.0
 11
3.28152
 21
3.61152
 31
0.0
  0
LINE
  8
0
  6
CONTINUOUS
 62
   250
 10
3.28152
 20
3.61152
 30
0.0
 11
3.28548
 21
3.61416
 31
0.0
  0
LINE
  8
0
  6
CONTINUOUS
 62
   250
 10
3.28548
 20
3.61416
 30
0.0
 11
3.28856
 21
3.6168
 31
0.0
  0
LINE
  8
0
  6
CONTINUOUS
 62
   250
 10
3.4298
 20
3.44388
 30
0.0
 11
3.43288
 21
3.44432
 31
0.0
  0
LINE
  8
0
  6
CONTINUOUS
 62
   250
 10
3.43288
 20
3.44432
 30
0.0
 11
3.4364
 21
3.44388
 31
0.0
  0
LINE
  8
0
  6
CONTINUOUS
 62
   250
 10
3.4364
 20
3.44388
 30
0.0
 11
3.43948
 21
3.44256
 31
0.0
  0
LINE
  8
0
  6
CONTINUOUS
 62
   250
 10
3.43948
 20
3.44256
 30
0.0
 11
3.44212
 21
3.44036
 31
0.0
  0
LINE
  8
0
  6
CONTINUOUS
 62
   250
 10
3.44212
 20
3.44036
 30
0.0
 11
3.44388
 21
3.43772
 31
0.0
  0
LINE
  8
0
  6
CONTINUOUS
 62
   250
 10
3.44388
 20
3.43772
 30
0.0
 11
3.4452
 21
3.43464
 31
0.0
  0
LINE
  8
0
  6
CONTINUOUS
 62
   250
 10
3.4452
 20
3.43464
 30
0.0
 11
3.44564
 21
3.43156
 31
0.0
  0
LINE
  8
0
  6
CONTINUOUS
 62
   250
 10
3.42012
 20
3.43156
 30
0.0
 11
3.421
 21
3.42848
 31
0.0
  0
LINE
  8
0
  6
CONTINUOUS
 62
   250
 10
3.421
 20
3.42848
 30
0.0
 11
3.42232
 21
3.4254
 31
0.0
  0
LINE
  8
0
  6
CONTINUOUS
 62
   250
 10
3.42232
 20
3.4254
 30
0.0
 11
3.42452
 21
3.42276
 31
0.0
  0
LINE
  8
0
  6
CONTINUOUS
 62
   250
 10
3.42452
 20
3.42276
 30
0.0
 11
3.42672
 21
3.421
 31
0.0
  0
LINE
  8
0
  6
CONTINUOUS
 62
   250
 10
3.42672
 20
3.421
 30
0.0
 11
3.4298
 21
3.41924
 31
0.0
  0
LINE
  8
0
  6
CONTINUOUS
 62
   250
 10
3.4298
 20
3.41924
 30
0.0
 11
3.43288
 21
3.4188
 31
0.0
  0
LINE
  8
0
  6
CONTINUOUS
 62
   250
 10
3.43288
 20
3.4188
 30
0.0
 11
3.4364
 21
3.41924
 31
0.0
  0
LINE
  8
0
  6
CONTINUOUS
 62
   250
 10
3.4364
 20
3.41924
 30
0.0
 11
3.43948
 21
3.421
 31
0.0
  0
LINE
  8
0
  6
CONTINUOUS
 62
   250
 10
3.43948
 20
3.421
 30
0.0
 11
3.44212
 21
3.42276
 31
0.0
  0
LINE
  8
0
  6
CONTINUOUS
 62
   250
 10
3.44212
 20
3.42276
 30
0.0
 11
3.44388
 21
3.4254
 31
0.0
  0
LINE
  8
0
  6
CONTINUOUS
 62
   250
 10
3.44388
 20
3.4254
 30
0.0
 11
3.4452
 21
3.42848
 31
0.0
  0
LINE
  8
0
  6
CONTINUOUS
 62
   250
 10
3.4452
 20
3.42848
 30
0.0
 11
3.44564
 21
3.43156
 31
0.0
  0
LINE
  8
0
  6
CONTINUOUS
 62
   250
 10
3.42012
 20
3.43156
 30
0.0
 11
3.421
 21
3.43464
 31
0.0
  0
LINE
  8
0
  6
CONTINUOUS
 62
   250
 10
3.421
 20
3.43464
 30
0.0
 11
3.42232
 21
3.43772
 31
0.0
  0
LINE
  8
0
  6
CONTINUOUS
 62
   250
 10
3.42232
 20
3.43772
 30
0.0
 11
3.42452
 21
3.44036
 31
0.0
  0
LINE
  8
0
  6
CONTINUOUS
 62
   250
 10
3.42452
 20
3.44036
 30
0.0
 11
3.42672
 21
3.44256
 31
0.0
  0
LINE
  8
0
  6
CONTINUOUS
 62
   250
 10
3.42672
 20
3.44256
 30
0.0
 11
3.4298
 21
3.44388
 31
0.0
  0
LINE
  8
0
  6
CONTINUOUS
 62
   250
 10
3.4298
 20
3.3682
 30
0.0
 11
3.43288
 21
3.36864
 31
0.0
  0
LINE
  8
0
  6
CONTINUOUS
 62
   250
 10
3.43288
 20
3.36864
 30
0.0
 11
3.4364
 21
3.3682
 31
0.0
  0
LINE
  8
0
  6
CONTINUOUS
 62
   250
 10
3.4364
 20
3.3682
 30
0.0
 11
3.43948
 21
3.36688
 31
0.0
  0
LINE
  8
0
  6
CONTINUOUS
 62
   250
 10
3.43948
 20
3.36688
 30
0.0
 11
3.44212
 21
3.36512
 31
0.0
  0
LINE
  8
0
  6
CONTINUOUS
 62
   250
 10
3.44212
 20
3.36512
 30
0.0
 11
3.44388
 21
3.36248
 31
0.0
  0
LINE
  8
0
  6
CONTINUOUS
 62
   250
 10
3.44388
 20
3.36248
 30
0.0
 11
3.4452
 21
3.3594
 31
0.0
  0
LINE
  8
0
  6
CONTINUOUS
 62
   250
 10
3.4452
 20
3.3594
 30
0.0
 11
3.44564
 21
3.35588
 31
0.0
  0
LINE
  8
0
  6
CONTINUOUS
 62
   250
 10
3.42012
 20
3.35588
 30
0.0
 11
3.421
 21
3.3528
 31
0.0
  0
LINE
  8
0
  6
CONTINUOUS
 62
   250
 10
3.421
 20
3.3528
 30
0.0
 11
3.42232
 21
3.34972
 31
0.0
  0
LINE
  8
0
  6
CONTINUOUS
 62
   250
 10
3.42232
 20
3.34972
 30
0.0
 11
3.42452
 21
3.34708
 31
0.0
  0
LINE
  8
0
  6
CONTINUOUS
 62
   250
 10
3.42452
 20
3.34708
 30
0.0
 11
3.42672
 21
3.34488
 31
0.0
  0
LINE
  8
0
  6
CONTINUOUS
 62
   250
 10
3.42672
 20
3.34488
 30
0.0
 11
3.4298
 21
3.344
 31
0.0
  0
LINE
  8
0
  6
CONTINUOUS
 62
   250
 10
3.4298
 20
3.344
 30
0.0
 11
3.43288
 21
3.34356
 31
0.0
  0
LINE
  8
0
  6
CONTINUOUS
 62
   250
 10
3.43288
 20
3.34356
 30
0.0
 11
3.4364
 21
3.344
 31
0.0
  0
LINE
  8
0
  6
CONTINUOUS
 62
   250
 10
3.4364
 20
3.344
 30
0.0
 11
3.43948
 21
3.34488
 31
0.0
  0
LINE
  8
0
  6
CONTINUOUS
 62
   250
 10
3.43948
 20
3.34488
 30
0.0
 11
3.44212
 21
3.34708
 31
0.0
  0
LINE
  8
0
  6
CONTINUOUS
 62
   250
 10
3.44212
 20
3.34708
 30
0.0
 11
3.44388
 21
3.34972
 31
0.0
  0
LINE
  8
0
  6
CONTINUOUS
 62
   250
 10
3.44388
 20
3.34972
 30
0.0
 11
3.4452
 21
3.3528
 31
0.0
  0
LINE
  8
0
  6
CONTINUOUS
 62
   250
 10
3.4452
 20
3.3528
 30
0.0
 11
3.44564
 21
3.35588
 31
0.0
  0
LINE
  8
0
  6
CONTINUOUS
 62
   250
 10
3.42012
 20
3.35588
 30
0.0
 11
3.421
 21
3.3594
 31
0.0
  0
LINE
  8
0
  6
CONTINUOUS
 62
   250
 10
3.421
 20
3.3594
 30
0.0
 11
3.42232
 21
3.36248
 31
0.0
  0
LINE
  8
0
  6
CONTINUOUS
 62
   250
 10
3.42232
 20
3.36248
 30
0.0
 11
3.42452
 21
3.36512
 31
0.0
  0
LINE
  8
0
  6
CONTINUOUS
 62
   250
 10
3.42452
 20
3.36512
 30
0.0
 11
3.42672
 21
3.36688
 31
0.0
  0
LINE
  8
0
  6
CONTINUOUS
 62
   250
 10
3.42672
 20
3.36688
 30
0.0
 11
3.4298
 21
3.3682
 31
0.0
  0
LINE
  8
0
  6
CONTINUOUS
 62
   250
 10
3.29428
 20
3.52
 30
0.0
 11
3.29428
 21
3.5244
 31
0.0
  0
LINE
  8
0
  6
CONTINUOUS
 62
   250
 10
3.29428
 20
3.5244
 30
0.0
 11
3.29296
 21
3.52836
 31
0.0
  0
LINE
  8
0
  6
CONTINUOUS
 62
   250
 10
3.29296
 20
3.52836
 30
0.0
 11
3.2912
 21
3.53232
 31
0.0
  0
LINE
  8
0
  6
CONTINUOUS
 62
   250
 10
3.2912
 20
3.53232
 30
0.0
 11
3.28856
 21
3.53628
 31
0.0
  0
LINE
  8
0
  6
CONTINUOUS
 62
   250
 10
3.28856
 20
3.53628
 30
0.0
 11
3.28548
 21
3.53936
 31
0.0
  0
LINE
  8
0
  6
CONTINUOUS
 62
   250
 10
3.28548
 20
3.53936
 30
0.0
 11
3.28152
 21
3.54156
 31
0.0
  0
LINE
  8
0
  6
CONTINUOUS
 62
   250
 10
3.28152
 20
3.54156
 30
0.0
 11
3.278
 21
3.54376
 31
0.0
  0
LINE
  8
0
  6
CONTINUOUS
 62
   250
 10
3.278
 20
3.54376
 30
0.0
 11
3.2736
 21
3.54464
 31
0.0
  0
LINE
  8
0
  6
CONTINUOUS
 62
   250
 10
3.2736
 20
3.54464
 30
0.0
 11
3.2692
 21
3.54508
 31
0.0
  0
LINE
  8
0
  6
CONTINUOUS
 62
   250
 10
3.2692
 20
3.54508
 30
0.0
 11
3.2648
 21
3.54464
 31
0.0
  0
LINE
  8
0
  6
CONTINUOUS
 62
   250
 10
3.2648
 20
3.54464
 30
0.0
 11
3.2604
 21
3.54376
 31
0.0
  0
LINE
  8
0
  6
CONTINUOUS
 62
   250
 10
3.2604
 20
3.54376
 30
0.0
 11
3.25688
 21
3.54156
 31
0.0
  0
LINE
  8
0
  6
CONTINUOUS
 62
   250
 10
3.25688
 20
3.54156
 30
0.0
 11
3.25292
 21
3.53936
 31
0.0
  0
LINE
  8
0
  6
CONTINUOUS
 62
   250
 10
3.25292
 20
3.53936
 30
0.0
 11
3.24984
 21
3.53628
 31
0.0
  0
LINE
  8
0
  6
CONTINUOUS
 62
   250
 10
3.24984
 20
3.53628
 30
0.0
 11
3.2472
 21
3.53232
 31
0.0
  0
LINE
  8
0
  6
CONTINUOUS
 62
   250
 10
3.2472
 20
3.53232
 30
0.0
 11
3.24544
 21
3.52836
 31
0.0
  0
LINE
  8
0
  6
CONTINUOUS
 62
   250
 10
3.24544
 20
3.52836
 30
0.0
 11
3.24412
 21
3.5244
 31
0.0
  0
LINE
  8
0
  6
CONTINUOUS
 62
   250
 10
3.24412
 20
3.5244
 30
0.0
 11
3.24368
 21
3.52
 31
0.0
  0
LINE
  8
0
  6
CONTINUOUS
 62
   250
 10
3.24368
 20
3.52
 30
0.0
 11
3.24412
 21
3.5156
 31
0.0
  0
LINE
  8
0
  6
CONTINUOUS
 62
   250
 10
3.24412
 20
3.5156
 30
0.0
 11
3.24544
 21
3.5112
 31
0.0
  0
LINE
  8
0
  6
CONTINUOUS
 62
   250
 10
3.24544
 20
3.5112
 30
0.0
 11
3.2472
 21
3.50724
 31
0.0
  0
LINE
  8
0
  6
CONTINUOUS
 62
   250
 10
3.2472
 20
3.50724
 30
0.0
 11
3.24984
 21
3.50372
 31
0.0
  0
LINE
  8
0
  6
CONTINUOUS
 62
   250
 10
3.24984
 20
3.50372
 30
0.0
 11
3.25292
 21
3.50064
 31
0.0
  0
LINE
  8
0
  6
CONTINUOUS
 62
   250
 10
3.25292
 20
3.50064
 30
0.0
 11
3.25688
 21
3.498
 31
0.0
  0
LINE
  8
0
  6
CONTINUOUS
 62
   250
 10
3.25688
 20
3.498
 30
0.0
 11
3.2604
 21
3.49624
 31
0.0
  0
LINE
  8
0
  6
CONTINUOUS
 62
   250
 10
3.2604
 20
3.49624
 30
0.0
 11
3.2648
 21
3.49492
 31
0.0
  0
LINE
  8
0
  6
CONTINUOUS
 62
   250
 10
3.2648
 20
3.49492
 30
0.0
 11
3.2692
 21
3.49448
 31
0.0
  0
LINE
  8
0
  6
CONTINUOUS
 62
   250
 10
3.2692
 20
3.49448
 30
0.0
 11
3.2736
 21
3.49492
 31
0.0
  0
LINE
  8
0
  6
CONTINUOUS
 62
   250
 10
3.2736
 20
3.49492
 30
0.0
 11
3.278
 21
3.49624
 31
0.0
  0
LINE
  8
0
  6
CONTINUOUS
 62
   250
 10
3.278
 20
3.49624
 30
0.0
 11
3.28152
 21
3.498
 31
0.0
  0
LINE
  8
0
  6
CONTINUOUS
 62
   250
 10
3.28152
 20
3.498
 30
0.0
 11
3.28548
 21
3.50064
 31
0.0
  0
LINE
  8
0
  6
CONTINUOUS
 62
   250
 10
3.28548
 20
3.50064
 30
0.0
 11
3.28856
 21
3.50372
 31
0.0
  0
LINE
  8
0
  6
CONTINUOUS
 62
   250
 10
3.28856
 20
3.50372
 30
0.0
 11
3.2912
 21
3.50724
 31
0.0
  0
LINE
  8
0
  6
CONTINUOUS
 62
   250
 10
3.2912
 20
3.50724
 30
0.0
 11
3.29296
 21
3.5112
 31
0.0
  0
LINE
  8
0
  6
CONTINUOUS
 62
   250
 10
3.29296
 20
3.5112
 30
0.0
 11
3.29428
 21
3.5156
 31
0.0
  0
LINE
  8
0
  6
CONTINUOUS
 62
   250
 10
3.29428
 20
3.5156
 30
0.0
 11
3.29428
 21
3.52
 31
0.0
  0
LINE
  8
0
  6
CONTINUOUS
 62
   250
 10
3.1394
 20
3.3902
 30
0.0
 11
3.13676
 21
3.39196
 31
0.0
  0
LINE
  8
0
  6
CONTINUOUS
 62
   250
 10
3.13676
 20
3.39196
 30
0.0
 11
3.13368
 21
3.39328
 31
0.0
  0
LINE
  8
0
  6
CONTINUOUS
 62
   250
 10
3.13368
 20
3.39328
 30
0.0
 11
3.1306
 21
3.39372
 31
0.0
  0
LINE
  8
0
  6
CONTINUOUS
 62
   250
 10
3.1306
 20
3.39372
 30
0.0
 11
3.12708
 21
3.39328
 31
0.0
  0
LINE
  8
0
  6
CONTINUOUS
 62
   250
 10
3.12708
 20
3.39328
 30
0.0
 11
3.124
 21
3.39196
 31
0.0
  0
LINE
  8
0
  6
CONTINUOUS
 62
   250
 10
3.124
 20
3.39196
 30
0.0
 11
3.12136
 21
3.3902
 31
0.0
  0
LINE
  8
0
  6
CONTINUOUS
 62
   250
 10
3.12136
 20
3.3902
 30
0.0
 11
3.1196
 21
3.38756
 31
0.0
  0
LINE
  8
0
  6
CONTINUOUS
 62
   250
 10
3.1196
 20
3.38756
 30
0.0
 11
3.11828
 21
3.38448
 31
0.0
  0
LINE
  8
0
  6
CONTINUOUS
 62
   250
 10
3.11828
 20
3.38448
 30
0.0
 11
3.11784
 21
3.3814
 31
0.0
  0
LINE
  8
0
  6
CONTINUOUS
 62
   250
 10
3.11784
 20
3.3814
 30
0.0
 11
3.11828
 21
3.37788
 31
0.0
  0
LINE
  8
0
  6
CONTINUOUS
 62
   250
 10
3.11828
 20
3.37788
 30
0.0
 11
3.1196
 21
3.3748
 31
0.0
  0
LINE
  8
0
  6
CONTINUOUS
 62
   250
 10
3.1196
 20
3.3748
 30
0.0
 11
3.12136
 21
3.37216
 31
0.0
  0
LINE
  8
0
  6
CONTINUOUS
 62
   250
 10
3.12136
 20
3.37216
 30
0.0
 11
3.124
 21
3.3704
 31
0.0
  0
LINE
  8
0
  6
CONTINUOUS
 62
   250
 10
3.124
 20
3.3704
 30
0.0
 11
3.12708
 21
3.36908
 31
0.0
  0
LINE
  8
0
  6
CONTINUOUS
 62
   250
 10
3.12708
 20
3.36908
 30
0.0
 11
3.1306
 21
3.36864
 31
0.0
  0
LINE
  8
0
  6
CONTINUOUS
 62
   250
 10
3.1306
 20
3.36864
 30
0.0
 11
3.13368
 21
3.36908
 31
0.0
  0
LINE
  8
0
  6
CONTINUOUS
 62
   250
 10
3.13368
 20
3.36908
 30
0.0
 11
3.13676
 21
3.3704
 31
0.0
  0
LINE
  8
0
  6
CONTINUOUS
 62
   250
 10
3.13676
 20
3.3704
 30
0.0
 11
3.1394
 21
3.37216
 31
0.0
  0
LINE
  8
0
  6
CONTINUOUS
 62
   250
 10
3.1394
 20
3.37216
 30
0.0
 11
3.1416
 21
3.3748
 31
0.0
  0
LINE
  8
0
  6
CONTINUOUS
 62
   250
 10
3.1416
 20
3.3748
 30
0.0
 11
3.14248
 21
3.37788
 31
0.0
  0
LINE
  8
0
  6
CONTINUOUS
 62
   250
 10
3.14248
 20
3.37788
 30
0.0
 11
3.14292
 21
3.3814
 31
0.0
  0
LINE
  8
0
  6
CONTINUOUS
 62
   250
 10
3.14292
 20
3.3814
 30
0.0
 11
3.14248
 21
3.38448
 31
0.0
  0
LINE
  8
0
  6
CONTINUOUS
 62
   250
 10
3.14248
 20
3.38448
 30
0.0
 11
3.1416
 21
3.38756
 31
0.0
  0
LINE
  8
0
  6
CONTINUOUS
 62
   250
 10
3.1416
 20
3.38756
 30
0.0
 11
3.1394
 21
3.3902
 31
0.0
  0
LINE
  8
0
  6
CONTINUOUS
 62
   250
 10
3.553
 20
2.5278
 30
0.0
 11
3.54992
 21
2.53088
 31
0.0
  0
LINE
  8
0
  6
CONTINUOUS
 62
   250
 10
3.54992
 20
2.53088
 30
0.0
 11
3.5464
 21
2.53352
 31
0.0
  0
LINE
  8
0
  6
CONTINUOUS
 62
   250
 10
3.5464
 20
2.53352
 30
0.0
 11
3.54244
 21
2.53528
 31
0.0
  0
LINE
  8
0
  6
CONTINUOUS
 62
   250
 10
3.54244
 20
2.53528
 30
0.0
 11
3.53804
 21
2.53616
 31
0.0
  0
LINE
  8
0
  6
CONTINUOUS
 62
   250
 10
3.53804
 20
2.53616
 30
0.0
 11
3.53408
 21
2.5366
 31
0.0
  0
LINE
  8
0
  6
CONTINUOUS
 62
   250
 10
3.53408
 20
2.5366
 30
0.0
 11
3.52968
 21
2.53616
 31
0.0
  0
LINE
  8
0
  6
CONTINUOUS
 62
   250
 10
3.52968
 20
2.53616
 30
0.0
 11
3.52528
 21
2.53528
 31
0.0
  0
LINE
  8
0
  6
CONTINUOUS
 62
   250
 10
3.52528
 20
2.53528
 30
0.0
 11
3.52132
 21
2.53352
 31
0.0
  0
LINE
  8
0
  6
CONTINUOUS
 62
   250
 10
3.52132
 20
2.53352
 30
0.0
 11
3.5178
 21
2.53088
 31
0.0
  0
LINE
  8
0
  6
CONTINUOUS
 62
   250
 10
3.5178
 20
2.53088
 30
0.0
 11
3.51472
 21
2.5278
 31
0.0
  0
LINE
  8
0
  6
CONTINUOUS
 62
   250
 10
3.51472
 20
2.5278
 30
0.0
 11
3.51208
 21
2.52384
 31
0.0
  0
LINE
  8
0
  6
CONTINUOUS
 62
   250
 10
3.51208
 20
2.52384
 30
0.0
 11
3.51032
 21
2.52032
 31
0.0
  0
LINE
  8
0
  6
CONTINUOUS
 62
   250
 10
3.51032
 20
2.52032
 30
0.0
 11
3.509
 21
2.51592
 31
0.0
  0
LINE
  8
0
  6
CONTINUOUS
 62
   250
 10
3.509
 20
2.51592
 30
0.0
 11
3.50856
 21
2.51152
 31
0.0
  0
LINE
  8
0
  6
CONTINUOUS
 62
   250
 10
3.50856
 20
2.51152
 30
0.0
 11
3.509
 21
2.50712
 31
0.0
  0
LINE
  8
0
  6
CONTINUOUS
 62
   250
 10
3.509
 20
2.50712
 30
0.0
 11
3.51032
 21
2.50272
 31
0.0
  0
LINE
  8
0
  6
CONTINUOUS
 62
   250
 10
3.51032
 20
2.50272
 30
0.0
 11
3.51208
 21
2.49876
 31
0.0
  0
LINE
  8
0
  6
CONTINUOUS
 62
   250
 10
3.51208
 20
2.49876
 30
0.0
 11
3.51472
 21
2.49524
 31
0.0
  0
LINE
  8
0
  6
CONTINUOUS
 62
   250
 10
3.51472
 20
2.49524
 30
0.0
 11
3.5178
 21
2.49216
 31
0.0
  0
LINE
  8
0
  6
CONTINUOUS
 62
   250
 10
3.5178
 20
2.49216
 30
0.0
 11
3.52132
 21
2.48952
 31
0.0
  0
LINE
  8
0
  6
CONTINUOUS
 62
   250
 10
3.52132
 20
2.48952
 30
0.0
 11
3.52528
 21
2.48776
 31
0.0
  0
LINE
  8
0
  6
CONTINUOUS
 62
   250
 10
3.52528
 20
2.48776
 30
0.0
 11
3.52968
 21
2.48644
 31
0.0
  0
LINE
  8
0
  6
CONTINUOUS
 62
   250
 10
3.52968
 20
2.48644
 30
0.0
 11
3.53408
 21
2.48644
 31
0.0
  0
LINE
  8
0
  6
CONTINUOUS
 62
   250
 10
3.53408
 20
2.48644
 30
0.0
 11
3.53804
 21
2.48644
 31
0.0
  0
LINE
  8
0
  6
CONTINUOUS
 62
   250
 10
3.53804
 20
2.48644
 30
0.0
 11
3.54244
 21
2.48776
 31
0.0
  0
LINE
  8
0
  6
CONTINUOUS
 62
   250
 10
3.54244
 20
2.48776
 30
0.0
 11
3.5464
 21
2.48952
 31
0.0
  0
LINE
  8
0
  6
CONTINUOUS
 62
   250
 10
3.5464
 20
2.48952
 30
0.0
 11
3.54992
 21
2.49216
 31
0.0
  0
LINE
  8
0
  6
CONTINUOUS
 62
   250
 10
3.54992
 20
2.49216
 30
0.0
 11
3.553
 21
2.49524
 31
0.0
  0
LINE
  8
0
  6
CONTINUOUS
 62
   250
 10
3.553
 20
2.49524
 30
0.0
 11
3.55564
 21
2.49876
 31
0.0
  0
LINE
  8
0
  6
CONTINUOUS
 62
   250
 10
3.55564
 20
2.49876
 30
0.0
 11
3.55784
 21
2.50272
 31
0.0
  0
LINE
  8
0
  6
CONTINUOUS
 62
   250
 10
3.55784
 20
2.50272
 30
0.0
 11
3.55872
 21
2.50712
 31
0.0
  0
LINE
  8
0
  6
CONTINUOUS
 62
   250
 10
3.55872
 20
2.50712
 30
0.0
 11
3.55916
 21
2.51152
 31
0.0
  0
LINE
  8
0
  6
CONTINUOUS
 62
   250
 10
3.55916
 20
2.51152
 30
0.0
 11
3.55872
 21
2.51592
 31
0.0
  0
LINE
  8
0
  6
CONTINUOUS
 62
   250
 10
3.55872
 20
2.51592
 30
0.0
 11
3.55784
 21
2.52032
 31
0.0
  0
LINE
  8
0
  6
CONTINUOUS
 62
   250
 10
3.55784
 20
2.52032
 30
0.0
 11
3.55564
 21
2.52384
 31
0.0
  0
LINE
  8
0
  6
CONTINUOUS
 62
   250
 10
3.55564
 20
2.52384
 30
0.0
 11
3.553
 21
2.5278
 31
0.0
  0
LINE
  8
0
  6
CONTINUOUS
 62
   250
 10
3.4518
 20
2.59952
 30
0.0
 11
3.4518
 21
2.62504
 31
0.0
  0
LINE
  8
0
  6
CONTINUOUS
 62
   250
 10
3.4518
 20
2.62504
 30
0.0
 11
3.4518
 21
2.73812
 31
0.0
  0
LINE
  8
0
  6
CONTINUOUS
 62
   250
 10
3.45576
 20
2.74428
 30
0.0
 11
3.4584
 21
2.74472
 31
0.0
  0
LINE
  8
0
  6
CONTINUOUS
 62
   250
 10
3.4584
 20
2.74472
 30
0.0
 11
3.47732
 21
2.74472
 31
0.0
  0
LINE
  8
0
  6
CONTINUOUS
 62
   250
 10
3.47732
 20
2.74472
 30
0.0
 11
3.47732
 21
2.89608
 31
0.0
  0
LINE
  8
0
  6
CONTINUOUS
 62
   250
 10
3.45576
 20
2.74428
 30
0.0
 11
3.454
 21
2.74296
 31
0.0
  0
LINE
  8
0
  6
CONTINUOUS
 62
   250
 10
3.454
 20
2.74296
 30
0.0
 11
3.45268
 21
2.74076
 31
0.0
  0
LINE
  8
0
  6
CONTINUOUS
 62
   250
 10
3.45268
 20
2.74076
 30
0.0
 11
3.4518
 21
2.73812
 31
0.0
  0
LINE
  8
0
  6
CONTINUOUS
 62
   250
 10
3.4804
 20
2.64704
 30
0.0
 11
3.4804
 21
2.64396
 31
0.0
  0
LINE
  8
0
  6
CONTINUOUS
 62
   250
 10
3.50856
 20
2.83272
 30
0.0
 11
3.5112
 21
2.83272
 31
0.0
  0
LINE
  8
0
  6
CONTINUOUS
 62
   250
 10
3.51164
 20
2.83624
 30
0.0
 11
3.5112
 21
2.83888
 31
0.0
  0
LINE
  8
0
  6
CONTINUOUS
 62
   250
 10
3.5112
 20
2.83888
 30
0.0
 11
3.50988
 21
2.84152
 31
0.0
  0
LINE
  8
0
  6
CONTINUOUS
 62
   250
 10
3.50988
 20
2.84152
 30
0.0
 11
3.50768
 21
2.84372
 31
0.0
  0
LINE
  8
0
  6
CONTINUOUS
 62
   250
 10
3.50768
 20
2.84372
 30
0.0
 11
3.50548
 21
2.84504
 31
0.0
  0
LINE
  8
0
  6
CONTINUOUS
 62
   250
 10
3.50548
 20
2.84504
 30
0.0
 11
3.5024
 21
2.84548
 31
0.0
  0
LINE
  8
0
  6
CONTINUOUS
 62
   250
 10
3.5024
 20
2.84548
 30
0.0
 11
3.49932
 21
2.84504
 31
0.0
  0
LINE
  8
0
  6
CONTINUOUS
 62
   250
 10
3.49932
 20
2.84504
 30
0.0
 11
3.49668
 21
2.84372
 31
0.0
  0
LINE
  8
0
  6
CONTINUOUS
 62
   250
 10
3.49668
 20
2.84372
 30
0.0
 11
3.49448
 21
2.84152
 31
0.0
  0
LINE
  8
0
  6
CONTINUOUS
 62
   250
 10
3.49448
 20
2.84152
 30
0.0
 11
3.49316
 21
2.83888
 31
0.0
  0
LINE
  8
0
  6
CONTINUOUS
 62
   250
 10
3.49316
 20
2.83888
 30
0.0
 11
3.49272
 21
2.83624
 31
0.0
  0
LINE
  8
0
  6
CONTINUOUS
 62
   250
 10
3.49272
 20
2.83624
 30
0.0
 11
3.49316
 21
2.83316
 31
0.0
  0
LINE
  8
0
  6
CONTINUOUS
 62
   250
 10
3.49316
 20
2.83316
 30
0.0
 11
3.49448
 21
2.83052
 31
0.0
  0
LINE
  8
0
  6
CONTINUOUS
 62
   250
 10
3.49448
 20
2.83052
 30
0.0
 11
3.49668
 21
2.82832
 31
0.0
  0
LINE
  8
0
  6
CONTINUOUS
 62
   250
 10
3.49668
 20
2.82832
 30
0.0
 11
3.49932
 21
2.827
 31
0.0
  0
LINE
  8
0
  6
CONTINUOUS
 62
   250
 10
3.49932
 20
2.827
 30
0.0
 11
3.5024
 21
2.82656
 31
0.0
  0
LINE
  8
0
  6
CONTINUOUS
 62
   250
 10
3.5024
 20
2.82656
 30
0.0
 11
3.50548
 21
2.827
 31
0.0
  0
LINE
  8
0
  6
CONTINUOUS
 62
   250
 10
3.50548
 20
2.827
 30
0.0
 11
3.50768
 21
2.82832
 31
0.0
  0
LINE
  8
0
  6
CONTINUOUS
 62
   250
 10
3.50768
 20
2.82832
 30
0.0
 11
3.50988
 21
2.83052
 31
0.0
  0
LINE
  8
0
  6
CONTINUOUS
 62
   250
 10
3.50988
 20
2.83052
 30
0.0
 11
3.5112
 21
2.83316
 31
0.0
  0
LINE
  8
0
  6
CONTINUOUS
 62
   250
 10
3.5112
 20
2.83316
 30
0.0
 11
3.51164
 21
2.83624
 31
0.0
  0
LINE
  8
0
  6
CONTINUOUS
 62
   250
 10
3.5112
 20
2.83932
 30
0.0
 11
3.50856
 21
2.83932
 31
0.0
  0
LINE
  8
0
  6
CONTINUOUS
 62
   250
 10
3.52748
 20
2.8204
 30
0.0
 11
3.56532
 21
2.8204
 31
0.0
  0
LINE
  8
0
  6
CONTINUOUS
 62
   250
 10
3.56532
 20
2.89608
 30
0.0
 11
3.47732
 21
2.89608
 31
0.0
  0
LINE
  8
0
  6
CONTINUOUS
 62
   250
 10
3.47732
 20
2.89608
 30
0.0
 11
3.56532
 21
2.89608
 31
0.0
  0
LINE
  8
0
  6
CONTINUOUS
 62
   250
 10
3.56532
 20
2.89608
 30
0.0
 11
3.47732
 21
2.89608
 31
0.0
  0
LINE
  8
0
  6
CONTINUOUS
 62
   250
 10
3.47732
 20
2.89608
 30
0.0
 11
3.56532
 21
2.89608
 31
0.0
  0
LINE
  8
0
  6
CONTINUOUS
 62
   250
 10
3.56532
 20
2.89608
 30
0.0
 11
3.47732
 21
2.89608
 31
0.0
  0
LINE
  8
0
  6
CONTINUOUS
 62
   250
 10
3.47732
 20
2.89608
 30
0.0
 11
3.56532
 21
2.89608
 31
0.0
  0
LINE
  8
0
  6
CONTINUOUS
 62
   250
 10
3.52748
 20
2.89608
 30
0.0
 11
3.47732
 21
2.89608
 31
0.0
  0
LINE
  8
0
  6
CONTINUOUS
 62
   250
 10
3.47732
 20
2.89608
 30
0.0
 11
3.52748
 21
2.89608
 31
0.0
  0
LINE
  8
0
  6
CONTINUOUS
 62
   250
 10
3.50988
 20
2.88552
 30
0.0
 11
3.5112
 21
2.88288
 31
0.0
  0
LINE
  8
0
  6
CONTINUOUS
 62
   250
 10
3.5112
 20
2.88288
 30
0.0
 11
3.51164
 21
2.88024
 31
0.0
  0
LINE
  8
0
  6
CONTINUOUS
 62
   250
 10
3.5112
 20
2.88332
 30
0.0
 11
3.50856
 21
2.88332
 31
0.0
  0
LINE
  8
0
  6
CONTINUOUS
 62
   250
 10
3.50988
 20
2.88552
 30
0.0
 11
3.50768
 21
2.88772
 31
0.0
  0
LINE
  8
0
  6
CONTINUOUS
 62
   250
 10
3.50768
 20
2.88772
 30
0.0
 11
3.50548
 21
2.88904
 31
0.0
  0
LINE
  8
0
  6
CONTINUOUS
 62
   250
 10
3.50548
 20
2.88904
 30
0.0
 11
3.5024
 21
2.88948
 31
0.0
  0
LINE
  8
0
  6
CONTINUOUS
 62
   250
 10
3.5024
 20
2.88948
 30
0.0
 11
3.49932
 21
2.88904
 31
0.0
  0
LINE
  8
0
  6
CONTINUOUS
 62
   250
 10
3.49932
 20
2.88904
 30
0.0
 11
3.49668
 21
2.88772
 31
0.0
  0
LINE
  8
0
  6
CONTINUOUS
 62
   250
 10
3.49668
 20
2.88772
 30
0.0
 11
3.49448
 21
2.88552
 31
0.0
  0
LINE
  8
0
  6
CONTINUOUS
 62
   250
 10
3.49448
 20
2.88552
 30
0.0
 11
3.49316
 21
2.88288
 31
0.0
  0
LINE
  8
0
  6
CONTINUOUS
 62
   250
 10
3.49316
 20
2.88288
 30
0.0
 11
3.49272
 21
2.88024
 31
0.0
  0
LINE
  8
0
  6
CONTINUOUS
 62
   250
 10
3.49272
 20
2.88024
 30
0.0
 11
3.49316
 21
2.87716
 31
0.0
  0
LINE
  8
0
  6
CONTINUOUS
 62
   250
 10
3.49316
 20
2.87716
 30
0.0
 11
3.49448
 21
2.87452
 31
0.0
  0
LINE
  8
0
  6
CONTINUOUS
 62
   250
 10
3.49448
 20
2.87452
 30
0.0
 11
3.49668
 21
2.87232
 31
0.0
  0
LINE
  8
0
  6
CONTINUOUS
 62
   250
 10
3.49668
 20
2.87232
 30
0.0
 11
3.49932
 21
2.871
 31
0.0
  0
LINE
  8
0
  6
CONTINUOUS
 62
   250
 10
3.49932
 20
2.871
 30
0.0
 11
3.5024
 21
2.87056
 31
0.0
  0
LINE
  8
0
  6
CONTINUOUS
 62
   250
 10
3.5024
 20
2.87056
 30
0.0
 11
3.50548
 21
2.871
 31
0.0
  0
LINE
  8
0
  6
CONTINUOUS
 62
   250
 10
3.50548
 20
2.871
 30
0.0
 11
3.50768
 21
2.87232
 31
0.0
  0
LINE
  8
0
  6
CONTINUOUS
 62
   250
 10
3.50768
 20
2.87232
 30
0.0
 11
3.50988
 21
2.87452
 31
0.0
  0
LINE
  8
0
  6
CONTINUOUS
 62
   250
 10
3.50988
 20
2.87452
 30
0.0
 11
3.5112
 21
2.87716
 31
0.0
  0
LINE
  8
0
  6
CONTINUOUS
 62
   250
 10
3.5112
 20
2.87716
 30
0.0
 11
3.51164
 21
2.88024
 31
0.0
  0
LINE
  8
0
  6
CONTINUOUS
 62
   250
 10
3.5112
 20
2.87716
 30
0.0
 11
3.50856
 21
2.87716
 31
0.0
  0
LINE
  8
0
  6
CONTINUOUS
 62
   250
 10
3.50856
 20
2.87716
 30
0.0
 11
3.50856
 21
2.88332
 31
0.0
  0
LINE
  8
0
  6
CONTINUOUS
 62
   250
 10
3.47732
 20
2.89608
 30
0.0
 11
3.47732
 21
2.90224
 31
0.0
  0
LINE
  8
0
  6
CONTINUOUS
 62
   250
 10
3.47732
 20
2.90224
 30
0.0
 11
3.47776
 21
2.90444
 31
0.0
  0
LINE
  8
0
  6
CONTINUOUS
 62
   250
 10
3.47776
 20
2.90444
 30
0.0
 11
3.47908
 21
2.90664
 31
0.0
  0
LINE
  8
0
  6
CONTINUOUS
 62
   250
 10
3.47908
 20
2.90664
 30
0.0
 11
3.48084
 21
2.90796
 31
0.0
  0
LINE
  8
0
  6
CONTINUOUS
 62
   250
 10
3.48084
 20
2.90796
 30
0.0
 11
3.48348
 21
2.9084
 31
0.0
  0
LINE
  8
0
  6
CONTINUOUS
 62
   250
 10
3.49624
 20
3.30572
 30
0.0
 11
3.5464
 21
3.30572
 31
0.0
  0
LINE
  8
0
  6
CONTINUOUS
 62
   250
 10
3.5464
 20
3.30572
 30
0.0
 11
3.5464
 21
3.35588
 31
0.0
  0
LINE
  8
0
  6
CONTINUOUS
 62
   250
 10
3.5464
 20
3.39372
 30
0.0
 11
3.5464
 21
3.44432
 31
0.0
  0
LINE
  8
0
  6
CONTINUOUS
 62
   250
 10
3.5464
 20
3.44432
 30
0.0
 11
3.49624
 21
3.44432
 31
0.0
  0
LINE
  8
0
  6
CONTINUOUS
 62
   250
 10
3.49624
 20
3.44432
 30
0.0
 11
3.49624
 21
3.30572
 31
0.0
  0
LINE
  8
0
  6
CONTINUOUS
 62
   250
 10
3.5464
 20
3.24896
 30
0.0
 11
3.49624
 21
3.24896
 31
0.0
  0
LINE
  8
0
  6
CONTINUOUS
 62
   250
 10
3.49624
 20
3.1922
 30
0.0
 11
3.5464
 21
3.1922
 31
0.0
  0
LINE
  8
0
  6
CONTINUOUS
 62
   250
 10
3.5464
 20
3.13544
 30
0.0
 11
3.49624
 21
3.13544
 31
0.0
  0
LINE
  8
0
  6
CONTINUOUS
 62
   250
 10
3.49624
 20
3.06592
 30
0.0
 11
3.5464
 21
3.06592
 31
0.0
  0
LINE
  8
0
  6
CONTINUOUS
 62
   250
 10
3.5464
 20
3.00916
 30
0.0
 11
3.49624
 21
3.00916
 31
0.0
  0
LINE
  8
0
  6
CONTINUOUS
 62
   250
 10
3.49624
 20
2.9524
 30
0.0
 11
3.5464
 21
2.9524
 31
0.0
  0
LINE
  8
0
  6
CONTINUOUS
 62
   250
 10
3.6476
 20
2.5366
 30
0.0
 11
3.6476
 21
2.49876
 31
0.0
  0
LINE
  8
0
  6
CONTINUOUS
 62
   250
 10
3.63088
 20
2.475
 30
0.0
 11
3.62648
 21
2.47412
 31
0.0
  0
LINE
  8
0
  6
CONTINUOUS
 62
   250
 10
3.62648
 20
2.47412
 30
0.0
 11
3.62208
 21
2.47368
 31
0.0
  0
LINE
  8
0
  6
CONTINUOUS
 62
   250
 10
3.62208
 20
2.47368
 30
0.0
 11
3.57148
 21
2.47368
 31
0.0
  0
LINE
  8
0
  6
CONTINUOUS
 62
   250
 10
3.57148
 20
2.47368
 30
0.0
 11
2.91632
 21
2.47368
 31
0.0
  0
LINE
  8
0
  6
CONTINUOUS
 62
   250
 10
2.89696
 20
2.48248
 30
0.0
 11
2.98452
 21
2.38128
 31
0.0
  0
LINE
  8
0
  6
CONTINUOUS
 62
   250
 10
2.98452
 20
2.38128
 30
0.0
 11
2.9876
 21
2.37864
 31
0.0
  0
LINE
  8
0
  6
CONTINUOUS
 62
   250
 10
2.9876
 20
2.37864
 30
0.0
 11
2.99068
 21
2.376
 31
0.0
  0
LINE
  8
0
  6
CONTINUOUS
 62
   250
 10
2.99068
 20
2.376
 30
0.0
 11
2.99508
 21
2.37424
 31
0.0
  0
LINE
  8
0
  6
CONTINUOUS
 62
   250
 10
2.99508
 20
2.37424
 30
0.0
 11
2.99904
 21
2.37292
 31
0.0
  0
LINE
  8
0
  6
CONTINUOUS
 62
   250
 10
2.99904
 20
2.37292
 30
0.0
 11
3.00344
 21
2.37292
 31
0.0
  0
LINE
  8
0
  6
CONTINUOUS
 62
   250
 10
3.00476
 20
2.48644
 30
0.0
 11
3.00872
 21
2.48644
 31
0.0
  0
LINE
  8
0
  6
CONTINUOUS
 62
   250
 10
3.00872
 20
2.48644
 30
0.0
 11
3.01312
 21
2.48776
 31
0.0
  0
LINE
  8
0
  6
CONTINUOUS
 62
   250
 10
3.01312
 20
2.48776
 30
0.0
 11
3.01708
 21
2.48952
 31
0.0
  0
LINE
  8
0
  6
CONTINUOUS
 62
   250
 10
3.01708
 20
2.48952
 30
0.0
 11
3.0206
 21
2.49216
 31
0.0
  0
LINE
  8
0
  6
CONTINUOUS
 62
   250
 10
3.0206
 20
2.49216
 30
0.0
 11
3.02368
 21
2.49524
 31
0.0
  0
LINE
  8
0
  6
CONTINUOUS
 62
   250
 10
3.02368
 20
2.49524
 30
0.0
 11
3.02632
 21
2.49876
 31
0.0
  0
LINE
  8
0
  6
CONTINUOUS
 62
   250
 10
3.02632
 20
2.49876
 30
0.0
 11
3.02808
 21
2.50272
 31
0.0
  0
LINE
  8
0
  6
CONTINUOUS
 62
   250
 10
3.02808
 20
2.50272
 30
0.0
 11
3.0294
 21
2.50712
 31
0.0
  0
LINE
  8
0
  6
CONTINUOUS
 62
   250
 10
3.0294
 20
2.50712
 30
0.0
 11
3.02984
 21
2.51152
 31
0.0
  0
LINE
  8
0
  6
CONTINUOUS
 62
   250
 10
3.02984
 20
2.51152
 30
0.0
 11
3.0294
 21
2.51592
 31
0.0
  0
LINE
  8
0
  6
CONTINUOUS
 62
   250
 10
3.0294
 20
2.51592
 30
0.0
 11
3.02808
 21
2.52032
 31
0.0
  0
LINE
  8
0
  6
CONTINUOUS
 62
   250
 10
3.02808
 20
2.52032
 30
0.0
 11
3.02632
 21
2.52384
 31
0.0
  0
LINE
  8
0
  6
CONTINUOUS
 62
   250
 10
3.02632
 20
2.52384
 30
0.0
 11
3.02368
 21
2.5278
 31
0.0
  0
LINE
  8
0
  6
CONTINUOUS
 62
   250
 10
3.02368
 20
2.5278
 30
0.0
 11
3.0206
 21
2.53088
 31
0.0
  0
LINE
  8
0
  6
CONTINUOUS
 62
   250
 10
3.0206
 20
2.53088
 30
0.0
 11
3.01708
 21
2.53352
 31
0.0
  0
LINE
  8
0
  6
CONTINUOUS
 62
   250
 10
3.01708
 20
2.53352
 30
0.0
 11
3.01312
 21
2.53528
 31
0.0
  0
LINE
  8
0
  6
CONTINUOUS
 62
   250
 10
3.01312
 20
2.53528
 30
0.0
 11
3.00872
 21
2.53616
 31
0.0
  0
LINE
  8
0
  6
CONTINUOUS
 62
   250
 10
3.00872
 20
2.53616
 30
0.0
 11
3.00476
 21
2.5366
 31
0.0
  0
LINE
  8
0
  6
CONTINUOUS
 62
   250
 10
3.00476
 20
2.5366
 30
0.0
 11
2.99992
 21
2.53616
 31
0.0
  0
LINE
  8
0
  6
CONTINUOUS
 62
   250
 10
2.99992
 20
2.53616
 30
0.0
 11
2.99596
 21
2.53528
 31
0.0
  0
LINE
  8
0
  6
CONTINUOUS
 62
   250
 10
2.99596
 20
2.53528
 30
0.0
 11
2.992
 21
2.53352
 31
0.0
  0
LINE
  8
0
  6
CONTINUOUS
 62
   250
 10
2.992
 20
2.53352
 30
0.0
 11
2.98848
 21
2.53088
 31
0.0
  0
LINE
  8
0
  6
CONTINUOUS
 62
   250
 10
2.98848
 20
2.53088
 30
0.0
 11
2.98496
 21
2.5278
 31
0.0
  0
LINE
  8
0
  6
CONTINUOUS
 62
   250
 10
2.98496
 20
2.5278
 30
0.0
 11
2.98276
 21
2.52384
 31
0.0
  0
LINE
  8
0
  6
CONTINUOUS
 62
   250
 10
2.98276
 20
2.52384
 30
0.0
 11
2.981
 21
2.52032
 31
0.0
  0
LINE
  8
0
  6
CONTINUOUS
 62
   250
 10
2.981
 20
2.52032
 30
0.0
 11
2.97968
 21
2.51592
 31
0.0
  0
LINE
  8
0
  6
CONTINUOUS
 62
   250
 10
2.97968
 20
2.51592
 30
0.0
 11
2.97924
 21
2.51152
 31
0.0
  0
LINE
  8
0
  6
CONTINUOUS
 62
   250
 10
2.97924
 20
2.51152
 30
0.0
 11
2.97968
 21
2.50712
 31
0.0
  0
LINE
  8
0
  6
CONTINUOUS
 62
   250
 10
2.97968
 20
2.50712
 30
0.0
 11
2.981
 21
2.50272
 31
0.0
  0
LINE
  8
0
  6
CONTINUOUS
 62
   250
 10
2.981
 20
2.50272
 30
0.0
 11
2.98276
 21
2.49876
 31
0.0
  0
LINE
  8
0
  6
CONTINUOUS
 62
   250
 10
2.98276
 20
2.49876
 30
0.0
 11
2.98496
 21
2.49524
 31
0.0
  0
LINE
  8
0
  6
CONTINUOUS
 62
   250
 10
2.98496
 20
2.49524
 30
0.0
 11
2.98848
 21
2.49216
 31
0.0
  0
LINE
  8
0
  6
CONTINUOUS
 62
   250
 10
2.98848
 20
2.49216
 30
0.0
 11
2.992
 21
2.48952
 31
0.0
  0
LINE
  8
0
  6
CONTINUOUS
 62
   250
 10
2.992
 20
2.48952
 30
0.0
 11
2.99596
 21
2.48776
 31
0.0
  0
LINE
  8
0
  6
CONTINUOUS
 62
   250
 10
2.99596
 20
2.48776
 30
0.0
 11
2.99992
 21
2.48644
 31
0.0
  0
LINE
  8
0
  6
CONTINUOUS
 62
   250
 10
2.99992
 20
2.48644
 30
0.0
 11
3.00476
 21
2.48644
 31
0.0
  0
LINE
  8
0
  6
CONTINUOUS
 62
   250
 10
3.01488
 20
2.62504
 30
0.0
 11
3.04436
 21
2.62504
 31
0.0
  0
LINE
  8
0
  6
CONTINUOUS
 62
   250
 10
3.04436
 20
2.62504
 30
0.0
 11
3.05888
 21
2.65012
 31
0.0
  0
LINE
  8
0
  6
CONTINUOUS
 62
   250
 10
3.05888
 20
2.65012
 30
0.0
 11
3.04436
 21
2.6752
 31
0.0
  0
LINE
  8
0
  6
CONTINUOUS
 62
   250
 10
3.04436
 20
2.6752
 30
0.0
 11
3.01488
 21
2.6752
 31
0.0
  0
LINE
  8
0
  6
CONTINUOUS
 62
   250
 10
3.01488
 20
2.6752
 30
0.0
 11
3.0008
 21
2.65012
 31
0.0
  0
LINE
  8
0
  6
CONTINUOUS
 62
   250
 10
3.0008
 20
2.65012
 30
0.0
 11
3.01488
 21
2.62504
 31
0.0
  0
LINE
  8
0
  6
CONTINUOUS
 62
   250
 10
3.0206
 20
2.64132
 30
0.0
 11
3.02368
 21
2.63912
 31
0.0
  0
LINE
  8
0
  6
CONTINUOUS
 62
   250
 10
3.02368
 20
2.63912
 30
0.0
 11
3.02632
 21
2.6378
 31
0.0
  0
LINE
  8
0
  6
CONTINUOUS
 62
   250
 10
3.02632
 20
2.6378
 30
0.0
 11
3.02984
 21
2.63736
 31
0.0
  0
LINE
  8
0
  6
CONTINUOUS
 62
   250
 10
3.02984
 20
2.63736
 30
0.0
 11
3.03292
 21
2.6378
 31
0.0
  0
LINE
  8
0
  6
CONTINUOUS
 62
   250
 10
3.03292
 20
2.6378
 30
0.0
 11
3.036
 21
2.63912
 31
0.0
  0
LINE
  8
0
  6
CONTINUOUS
 62
   250
 10
3.036
 20
2.63912
 30
0.0
 11
3.03864
 21
2.64132
 31
0.0
  0
LINE
  8
0
  6
CONTINUOUS
 62
   250
 10
3.03864
 20
2.64132
 30
0.0
 11
3.04084
 21
2.64396
 31
0.0
  0
LINE
  8
0
  6
CONTINUOUS
 62
   250
 10
3.04084
 20
2.64396
 30
0.0
 11
3.04216
 21
2.64704
 31
0.0
  0
LINE
  8
0
  6
CONTINUOUS
 62
   250
 10
3.04216
 20
2.64704
 30
0.0
 11
3.0426
 21
2.65012
 31
0.0
  0
LINE
  8
0
  6
CONTINUOUS
 62
   250
 10
3.0426
 20
2.65012
 30
0.0
 11
3.04216
 21
2.65364
 31
0.0
  0
LINE
  8
0
  6
CONTINUOUS
 62
   250
 10
3.04216
 20
2.65364
 30
0.0
 11
3.04084
 21
2.65628
 31
0.0
  0
LINE
  8
0
  6
CONTINUOUS
 62
   250
 10
3.04084
 20
2.65628
 30
0.0
 11
3.03864
 21
2.65892
 31
0.0
  0
LINE
  8
0
  6
CONTINUOUS
 62
   250
 10
3.03864
 20
2.65892
 30
0.0
 11
3.036
 21
2.66112
 31
0.0
  0
LINE
  8
0
  6
CONTINUOUS
 62
   250
 10
3.036
 20
2.66112
 30
0.0
 11
3.03292
 21
2.66244
 31
0.0
  0
LINE
  8
0
  6
CONTINUOUS
 62
   250
 10
3.03292
 20
2.66244
 30
0.0
 11
3.02984
 21
2.66288
 31
0.0
  0
LINE
  8
0
  6
CONTINUOUS
 62
   250
 10
3.02984
 20
2.66288
 30
0.0
 11
3.02632
 21
2.66244
 31
0.0
  0
LINE
  8
0
  6
CONTINUOUS
 62
   250
 10
3.02632
 20
2.66244
 30
0.0
 11
3.02368
 21
2.66112
 31
0.0
  0
LINE
  8
0
  6
CONTINUOUS
 62
   250
 10
3.02368
 20
2.66112
 30
0.0
 11
3.0206
 21
2.65892
 31
0.0
  0
LINE
  8
0
  6
CONTINUOUS
 62
   250
 10
3.0206
 20
2.65892
 30
0.0
 11
3.01884
 21
2.65628
 31
0.0
  0
LINE
  8
0
  6
CONTINUOUS
 62
   250
 10
3.01884
 20
2.65628
 30
0.0
 11
3.01752
 21
2.65364
 31
0.0
  0
LINE
  8
0
  6
CONTINUOUS
 62
   250
 10
3.01752
 20
2.65364
 30
0.0
 11
3.01708
 21
2.65012
 31
0.0
  0
LINE
  8
0
  6
CONTINUOUS
 62
   250
 10
3.01708
 20
2.65012
 30
0.0
 11
3.01752
 21
2.64704
 31
0.0
  0
LINE
  8
0
  6
CONTINUOUS
 62
   250
 10
3.01752
 20
2.64704
 30
0.0
 11
3.01884
 21
2.64396
 31
0.0
  0
LINE
  8
0
  6
CONTINUOUS
 62
   250
 10
3.01884
 20
2.64396
 30
0.0
 11
3.0206
 21
2.64132
 31
0.0
  0
LINE
  8
0
  6
CONTINUOUS
 62
   250
 10
3.0206
 20
2.74208
 30
0.0
 11
3.02368
 21
2.73988
 31
0.0
  0
LINE
  8
0
  6
CONTINUOUS
 62
   250
 10
3.02368
 20
2.73988
 30
0.0
 11
3.02632
 21
2.73856
 31
0.0
  0
LINE
  8
0
  6
CONTINUOUS
 62
   250
 10
3.02632
 20
2.73856
 30
0.0
 11
3.02984
 21
2.73812
 31
0.0
  0
LINE
  8
0
  6
CONTINUOUS
 62
   250
 10
3.02984
 20
2.73812
 30
0.0
 11
3.03292
 21
2.73856
 31
0.0
  0
LINE
  8
0
  6
CONTINUOUS
 62
   250
 10
3.03292
 20
2.73856
 30
0.0
 11
3.036
 21
2.73988
 31
0.0
  0
LINE
  8
0
  6
CONTINUOUS
 62
   250
 10
3.036
 20
2.73988
 30
0.0
 11
3.03864
 21
2.74208
 31
0.0
  0
LINE
  8
0
  6
CONTINUOUS
 62
   250
 10
3.03864
 20
2.74208
 30
0.0
 11
3.04084
 21
2.74472
 31
0.0
  0
LINE
  8
0
  6
CONTINUOUS
 62
   250
 10
3.04084
 20
2.74472
 30
0.0
 11
3.04216
 21
2.74736
 31
0.0
  0
LINE
  8
0
  6
CONTINUOUS
 62
   250
 10
3.04216
 20
2.74736
 30
0.0
 11
3.0426
 21
2.75088
 31
0.0
  0
LINE
  8
0
  6
CONTINUOUS
 62
   250
 10
3.0426
 20
2.75088
 30
0.0
 11
3.04216
 21
2.7544
 31
0.0
  0
LINE
  8
0
  6
CONTINUOUS
 62
   250
 10
3.04216
 20
2.7544
 30
0.0
 11
3.04084
 21
2.75704
 31
0.0
  0
LINE
  8
0
  6
CONTINUOUS
 62
   250
 10
3.04084
 20
2.75704
 30
0.0
 11
3.03864
 21
2.76012
 31
0.0
  0
LINE
  8
0
  6
CONTINUOUS
 62
   250
 10
3.03864
 20
2.76012
 30
0.0
 11
3.036
 21
2.76188
 31
0.0
  0
LINE
  8
0
  6
CONTINUOUS
 62
   250
 10
3.036
 20
2.76188
 30
0.0
 11
3.03292
 21
2.7632
 31
0.0
  0
LINE
  8
0
  6
CONTINUOUS
 62
   250
 10
3.03292
 20
2.7632
 30
0.0
 11
3.02984
 21
2.76364
 31
0.0
  0
LINE
  8
0
  6
CONTINUOUS
 62
   250
 10
3.02984
 20
2.76364
 30
0.0
 11
3.02632
 21
2.7632
 31
0.0
  0
LINE
  8
0
  6
CONTINUOUS
 62
   250
 10
3.02632
 20
2.7632
 30
0.0
 11
3.02368
 21
2.76188
 31
0.0
  0
LINE
  8
0
  6
CONTINUOUS
 62
   250
 10
3.02368
 20
2.76188
 30
0.0
 11
3.0206
 21
2.76012
 31
0.0
  0
LINE
  8
0
  6
CONTINUOUS
 62
   250
 10
3.0206
 20
2.76012
 30
0.0
 11
3.01884
 21
2.75704
 31
0.0
  0
LINE
  8
0
  6
CONTINUOUS
 62
   250
 10
3.01884
 20
2.75704
 30
0.0
 11
3.01752
 21
2.7544
 31
0.0
  0
LINE
  8
0
  6
CONTINUOUS
 62
   250
 10
3.01752
 20
2.7544
 30
0.0
 11
3.01708
 21
2.75088
 31
0.0
  0
LINE
  8
0
  6
CONTINUOUS
 62
   250
 10
3.01708
 20
2.75088
 30
0.0
 11
3.01752
 21
2.74736
 31
0.0
  0
LINE
  8
0
  6
CONTINUOUS
 62
   250
 10
3.01752
 20
2.74736
 30
0.0
 11
3.01884
 21
2.74472
 31
0.0
  0
LINE
  8
0
  6
CONTINUOUS
 62
   250
 10
3.01884
 20
2.74472
 30
0.0
 11
3.0206
 21
2.74208
 31
0.0
  0
LINE
  8
0
  6
CONTINUOUS
 62
   250
 10
3.03468
 20
3.234
 30
0.0
 11
3.03688
 21
3.2318
 31
0.0
  0
LINE
  8
0
  6
CONTINUOUS
 62
   250
 10
3.03688
 20
3.2318
 30
0.0
 11
3.03952
 21
3.23048
 31
0.0
  0
LINE
  8
0
  6
CONTINUOUS
 62
   250
 10
3.03952
 20
3.23048
 30
0.0
 11
3.0426
 21
3.23004
 31
0.0
  0
LINE
  8
0
  6
CONTINUOUS
 62
   250
 10
3.0426
 20
3.23004
 30
0.0
 11
3.04524
 21
3.23048
 31
0.0
  0
LINE
  8
0
  6
CONTINUOUS
 62
   250
 10
3.04524
 20
3.23048
 30
0.0
 11
3.04788
 21
3.2318
 31
0.0
  0
LINE
  8
0
  6
CONTINUOUS
 62
   250
 10
3.04788
 20
3.2318
 30
0.0
 11
3.05008
 21
3.234
 31
0.0
  0
LINE
  8
0
  6
CONTINUOUS
 62
   250
 10
3.05008
 20
3.234
 30
0.0
 11
3.0514
 21
3.23664
 31
0.0
  0
LINE
  8
0
  6
CONTINUOUS
 62
   250
 10
3.0514
 20
3.23664
 30
0.0
 11
3.05184
 21
3.23928
 31
0.0
  0
LINE
  8
0
  6
CONTINUOUS
 62
   250
 10
3.05184
 20
3.23928
 30
0.0
 11
3.0514
 21
3.24236
 31
0.0
  0
LINE
  8
0
  6
CONTINUOUS
 62
   250
 10
3.0514
 20
3.24236
 30
0.0
 11
3.05008
 21
3.245
 31
0.0
  0
LINE
  8
0
  6
CONTINUOUS
 62
   250
 10
3.05008
 20
3.245
 30
0.0
 11
3.04788
 21
3.2472
 31
0.0
  0
LINE
  8
0
  6
CONTINUOUS
 62
   250
 10
3.04788
 20
3.2472
 30
0.0
 11
3.04524
 21
3.24852
 31
0.0
  0
LINE
  8
0
  6
CONTINUOUS
 62
   250
 10
3.04524
 20
3.24852
 30
0.0
 11
3.0426
 21
3.24896
 31
0.0
  0
LINE
  8
0
  6
CONTINUOUS
 62
   250
 10
3.0426
 20
3.24896
 30
0.0
 11
3.03952
 21
3.24852
 31
0.0
  0
LINE
  8
0
  6
CONTINUOUS
 62
   250
 10
3.03952
 20
3.24852
 30
0.0
 11
3.03688
 21
3.2472
 31
0.0
  0
LINE
  8
0
  6
CONTINUOUS
 62
   250
 10
3.03688
 20
3.2472
 30
0.0
 11
3.03468
 21
3.245
 31
0.0
  0
LINE
  8
0
  6
CONTINUOUS
 62
   250
 10
3.03468
 20
3.245
 30
0.0
 11
3.03336
 21
3.24236
 31
0.0
  0
LINE
  8
0
  6
CONTINUOUS
 62
   250
 10
3.03336
 20
3.24236
 30
0.0
 11
3.03292
 21
3.23928
 31
0.0
  0
LINE
  8
0
  6
CONTINUOUS
 62
   250
 10
3.03292
 20
3.23928
 30
0.0
 11
3.03336
 21
3.23664
 31
0.0
  0
LINE
  8
0
  6
CONTINUOUS
 62
   250
 10
3.03336
 20
3.23664
 30
0.0
 11
3.03468
 21
3.234
 31
0.0
  0
LINE
  8
0
  6
CONTINUOUS
 62
   250
 10
3.06768
 20
3.22344
 30
0.0
 11
3.06768
 21
3.29912
 31
0.0
  0
LINE
  8
0
  6
CONTINUOUS
 62
   250
 10
3.06768
 20
3.29912
 30
0.0
 11
2.97924
 21
3.29912
 31
0.0
  0
LINE
  8
0
  6
CONTINUOUS
 62
   250
 10
3.01708
 20
3.29912
 30
0.0
 11
3.06768
 21
3.29912
 31
0.0
  0
LINE
  8
0
  6
CONTINUOUS
 62
   250
 10
3.06768
 20
3.29912
 30
0.0
 11
3.01708
 21
3.29912
 31
0.0
  0
LINE
  8
0
  6
CONTINUOUS
 62
   250
 10
3.01708
 20
3.29912
 30
0.0
 11
3.06768
 21
3.29912
 31
0.0
  0
LINE
  8
0
  6
CONTINUOUS
 62
   250
 10
3.06768
 20
3.29912
 30
0.0
 11
3.01708
 21
3.29912
 31
0.0
  0
LINE
  8
0
  6
CONTINUOUS
 62
   250
 10
3.01708
 20
3.29912
 30
0.0
 11
3.06768
 21
3.29912
 31
0.0
  0
LINE
  8
0
  6
CONTINUOUS
 62
   250
 10
3.04788
 20
3.2912
 30
0.0
 11
3.04524
 21
3.29252
 31
0.0
  0
LINE
  8
0
  6
CONTINUOUS
 62
   250
 10
3.04524
 20
3.29252
 30
0.0
 11
3.0426
 21
3.29296
 31
0.0
  0
LINE
  8
0
  6
CONTINUOUS
 62
   250
 10
3.0426
 20
3.29296
 30
0.0
 11
3.03952
 21
3.29252
 31
0.0
  0
LINE
  8
0
  6
CONTINUOUS
 62
   250
 10
3.03952
 20
3.29252
 30
0.0
 11
3.03688
 21
3.2912
 31
0.0
  0
LINE
  8
0
  6
CONTINUOUS
 62
   250
 10
3.03688
 20
3.2912
 30
0.0
 11
3.03468
 21
3.289
 31
0.0
  0
LINE
  8
0
  6
CONTINUOUS
 62
   250
 10
3.03468
 20
3.289
 30
0.0
 11
3.03336
 21
3.28636
 31
0.0
  0
LINE
  8
0
  6
CONTINUOUS
 62
   250
 10
3.03336
 20
3.28636
 30
0.0
 11
3.03292
 21
3.28328
 31
0.0
  0
LINE
  8
0
  6
CONTINUOUS
 62
   250
 10
3.03292
 20
3.28328
 30
0.0
 11
3.03336
 21
3.28064
 31
0.0
  0
LINE
  8
0
  6
CONTINUOUS
 62
   250
 10
3.03336
 20
3.28064
 30
0.0
 11
3.03468
 21
3.278
 31
0.0
  0
LINE
  8
0
  6
CONTINUOUS
 62
   250
 10
3.03468
 20
3.278
 30
0.0
 11
3.03688
 21
3.2758
 31
0.0
  0
LINE
  8
0
  6
CONTINUOUS
 62
   250
 10
3.03688
 20
3.2758
 30
0.0
 11
3.03952
 21
3.27448
 31
0.0
  0
LINE
  8
0
  6
CONTINUOUS
 62
   250
 10
3.03952
 20
3.27448
 30
0.0
 11
3.0426
 21
3.27404
 31
0.0
  0
LINE
  8
0
  6
CONTINUOUS
 62
   250
 10
3.0426
 20
3.27404
 30
0.0
 11
3.04524
 21
3.27448
 31
0.0
  0
LINE
  8
0
  6
CONTINUOUS
 62
   250
 10
3.04524
 20
3.27448
 30
0.0
 11
3.04788
 21
3.2758
 31
0.0
  0
LINE
  8
0
  6
CONTINUOUS
 62
   250
 10
3.04788
 20
3.2758
 30
0.0
 11
3.05008
 21
3.278
 31
0.0
  0
LINE
  8
0
  6
CONTINUOUS
 62
   250
 10
3.05008
 20
3.278
 30
0.0
 11
3.0514
 21
3.28064
 31
0.0
  0
LINE
  8
0
  6
CONTINUOUS
 62
   250
 10
3.0514
 20
3.28064
 30
0.0
 11
3.05184
 21
3.28328
 31
0.0
  0
LINE
  8
0
  6
CONTINUOUS
 62
   250
 10
3.05184
 20
3.28328
 30
0.0
 11
3.0514
 21
3.28636
 31
0.0
  0
LINE
  8
0
  6
CONTINUOUS
 62
   250
 10
3.0514
 20
3.28636
 30
0.0
 11
3.05008
 21
3.289
 31
0.0
  0
LINE
  8
0
  6
CONTINUOUS
 62
   250
 10
3.05008
 20
3.289
 30
0.0
 11
3.04788
 21
3.2912
 31
0.0
  0
LINE
  8
0
  6
CONTINUOUS
 62
   250
 10
3.036
 20
3.2868
 30
0.0
 11
3.03336
 21
3.2868
 31
0.0
  0
LINE
  8
0
  6
CONTINUOUS
 62
   250
 10
3.036
 20
3.2868
 30
0.0
 11
3.036
 21
3.2802
 31
0.0
  0
LINE
  8
0
  6
CONTINUOUS
 62
   250
 10
3.036
 20
3.2802
 30
0.0
 11
3.03336
 21
3.2802
 31
0.0
  0
LINE
  8
0
  6
CONTINUOUS
 62
   250
 10
3.036
 20
3.34356
 30
0.0
 11
3.02984
 21
3.34356
 31
0.0
  0
LINE
  8
0
  6
CONTINUOUS
 62
   250
 10
3.01708
 20
3.34356
 30
0.0
 11
3.06768
 21
3.34356
 31
0.0
  0
LINE
  8
0
  6
CONTINUOUS
 62
   250
 10
3.06768
 20
3.34356
 30
0.0
 11
3.06768
 21
3.4188
 31
0.0
  0
LINE
  8
0
  6
CONTINUOUS
 62
   250
 10
3.06768
 20
3.4188
 30
0.0
 11
2.97924
 21
3.4188
 31
0.0
  0
LINE
  8
0
  6
CONTINUOUS
 62
   250
 10
2.97924
 20
3.4188
 30
0.0
 11
3.01708
 21
3.4188
 31
0.0
  0
LINE
  8
0
  6
CONTINUOUS
 62
   250
 10
3.01708
 20
3.4188
 30
0.0
 11
3.06768
 21
3.4188
 31
0.0
  0
LINE
  8
0
  6
CONTINUOUS
 62
   250
 10
3.06768
 20
3.4188
 30
0.0
 11
3.01708
 21
3.4188
 31
0.0
  0
LINE
  8
0
  6
CONTINUOUS
 62
   250
 10
3.01708
 20
3.4188
 30
0.0
 11
3.06768
 21
3.4188
 31
0.0
  0
LINE
  8
0
  6
CONTINUOUS
 62
   250
 10
3.06768
 20
3.4188
 30
0.0
 11
3.01708
 21
3.4188
 31
0.0
  0
LINE
  8
0
  6
CONTINUOUS
 62
   250
 10
3.01708
 20
3.4188
 30
0.0
 11
3.06768
 21
3.4188
 31
0.0
  0
LINE
  8
0
  6
CONTINUOUS
 62
   250
 10
3.06768
 20
3.4188
 30
0.0
 11
3.01708
 21
3.4188
 31
0.0
  0
LINE
  8
0
  6
CONTINUOUS
 62
   250
 10
3.03688
 20
3.41088
 30
0.0
 11
3.03468
 21
3.40868
 31
0.0
  0
LINE
  8
0
  6
CONTINUOUS
 62
   250
 10
3.03468
 20
3.40868
 30
0.0
 11
3.03336
 21
3.40604
 31
0.0
  0
LINE
  8
0
  6
CONTINUOUS
 62
   250
 10
3.03336
 20
3.40604
 30
0.0
 11
3.03292
 21
3.40296
 31
0.0
  0
LINE
  8
0
  6
CONTINUOUS
 62
   250
 10
3.03292
 20
3.40296
 30
0.0
 11
3.03336
 21
3.40032
 31
0.0
  0
LINE
  8
0
  6
CONTINUOUS
 62
   250
 10
3.03336
 20
3.40032
 30
0.0
 11
3.03468
 21
3.39768
 31
0.0
  0
LINE
  8
0
  6
CONTINUOUS
 62
   250
 10
3.03468
 20
3.39768
 30
0.0
 11
3.03688
 21
3.39548
 31
0.0
  0
LINE
  8
0
  6
CONTINUOUS
 62
   250
 10
3.03688
 20
3.39548
 30
0.0
 11
3.03952
 21
3.39416
 31
0.0
  0
LINE
  8
0
  6
CONTINUOUS
 62
   250
 10
3.03952
 20
3.39416
 30
0.0
 11
3.0426
 21
3.39372
 31
0.0
  0
LINE
  8
0
  6
CONTINUOUS
 62
   250
 10
3.0426
 20
3.39372
 30
0.0
 11
3.04524
 21
3.39416
 31
0.0
  0
LINE
  8
0
  6
CONTINUOUS
 62
   250
 10
3.04524
 20
3.39416
 30
0.0
 11
3.04788
 21
3.39548
 31
0.0
  0
LINE
  8
0
  6
CONTINUOUS
 62
   250
 10
3.04788
 20
3.39548
 30
0.0
 11
3.05008
 21
3.39768
 31
0.0
  0
LINE
  8
0
  6
CONTINUOUS
 62
   250
 10
3.05008
 20
3.39768
 30
0.0
 11
3.0514
 21
3.40032
 31
0.0
  0
LINE
  8
0
  6
CONTINUOUS
 62
   250
 10
3.0514
 20
3.40032
 30
0.0
 11
3.05184
 21
3.40296
 31
0.0
  0
LINE
  8
0
  6
CONTINUOUS
 62
   250
 10
3.05184
 20
3.40296
 30
0.0
 11
3.0514
 21
3.40604
 31
0.0
  0
LINE
  8
0
  6
CONTINUOUS
 62
   250
 10
3.0514
 20
3.40604
 30
0.0
 11
3.05008
 21
3.40868
 31
0.0
  0
LINE
  8
0
  6
CONTINUOUS
 62
   250
 10
3.05008
 20
3.40868
 30
0.0
 11
3.04788
 21
3.41088
 31
0.0
  0
LINE
  8
0
  6
CONTINUOUS
 62
   250
 10
3.04788
 20
3.41088
 30
0.0
 11
3.04524
 21
3.4122
 31
0.0
  0
LINE
  8
0
  6
CONTINUOUS
 62
   250
 10
3.04524
 20
3.4122
 30
0.0
 11
3.0426
 21
3.41264
 31
0.0
  0
LINE
  8
0
  6
CONTINUOUS
 62
   250
 10
3.0426
 20
3.41264
 30
0.0
 11
3.03952
 21
3.4122
 31
0.0
  0
LINE
  8
0
  6
CONTINUOUS
 62
   250
 10
3.03952
 20
3.4122
 30
0.0
 11
3.03688
 21
3.41088
 31
0.0
  0
LINE
  8
0
  6
CONTINUOUS
 62
   250
 10
3.036
 20
3.40648
 30
0.0
 11
3.036
 21
3.40032
 31
0.0
  0
LINE
  8
0
  6
CONTINUOUS
 62
   250
 10
3.036
 20
3.40032
 30
0.0
 11
3.03336
 21
3.40032
 31
0.0
  0
LINE
  8
0
  6
CONTINUOUS
 62
   250
 10
3.03336
 20
3.40648
 30
0.0
 11
3.036
 21
3.40648
 31
0.0
  0
LINE
  8
0
  6
CONTINUOUS
 62
   250
 10
3.03688
 20
3.36688
 30
0.0
 11
3.03468
 21
3.36468
 31
0.0
  0
LINE
  8
0
  6
CONTINUOUS
 62
   250
 10
3.03468
 20
3.36468
 30
0.0
 11
3.03336
 21
3.36204
 31
0.0
  0
LINE
  8
0
  6
CONTINUOUS
 62
   250
 10
3.03336
 20
3.36204
 30
0.0
 11
3.03292
 21
3.3594
 31
0.0
  0
LINE
  8
0
  6
CONTINUOUS
 62
   250
 10
3.03292
 20
3.3594
 30
0.0
 11
3.03336
 21
3.35632
 31
0.0
  0
LINE
  8
0
  6
CONTINUOUS
 62
   250
 10
3.03336
 20
3.35632
 30
0.0
 11
3.03468
 21
3.35368
 31
0.0
  0
LINE
  8
0
  6
CONTINUOUS
 62
   250
 10
3.03468
 20
3.35368
 30
0.0
 11
3.03688
 21
3.35148
 31
0.0
  0
LINE
  8
0
  6
CONTINUOUS
 62
   250
 10
3.03688
 20
3.35148
 30
0.0
 11
3.03952
 21
3.35016
 31
0.0
  0
LINE
  8
0
  6
CONTINUOUS
 62
   250
 10
3.03952
 20
3.35016
 30
0.0
 11
3.0426
 21
3.34972
 31
0.0
  0
LINE
  8
0
  6
CONTINUOUS
 62
   250
 10
3.0426
 20
3.34972
 30
0.0
 11
3.04524
 21
3.35016
 31
0.0
  0
LINE
  8
0
  6
CONTINUOUS
 62
   250
 10
3.04524
 20
3.35016
 30
0.0
 11
3.04788
 21
3.35148
 31
0.0
  0
LINE
  8
0
  6
CONTINUOUS
 62
   250
 10
3.04788
 20
3.35148
 30
0.0
 11
3.05008
 21
3.35368
 31
0.0
  0
LINE
  8
0
  6
CONTINUOUS
 62
   250
 10
3.05008
 20
3.35368
 30
0.0
 11
3.0514
 21
3.35632
 31
0.0
  0
LINE
  8
0
  6
CONTINUOUS
 62
   250
 10
3.0514
 20
3.35632
 30
0.0
 11
3.05184
 21
3.3594
 31
0.0
  0
LINE
  8
0
  6
CONTINUOUS
 62
   250
 10
3.05184
 20
3.3594
 30
0.0
 11
3.0514
 21
3.36204
 31
0.0
  0
LINE
  8
0
  6
CONTINUOUS
 62
   250
 10
3.0514
 20
3.36204
 30
0.0
 11
3.05008
 21
3.36468
 31
0.0
  0
LINE
  8
0
  6
CONTINUOUS
 62
   250
 10
3.05008
 20
3.36468
 30
0.0
 11
3.04788
 21
3.36688
 31
0.0
  0
LINE
  8
0
  6
CONTINUOUS
 62
   250
 10
3.04788
 20
3.36688
 30
0.0
 11
3.04524
 21
3.3682
 31
0.0
  0
LINE
  8
0
  6
CONTINUOUS
 62
   250
 10
3.04524
 20
3.3682
 30
0.0
 11
3.0426
 21
3.36864
 31
0.0
  0
LINE
  8
0
  6
CONTINUOUS
 62
   250
 10
3.0426
 20
3.36864
 30
0.0
 11
3.03952
 21
3.3682
 31
0.0
  0
LINE
  8
0
  6
CONTINUOUS
 62
   250
 10
3.03952
 20
3.3682
 30
0.0
 11
3.03688
 21
3.36688
 31
0.0
  0
LINE
  8
0
  6
CONTINUOUS
 62
   250
 10
3.036
 20
3.36248
 30
0.0
 11
3.03336
 21
3.36248
 31
0.0
  0
LINE
  8
0
  6
CONTINUOUS
 62
   250
 10
3.036
 20
3.36248
 30
0.0
 11
3.036
 21
3.35588
 31
0.0
  0
LINE
  8
0
  6
CONTINUOUS
 62
   250
 10
3.036
 20
3.35588
 30
0.0
 11
3.03336
 21
3.35588
 31
0.0
  0
LINE
  8
0
  6
CONTINUOUS
 62
   250
 10
3.01708
 20
3.34356
 30
0.0
 11
2.97924
 21
3.34356
 31
0.0
  0
LINE
  8
0
  6
CONTINUOUS
 62
   250
 10
2.97924
 20
3.4188
 30
0.0
 11
3.06768
 21
3.4188
 31
0.0
  0
LINE
  8
0
  6
CONTINUOUS
 62
   250
 10
3.06768
 20
3.17944
 30
0.0
 11
2.97924
 21
3.17944
 31
0.0
  0
LINE
  8
0
  6
CONTINUOUS
 62
   250
 10
2.97924
 20
3.17944
 30
0.0
 11
3.06768
 21
3.17944
 31
0.0
  0
LINE
  8
0
  6
CONTINUOUS
 62
   250
 10
3.06768
 20
3.17944
 30
0.0
 11
2.97924
 21
3.17944
 31
0.0
  0
LINE
  8
0
  6
CONTINUOUS
 62
   250
 10
2.97924
 20
3.17944
 30
0.0
 11
3.01708
 21
3.17944
 31
0.0
  0
LINE
  8
0
  6
CONTINUOUS
 62
   250
 10
3.01708
 20
3.17944
 30
0.0
 11
3.06768
 21
3.17944
 31
0.0
  0
LINE
  8
0
  6
CONTINUOUS
 62
   250
 10
3.06768
 20
3.17944
 30
0.0
 11
3.01708
 21
3.17944
 31
0.0
  0
LINE
  8
0
  6
CONTINUOUS
 62
   250
 10
3.01708
 20
3.17944
 30
0.0
 11
3.06768
 21
3.17944
 31
0.0
  0
LINE
  8
0
  6
CONTINUOUS
 62
   250
 10
3.06768
 20
3.17944
 30
0.0
 11
3.01708
 21
3.17944
 31
0.0
  0
LINE
  8
0
  6
CONTINUOUS
 62
   250
 10
3.01708
 20
3.17944
 30
0.0
 11
3.06768
 21
3.17944
 31
0.0
  0
LINE
  8
0
  6
CONTINUOUS
 62
   250
 10
3.06768
 20
3.17944
 30
0.0
 11
3.01708
 21
3.17944
 31
0.0
  0
LINE
  8
0
  6
CONTINUOUS
 62
   250
 10
3.01708
 20
3.17944
 30
0.0
 11
3.06768
 21
3.17944
 31
0.0
  0
LINE
  8
0
  6
CONTINUOUS
 62
   250
 10
3.06768
 20
3.17944
 30
0.0
 11
3.01708
 21
3.17944
 31
0.0
  0
LINE
  8
0
  6
CONTINUOUS
 62
   250
 10
3.01708
 20
3.17944
 30
0.0
 11
3.06768
 21
3.17944
 31
0.0
  0
LINE
  8
0
  6
CONTINUOUS
 62
   250
 10
3.06768
 20
3.17944
 30
0.0
 11
3.01708
 21
3.17944
 31
0.0
  0
LINE
  8
0
  6
CONTINUOUS
 62
   250
 10
3.01708
 20
3.17944
 30
0.0
 11
3.06768
 21
3.17944
 31
0.0
  0
LINE
  8
0
  6
CONTINUOUS
 62
   250
 10
3.06768
 20
3.17944
 30
0.0
 11
3.01708
 21
3.17944
 31
0.0
  0
LINE
  8
0
  6
CONTINUOUS
 62
   250
 10
3.03688
 20
3.17108
 30
0.0
 11
3.03468
 21
3.16932
 31
0.0
  0
LINE
  8
0
  6
CONTINUOUS
 62
   250
 10
3.03468
 20
3.16932
 30
0.0
 11
3.03336
 21
3.16668
 31
0.0
  0
LINE
  8
0
  6
CONTINUOUS
 62
   250
 10
3.03336
 20
3.16668
 30
0.0
 11
3.03292
 21
3.1636
 31
0.0
  0
LINE
  8
0
  6
CONTINUOUS
 62
   250
 10
3.03292
 20
3.1636
 30
0.0
 11
3.03336
 21
3.16096
 31
0.0
  0
LINE
  8
0
  6
CONTINUOUS
 62
   250
 10
3.03336
 20
3.16096
 30
0.0
 11
3.03468
 21
3.15788
 31
0.0
  0
LINE
  8
0
  6
CONTINUOUS
 62
   250
 10
3.03468
 20
3.15788
 30
0.0
 11
3.03688
 21
3.15612
 31
0.0
  0
LINE
  8
0
  6
CONTINUOUS
 62
   250
 10
3.03688
 20
3.15612
 30
0.0
 11
3.03952
 21
3.1548
 31
0.0
  0
LINE
  8
0
  6
CONTINUOUS
 62
   250
 10
3.03952
 20
3.1548
 30
0.0
 11
3.0426
 21
3.15436
 31
0.0
  0
LINE
  8
0
  6
CONTINUOUS
 62
   250
 10
3.0426
 20
3.15436
 30
0.0
 11
3.04524
 21
3.1548
 31
0.0
  0
LINE
  8
0
  6
CONTINUOUS
 62
   250
 10
3.04524
 20
3.1548
 30
0.0
 11
3.04788
 21
3.15612
 31
0.0
  0
LINE
  8
0
  6
CONTINUOUS
 62
   250
 10
3.04788
 20
3.15612
 30
0.0
 11
3.05008
 21
3.15788
 31
0.0
  0
LINE
  8
0
  6
CONTINUOUS
 62
   250
 10
3.05008
 20
3.15788
 30
0.0
 11
3.0514
 21
3.16096
 31
0.0
  0
LINE
  8
0
  6
CONTINUOUS
 62
   250
 10
3.0514
 20
3.16096
 30
0.0
 11
3.05184
 21
3.1636
 31
0.0
  0
LINE
  8
0
  6
CONTINUOUS
 62
   250
 10
3.05184
 20
3.1636
 30
0.0
 11
3.0514
 21
3.16668
 31
0.0
  0
LINE
  8
0
  6
CONTINUOUS
 62
   250
 10
3.0514
 20
3.16668
 30
0.0
 11
3.05008
 21
3.16932
 31
0.0
  0
LINE
  8
0
  6
CONTINUOUS
 62
   250
 10
3.05008
 20
3.16932
 30
0.0
 11
3.04788
 21
3.17108
 31
0.0
  0
LINE
  8
0
  6
CONTINUOUS
 62
   250
 10
3.04788
 20
3.17108
 30
0.0
 11
3.04524
 21
3.17284
 31
0.0
  0
LINE
  8
0
  6
CONTINUOUS
 62
   250
 10
3.04524
 20
3.17284
 30
0.0
 11
3.0426
 21
3.17328
 31
0.0
  0
LINE
  8
0
  6
CONTINUOUS
 62
   250
 10
3.0426
 20
3.17328
 30
0.0
 11
3.03952
 21
3.17284
 31
0.0
  0
LINE
  8
0
  6
CONTINUOUS
 62
   250
 10
3.03952
 20
3.17284
 30
0.0
 11
3.03688
 21
3.17108
 31
0.0
  0
LINE
  8
0
  6
CONTINUOUS
 62
   250
 10
3.036
 20
3.16712
 30
0.0
 11
3.03336
 21
3.16712
 31
0.0
  0
LINE
  8
0
  6
CONTINUOUS
 62
   250
 10
3.036
 20
3.16712
 30
0.0
 11
3.036
 21
3.16052
 31
0.0
  0
LINE
  8
0
  6
CONTINUOUS
 62
   250
 10
3.036
 20
3.16052
 30
0.0
 11
3.03336
 21
3.16052
 31
0.0
  0
LINE
  8
0
  6
CONTINUOUS
 62
   250
 10
3.03688
 20
3.12752
 30
0.0
 11
3.03468
 21
3.12532
 31
0.0
  0
LINE
  8
0
  6
CONTINUOUS
 62
   250
 10
3.03468
 20
3.12532
 30
0.0
 11
3.03336
 21
3.12268
 31
0.0
  0
LINE
  8
0
  6
CONTINUOUS
 62
   250
 10
3.03336
 20
3.12268
 30
0.0
 11
3.03292
 21
3.1196
 31
0.0
  0
LINE
  8
0
  6
CONTINUOUS
 62
   250
 10
3.03292
 20
3.1196
 30
0.0
 11
3.03336
 21
3.11652
 31
0.0
  0
LINE
  8
0
  6
CONTINUOUS
 62
   250
 10
3.03336
 20
3.11652
 30
0.0
 11
3.03468
 21
3.11432
 31
0.0
  0
LINE
  8
0
  6
CONTINUOUS
 62
   250
 10
3.03468
 20
3.11432
 30
0.0
 11
3.03688
 21
3.11212
 31
0.0
  0
LINE
  8
0
  6
CONTINUOUS
 62
   250
 10
3.03688
 20
3.11212
 30
0.0
 11
3.03952
 21
3.1108
 31
0.0
  0
LINE
  8
0
  6
CONTINUOUS
 62
   250
 10
3.03952
 20
3.1108
 30
0.0
 11
3.0426
 21
3.11036
 31
0.0
  0
LINE
  8
0
  6
CONTINUOUS
 62
   250
 10
3.0426
 20
3.11036
 30
0.0
 11
3.04524
 21
3.1108
 31
0.0
  0
LINE
  8
0
  6
CONTINUOUS
 62
   250
 10
3.04524
 20
3.1108
 30
0.0
 11
3.04788
 21
3.11212
 31
0.0
  0
LINE
  8
0
  6
CONTINUOUS
 62
   250
 10
3.04788
 20
3.11212
 30
0.0
 11
3.05008
 21
3.11432
 31
0.0
  0
LINE
  8
0
  6
CONTINUOUS
 62
   250
 10
3.05008
 20
3.11432
 30
0.0
 11
3.0514
 21
3.11652
 31
0.0
  0
LINE
  8
0
  6
CONTINUOUS
 62
   250
 10
3.0514
 20
3.11652
 30
0.0
 11
3.05184
 21
3.1196
 31
0.0
  0
LINE
  8
0
  6
CONTINUOUS
 62
   250
 10
3.05184
 20
3.1196
 30
0.0
 11
3.0514
 21
3.12268
 31
0.0
  0
LINE
  8
0
  6
CONTINUOUS
 62
   250
 10
3.0514
 20
3.12268
 30
0.0
 11
3.05008
 21
3.12532
 31
0.0
  0
LINE
  8
0
  6
CONTINUOUS
 62
   250
 10
3.05008
 20
3.12532
 30
0.0
 11
3.04788
 21
3.12752
 31
0.0
  0
LINE
  8
0
  6
CONTINUOUS
 62
   250
 10
3.04788
 20
3.12752
 30
0.0
 11
3.04524
 21
3.12884
 31
0.0
  0
LINE
  8
0
  6
CONTINUOUS
 62
   250
 10
3.04524
 20
3.12884
 30
0.0
 11
3.0426
 21
3.12928
 31
0.0
  0
LINE
  8
0
  6
CONTINUOUS
 62
   250
 10
3.0426
 20
3.12928
 30
0.0
 11
3.03952
 21
3.12884
 31
0.0
  0
LINE
  8
0
  6
CONTINUOUS
 62
   250
 10
3.03952
 20
3.12884
 30
0.0
 11
3.03688
 21
3.12752
 31
0.0
  0
LINE
  8
0
  6
CONTINUOUS
 62
   250
 10
3.036
 20
3.12268
 30
0.0
 11
3.036
 21
3.11652
 31
0.0
  0
LINE
  8
0
  6
CONTINUOUS
 62
   250
 10
3.036
 20
3.11652
 30
0.0
 11
3.03336
 21
3.11652
 31
0.0
  0
LINE
  8
0
  6
CONTINUOUS
 62
   250
 10
3.03336
 20
3.12268
 30
0.0
 11
3.036
 21
3.12268
 31
0.0
  0
LINE
  8
0
  6
CONTINUOUS
 62
   250
 10
3.03688
 20
3.08308
 30
0.0
 11
3.03468
 21
3.08088
 31
0.0
  0
LINE
  8
0
  6
CONTINUOUS
 62
   250
 10
3.03468
 20
3.08088
 30
0.0
 11
3.03336
 21
3.07824
 31
0.0
  0
LINE
  8
0
  6
CONTINUOUS
 62
   250
 10
3.03336
 20
3.07824
 30
0.0
 11
3.03292
 21
3.0756
 31
0.0
  0
LINE
  8
0
  6
CONTINUOUS
 62
   250
 10
3.03292
 20
3.0756
 30
0.0
 11
3.03336
 21
3.07252
 31
0.0
  0
LINE
  8
0
  6
CONTINUOUS
 62
   250
 10
3.03336
 20
3.07252
 30
0.0
 11
3.03468
 21
3.06988
 31
0.0
  0
LINE
  8
0
  6
CONTINUOUS
 62
   250
 10
3.03468
 20
3.06988
 30
0.0
 11
3.03688
 21
3.06768
 31
0.0
  0
LINE
  8
0
  6
CONTINUOUS
 62
   250
 10
3.03688
 20
3.06768
 30
0.0
 11
3.03952
 21
3.06636
 31
0.0
  0
LINE
  8
0
  6
CONTINUOUS
 62
   250
 10
3.03952
 20
3.06636
 30
0.0
 11
3.0426
 21
3.06592
 31
0.0
  0
LINE
  8
0
  6
CONTINUOUS
 62
   250
 10
3.0426
 20
3.06592
 30
0.0
 11
3.04524
 21
3.06636
 31
0.0
  0
LINE
  8
0
  6
CONTINUOUS
 62
   250
 10
3.04524
 20
3.06636
 30
0.0
 11
3.04788
 21
3.06768
 31
0.0
  0
LINE
  8
0
  6
CONTINUOUS
 62
   250
 10
3.04788
 20
3.06768
 30
0.0
 11
3.05008
 21
3.06988
 31
0.0
  0
LINE
  8
0
  6
CONTINUOUS
 62
   250
 10
3.05008
 20
3.06988
 30
0.0
 11
3.0514
 21
3.07252
 31
0.0
  0
LINE
  8
0
  6
CONTINUOUS
 62
   250
 10
3.0514
 20
3.07252
 30
0.0
 11
3.05184
 21
3.0756
 31
0.0
  0
LINE
  8
0
  6
CONTINUOUS
 62
   250
 10
3.05184
 20
3.0756
 30
0.0
 11
3.0514
 21
3.07824
 31
0.0
  0
LINE
  8
0
  6
CONTINUOUS
 62
   250
 10
3.0514
 20
3.07824
 30
0.0
 11
3.05008
 21
3.08088
 31
0.0
  0
LINE
  8
0
  6
CONTINUOUS
 62
   250
 10
3.05008
 20
3.08088
 30
0.0
 11
3.04788
 21
3.08308
 31
0.0
  0
LINE
  8
0
  6
CONTINUOUS
 62
   250
 10
3.04788
 20
3.08308
 30
0.0
 11
3.04524
 21
3.0844
 31
0.0
  0
LINE
  8
0
  6
CONTINUOUS
 62
   250
 10
3.04524
 20
3.0844
 30
0.0
 11
3.0426
 21
3.08484
 31
0.0
  0
LINE
  8
0
  6
CONTINUOUS
 62
   250
 10
3.0426
 20
3.08484
 30
0.0
 11
3.03952
 21
3.0844
 31
0.0
  0
LINE
  8
0
  6
CONTINUOUS
 62
   250
 10
3.03952
 20
3.0844
 30
0.0
 11
3.03688
 21
3.08308
 31
0.0
  0
LINE
  8
0
  6
CONTINUOUS
 62
   250
 10
3.036
 20
3.07868
 30
0.0
 11
3.03336
 21
3.07868
 31
0.0
  0
LINE
  8
0
  6
CONTINUOUS
 62
   250
 10
3.036
 20
3.07868
 30
0.0
 11
3.036
 21
3.07252
 31
0.0
  0
LINE
  8
0
  6
CONTINUOUS
 62
   250
 10
3.036
 20
3.07252
 30
0.0
 11
3.03336
 21
3.07252
 31
0.0
  0
LINE
  8
0
  6
CONTINUOUS
 62
   250
 10
3.036
 20
3.05976
 30
0.0
 11
3.02984
 21
3.05976
 31
0.0
  0
LINE
  8
0
  6
CONTINUOUS
 62
   250
 10
3.01708
 20
3.05976
 30
0.0
 11
3.06768
 21
3.05976
 31
0.0
  0
LINE
  8
0
  6
CONTINUOUS
 62
   250
 10
3.06768
 20
3.05976
 30
0.0
 11
3.01708
 21
3.05976
 31
0.0
  0
LINE
  8
0
  6
CONTINUOUS
 62
   250
 10
3.01708
 20
3.05976
 30
0.0
 11
2.97924
 21
3.05976
 31
0.0
  0
LINE
  8
0
  6
CONTINUOUS
 62
   250
 10
2.97924
 20
3.05976
 30
0.0
 11
2.97924
 21
3.0976
 31
0.0
  0
LINE
  8
0
  6
CONTINUOUS
 62
   250
 10
2.97924
 20
3.01576
 30
0.0
 11
3.01708
 21
3.01576
 31
0.0
  0
LINE
  8
0
  6
CONTINUOUS
 62
   250
 10
3.01708
 20
3.01576
 30
0.0
 11
3.06768
 21
3.01576
 31
0.0
  0
LINE
  8
0
  6
CONTINUOUS
 62
   250
 10
3.06768
 20
3.01576
 30
0.0
 11
3.06768
 21
2.89608
 31
0.0
  0
LINE
  8
0
  6
CONTINUOUS
 62
   250
 10
3.04788
 20
2.992
 30
0.0
 11
3.05008
 21
2.9942
 31
0.0
  0
LINE
  8
0
  6
CONTINUOUS
 62
   250
 10
3.05008
 20
2.9942
 30
0.0
 11
3.0514
 21
2.99684
 31
0.0
  0
LINE
  8
0
  6
CONTINUOUS
 62
   250
 10
3.0514
 20
2.99684
 30
0.0
 11
3.05184
 21
2.99992
 31
0.0
  0
LINE
  8
0
  6
CONTINUOUS
 62
   250
 10
3.05184
 20
2.99992
 30
0.0
 11
3.0514
 21
3.003
 31
0.0
  0
LINE
  8
0
  6
CONTINUOUS
 62
   250
 10
3.0514
 20
3.003
 30
0.0
 11
3.05008
 21
3.0052
 31
0.0
  0
LINE
  8
0
  6
CONTINUOUS
 62
   250
 10
3.05008
 20
3.0052
 30
0.0
 11
3.04788
 21
3.0074
 31
0.0
  0
LINE
  8
0
  6
CONTINUOUS
 62
   250
 10
3.04788
 20
3.0074
 30
0.0
 11
3.04524
 21
3.00872
 31
0.0
  0
LINE
  8
0
  6
CONTINUOUS
 62
   250
 10
3.04524
 20
3.00872
 30
0.0
 11
3.0426
 21
3.00916
 31
0.0
  0
LINE
  8
0
  6
CONTINUOUS
 62
   250
 10
3.0426
 20
3.00916
 30
0.0
 11
3.03952
 21
3.00872
 31
0.0
  0
LINE
  8
0
  6
CONTINUOUS
 62
   250
 10
3.03952
 20
3.00872
 30
0.0
 11
3.03688
 21
3.0074
 31
0.0
  0
LINE
  8
0
  6
CONTINUOUS
 62
   250
 10
3.03688
 20
3.0074
 30
0.0
 11
3.03468
 21
3.0052
 31
0.0
  0
LINE
  8
0
  6
CONTINUOUS
 62
   250
 10
3.03468
 20
3.0052
 30
0.0
 11
3.03336
 21
3.003
 31
0.0
  0
LINE
  8
0
  6
CONTINUOUS
 62
   250
 10
3.03336
 20
3.003
 30
0.0
 11
3.03292
 21
2.99992
 31
0.0
  0
LINE
  8
0
  6
CONTINUOUS
 62
   250
 10
3.03292
 20
2.99992
 30
0.0
 11
3.03336
 21
2.99684
 31
0.0
  0
LINE
  8
0
  6
CONTINUOUS
 62
   250
 10
3.03336
 20
2.99684
 30
0.0
 11
3.03468
 21
2.9942
 31
0.0
  0
LINE
  8
0
  6
CONTINUOUS
 62
   250
 10
3.03468
 20
2.9942
 30
0.0
 11
3.03688
 21
2.992
 31
0.0
  0
LINE
  8
0
  6
CONTINUOUS
 62
   250
 10
3.03688
 20
2.992
 30
0.0
 11
3.03952
 21
2.99068
 31
0.0
  0
LINE
  8
0
  6
CONTINUOUS
 62
   250
 10
3.03952
 20
2.99068
 30
0.0
 11
3.0426
 21
2.99024
 31
0.0
  0
LINE
  8
0
  6
CONTINUOUS
 62
   250
 10
3.0426
 20
2.99024
 30
0.0
 11
3.04524
 21
2.99068
 31
0.0
  0
LINE
  8
0
  6
CONTINUOUS
 62
   250
 10
3.04524
 20
2.99068
 30
0.0
 11
3.04788
 21
2.992
 31
0.0
  0
LINE
  8
0
  6
CONTINUOUS
 62
   250
 10
3.036
 20
2.99684
 30
0.0
 11
3.036
 21
3.003
 31
0.0
  0
LINE
  8
0
  6
CONTINUOUS
 62
   250
 10
3.036
 20
3.003
 30
0.0
 11
3.03336
 21
3.003
 31
0.0
  0
LINE
  8
0
  6
CONTINUOUS
 62
   250
 10
3.03336
 20
2.99684
 30
0.0
 11
3.036
 21
2.99684
 31
0.0
  0
LINE
  8
0
  6
CONTINUOUS
 62
   250
 10
3.01708
 20
3.01576
 30
0.0
 11
3.06768
 21
3.01576
 31
0.0
  0
LINE
  8
0
  6
CONTINUOUS
 62
   250
 10
3.06768
 20
3.01576
 30
0.0
 11
2.97924
 21
3.01576
 31
0.0
  0
LINE
  8
0
  6
CONTINUOUS
 62
   250
 10
2.97924
 20
3.01576
 30
0.0
 11
2.97924
 21
2.85824
 31
0.0
  0
LINE
  8
0
  6
CONTINUOUS
 62
   250
 10
2.97924
 20
3.01576
 30
0.0
 11
3.06768
 21
3.01576
 31
0.0
  0
LINE
  8
0
  6
CONTINUOUS
 62
   250
 10
3.06768
 20
3.01576
 30
0.0
 11
2.97924
 21
3.01576
 31
0.0
  0
LINE
  8
0
  6
CONTINUOUS
 62
   250
 10
3.01708
 20
3.01576
 30
0.0
 11
3.06768
 21
3.01576
 31
0.0
  0
LINE
  8
0
  6
CONTINUOUS
 62
   250
 10
3.06768
 20
3.01576
 30
0.0
 11
3.01708
 21
3.01576
 31
0.0
  0
LINE
  8
0
  6
CONTINUOUS
 62
   250
 10
3.01708
 20
3.01576
 30
0.0
 11
3.06768
 21
3.01576
 31
0.0
  0
LINE
  8
0
  6
CONTINUOUS
 62
   250
 10
3.06768
 20
3.01576
 30
0.0
 11
3.01708
 21
3.01576
 31
0.0
  0
LINE
  8
0
  6
CONTINUOUS
 62
   250
 10
3.01708
 20
3.01576
 30
0.0
 11
3.06768
 21
3.01576
 31
0.0
  0
LINE
  8
0
  6
CONTINUOUS
 62
   250
 10
3.06768
 20
3.01576
 30
0.0
 11
3.01708
 21
3.01576
 31
0.0
  0
LINE
  8
0
  6
CONTINUOUS
 62
   250
 10
3.01708
 20
3.01576
 30
0.0
 11
3.06768
 21
3.01576
 31
0.0
  0
LINE
  8
0
  6
CONTINUOUS
 62
   250
 10
3.06768
 20
3.01576
 30
0.0
 11
3.01708
 21
3.01576
 31
0.0
  0
LINE
  8
0
  6
CONTINUOUS
 62
   250
 10
3.01708
 20
3.01576
 30
0.0
 11
3.06768
 21
3.01576
 31
0.0
  0
LINE
  8
0
  6
CONTINUOUS
 62
   250
 10
3.06768
 20
3.01576
 30
0.0
 11
3.01708
 21
3.01576
 31
0.0
  0
LINE
  8
0
  6
CONTINUOUS
 62
   250
 10
3.01708
 20
3.01576
 30
0.0
 11
3.06768
 21
3.01576
 31
0.0
  0
LINE
  8
0
  6
CONTINUOUS
 62
   250
 10
3.06768
 20
3.01576
 30
0.0
 11
3.01708
 21
3.01576
 31
0.0
  0
LINE
  8
0
  6
CONTINUOUS
 62
   250
 10
3.06768
 20
3.05976
 30
0.0
 11
3.06768
 21
3.17944
 31
0.0
  0
LINE
  8
0
  6
CONTINUOUS
 62
   250
 10
3.64408
 20
2.48644
 30
0.0
 11
3.64584
 21
2.4904
 31
0.0
  0
LINE
  8
0
  6
CONTINUOUS
 62
   250
 10
3.64584
 20
2.4904
 30
0.0
 11
3.64672
 21
2.49436
 31
0.0
  0
LINE
  8
0
  6
CONTINUOUS
 62
   250
 10
3.64672
 20
2.49436
 30
0.0
 11
3.6476
 21
2.49876
 31
0.0
  0
LINE
  8
0
  6
CONTINUOUS
 62
   250
 10
3.64408
 20
2.48644
 30
0.0
 11
3.64144
 21
2.48292
 31
0.0
  0
LINE
  8
0
  6
CONTINUOUS
 62
   250
 10
3.64144
 20
2.48292
 30
0.0
 11
3.63836
 21
2.4794
 31
0.0
  0
LINE
  8
0
  6
CONTINUOUS
 62
   250
 10
3.63836
 20
2.4794
 30
0.0
 11
3.63484
 21
2.4772
 31
0.0
  0
LINE
  8
0
  6
CONTINUOUS
 62
   250
 10
3.63484
 20
2.4772
 30
0.0
 11
3.63088
 21
2.475
 31
0.0
  0
LINE
  8
0
  6
CONTINUOUS
 62
   250
 10
3.42452
 20
2.65012
 30
0.0
 11
3.42452
 21
2.65452
 31
0.0
  0
LINE
  8
0
  6
CONTINUOUS
 62
   250
 10
3.42452
 20
2.65452
 30
0.0
 11
3.41616
 21
2.65452
 31
0.0
  0
LINE
  8
0
  6
CONTINUOUS
 62
   250
 10
3.41616
 20
2.65452
 30
0.0
 11
3.42012
 21
2.66288
 31
0.0
  0
LINE
  8
0
  6
CONTINUOUS
 62
   250
 10
3.42012
 20
2.66288
 30
0.0
 11
3.42452
 21
2.65452
 31
0.0
  0
LINE
  8
0
  6
CONTINUOUS
 62
   250
 10
3.41616
 20
2.65452
 30
0.0
 11
3.41616
 21
2.65012
 31
0.0
  0
LINE
  8
0
  6
CONTINUOUS
 62
   250
 10
3.4078
 20
2.65012
 30
0.0
 11
3.4078
 21
2.66288
 31
0.0
  0
LINE
  8
0
  6
CONTINUOUS
 62
   250
 10
3.40384
 20
2.66288
 30
0.0
 11
3.41176
 21
2.66288
 31
0.0
  0
LINE
  8
0
  6
CONTINUOUS
 62
   250
 10
3.39548
 20
2.66288
 30
0.0
 11
3.39944
 21
2.65452
 31
0.0
  0
LINE
  8
0
  6
CONTINUOUS
 62
   250
 10
3.39944
 20
2.65452
 30
0.0
 11
3.39944
 21
2.65012
 31
0.0
  0
LINE
  8
0
  6
CONTINUOUS
 62
   250
 10
3.39944
 20
2.65452
 30
0.0
 11
3.39108
 21
2.65452
 31
0.0
  0
LINE
  8
0
  6
CONTINUOUS
 62
   250
 10
3.39108
 20
2.65452
 30
0.0
 11
3.39548
 21
2.66288
 31
0.0
  0
LINE
  8
0
  6
CONTINUOUS
 62
   250
 10
3.38492
 20
2.66288
 30
0.0
 11
3.37832
 21
2.66288
 31
0.0
  0
LINE
  8
0
  6
CONTINUOUS
 62
   250
 10
3.37832
 20
2.66288
 30
0.0
 11
3.38052
 21
2.66288
 31
0.0
  0
LINE
  8
0
  6
CONTINUOUS
 62
   250
 10
3.38052
 20
2.66288
 30
0.0
 11
3.38052
 21
2.65012
 31
0.0
  0
LINE
  8
0
  6
CONTINUOUS
 62
   250
 10
3.38052
 20
2.65012
 30
0.0
 11
3.37832
 21
2.65012
 31
0.0
  0
LINE
  8
0
  6
CONTINUOUS
 62
   250
 10
3.37832
 20
2.65012
 30
0.0
 11
3.38492
 21
2.65012
 31
0.0
  0
LINE
  8
0
  6
CONTINUOUS
 62
   250
 10
3.38492
 20
2.65012
 30
0.0
 11
3.38712
 21
2.65232
 31
0.0
  0
LINE
  8
0
  6
CONTINUOUS
 62
   250
 10
3.38712
 20
2.65232
 30
0.0
 11
3.38712
 21
2.66068
 31
0.0
  0
LINE
  8
0
  6
CONTINUOUS
 62
   250
 10
3.38712
 20
2.66068
 30
0.0
 11
3.38492
 21
2.66288
 31
0.0
  0
LINE
  8
0
  6
CONTINUOUS
 62
   250
 10
3.39108
 20
2.65452
 30
0.0
 11
3.39108
 21
2.65012
 31
0.0
  0
LINE
  8
0
  6
CONTINUOUS
 62
   250
 10
3.38888
 20
3.31188
 30
0.0
 11
3.38492
 21
3.31188
 31
0.0
  0
LINE
  8
0
  6
CONTINUOUS
 62
   250
 10
3.38492
 20
3.31188
 30
0.0
 11
3.38228
 21
3.31408
 31
0.0
  0
LINE
  8
0
  6
CONTINUOUS
 62
   250
 10
3.38228
 20
3.31408
 30
0.0
 11
3.38228
 21
3.32244
 31
0.0
  0
LINE
  8
0
  6
CONTINUOUS
 62
   250
 10
3.38228
 20
3.32244
 30
0.0
 11
3.38492
 21
3.32464
 31
0.0
  0
LINE
  8
0
  6
CONTINUOUS
 62
   250
 10
3.38492
 20
3.32464
 30
0.0
 11
3.38888
 21
3.32464
 31
0.0
  0
LINE
  8
0
  6
CONTINUOUS
 62
   250
 10
3.38888
 20
3.32464
 30
0.0
 11
3.39108
 21
3.32244
 31
0.0
  0
LINE
  8
0
  6
CONTINUOUS
 62
   250
 10
3.39548
 20
3.32464
 30
0.0
 11
3.39944
 21
3.31188
 31
0.0
  0
LINE
  8
0
  6
CONTINUOUS
 62
   250
 10
3.39944
 20
3.31188
 30
0.0
 11
3.4012
 21
3.31804
 31
0.0
  0
LINE
  8
0
  6
CONTINUOUS
 62
   250
 10
3.4012
 20
3.31804
 30
0.0
 11
3.40384
 21
3.31188
 31
0.0
  0
LINE
  8
0
  6
CONTINUOUS
 62
   250
 10
3.40384
 20
3.31188
 30
0.0
 11
3.4078
 21
3.32464
 31
0.0
  0
LINE
  8
0
  6
CONTINUOUS
 62
   250
 10
3.39108
 20
3.31408
 30
0.0
 11
3.38888
 21
3.31188
 31
0.0
  0
LINE
  8
0
  6
CONTINUOUS
 62
   250
 10
3.37656
 20
3.31188
 30
0.0
 11
3.37216
 21
3.31188
 31
0.0
  0
LINE
  8
0
  6
CONTINUOUS
 62
   250
 10
3.37216
 20
3.31188
 30
0.0
 11
3.36996
 21
3.31408
 31
0.0
  0
LINE
  8
0
  6
CONTINUOUS
 62
   250
 10
3.36996
 20
3.31408
 30
0.0
 11
3.36996
 21
3.32244
 31
0.0
  0
LINE
  8
0
  6
CONTINUOUS
 62
   250
 10
3.36996
 20
3.32244
 30
0.0
 11
3.37216
 21
3.32464
 31
0.0
  0
LINE
  8
0
  6
CONTINUOUS
 62
   250
 10
3.37216
 20
3.32464
 30
0.0
 11
3.37656
 21
3.32464
 31
0.0
  0
LINE
  8
0
  6
CONTINUOUS
 62
   250
 10
3.37656
 20
3.32464
 30
0.0
 11
3.37832
 21
3.32244
 31
0.0
  0
LINE
  8
0
  6
CONTINUOUS
 62
   250
 10
3.37832
 20
3.31408
 30
0.0
 11
3.37656
 21
3.31188
 31
0.0
  0
LINE
  8
0
  6
CONTINUOUS
 62
   250
 10
3.3638
 20
3.31804
 30
0.0
 11
3.35764
 21
3.31804
 31
0.0
  0
LINE
  8
0
  6
CONTINUOUS
 62
   250
 10
3.35764
 20
3.31804
 30
0.0
 11
3.35764
 21
3.35588
 31
0.0
  0
LINE
  8
0
  6
CONTINUOUS
 62
   250
 10
3.35764
 20
3.35588
 30
0.0
 11
3.37656
 21
3.35588
 31
0.0
  0
LINE
  8
0
  6
CONTINUOUS
 62
   250
 10
3.38228
 20
3.35192
 30
0.0
 11
3.38228
 21
3.36028
 31
0.0
  0
LINE
  8
0
  6
CONTINUOUS
 62
   250
 10
3.38228
 20
3.36028
 30
0.0
 11
3.38492
 21
3.36248
 31
0.0
  0
LINE
  8
0
  6
CONTINUOUS
 62
   250
 10
3.38492
 20
3.36248
 30
0.0
 11
3.38888
 21
3.36248
 31
0.0
  0
LINE
  8
0
  6
CONTINUOUS
 62
   250
 10
3.38888
 20
3.36248
 30
0.0
 11
3.39108
 21
3.36028
 31
0.0
  0
LINE
  8
0
  6
CONTINUOUS
 62
   250
 10
3.39548
 20
3.36248
 30
0.0
 11
3.39944
 21
3.34972
 31
0.0
  0
LINE
  8
0
  6
CONTINUOUS
 62
   250
 10
3.39944
 20
3.34972
 30
0.0
 11
3.4012
 21
3.35588
 31
0.0
  0
LINE
  8
0
  6
CONTINUOUS
 62
   250
 10
3.4012
 20
3.35588
 30
0.0
 11
3.40384
 21
3.34972
 31
0.0
  0
LINE
  8
0
  6
CONTINUOUS
 62
   250
 10
3.40384
 20
3.34972
 30
0.0
 11
3.4078
 21
3.36248
 31
0.0
  0
LINE
  8
0
  6
CONTINUOUS
 62
   250
 10
3.39108
 20
3.35192
 30
0.0
 11
3.38888
 21
3.34972
 31
0.0
  0
LINE
  8
0
  6
CONTINUOUS
 62
   250
 10
3.38888
 20
3.34972
 30
0.0
 11
3.38492
 21
3.34972
 31
0.0
  0
LINE
  8
0
  6
CONTINUOUS
 62
   250
 10
3.38492
 20
3.34972
 30
0.0
 11
3.38228
 21
3.35192
 31
0.0
  0
LINE
  8
0
  6
CONTINUOUS
 62
   250
 10
3.38228
 20
3.38932
 30
0.0
 11
3.38228
 21
3.39768
 31
0.0
  0
LINE
  8
0
  6
CONTINUOUS
 62
   250
 10
3.38228
 20
3.39768
 30
0.0
 11
3.38492
 21
3.40032
 31
0.0
  0
LINE
  8
0
  6
CONTINUOUS
 62
   250
 10
3.38492
 20
3.40032
 30
0.0
 11
3.38888
 21
3.40032
 31
0.0
  0
LINE
  8
0
  6
CONTINUOUS
 62
   250
 10
3.38888
 20
3.40032
 30
0.0
 11
3.39108
 21
3.39768
 31
0.0
  0
LINE
  8
0
  6
CONTINUOUS
 62
   250
 10
3.39548
 20
3.40032
 30
0.0
 11
3.39944
 21
3.38756
 31
0.0
  0
LINE
  8
0
  6
CONTINUOUS
 62
   250
 10
3.39944
 20
3.38756
 30
0.0
 11
3.4012
 21
3.39372
 31
0.0
  0
LINE
  8
0
  6
CONTINUOUS
 62
   250
 10
3.4012
 20
3.39372
 30
0.0
 11
3.40384
 21
3.38756
 31
0.0
  0
LINE
  8
0
  6
CONTINUOUS
 62
   250
 10
3.40384
 20
3.38756
 30
0.0
 11
3.4078
 21
3.40032
 31
0.0
  0
LINE
  8
0
  6
CONTINUOUS
 62
   250
 10
3.39108
 20
3.38932
 30
0.0
 11
3.38888
 21
3.38756
 31
0.0
  0
LINE
  8
0
  6
CONTINUOUS
 62
   250
 10
3.38888
 20
3.38756
 30
0.0
 11
3.38492
 21
3.38756
 31
0.0
  0
LINE
  8
0
  6
CONTINUOUS
 62
   250
 10
3.38492
 20
3.38756
 30
0.0
 11
3.38228
 21
3.38932
 31
0.0
  0
LINE
  8
0
  6
CONTINUOUS
 62
   250
 10
3.37832
 20
3.38932
 30
0.0
 11
3.37656
 21
3.38756
 31
0.0
  0
LINE
  8
0
  6
CONTINUOUS
 62
   250
 10
3.37656
 20
3.38756
 30
0.0
 11
3.37216
 21
3.38756
 31
0.0
  0
LINE
  8
0
  6
CONTINUOUS
 62
   250
 10
3.37216
 20
3.38756
 30
0.0
 11
3.36996
 21
3.38932
 31
0.0
  0
LINE
  8
0
  6
CONTINUOUS
 62
   250
 10
3.36996
 20
3.38932
 30
0.0
 11
3.36996
 21
3.39768
 31
0.0
  0
LINE
  8
0
  6
CONTINUOUS
 62
   250
 10
3.36996
 20
3.39768
 30
0.0
 11
3.37216
 21
3.40032
 31
0.0
  0
LINE
  8
0
  6
CONTINUOUS
 62
   250
 10
3.37216
 20
3.40032
 30
0.0
 11
3.37656
 21
3.40032
 31
0.0
  0
LINE
  8
0
  6
CONTINUOUS
 62
   250
 10
3.37656
 20
3.40032
 30
0.0
 11
3.37832
 21
3.39768
 31
0.0
  0
LINE
  8
0
  6
CONTINUOUS
 62
   250
 10
3.3638
 20
3.39372
 30
0.0
 11
3.35764
 21
3.39372
 31
0.0
  0
LINE
  8
0
  6
CONTINUOUS
 62
   250
 10
3.35764
 20
3.39372
 30
0.0
 11
3.35764
 21
3.43156
 31
0.0
  0
LINE
  8
0
  6
CONTINUOUS
 62
   250
 10
3.35764
 20
3.43156
 30
0.0
 11
3.37656
 21
3.43156
 31
0.0
  0
LINE
  8
0
  6
CONTINUOUS
 62
   250
 10
3.38228
 20
3.43596
 30
0.0
 11
3.38492
 21
3.43772
 31
0.0
  0
LINE
  8
0
  6
CONTINUOUS
 62
   250
 10
3.38492
 20
3.43772
 30
0.0
 11
3.38888
 21
3.43772
 31
0.0
  0
LINE
  8
0
  6
CONTINUOUS
 62
   250
 10
3.38888
 20
3.43772
 30
0.0
 11
3.39108
 21
3.43596
 31
0.0
  0
LINE
  8
0
  6
CONTINUOUS
 62
   250
 10
3.39548
 20
3.43772
 30
0.0
 11
3.39944
 21
3.4254
 31
0.0
  0
LINE
  8
0
  6
CONTINUOUS
 62
   250
 10
3.39944
 20
3.4254
 30
0.0
 11
3.4012
 21
3.43156
 31
0.0
  0
LINE
  8
0
  6
CONTINUOUS
 62
   250
 10
3.4012
 20
3.43156
 30
0.0
 11
3.40384
 21
3.4254
 31
0.0
  0
LINE
  8
0
  6
CONTINUOUS
 62
   250
 10
3.40384
 20
3.4254
 30
0.0
 11
3.4078
 21
3.43772
 31
0.0
  0
LINE
  8
0
  6
CONTINUOUS
 62
   250
 10
3.39108
 20
3.42716
 30
0.0
 11
3.38888
 21
3.4254
 31
0.0
  0
LINE
  8
0
  6
CONTINUOUS
 62
   250
 10
3.38888
 20
3.4254
 30
0.0
 11
3.38492
 21
3.4254
 31
0.0
  0
LINE
  8
0
  6
CONTINUOUS
 62
   250
 10
3.38492
 20
3.4254
 30
0.0
 11
3.38228
 21
3.42716
 31
0.0
  0
LINE
  8
0
  6
CONTINUOUS
 62
   250
 10
3.38228
 20
3.42716
 30
0.0
 11
3.38228
 21
3.43596
 31
0.0
  0
LINE
  8
0
  6
CONTINUOUS
 62
   250
 10
3.21904
 20
3.38536
 30
0.0
 11
3.21904
 21
3.3836
 31
0.0
  0
LINE
  8
0
  6
CONTINUOUS
 62
   250
 10
3.21904
 20
3.3836
 30
0.0
 11
3.2164
 21
3.3814
 31
0.0
  0
LINE
  8
0
  6
CONTINUOUS
 62
   250
 10
3.2164
 20
3.3814
 30
0.0
 11
3.21024
 21
3.3814
 31
0.0
  0
LINE
  8
0
  6
CONTINUOUS
 62
   250
 10
3.21024
 20
3.3814
 30
0.0
 11
3.21244
 21
3.3814
 31
0.0
  0
LINE
  8
0
  6
CONTINUOUS
 62
   250
 10
3.21244
 20
3.3814
 30
0.0
 11
3.21904
 21
3.3748
 31
0.0
  0
LINE
  8
0
  6
CONTINUOUS
 62
   250
 10
3.21024
 20
3.3748
 30
0.0
 11
3.21024
 21
3.38756
 31
0.0
  0
LINE
  8
0
  6
CONTINUOUS
 62
   250
 10
3.21024
 20
3.38756
 30
0.0
 11
3.2164
 21
3.38756
 31
0.0
  0
LINE
  8
0
  6
CONTINUOUS
 62
   250
 10
3.2164
 20
3.38756
 30
0.0
 11
3.21904
 21
3.38536
 31
0.0
  0
LINE
  8
0
  6
CONTINUOUS
 62
   250
 10
3.20628
 20
3.38756
 30
0.0
 11
3.19792
 21
3.38756
 31
0.0
  0
LINE
  8
0
  6
CONTINUOUS
 62
   250
 10
3.19792
 20
3.38756
 30
0.0
 11
3.19792
 21
3.3748
 31
0.0
  0
LINE
  8
0
  6
CONTINUOUS
 62
   250
 10
3.19792
 20
3.3748
 30
0.0
 11
3.20628
 21
3.3748
 31
0.0
  0
LINE
  8
0
  6
CONTINUOUS
 62
   250
 10
3.20188
 20
3.3814
 30
0.0
 11
3.19792
 21
3.3814
 31
0.0
  0
LINE
  8
0
  6
CONTINUOUS
 62
   250
 10
3.19352
 20
3.38756
 30
0.0
 11
3.18956
 21
3.3748
 31
0.0
  0
LINE
  8
0
  6
CONTINUOUS
 62
   250
 10
3.18956
 20
3.3748
 30
0.0
 11
3.18736
 21
3.3814
 31
0.0
  0
LINE
  8
0
  6
CONTINUOUS
 62
   250
 10
3.18736
 20
3.3814
 30
0.0
 11
3.18516
 21
3.3748
 31
0.0
  0
LINE
  8
0
  6
CONTINUOUS
 62
   250
 10
3.18516
 20
3.3748
 30
0.0
 11
3.1812
 21
3.38756
 31
0.0
  0
LINE
  8
0
  6
CONTINUOUS
 62
   250
 10
3.1768
 20
3.38756
 30
0.0
 11
3.1768
 21
3.3748
 31
0.0
  0
LINE
  8
0
  6
CONTINUOUS
 62
   250
 10
3.1768
 20
3.3748
 30
0.0
 11
3.16844
 21
3.3748
 31
0.0
  0
LINE
  8
0
  6
CONTINUOUS
 62
   250
 10
3.16844
 20
3.3748
 30
0.0
 11
3.16844
 21
3.38756
 31
0.0
  0
LINE
  8
0
  6
CONTINUOUS
 62
   250
 10
3.16844
 20
3.38756
 30
0.0
 11
3.1768
 21
3.38756
 31
0.0
  0
LINE
  8
0
  6
CONTINUOUS
 62
   250
 10
3.16228
 20
3.38756
 30
0.0
 11
3.16404
 21
3.38536
 31
0.0
  0
LINE
  8
0
  6
CONTINUOUS
 62
   250
 10
3.16404
 20
3.38536
 30
0.0
 11
3.16404
 21
3.3836
 31
0.0
  0
LINE
  8
0
  6
CONTINUOUS
 62
   250
 10
3.16404
 20
3.3836
 30
0.0
 11
3.16228
 21
3.3814
 31
0.0
  0
LINE
  8
0
  6
CONTINUOUS
 62
   250
 10
3.16228
 20
3.3814
 30
0.0
 11
3.15568
 21
3.3814
 31
0.0
  0
LINE
  8
0
  6
CONTINUOUS
 62
   250
 10
3.15568
 20
3.38756
 30
0.0
 11
3.16228
 21
3.38756
 31
0.0
  0
LINE
  8
0
  6
CONTINUOUS
 62
   250
 10
3.15568
 20
3.38756
 30
0.0
 11
3.15568
 21
3.3748
 31
0.0
  0
LINE
  8
0
  6
CONTINUOUS
 62
   250
 10
3.10112
 20
3.36336
 30
0.0
 11
3.09892
 21
3.36556
 31
0.0
  0
LINE
  8
0
  6
CONTINUOUS
 62
   250
 10
3.09892
 20
3.36556
 30
0.0
 11
3.09496
 21
3.36556
 31
0.0
  0
LINE
  8
0
  6
CONTINUOUS
 62
   250
 10
3.09496
 20
3.36556
 30
0.0
 11
3.09276
 21
3.36336
 31
0.0
  0
LINE
  8
0
  6
CONTINUOUS
 62
   250
 10
3.09276
 20
3.36336
 30
0.0
 11
3.09276
 21
3.355
 31
0.0
  0
LINE
  8
0
  6
CONTINUOUS
 62
   250
 10
3.09276
 20
3.355
 30
0.0
 11
3.09496
 21
3.3528
 31
0.0
  0
LINE
  8
0
  6
CONTINUOUS
 62
   250
 10
3.09496
 20
3.3528
 30
0.0
 11
3.09892
 21
3.3528
 31
0.0
  0
LINE
  8
0
  6
CONTINUOUS
 62
   250
 10
3.09892
 20
3.3528
 30
0.0
 11
3.10112
 21
3.355
 31
0.0
  0
LINE
  8
0
  6
CONTINUOUS
 62
   250
 10
3.10112
 20
3.39724
 30
0.0
 11
3.09496
 21
3.40296
 31
0.0
  0
LINE
  8
0
  6
CONTINUOUS
 62
   250
 10
3.09496
 20
3.40296
 30
0.0
 11
3.09276
 21
3.40296
 31
0.0
  0
LINE
  8
0
  6
CONTINUOUS
 62
   250
 10
3.09276
 20
3.40296
 30
0.0
 11
3.09892
 21
3.40296
 31
0.0
  0
LINE
  8
0
  6
CONTINUOUS
 62
   250
 10
3.09892
 20
3.40296
 30
0.0
 11
3.10112
 21
3.4056
 31
0.0
  0
LINE
  8
0
  6
CONTINUOUS
 62
   250
 10
3.10112
 20
3.4056
 30
0.0
 11
3.10112
 21
3.4078
 31
0.0
  0
LINE
  8
0
  6
CONTINUOUS
 62
   250
 10
3.10112
 20
3.4078
 30
0.0
 11
3.09892
 21
3.40956
 31
0.0
  0
LINE
  8
0
  6
CONTINUOUS
 62
   250
 10
3.09892
 20
3.40956
 30
0.0
 11
3.09276
 21
3.40956
 31
0.0
  0
LINE
  8
0
  6
CONTINUOUS
 62
   250
 10
3.09276
 20
3.40956
 30
0.0
 11
3.09276
 21
3.39724
 31
0.0
  0
LINE
  8
0
  6
CONTINUOUS
 62
   250
 10
3.09276
 20
3.28988
 30
0.0
 11
3.09892
 21
3.28988
 31
0.0
  0
LINE
  8
0
  6
CONTINUOUS
 62
   250
 10
3.09892
 20
3.28988
 30
0.0
 11
3.10112
 21
3.28768
 31
0.0
  0
LINE
  8
0
  6
CONTINUOUS
 62
   250
 10
3.10112
 20
3.28768
 30
0.0
 11
3.10112
 21
3.27932
 31
0.0
  0
LINE
  8
0
  6
CONTINUOUS
 62
   250
 10
3.10112
 20
3.27932
 30
0.0
 11
3.09892
 21
3.27712
 31
0.0
  0
LINE
  8
0
  6
CONTINUOUS
 62
   250
 10
3.09892
 20
3.27712
 30
0.0
 11
3.09276
 21
3.27712
 31
0.0
  0
LINE
  8
0
  6
CONTINUOUS
 62
   250
 10
3.09276
 20
3.27712
 30
0.0
 11
3.09496
 21
3.27712
 31
0.0
  0
LINE
  8
0
  6
CONTINUOUS
 62
   250
 10
3.09496
 20
3.27712
 30
0.0
 11
3.09496
 21
3.28988
 31
0.0
  0
LINE
  8
0
  6
CONTINUOUS
 62
   250
 10
3.10508
 20
3.28988
 30
0.0
 11
3.10948
 21
3.28988
 31
0.0
  0
LINE
  8
0
  6
CONTINUOUS
 62
   250
 10
3.10948
 20
3.28988
 30
0.0
 11
3.10728
 21
3.28988
 31
0.0
  0
LINE
  8
0
  6
CONTINUOUS
 62
   250
 10
3.10728
 20
3.28988
 30
0.0
 11
3.10728
 21
3.27712
 31
0.0
  0
LINE
  8
0
  6
CONTINUOUS
 62
   250
 10
3.10728
 20
3.27712
 30
0.0
 11
3.10508
 21
3.27712
 31
0.0
  0
LINE
  8
0
  6
CONTINUOUS
 62
   250
 10
3.10508
 20
3.27712
 30
0.0
 11
3.10948
 21
3.27712
 31
0.0
  0
LINE
  8
0
  6
CONTINUOUS
 62
   250
 10
3.11388
 20
3.27712
 30
0.0
 11
3.11784
 21
3.27712
 31
0.0
  0
LINE
  8
0
  6
CONTINUOUS
 62
   250
 10
3.11784
 20
3.27712
 30
0.0
 11
3.11564
 21
3.27712
 31
0.0
  0
LINE
  8
0
  6
CONTINUOUS
 62
   250
 10
3.11564
 20
3.27712
 30
0.0
 11
3.11564
 21
3.28988
 31
0.0
  0
LINE
  8
0
  6
CONTINUOUS
 62
   250
 10
3.11564
 20
3.28988
 30
0.0
 11
3.11388
 21
3.28768
 31
0.0
  0
LINE
  8
0
  6
CONTINUOUS
 62
   250
 10
3.11388
 20
3.24368
 30
0.0
 11
3.11564
 21
3.24544
 31
0.0
  0
LINE
  8
0
  6
CONTINUOUS
 62
   250
 10
3.11564
 20
3.24544
 30
0.0
 11
3.12004
 21
3.24544
 31
0.0
  0
LINE
  8
0
  6
CONTINUOUS
 62
   250
 10
3.12004
 20
3.24544
 30
0.0
 11
3.12224
 21
3.24368
 31
0.0
  0
LINE
  8
0
  6
CONTINUOUS
 62
   250
 10
3.12224
 20
3.24368
 30
0.0
 11
3.12224
 21
3.24148
 31
0.0
  0
LINE
  8
0
  6
CONTINUOUS
 62
   250
 10
3.12224
 20
3.24148
 30
0.0
 11
3.12004
 21
3.23928
 31
0.0
  0
LINE
  8
0
  6
CONTINUOUS
 62
   250
 10
3.12004
 20
3.23928
 30
0.0
 11
3.11564
 21
3.23928
 31
0.0
  0
LINE
  8
0
  6
CONTINUOUS
 62
   250
 10
3.11564
 20
3.23928
 30
0.0
 11
3.11388
 21
3.23708
 31
0.0
  0
LINE
  8
0
  6
CONTINUOUS
 62
   250
 10
3.11388
 20
3.23708
 30
0.0
 11
3.11388
 21
3.23312
 31
0.0
  0
LINE
  8
0
  6
CONTINUOUS
 62
   250
 10
3.11388
 20
3.23312
 30
0.0
 11
3.12224
 21
3.23312
 31
0.0
  0
LINE
  8
0
  6
CONTINUOUS
 62
   250
 10
3.10948
 20
3.23312
 30
0.0
 11
3.10508
 21
3.23312
 31
0.0
  0
LINE
  8
0
  6
CONTINUOUS
 62
   250
 10
3.10508
 20
3.23312
 30
0.0
 11
3.10728
 21
3.23312
 31
0.0
  0
LINE
  8
0
  6
CONTINUOUS
 62
   250
 10
3.10728
 20
3.23312
 30
0.0
 11
3.10728
 21
3.24544
 31
0.0
  0
LINE
  8
0
  6
CONTINUOUS
 62
   250
 10
3.10728
 20
3.24544
 30
0.0
 11
3.10508
 21
3.24544
 31
0.0
  0
LINE
  8
0
  6
CONTINUOUS
 62
   250
 10
3.10508
 20
3.24544
 30
0.0
 11
3.10948
 21
3.24544
 31
0.0
  0
LINE
  8
0
  6
CONTINUOUS
 62
   250
 10
3.10112
 20
3.24368
 30
0.0
 11
3.09892
 21
3.24544
 31
0.0
  0
LINE
  8
0
  6
CONTINUOUS
 62
   250
 10
3.09892
 20
3.24544
 30
0.0
 11
3.09276
 21
3.24544
 31
0.0
  0
LINE
  8
0
  6
CONTINUOUS
 62
   250
 10
3.09276
 20
3.24544
 30
0.0
 11
3.09496
 21
3.24544
 31
0.0
  0
LINE
  8
0
  6
CONTINUOUS
 62
   250
 10
3.09496
 20
3.24544
 30
0.0
 11
3.09496
 21
3.23312
 31
0.0
  0
LINE
  8
0
  6
CONTINUOUS
 62
   250
 10
3.09496
 20
3.23312
 30
0.0
 11
3.09276
 21
3.23312
 31
0.0
  0
LINE
  8
0
  6
CONTINUOUS
 62
   250
 10
3.09276
 20
3.23312
 30
0.0
 11
3.09892
 21
3.23312
 31
0.0
  0
LINE
  8
0
  6
CONTINUOUS
 62
   250
 10
3.09892
 20
3.23312
 30
0.0
 11
3.10112
 21
3.23532
 31
0.0
  0
LINE
  8
0
  6
CONTINUOUS
 62
   250
 10
3.10112
 20
3.23532
 30
0.0
 11
3.10112
 21
3.24368
 31
0.0
  0
LINE
  8
0
  6
CONTINUOUS
 62
   250
 10
3.10508
 20
3.1702
 30
0.0
 11
3.09892
 21
3.15744
 31
0.0
  0
LINE
  8
0
  6
CONTINUOUS
 62
   250
 10
3.09892
 20
3.15744
 30
0.0
 11
3.09276
 21
3.1702
 31
0.0
  0
LINE
  8
0
  6
CONTINUOUS
 62
   250
 10
3.10948
 20
3.15964
 30
0.0
 11
3.11168
 21
3.15744
 31
0.0
  0
LINE
  8
0
  6
CONTINUOUS
 62
   250
 10
3.11168
 20
3.15744
 30
0.0
 11
3.11564
 21
3.15744
 31
0.0
  0
LINE
  8
0
  6
CONTINUOUS
 62
   250
 10
3.11564
 20
3.15744
 30
0.0
 11
3.11784
 21
3.15964
 31
0.0
  0
LINE
  8
0
  6
CONTINUOUS
 62
   250
 10
3.11784
 20
3.15964
 30
0.0
 11
3.10948
 21
3.168
 31
0.0
  0
LINE
  8
0
  6
CONTINUOUS
 62
   250
 10
3.10948
 20
3.168
 30
0.0
 11
3.11168
 21
3.1702
 31
0.0
  0
LINE
  8
0
  6
CONTINUOUS
 62
   250
 10
3.11168
 20
3.1702
 30
0.0
 11
3.11564
 21
3.1702
 31
0.0
  0
LINE
  8
0
  6
CONTINUOUS
 62
   250
 10
3.11564
 20
3.1702
 30
0.0
 11
3.11784
 21
3.168
 31
0.0
  0
LINE
  8
0
  6
CONTINUOUS
 62
   250
 10
3.12224
 20
3.1702
 30
0.0
 11
3.1284
 21
3.1702
 31
0.0
  0
LINE
  8
0
  6
CONTINUOUS
 62
   250
 10
3.1284
 20
3.1702
 30
0.0
 11
3.1306
 21
3.168
 31
0.0
  0
LINE
  8
0
  6
CONTINUOUS
 62
   250
 10
3.1306
 20
3.168
 30
0.0
 11
3.1306
 21
3.1658
 31
0.0
  0
LINE
  8
0
  6
CONTINUOUS
 62
   250
 10
3.1306
 20
3.1658
 30
0.0
 11
3.1284
 21
3.1636
 31
0.0
  0
LINE
  8
0
  6
CONTINUOUS
 62
   250
 10
3.1284
 20
3.1636
 30
0.0
 11
3.12224
 21
3.1636
 31
0.0
  0
LINE
  8
0
  6
CONTINUOUS
 62
   250
 10
3.12224
 20
3.1702
 30
0.0
 11
3.12224
 21
3.15744
 31
0.0
  0
LINE
  8
0
  6
CONTINUOUS
 62
   250
 10
3.09892
 20
3.11344
 30
0.0
 11
3.09496
 21
3.11344
 31
0.0
  0
LINE
  8
0
  6
CONTINUOUS
 62
   250
 10
3.09496
 20
3.11344
 30
0.0
 11
3.09276
 21
3.11564
 31
0.0
  0
LINE
  8
0
  6
CONTINUOUS
 62
   250
 10
3.09892
 20
3.11344
 30
0.0
 11
3.10112
 21
3.11564
 31
0.0
  0
LINE
  8
0
  6
CONTINUOUS
 62
   250
 10
3.10112
 20
3.11564
 30
0.0
 11
3.09276
 21
3.124
 31
0.0
  0
LINE
  8
0
  6
CONTINUOUS
 62
   250
 10
3.09276
 20
3.124
 30
0.0
 11
3.09496
 21
3.12576
 31
0.0
  0
LINE
  8
0
  6
CONTINUOUS
 62
   250
 10
3.09496
 20
3.12576
 30
0.0
 11
3.09892
 21
3.12576
 31
0.0
  0
LINE
  8
0
  6
CONTINUOUS
 62
   250
 10
3.09892
 20
3.12576
 30
0.0
 11
3.10112
 21
3.124
 31
0.0
  0
LINE
  8
0
  6
CONTINUOUS
 62
   250
 10
3.10508
 20
3.12576
 30
0.0
 11
3.11168
 21
3.12576
 31
0.0
  0
LINE
  8
0
  6
CONTINUOUS
 62
   250
 10
3.11168
 20
3.12576
 30
0.0
 11
3.11388
 21
3.124
 31
0.0
  0
LINE
  8
0
  6
CONTINUOUS
 62
   250
 10
3.11388
 20
3.124
 30
0.0
 11
3.11388
 21
3.1218
 31
0.0
  0
LINE
  8
0
  6
CONTINUOUS
 62
   250
 10
3.11388
 20
3.1218
 30
0.0
 11
3.11168
 21
3.1196
 31
0.0
  0
LINE
  8
0
  6
CONTINUOUS
 62
   250
 10
3.11168
 20
3.1196
 30
0.0
 11
3.10508
 21
3.1196
 31
0.0
  0
LINE
  8
0
  6
CONTINUOUS
 62
   250
 10
3.10508
 20
3.11344
 30
0.0
 11
3.10508
 21
3.12576
 31
0.0
  0
LINE
  8
0
  6
CONTINUOUS
 62
   250
 10
3.10112
 20
3.0756
 30
0.0
 11
3.10112
 21
3.06944
 31
0.0
  0
LINE
  8
0
  6
CONTINUOUS
 62
   250
 10
3.10112
 20
3.06944
 30
0.0
 11
3.09496
 21
3.06944
 31
0.0
  0
LINE
  8
0
  6
CONTINUOUS
 62
   250
 10
3.09496
 20
3.06944
 30
0.0
 11
3.09276
 21
3.0712
 31
0.0
  0
LINE
  8
0
  6
CONTINUOUS
 62
   250
 10
3.09276
 20
3.0712
 30
0.0
 11
3.09276
 21
3.07956
 31
0.0
  0
LINE
  8
0
  6
CONTINUOUS
 62
   250
 10
3.09276
 20
3.07956
 30
0.0
 11
3.09496
 21
3.08176
 31
0.0
  0
LINE
  8
0
  6
CONTINUOUS
 62
   250
 10
3.09496
 20
3.08176
 30
0.0
 11
3.10112
 21
3.08176
 31
0.0
  0
LINE
  8
0
  6
CONTINUOUS
 62
   250
 10
3.10508
 20
3.08176
 30
0.0
 11
3.10508
 21
3.06944
 31
0.0
  0
LINE
  8
0
  6
CONTINUOUS
 62
   250
 10
3.11388
 20
3.06944
 30
0.0
 11
3.10508
 21
3.08176
 31
0.0
  0
LINE
  8
0
  6
CONTINUOUS
 62
   250
 10
3.11388
 20
3.08176
 30
0.0
 11
3.11388
 21
3.06944
 31
0.0
  0
LINE
  8
0
  6
CONTINUOUS
 62
   250
 10
3.11784
 20
3.06944
 30
0.0
 11
3.124
 21
3.06944
 31
0.0
  0
LINE
  8
0
  6
CONTINUOUS
 62
   250
 10
3.124
 20
3.06944
 30
0.0
 11
3.1262
 21
3.0712
 31
0.0
  0
LINE
  8
0
  6
CONTINUOUS
 62
   250
 10
3.1262
 20
3.0712
 30
0.0
 11
3.1262
 21
3.07956
 31
0.0
  0
LINE
  8
0
  6
CONTINUOUS
 62
   250
 10
3.1262
 20
3.07956
 30
0.0
 11
3.124
 21
3.08176
 31
0.0
  0
LINE
  8
0
  6
CONTINUOUS
 62
   250
 10
3.124
 20
3.08176
 30
0.0
 11
3.11784
 21
3.08176
 31
0.0
  0
LINE
  8
0
  6
CONTINUOUS
 62
   250
 10
3.11784
 20
3.08176
 30
0.0
 11
3.12004
 21
3.08176
 31
0.0
  0
LINE
  8
0
  6
CONTINUOUS
 62
   250
 10
3.12004
 20
3.08176
 30
0.0
 11
3.12004
 21
3.06944
 31
0.0
  0
LINE
  8
0
  6
CONTINUOUS
 62
   250
 10
3.10112
 20
3.0756
 30
0.0
 11
3.09892
 21
3.0756
 31
0.0
  0
LINE
  8
0
  6
CONTINUOUS
 62
   250
 10
3.0514
 20
2.87056
 30
0.0
 11
3.05184
 21
2.86748
 31
0.0
  0
LINE
  8
0
  6
CONTINUOUS
 62
   250
 10
3.0514
 20
2.87056
 30
0.0
 11
3.05008
 21
2.8732
 31
0.0
  0
LINE
  8
0
  6
CONTINUOUS
 62
   250
 10
3.05008
 20
2.8732
 30
0.0
 11
3.04788
 21
2.87496
 31
0.0
  0
LINE
  8
0
  6
CONTINUOUS
 62
   250
 10
3.04788
 20
2.87496
 30
0.0
 11
3.04524
 21
2.87672
 31
0.0
  0
LINE
  8
0
  6
CONTINUOUS
 62
   250
 10
3.04524
 20
2.87672
 30
0.0
 11
3.0426
 21
2.87716
 31
0.0
  0
LINE
  8
0
  6
CONTINUOUS
 62
   250
 10
3.0426
 20
2.87716
 30
0.0
 11
3.03952
 21
2.87672
 31
0.0
  0
LINE
  8
0
  6
CONTINUOUS
 62
   250
 10
3.03952
 20
2.87672
 30
0.0
 11
3.03688
 21
2.87496
 31
0.0
  0
LINE
  8
0
  6
CONTINUOUS
 62
   250
 10
3.03688
 20
2.87496
 30
0.0
 11
3.03468
 21
2.8732
 31
0.0
  0
LINE
  8
0
  6
CONTINUOUS
 62
   250
 10
3.03468
 20
2.8732
 30
0.0
 11
3.03336
 21
2.87056
 31
0.0
  0
LINE
  8
0
  6
CONTINUOUS
 62
   250
 10
3.03336
 20
2.87056
 30
0.0
 11
3.03292
 21
2.86748
 31
0.0
  0
LINE
  8
0
  6
CONTINUOUS
 62
   250
 10
3.03292
 20
2.86748
 30
0.0
 11
3.03336
 21
2.8644
 31
0.0
  0
LINE
  8
0
  6
CONTINUOUS
 62
   250
 10
3.03336
 20
2.8644
 30
0.0
 11
3.03468
 21
2.86176
 31
0.0
  0
LINE
  8
0
  6
CONTINUOUS
 62
   250
 10
3.03468
 20
2.86176
 30
0.0
 11
3.03688
 21
2.86
 31
0.0
  0
LINE
  8
0
  6
CONTINUOUS
 62
   250
 10
3.03688
 20
2.86
 30
0.0
 11
3.03952
 21
2.85868
 31
0.0
  0
LINE
  8
0
  6
CONTINUOUS
 62
   250
 10
3.03952
 20
2.85868
 30
0.0
 11
3.0426
 21
2.85824
 31
0.0
  0
LINE
  8
0
  6
CONTINUOUS
 62
   250
 10
3.0426
 20
2.85824
 30
0.0
 11
3.04524
 21
2.85868
 31
0.0
  0
LINE
  8
0
  6
CONTINUOUS
 62
   250
 10
3.04524
 20
2.85868
 30
0.0
 11
3.04788
 21
2.86
 31
0.0
  0
LINE
  8
0
  6
CONTINUOUS
 62
   250
 10
3.04788
 20
2.86
 30
0.0
 11
3.05008
 21
2.86176
 31
0.0
  0
LINE
  8
0
  6
CONTINUOUS
 62
   250
 10
3.05008
 20
2.86176
 30
0.0
 11
3.0514
 21
2.8644
 31
0.0
  0
LINE
  8
0
  6
CONTINUOUS
 62
   250
 10
3.0514
 20
2.8644
 30
0.0
 11
3.05184
 21
2.86748
 31
0.0
  0
LINE
  8
0
  6
CONTINUOUS
 62
   250
 10
3.036
 20
2.85164
 30
0.0
 11
3.02984
 21
2.85164
 31
0.0
  0
LINE
  8
0
  6
CONTINUOUS
 62
   250
 10
3.02984
 20
2.85164
 30
0.0
 11
3.036
 21
2.85164
 31
0.0
  0
LINE
  8
0
  6
CONTINUOUS
 62
   250
 10
3.036
 20
2.8644
 30
0.0
 11
3.036
 21
2.87056
 31
0.0
  0
LINE
  8
0
  6
CONTINUOUS
 62
   250
 10
3.036
 20
2.87056
 30
0.0
 11
3.03336
 21
2.87056
 31
0.0
  0
LINE
  8
0
  6
CONTINUOUS
 62
   250
 10
3.03336
 20
2.8644
 30
0.0
 11
3.036
 21
2.8644
 31
0.0
  0
LINE
  8
0
  6
CONTINUOUS
 62
   250
 10
3.06768
 20
2.85164
 30
0.0
 11
3.06768
 21
2.89608
 31
0.0
  0
LINE
  8
0
  6
CONTINUOUS
 62
   250
 10
3.09672
 20
2.99376
 30
0.0
 11
3.09672
 21
3.00608
 31
0.0
  0
LINE
  8
0
  6
CONTINUOUS
 62
   250
 10
3.09276
 20
3.00608
 30
0.0
 11
3.10112
 21
3.00608
 31
0.0
  0
LINE
  8
0
  6
CONTINUOUS
 62
   250
 10
3.10508
 20
3.00388
 30
0.0
 11
3.10728
 21
3.00608
 31
0.0
  0
LINE
  8
0
  6
CONTINUOUS
 62
   250
 10
3.10728
 20
3.00608
 30
0.0
 11
3.10728
 21
2.99376
 31
0.0
  0
LINE
  8
0
  6
CONTINUOUS
 62
   250
 10
3.10728
 20
2.99376
 30
0.0
 11
3.10508
 21
2.99376
 31
0.0
  0
LINE
  8
0
  6
CONTINUOUS
 62
   250
 10
3.10508
 20
2.99376
 30
0.0
 11
3.10948
 21
2.99376
 31
0.0
  0
LINE
  8
0
  6
CONTINUOUS
 62
   250
 10
3.10112
 20
2.91764
 30
0.0
 11
3.09276
 21
2.91764
 31
0.0
  0
LINE
  8
0
  6
CONTINUOUS
 62
   250
 10
3.09672
 20
2.91764
 30
0.0
 11
3.09672
 21
2.90532
 31
0.0
  0
LINE
  8
0
  6
CONTINUOUS
 62
   250
 10
3.10508
 20
2.91588
 30
0.0
 11
3.10728
 21
2.91764
 31
0.0
  0
LINE
  8
0
  6
CONTINUOUS
 62
   250
 10
3.10728
 20
2.91764
 30
0.0
 11
3.11168
 21
2.91764
 31
0.0
  0
LINE
  8
0
  6
CONTINUOUS
 62
   250
 10
3.11168
 20
2.91764
 30
0.0
 11
3.11388
 21
2.91588
 31
0.0
  0
LINE
  8
0
  6
CONTINUOUS
 62
   250
 10
3.11388
 20
2.91588
 30
0.0
 11
3.11388
 21
2.91368
 31
0.0
  0
LINE
  8
0
  6
CONTINUOUS
 62
   250
 10
3.11388
 20
2.91368
 30
0.0
 11
3.11168
 21
2.91192
 31
0.0
  0
LINE
  8
0
  6
CONTINUOUS
 62
   250
 10
3.11168
 20
2.91192
 30
0.0
 11
3.10728
 21
2.91192
 31
0.0
  0
LINE
  8
0
  6
CONTINUOUS
 62
   250
 10
3.10728
 20
2.91192
 30
0.0
 11
3.10508
 21
2.90972
 31
0.0
  0
LINE
  8
0
  6
CONTINUOUS
 62
   250
 10
3.10508
 20
2.90972
 30
0.0
 11
3.10508
 21
2.90532
 31
0.0
  0
LINE
  8
0
  6
CONTINUOUS
 62
   250
 10
3.10508
 20
2.90532
 30
0.0
 11
3.11388
 21
2.90532
 31
0.0
  0
LINE
  8
0
  6
CONTINUOUS
 62
   250
 10
3.09672
 20
2.94932
 30
0.0
 11
3.09672
 21
2.96208
 31
0.0
  0
LINE
  8
0
  6
CONTINUOUS
 62
   250
 10
3.09276
 20
2.96208
 30
0.0
 11
3.10112
 21
2.96208
 31
0.0
  0
LINE
  8
0
  6
CONTINUOUS
 62
   250
 10
3.10508
 20
2.95988
 30
0.0
 11
3.10728
 21
2.96208
 31
0.0
  0
LINE
  8
0
  6
CONTINUOUS
 62
   250
 10
3.10728
 20
2.96208
 30
0.0
 11
3.10728
 21
2.94932
 31
0.0
  0
LINE
  8
0
  6
CONTINUOUS
 62
   250
 10
3.10728
 20
2.94932
 30
0.0
 11
3.10508
 21
2.94932
 31
0.0
  0
LINE
  8
0
  6
CONTINUOUS
 62
   250
 10
3.10508
 20
2.94932
 30
0.0
 11
3.10948
 21
2.94932
 31
0.0
  0
LINE
  8
0
  6
CONTINUOUS
 62
   250
 10
3.10112
 20
2.87408
 30
0.0
 11
3.09276
 21
2.87408
 31
0.0
  0
LINE
  8
0
  6
CONTINUOUS
 62
   250
 10
3.09672
 20
2.87408
 30
0.0
 11
3.09672
 21
2.86132
 31
0.0
  0
LINE
  8
0
  6
CONTINUOUS
 62
   250
 10
3.10508
 20
2.87188
 30
0.0
 11
3.10728
 21
2.87408
 31
0.0
  0
LINE
  8
0
  6
CONTINUOUS
 62
   250
 10
3.10728
 20
2.87408
 30
0.0
 11
3.11168
 21
2.87408
 31
0.0
  0
LINE
  8
0
  6
CONTINUOUS
 62
   250
 10
3.11168
 20
2.87408
 30
0.0
 11
3.11388
 21
2.87188
 31
0.0
  0
LINE
  8
0
  6
CONTINUOUS
 62
   250
 10
3.11388
 20
2.87188
 30
0.0
 11
3.11388
 21
2.86968
 31
0.0
  0
LINE
  8
0
  6
CONTINUOUS
 62
   250
 10
3.11388
 20
2.86968
 30
0.0
 11
3.11168
 21
2.86748
 31
0.0
  0
LINE
  8
0
  6
CONTINUOUS
 62
   250
 10
3.11168
 20
2.86748
 30
0.0
 11
3.10728
 21
2.86748
 31
0.0
  0
LINE
  8
0
  6
CONTINUOUS
 62
   250
 10
3.10728
 20
2.86748
 30
0.0
 11
3.10508
 21
2.86528
 31
0.0
  0
LINE
  8
0
  6
CONTINUOUS
 62
   250
 10
3.10508
 20
2.86528
 30
0.0
 11
3.10508
 21
2.86132
 31
0.0
  0
LINE
  8
0
  6
CONTINUOUS
 62
   250
 10
3.10508
 20
2.86132
 30
0.0
 11
3.11388
 21
2.86132
 31
0.0
  0
LINE
  8
0
  6
CONTINUOUS
 62
   250
 10
3.1306
 20
2.97132
 30
0.0
 11
3.13896
 21
2.98408
 31
0.0
  0
LINE
  8
0
  6
CONTINUOUS
 62
   250
 10
3.13896
 20
2.98408
 30
0.0
 11
3.1306
 21
2.98408
 31
0.0
  0
LINE
  8
0
  6
CONTINUOUS
 62
   250
 10
3.14292
 20
2.98408
 30
0.0
 11
3.14292
 21
2.97132
 31
0.0
  0
LINE
  8
0
  6
CONTINUOUS
 62
   250
 10
3.13896
 20
2.97132
 30
0.0
 11
3.1306
 21
2.97132
 31
0.0
  0
LINE
  8
0
  6
CONTINUOUS
 62
   250
 10
3.15172
 20
2.97132
 30
0.0
 11
3.15172
 21
2.98408
 31
0.0
  0
LINE
  8
0
  6
CONTINUOUS
 62
   250
 10
3.15172
 20
2.98408
 30
0.0
 11
3.14292
 21
2.98408
 31
0.0
  0
LINE
  8
0
  6
CONTINUOUS
 62
   250
 10
3.15568
 20
2.98408
 30
0.0
 11
3.15568
 21
2.97132
 31
0.0
  0
LINE
  8
0
  6
CONTINUOUS
 62
   250
 10
3.15172
 20
2.97132
 30
0.0
 11
3.14292
 21
2.97132
 31
0.0
  0
LINE
  8
0
  6
CONTINUOUS
 62
   250
 10
3.16404
 20
2.97132
 30
0.0
 11
3.16404
 21
2.98408
 31
0.0
  0
LINE
  8
0
  6
CONTINUOUS
 62
   250
 10
3.16844
 20
2.98408
 30
0.0
 11
3.16844
 21
2.97132
 31
0.0
  0
LINE
  8
0
  6
CONTINUOUS
 62
   250
 10
3.16404
 20
2.97132
 30
0.0
 11
3.15568
 21
2.98408
 31
0.0
  0
LINE
  8
0
  6
CONTINUOUS
 62
   250
 10
3.16844
 20
2.98408
 30
0.0
 11
3.1768
 21
2.98408
 31
0.0
  0
LINE
  8
0
  6
CONTINUOUS
 62
   250
 10
3.1724
 20
2.97792
 30
0.0
 11
3.16844
 21
2.97792
 31
0.0
  0
LINE
  8
0
  6
CONTINUOUS
 62
   250
 10
3.16844
 20
2.97132
 30
0.0
 11
3.1768
 21
2.97132
 31
0.0
  0
LINE
  8
0
  6
CONTINUOUS
 62
   250
 10
3.13676
 20
2.88332
 30
0.0
 11
3.1328
 21
2.88332
 31
0.0
  0
LINE
  8
0
  6
CONTINUOUS
 62
   250
 10
3.1328
 20
2.88332
 30
0.0
 11
3.1306
 21
2.88552
 31
0.0
  0
LINE
  8
0
  6
CONTINUOUS
 62
   250
 10
3.13896
 20
2.88552
 30
0.0
 11
3.1306
 21
2.89388
 31
0.0
  0
LINE
  8
0
  6
CONTINUOUS
 62
   250
 10
3.1306
 20
2.89388
 30
0.0
 11
3.1328
 21
2.89608
 31
0.0
  0
LINE
  8
0
  6
CONTINUOUS
 62
   250
 10
3.1328
 20
2.89608
 30
0.0
 11
3.13676
 21
2.89608
 31
0.0
  0
LINE
  8
0
  6
CONTINUOUS
 62
   250
 10
3.13676
 20
2.89608
 30
0.0
 11
3.13896
 21
2.89388
 31
0.0
  0
LINE
  8
0
  6
CONTINUOUS
 62
   250
 10
3.14292
 20
2.89608
 30
0.0
 11
3.14292
 21
2.88552
 31
0.0
  0
LINE
  8
0
  6
CONTINUOUS
 62
   250
 10
3.14292
 20
2.88552
 30
0.0
 11
3.14512
 21
2.88332
 31
0.0
  0
LINE
  8
0
  6
CONTINUOUS
 62
   250
 10
3.14512
 20
2.88332
 30
0.0
 11
3.14952
 21
2.88332
 31
0.0
  0
LINE
  8
0
  6
CONTINUOUS
 62
   250
 10
3.14952
 20
2.88332
 30
0.0
 11
3.15172
 21
2.88552
 31
0.0
  0
LINE
  8
0
  6
CONTINUOUS
 62
   250
 10
3.15172
 20
2.88552
 30
0.0
 11
3.15172
 21
2.89608
 31
0.0
  0
LINE
  8
0
  6
CONTINUOUS
 62
   250
 10
3.15568
 20
2.89608
 30
0.0
 11
3.15568
 21
2.88332
 31
0.0
  0
LINE
  8
0
  6
CONTINUOUS
 62
   250
 10
3.15568
 20
2.89608
 30
0.0
 11
3.16228
 21
2.89608
 31
0.0
  0
LINE
  8
0
  6
CONTINUOUS
 62
   250
 10
3.16228
 20
2.89608
 30
0.0
 11
3.16404
 21
2.89388
 31
0.0
  0
LINE
  8
0
  6
CONTINUOUS
 62
   250
 10
3.16404
 20
2.89388
 30
0.0
 11
3.16404
 21
2.89168
 31
0.0
  0
LINE
  8
0
  6
CONTINUOUS
 62
   250
 10
3.16404
 20
2.89168
 30
0.0
 11
3.16228
 21
2.88948
 31
0.0
  0
LINE
  8
0
  6
CONTINUOUS
 62
   250
 10
3.16228
 20
2.88948
 30
0.0
 11
3.15568
 21
2.88948
 31
0.0
  0
LINE
  8
0
  6
CONTINUOUS
 62
   250
 10
3.16844
 20
2.88332
 30
0.0
 11
3.16844
 21
2.89608
 31
0.0
  0
LINE
  8
0
  6
CONTINUOUS
 62
   250
 10
3.16844
 20
2.89608
 30
0.0
 11
3.1746
 21
2.89608
 31
0.0
  0
LINE
  8
0
  6
CONTINUOUS
 62
   250
 10
3.1746
 20
2.89608
 30
0.0
 11
3.1768
 21
2.89388
 31
0.0
  0
LINE
  8
0
  6
CONTINUOUS
 62
   250
 10
3.1768
 20
2.89388
 30
0.0
 11
3.1768
 21
2.89168
 31
0.0
  0
LINE
  8
0
  6
CONTINUOUS
 62
   250
 10
3.1768
 20
2.89168
 30
0.0
 11
3.1746
 21
2.88948
 31
0.0
  0
LINE
  8
0
  6
CONTINUOUS
 62
   250
 10
3.1746
 20
2.88948
 30
0.0
 11
3.16844
 21
2.88948
 31
0.0
  0
LINE
  8
0
  6
CONTINUOUS
 62
   250
 10
3.1812
 20
2.89608
 30
0.0
 11
3.1812
 21
2.88332
 31
0.0
  0
LINE
  8
0
  6
CONTINUOUS
 62
   250
 10
3.1812
 20
2.88332
 30
0.0
 11
3.18956
 21
2.88332
 31
0.0
  0
LINE
  8
0
  6
CONTINUOUS
 62
   250
 10
3.19792
 20
2.88948
 30
0.0
 11
3.19352
 21
2.89608
 31
0.0
  0
LINE
  8
0
  6
CONTINUOUS
 62
   250
 10
3.19792
 20
2.88948
 30
0.0
 11
3.19792
 21
2.88332
 31
0.0
  0
LINE
  8
0
  6
CONTINUOUS
 62
   250
 10
3.19792
 20
2.88948
 30
0.0
 11
3.20188
 21
2.89608
 31
0.0
  0
LINE
  8
0
  6
CONTINUOUS
 62
   250
 10
3.13896
 20
2.88552
 30
0.0
 11
3.13676
 21
2.88332
 31
0.0
  0
LINE
  8
0
  6
CONTINUOUS
 62
   250
 10
2.92908
 20
2.70072
 30
0.0
 11
2.92908
 21
2.68796
 31
0.0
  0
LINE
  8
0
  6
CONTINUOUS
 62
   250
 10
2.92908
 20
2.68796
 30
0.0
 11
2.93744
 21
2.68796
 31
0.0
  0
LINE
  8
0
  6
CONTINUOUS
 62
   250
 10
2.9414
 20
2.68796
 30
0.0
 11
2.9414
 21
2.70072
 31
0.0
  0
LINE
  8
0
  6
CONTINUOUS
 62
   250
 10
2.9414
 20
2.70072
 30
0.0
 11
2.94976
 21
2.70072
 31
0.0
  0
LINE
  8
0
  6
CONTINUOUS
 62
   250
 10
2.94976
 20
2.70072
 30
0.0
 11
2.94976
 21
2.68796
 31
0.0
  0
LINE
  8
0
  6
CONTINUOUS
 62
   250
 10
2.94976
 20
2.68796
 30
0.0
 11
2.9414
 21
2.68796
 31
0.0
  0
LINE
  8
0
  6
CONTINUOUS
 62
   250
 10
2.95812
 20
2.68796
 30
0.0
 11
2.96032
 21
2.69412
 31
0.0
  0
LINE
  8
0
  6
CONTINUOUS
 62
   250
 10
2.96032
 20
2.69412
 30
0.0
 11
2.96252
 21
2.68796
 31
0.0
  0
LINE
  8
0
  6
CONTINUOUS
 62
   250
 10
2.96252
 20
2.68796
 30
0.0
 11
2.96648
 21
2.70072
 31
0.0
  0
LINE
  8
0
  6
CONTINUOUS
 62
   250
 10
2.95416
 20
2.70072
 30
0.0
 11
2.95812
 21
2.68796
 31
0.0
  0
LINE
  8
0
  6
CONTINUOUS
 62
   250
 10
2.9832
 20
2.68796
 30
0.0
 11
2.9832
 21
2.70072
 31
0.0
  0
LINE
  8
0
  6
CONTINUOUS
 62
   250
 10
2.9832
 20
2.70072
 30
0.0
 11
2.9898
 21
2.70072
 31
0.0
  0
LINE
  8
0
  6
CONTINUOUS
 62
   250
 10
2.9898
 20
2.70072
 30
0.0
 11
2.992
 21
2.69852
 31
0.0
  0
LINE
  8
0
  6
CONTINUOUS
 62
   250
 10
2.992
 20
2.69852
 30
0.0
 11
2.992
 21
2.69632
 31
0.0
  0
LINE
  8
0
  6
CONTINUOUS
 62
   250
 10
2.992
 20
2.69632
 30
0.0
 11
2.9898
 21
2.69412
 31
0.0
  0
LINE
  8
0
  6
CONTINUOUS
 62
   250
 10
2.9898
 20
2.69412
 30
0.0
 11
2.9832
 21
2.69412
 31
0.0
  0
LINE
  8
0
  6
CONTINUOUS
 62
   250
 10
2.99596
 20
2.68796
 30
0.0
 11
2.99596
 21
2.70072
 31
0.0
  0
LINE
  8
0
  6
CONTINUOUS
 62
   250
 10
2.99596
 20
2.70072
 30
0.0
 11
3.00212
 21
2.70072
 31
0.0
  0
LINE
  8
0
  6
CONTINUOUS
 62
   250
 10
3.00212
 20
2.70072
 30
0.0
 11
3.00476
 21
2.69852
 31
0.0
  0
LINE
  8
0
  6
CONTINUOUS
 62
   250
 10
3.00476
 20
2.69852
 30
0.0
 11
3.00476
 21
2.69632
 31
0.0
  0
LINE
  8
0
  6
CONTINUOUS
 62
   250
 10
3.00476
 20
2.69632
 30
0.0
 11
3.00212
 21
2.69412
 31
0.0
  0
LINE
  8
0
  6
CONTINUOUS
 62
   250
 10
3.00212
 20
2.69412
 30
0.0
 11
2.99596
 21
2.69412
 31
0.0
  0
LINE
  8
0
  6
CONTINUOUS
 62
   250
 10
2.99596
 20
2.69412
 30
0.0
 11
2.99816
 21
2.69412
 31
0.0
  0
LINE
  8
0
  6
CONTINUOUS
 62
   250
 10
2.99816
 20
2.69412
 30
0.0
 11
3.00476
 21
2.68796
 31
0.0
  0
LINE
  8
0
  6
CONTINUOUS
 62
   250
 10
3.00872
 20
2.68796
 30
0.0
 11
3.00872
 21
2.70072
 31
0.0
  0
LINE
  8
0
  6
CONTINUOUS
 62
   250
 10
3.00872
 20
2.70072
 30
0.0
 11
3.01708
 21
2.70072
 31
0.0
  0
LINE
  8
0
  6
CONTINUOUS
 62
   250
 10
3.01268
 20
2.69412
 30
0.0
 11
3.00872
 21
2.69412
 31
0.0
  0
LINE
  8
0
  6
CONTINUOUS
 62
   250
 10
3.00872
 20
2.68796
 30
0.0
 11
3.01708
 21
2.68796
 31
0.0
  0
LINE
  8
0
  6
CONTINUOUS
 62
   250
 10
3.02104
 20
2.69016
 30
0.0
 11
3.02368
 21
2.68796
 31
0.0
  0
LINE
  8
0
  6
CONTINUOUS
 62
   250
 10
3.02368
 20
2.68796
 30
0.0
 11
3.02764
 21
2.68796
 31
0.0
  0
LINE
  8
0
  6
CONTINUOUS
 62
   250
 10
3.02764
 20
2.68796
 30
0.0
 11
3.02984
 21
2.69016
 31
0.0
  0
LINE
  8
0
  6
CONTINUOUS
 62
   250
 10
3.02984
 20
2.69016
 30
0.0
 11
3.02104
 21
2.69852
 31
0.0
  0
LINE
  8
0
  6
CONTINUOUS
 62
   250
 10
3.02104
 20
2.69852
 30
0.0
 11
3.02368
 21
2.70072
 31
0.0
  0
LINE
  8
0
  6
CONTINUOUS
 62
   250
 10
3.02368
 20
2.70072
 30
0.0
 11
3.02764
 21
2.70072
 31
0.0
  0
LINE
  8
0
  6
CONTINUOUS
 62
   250
 10
3.02764
 20
2.70072
 30
0.0
 11
3.02984
 21
2.69852
 31
0.0
  0
LINE
  8
0
  6
CONTINUOUS
 62
   250
 10
3.0338
 20
2.69016
 30
0.0
 11
3.036
 21
2.68796
 31
0.0
  0
LINE
  8
0
  6
CONTINUOUS
 62
   250
 10
3.036
 20
2.68796
 30
0.0
 11
3.0404
 21
2.68796
 31
0.0
  0
LINE
  8
0
  6
CONTINUOUS
 62
   250
 10
3.0404
 20
2.68796
 30
0.0
 11
3.0426
 21
2.69016
 31
0.0
  0
LINE
  8
0
  6
CONTINUOUS
 62
   250
 10
3.0426
 20
2.69016
 30
0.0
 11
3.0338
 21
2.69852
 31
0.0
  0
LINE
  8
0
  6
CONTINUOUS
 62
   250
 10
3.0338
 20
2.69852
 30
0.0
 11
3.036
 21
2.70072
 31
0.0
  0
LINE
  8
0
  6
CONTINUOUS
 62
   250
 10
3.036
 20
2.70072
 30
0.0
 11
3.0404
 21
2.70072
 31
0.0
  0
LINE
  8
0
  6
CONTINUOUS
 62
   250
 10
3.0404
 20
2.70072
 30
0.0
 11
3.0426
 21
2.69852
 31
0.0
  0
LINE
  8
0
  6
CONTINUOUS
 62
   250
 10
3.04656
 20
2.70072
 30
0.0
 11
3.04656
 21
2.69016
 31
0.0
  0
LINE
  8
0
  6
CONTINUOUS
 62
   250
 10
3.04656
 20
2.69016
 30
0.0
 11
3.04876
 21
2.68796
 31
0.0
  0
LINE
  8
0
  6
CONTINUOUS
 62
   250
 10
3.04876
 20
2.68796
 30
0.0
 11
3.05272
 21
2.68796
 31
0.0
  0
LINE
  8
0
  6
CONTINUOUS
 62
   250
 10
3.05272
 20
2.68796
 30
0.0
 11
3.05492
 21
2.69016
 31
0.0
  0
LINE
  8
0
  6
CONTINUOUS
 62
   250
 10
3.05492
 20
2.69016
 30
0.0
 11
3.05492
 21
2.70072
 31
0.0
  0
LINE
  8
0
  6
CONTINUOUS
 62
   250
 10
3.05932
 20
2.70072
 30
0.0
 11
3.06548
 21
2.70072
 31
0.0
  0
LINE
  8
0
  6
CONTINUOUS
 62
   250
 10
3.06548
 20
2.70072
 30
0.0
 11
3.06768
 21
2.69852
 31
0.0
  0
LINE
  8
0
  6
CONTINUOUS
 62
   250
 10
3.06768
 20
2.69852
 30
0.0
 11
3.06768
 21
2.69632
 31
0.0
  0
LINE
  8
0
  6
CONTINUOUS
 62
   250
 10
3.06768
 20
2.69632
 30
0.0
 11
3.06548
 21
2.69412
 31
0.0
  0
LINE
  8
0
  6
CONTINUOUS
 62
   250
 10
3.06548
 20
2.69412
 30
0.0
 11
3.05932
 21
2.69412
 31
0.0
  0
LINE
  8
0
  6
CONTINUOUS
 62
   250
 10
3.05932
 20
2.69412
 30
0.0
 11
3.06108
 21
2.69412
 31
0.0
  0
LINE
  8
0
  6
CONTINUOUS
 62
   250
 10
3.06108
 20
2.69412
 30
0.0
 11
3.06768
 21
2.68796
 31
0.0
  0
LINE
  8
0
  6
CONTINUOUS
 62
   250
 10
3.07164
 20
2.68796
 30
0.0
 11
3.07164
 21
2.70072
 31
0.0
  0
LINE
  8
0
  6
CONTINUOUS
 62
   250
 10
3.07164
 20
2.70072
 30
0.0
 11
3.08
 21
2.70072
 31
0.0
  0
LINE
  8
0
  6
CONTINUOUS
 62
   250
 10
3.07604
 20
2.69412
 30
0.0
 11
3.07164
 21
2.69412
 31
0.0
  0
LINE
  8
0
  6
CONTINUOUS
 62
   250
 10
3.07164
 20
2.68796
 30
0.0
 11
3.08
 21
2.68796
 31
0.0
  0
LINE
  8
0
  6
CONTINUOUS
 62
   250
 10
3.05932
 20
2.68796
 30
0.0
 11
3.05932
 21
2.70072
 31
0.0
  0
LINE
  8
0
  6
CONTINUOUS
 62
   250
 10
2.92908
 20
2.78872
 30
0.0
 11
2.92908
 21
2.80148
 31
0.0
  0
LINE
  8
0
  6
CONTINUOUS
 62
   250
 10
2.92908
 20
2.80148
 30
0.0
 11
2.92908
 21
2.78872
 31
0.0
  0
LINE
  8
0
  6
CONTINUOUS
 62
   250
 10
2.92908
 20
2.79488
 30
0.0
 11
2.937
 21
2.79488
 31
0.0
  0
LINE
  8
0
  6
CONTINUOUS
 62
   250
 10
2.937
 20
2.78872
 30
0.0
 11
2.937
 21
2.80148
 31
0.0
  0
LINE
  8
0
  6
CONTINUOUS
 62
   250
 10
2.9414
 20
2.80148
 30
0.0
 11
2.94536
 21
2.80148
 31
0.0
  0
LINE
  8
0
  6
CONTINUOUS
 62
   250
 10
2.94536
 20
2.80148
 30
0.0
 11
2.94316
 21
2.80148
 31
0.0
  0
LINE
  8
0
  6
CONTINUOUS
 62
   250
 10
2.94316
 20
2.80148
 30
0.0
 11
2.94316
 21
2.78872
 31
0.0
  0
LINE
  8
0
  6
CONTINUOUS
 62
   250
 10
2.94316
 20
2.78872
 30
0.0
 11
2.9414
 21
2.78872
 31
0.0
  0
LINE
  8
0
  6
CONTINUOUS
 62
   250
 10
2.9414
 20
2.78872
 30
0.0
 11
2.94536
 21
2.78872
 31
0.0
  0
LINE
  8
0
  6
CONTINUOUS
 62
   250
 10
2.95724
 20
2.78872
 30
0.0
 11
2.95724
 21
2.79488
 31
0.0
  0
LINE
  8
0
  6
CONTINUOUS
 62
   250
 10
2.95724
 20
2.79488
 30
0.0
 11
2.95548
 21
2.79488
 31
0.0
  0
LINE
  8
0
  6
CONTINUOUS
 62
   250
 10
2.95724
 20
2.78872
 30
0.0
 11
2.95108
 21
2.78872
 31
0.0
  0
LINE
  8
0
  6
CONTINUOUS
 62
   250
 10
2.95108
 20
2.78872
 30
0.0
 11
2.94932
 21
2.79092
 31
0.0
  0
LINE
  8
0
  6
CONTINUOUS
 62
   250
 10
2.94932
 20
2.79092
 30
0.0
 11
2.94932
 21
2.79928
 31
0.0
  0
LINE
  8
0
  6
CONTINUOUS
 62
   250
 10
2.94932
 20
2.79928
 30
0.0
 11
2.95108
 21
2.80148
 31
0.0
  0
LINE
  8
0
  6
CONTINUOUS
 62
   250
 10
2.95108
 20
2.80148
 30
0.0
 11
2.95724
 21
2.80148
 31
0.0
  0
LINE
  8
0
  6
CONTINUOUS
 62
   250
 10
2.96164
 20
2.80148
 30
0.0
 11
2.96164
 21
2.78872
 31
0.0
  0
LINE
  8
0
  6
CONTINUOUS
 62
   250
 10
2.96164
 20
2.79488
 30
0.0
 11
2.96956
 21
2.79488
 31
0.0
  0
LINE
  8
0
  6
CONTINUOUS
 62
   250
 10
2.96956
 20
2.78872
 30
0.0
 11
2.96956
 21
2.80148
 31
0.0
  0
LINE
  8
0
  6
CONTINUOUS
 62
   250
 10
2.98628
 20
2.80148
 30
0.0
 11
2.99244
 21
2.80148
 31
0.0
  0
LINE
  8
0
  6
CONTINUOUS
 62
   250
 10
2.99244
 20
2.80148
 30
0.0
 11
2.9942
 21
2.79928
 31
0.0
  0
LINE
  8
0
  6
CONTINUOUS
 62
   250
 10
2.9942
 20
2.79928
 30
0.0
 11
2.9942
 21
2.79708
 31
0.0
  0
LINE
  8
0
  6
CONTINUOUS
 62
   250
 10
2.9942
 20
2.79708
 30
0.0
 11
2.99244
 21
2.79488
 31
0.0
  0
LINE
  8
0
  6
CONTINUOUS
 62
   250
 10
2.99244
 20
2.79488
 30
0.0
 11
2.98628
 21
2.79488
 31
0.0
  0
LINE
  8
0
  6
CONTINUOUS
 62
   250
 10
2.98628
 20
2.78872
 30
0.0
 11
2.98628
 21
2.80148
 31
0.0
  0
LINE
  8
0
  6
CONTINUOUS
 62
   250
 10
2.99816
 20
2.80148
 30
0.0
 11
3.00476
 21
2.80148
 31
0.0
  0
LINE
  8
0
  6
CONTINUOUS
 62
   250
 10
3.00476
 20
2.80148
 30
0.0
 11
3.00652
 21
2.79928
 31
0.0
  0
LINE
  8
0
  6
CONTINUOUS
 62
   250
 10
3.00652
 20
2.79928
 30
0.0
 11
3.00652
 21
2.79708
 31
0.0
  0
LINE
  8
0
  6
CONTINUOUS
 62
   250
 10
3.00652
 20
2.79708
 30
0.0
 11
3.00476
 21
2.79488
 31
0.0
  0
LINE
  8
0
  6
CONTINUOUS
 62
   250
 10
3.00476
 20
2.79488
 30
0.0
 11
2.99816
 21
2.79488
 31
0.0
  0
LINE
  8
0
  6
CONTINUOUS
 62
   250
 10
2.99816
 20
2.79488
 30
0.0
 11
3.00036
 21
2.79488
 31
0.0
  0
LINE
  8
0
  6
CONTINUOUS
 62
   250
 10
3.00036
 20
2.79488
 30
0.0
 11
3.00652
 21
2.78872
 31
0.0
  0
LINE
  8
0
  6
CONTINUOUS
 62
   250
 10
3.01092
 20
2.78872
 30
0.0
 11
3.01092
 21
2.80148
 31
0.0
  0
LINE
  8
0
  6
CONTINUOUS
 62
   250
 10
3.01092
 20
2.80148
 30
0.0
 11
3.01884
 21
2.80148
 31
0.0
  0
LINE
  8
0
  6
CONTINUOUS
 62
   250
 10
3.01444
 20
2.79488
 30
0.0
 11
3.01092
 21
2.79488
 31
0.0
  0
LINE
  8
0
  6
CONTINUOUS
 62
   250
 10
3.01092
 20
2.78872
 30
0.0
 11
3.01884
 21
2.78872
 31
0.0
  0
LINE
  8
0
  6
CONTINUOUS
 62
   250
 10
3.0228
 20
2.79092
 30
0.0
 11
3.025
 21
2.78872
 31
0.0
  0
LINE
  8
0
  6
CONTINUOUS
 62
   250
 10
3.025
 20
2.78872
 30
0.0
 11
3.02896
 21
2.78872
 31
0.0
  0
LINE
  8
0
  6
CONTINUOUS
 62
   250
 10
3.02896
 20
2.78872
 30
0.0
 11
3.03116
 21
2.79092
 31
0.0
  0
LINE
  8
0
  6
CONTINUOUS
 62
   250
 10
3.03116
 20
2.79092
 30
0.0
 11
3.0228
 21
2.79928
 31
0.0
  0
LINE
  8
0
  6
CONTINUOUS
 62
   250
 10
3.0228
 20
2.79928
 30
0.0
 11
3.025
 21
2.80148
 31
0.0
  0
LINE
  8
0
  6
CONTINUOUS
 62
   250
 10
3.025
 20
2.80148
 30
0.0
 11
3.02896
 21
2.80148
 31
0.0
  0
LINE
  8
0
  6
CONTINUOUS
 62
   250
 10
3.02896
 20
2.80148
 30
0.0
 11
3.03116
 21
2.79928
 31
0.0
  0
LINE
  8
0
  6
CONTINUOUS
 62
   250
 10
3.03512
 20
2.79092
 30
0.0
 11
3.03732
 21
2.78872
 31
0.0
  0
LINE
  8
0
  6
CONTINUOUS
 62
   250
 10
3.03732
 20
2.78872
 30
0.0
 11
3.04128
 21
2.78872
 31
0.0
  0
LINE
  8
0
  6
CONTINUOUS
 62
   250
 10
3.04128
 20
2.78872
 30
0.0
 11
3.04348
 21
2.79092
 31
0.0
  0
LINE
  8
0
  6
CONTINUOUS
 62
   250
 10
3.04348
 20
2.79092
 30
0.0
 11
3.03512
 21
2.79928
 31
0.0
  0
LINE
  8
0
  6
CONTINUOUS
 62
   250
 10
3.03512
 20
2.79928
 30
0.0
 11
3.03732
 21
2.80148
 31
0.0
  0
LINE
  8
0
  6
CONTINUOUS
 62
   250
 10
3.03732
 20
2.80148
 30
0.0
 11
3.04128
 21
2.80148
 31
0.0
  0
LINE
  8
0
  6
CONTINUOUS
 62
   250
 10
3.04128
 20
2.80148
 30
0.0
 11
3.04348
 21
2.79928
 31
0.0
  0
LINE
  8
0
  6
CONTINUOUS
 62
   250
 10
3.04744
 20
2.80148
 30
0.0
 11
3.04744
 21
2.79092
 31
0.0
  0
LINE
  8
0
  6
CONTINUOUS
 62
   250
 10
3.04744
 20
2.79092
 30
0.0
 11
3.04964
 21
2.78872
 31
0.0
  0
LINE
  8
0
  6
CONTINUOUS
 62
   250
 10
3.04964
 20
2.78872
 30
0.0
 11
3.0536
 21
2.78872
 31
0.0
  0
LINE
  8
0
  6
CONTINUOUS
 62
   250
 10
3.0536
 20
2.78872
 30
0.0
 11
3.0558
 21
2.79092
 31
0.0
  0
LINE
  8
0
  6
CONTINUOUS
 62
   250
 10
3.0558
 20
2.79092
 30
0.0
 11
3.0558
 21
2.80148
 31
0.0
  0
LINE
  8
0
  6
CONTINUOUS
 62
   250
 10
3.05976
 20
2.80148
 30
0.0
 11
3.05976
 21
2.78872
 31
0.0
  0
LINE
  8
0
  6
CONTINUOUS
 62
   250
 10
3.05976
 20
2.80148
 30
0.0
 11
3.06592
 21
2.80148
 31
0.0
  0
LINE
  8
0
  6
CONTINUOUS
 62
   250
 10
3.06592
 20
2.80148
 30
0.0
 11
3.06768
 21
2.79928
 31
0.0
  0
LINE
  8
0
  6
CONTINUOUS
 62
   250
 10
3.06768
 20
2.79928
 30
0.0
 11
3.06768
 21
2.79708
 31
0.0
  0
LINE
  8
0
  6
CONTINUOUS
 62
   250
 10
3.06768
 20
2.79708
 30
0.0
 11
3.06592
 21
2.79488
 31
0.0
  0
LINE
  8
0
  6
CONTINUOUS
 62
   250
 10
3.06592
 20
2.79488
 30
0.0
 11
3.05976
 21
2.79488
 31
0.0
  0
LINE
  8
0
  6
CONTINUOUS
 62
   250
 10
3.05976
 20
2.79488
 30
0.0
 11
3.06196
 21
2.79488
 31
0.0
  0
LINE
  8
0
  6
CONTINUOUS
 62
   250
 10
3.06196
 20
2.79488
 30
0.0
 11
3.06768
 21
2.78872
 31
0.0
  0
LINE
  8
0
  6
CONTINUOUS
 62
   250
 10
3.07208
 20
2.78872
 30
0.0
 11
3.07208
 21
2.80148
 31
0.0
  0
LINE
  8
0
  6
CONTINUOUS
 62
   250
 10
3.07208
 20
2.80148
 30
0.0
 11
3.08
 21
2.80148
 31
0.0
  0
LINE
  8
0
  6
CONTINUOUS
 62
   250
 10
3.07604
 20
2.79488
 30
0.0
 11
3.07208
 21
2.79488
 31
0.0
  0
LINE
  8
0
  6
CONTINUOUS
 62
   250
 10
3.07208
 20
2.78872
 30
0.0
 11
3.08
 21
2.78872
 31
0.0
  0
LINE
  8
0
  6
CONTINUOUS
 62
   250
 10
2.99816
 20
2.78872
 30
0.0
 11
2.99816
 21
2.80148
 31
0.0
  0
LINE
  8
0
  6
CONTINUOUS
 62
   250
 10
3.00212
 20
3.45048
 30
0.0
 11
3.00036
 21
3.45268
 31
0.0
  0
LINE
  8
0
  6
CONTINUOUS
 62
   250
 10
3.00036
 20
3.45268
 30
0.0
 11
3.00036
 21
3.46104
 31
0.0
  0
LINE
  8
0
  6
CONTINUOUS
 62
   250
 10
3.00036
 20
3.46104
 30
0.0
 11
3.00212
 21
3.46324
 31
0.0
  0
LINE
  8
0
  6
CONTINUOUS
 62
   250
 10
3.00212
 20
3.46324
 30
0.0
 11
3.00652
 21
3.46324
 31
0.0
  0
LINE
  8
0
  6
CONTINUOUS
 62
   250
 10
3.00652
 20
3.46324
 30
0.0
 11
3.00872
 21
3.46104
 31
0.0
  0
LINE
  8
0
  6
CONTINUOUS
 62
   250
 10
3.01268
 20
3.46324
 30
0.0
 11
3.02104
 21
3.46324
 31
0.0
  0
LINE
  8
0
  6
CONTINUOUS
 62
   250
 10
3.02104
 20
3.46324
 30
0.0
 11
3.02104
 21
3.45048
 31
0.0
  0
LINE
  8
0
  6
CONTINUOUS
 62
   250
 10
3.02104
 20
3.45048
 30
0.0
 11
3.01268
 21
3.45048
 31
0.0
  0
LINE
  8
0
  6
CONTINUOUS
 62
   250
 10
3.01268
 20
3.45048
 30
0.0
 11
3.01268
 21
3.46324
 31
0.0
  0
LINE
  8
0
  6
CONTINUOUS
 62
   250
 10
3.02544
 20
3.46324
 30
0.0
 11
3.0338
 21
3.45048
 31
0.0
  0
LINE
  8
0
  6
CONTINUOUS
 62
   250
 10
3.0338
 20
3.45048
 30
0.0
 11
3.0338
 21
3.46324
 31
0.0
  0
LINE
  8
0
  6
CONTINUOUS
 62
   250
 10
3.0382
 20
3.46324
 30
0.0
 11
3.04656
 21
3.46324
 31
0.0
  0
LINE
  8
0
  6
CONTINUOUS
 62
   250
 10
3.0426
 20
3.46324
 30
0.0
 11
3.0426
 21
3.45048
 31
0.0
  0
LINE
  8
0
  6
CONTINUOUS
 62
   250
 10
3.05052
 20
3.45048
 30
0.0
 11
3.05052
 21
3.46324
 31
0.0
  0
LINE
  8
0
  6
CONTINUOUS
 62
   250
 10
3.05052
 20
3.46324
 30
0.0
 11
3.05712
 21
3.46324
 31
0.0
  0
LINE
  8
0
  6
CONTINUOUS
 62
   250
 10
3.05712
 20
3.46324
 30
0.0
 11
3.05932
 21
3.46104
 31
0.0
  0
LINE
  8
0
  6
CONTINUOUS
 62
   250
 10
3.05932
 20
3.46104
 30
0.0
 11
3.05932
 21
3.45884
 31
0.0
  0
LINE
  8
0
  6
CONTINUOUS
 62
   250
 10
3.05932
 20
3.45884
 30
0.0
 11
3.05712
 21
3.45664
 31
0.0
  0
LINE
  8
0
  6
CONTINUOUS
 62
   250
 10
3.05712
 20
3.45664
 30
0.0
 11
3.05052
 21
3.45664
 31
0.0
  0
LINE
  8
0
  6
CONTINUOUS
 62
   250
 10
3.05052
 20
3.45664
 30
0.0
 11
3.05272
 21
3.45664
 31
0.0
  0
LINE
  8
0
  6
CONTINUOUS
 62
   250
 10
3.05272
 20
3.45664
 30
0.0
 11
3.05932
 21
3.45048
 31
0.0
  0
LINE
  8
0
  6
CONTINUOUS
 62
   250
 10
3.06328
 20
3.45048
 30
0.0
 11
3.06328
 21
3.46324
 31
0.0
  0
LINE
  8
0
  6
CONTINUOUS
 62
   250
 10
3.06328
 20
3.46324
 30
0.0
 11
3.07164
 21
3.46324
 31
0.0
  0
LINE
  8
0
  6
CONTINUOUS
 62
   250
 10
3.07164
 20
3.46324
 30
0.0
 11
3.07164
 21
3.45048
 31
0.0
  0
LINE
  8
0
  6
CONTINUOUS
 62
   250
 10
3.07164
 20
3.45048
 30
0.0
 11
3.06328
 21
3.45048
 31
0.0
  0
LINE
  8
0
  6
CONTINUOUS
 62
   250
 10
3.07604
 20
3.45048
 30
0.0
 11
3.0844
 21
3.45048
 31
0.0
  0
LINE
  8
0
  6
CONTINUOUS
 62
   250
 10
3.08836
 20
3.45048
 30
0.0
 11
3.09672
 21
3.45048
 31
0.0
  0
LINE
  8
0
  6
CONTINUOUS
 62
   250
 10
3.10112
 20
3.45048
 30
0.0
 11
3.10112
 21
3.46324
 31
0.0
  0
LINE
  8
0
  6
CONTINUOUS
 62
   250
 10
3.10112
 20
3.46324
 30
0.0
 11
3.10948
 21
3.46324
 31
0.0
  0
LINE
  8
0
  6
CONTINUOUS
 62
   250
 10
3.11388
 20
3.46324
 30
0.0
 11
3.12004
 21
3.46324
 31
0.0
  0
LINE
  8
0
  6
CONTINUOUS
 62
   250
 10
3.12004
 20
3.46324
 30
0.0
 11
3.12224
 21
3.46104
 31
0.0
  0
LINE
  8
0
  6
CONTINUOUS
 62
   250
 10
3.12224
 20
3.46104
 30
0.0
 11
3.12224
 21
3.45884
 31
0.0
  0
LINE
  8
0
  6
CONTINUOUS
 62
   250
 10
3.12224
 20
3.45884
 30
0.0
 11
3.12004
 21
3.45664
 31
0.0
  0
LINE
  8
0
  6
CONTINUOUS
 62
   250
 10
3.12004
 20
3.45664
 30
0.0
 11
3.11388
 21
3.45664
 31
0.0
  0
LINE
  8
0
  6
CONTINUOUS
 62
   250
 10
3.11388
 20
3.45664
 30
0.0
 11
3.11564
 21
3.45664
 31
0.0
  0
LINE
  8
0
  6
CONTINUOUS
 62
   250
 10
3.11564
 20
3.45664
 30
0.0
 11
3.12224
 21
3.45048
 31
0.0
  0
LINE
  8
0
  6
CONTINUOUS
 62
   250
 10
3.11388
 20
3.45048
 30
0.0
 11
3.11388
 21
3.46324
 31
0.0
  0
LINE
  8
0
  6
CONTINUOUS
 62
   250
 10
3.10508
 20
3.45664
 30
0.0
 11
3.10112
 21
3.45664
 31
0.0
  0
LINE
  8
0
  6
CONTINUOUS
 62
   250
 10
3.10112
 20
3.45048
 30
0.0
 11
3.10948
 21
3.45048
 31
0.0
  0
LINE
  8
0
  6
CONTINUOUS
 62
   250
 10
3.08836
 20
3.45048
 30
0.0
 11
3.08836
 21
3.46324
 31
0.0
  0
LINE
  8
0
  6
CONTINUOUS
 62
   250
 10
3.07604
 20
3.46324
 30
0.0
 11
3.07604
 21
3.45048
 31
0.0
  0
LINE
  8
0
  6
CONTINUOUS
 62
   250
 10
3.02544
 20
3.45048
 30
0.0
 11
3.02544
 21
3.46324
 31
0.0
  0
LINE
  8
0
  6
CONTINUOUS
 62
   250
 10
3.02544
 20
3.48832
 30
0.0
 11
3.02368
 21
3.49052
 31
0.0
  0
LINE
  8
0
  6
CONTINUOUS
 62
   250
 10
3.02368
 20
3.49052
 30
0.0
 11
3.02368
 21
3.49448
 31
0.0
  0
LINE
  8
0
  6
CONTINUOUS
 62
   250
 10
3.02368
 20
3.49448
 30
0.0
 11
3.02544
 21
3.49668
 31
0.0
  0
LINE
  8
0
  6
CONTINUOUS
 62
   250
 10
3.02544
 20
3.49668
 30
0.0
 11
3.02764
 21
3.49668
 31
0.0
  0
LINE
  8
0
  6
CONTINUOUS
 62
   250
 10
3.02764
 20
3.49668
 30
0.0
 11
3.02984
 21
3.49448
 31
0.0
  0
LINE
  8
0
  6
CONTINUOUS
 62
   250
 10
3.02984
 20
3.49448
 30
0.0
 11
3.02984
 21
3.49052
 31
0.0
  0
LINE
  8
0
  6
CONTINUOUS
 62
   250
 10
3.02984
 20
3.49052
 30
0.0
 11
3.02764
 21
3.48832
 31
0.0
  0
LINE
  8
0
  6
CONTINUOUS
 62
   250
 10
3.02764
 20
3.48832
 30
0.0
 11
3.02544
 21
3.48832
 31
0.0
  0
LINE
  8
0
  6
CONTINUOUS
 62
   250
 10
3.02984
 20
3.49052
 30
0.0
 11
3.0316
 21
3.48832
 31
0.0
  0
LINE
  8
0
  6
CONTINUOUS
 62
   250
 10
3.01708
 20
3.48832
 30
0.0
 11
3.01928
 21
3.49052
 31
0.0
  0
LINE
  8
0
  6
CONTINUOUS
 62
   250
 10
3.01928
 20
3.49052
 30
0.0
 11
3.01928
 21
3.49448
 31
0.0
  0
LINE
  8
0
  6
CONTINUOUS
 62
   250
 10
3.01928
 20
3.49448
 30
0.0
 11
3.01708
 21
3.49668
 31
0.0
  0
LINE
  8
0
  6
CONTINUOUS
 62
   250
 10
3.01708
 20
3.49668
 30
0.0
 11
3.01092
 21
3.49668
 31
0.0
  0
LINE
  8
0
  6
CONTINUOUS
 62
   250
 10
3.01092
 20
3.49668
 30
0.0
 11
3.01092
 21
3.50108
 31
0.0
  0
LINE
  8
0
  6
CONTINUOUS
 62
   250
 10
3.01092
 20
3.50108
 30
0.0
 11
3.01928
 21
3.50108
 31
0.0
  0
LINE
  8
0
  6
CONTINUOUS
 62
   250
 10
3.00476
 20
3.50108
 30
0.0
 11
3.00652
 21
3.49888
 31
0.0
  0
LINE
  8
0
  6
CONTINUOUS
 62
   250
 10
3.00652
 20
3.49888
 30
0.0
 11
3.00652
 21
3.49668
 31
0.0
  0
LINE
  8
0
  6
CONTINUOUS
 62
   250
 10
3.00652
 20
3.49668
 30
0.0
 11
3.00476
 21
3.49448
 31
0.0
  0
LINE
  8
0
  6
CONTINUOUS
 62
   250
 10
3.00476
 20
3.49448
 30
0.0
 11
3.00036
 21
3.49448
 31
0.0
  0
LINE
  8
0
  6
CONTINUOUS
 62
   250
 10
3.00036
 20
3.49448
 30
0.0
 11
2.99816
 21
3.49272
 31
0.0
  0
LINE
  8
0
  6
CONTINUOUS
 62
   250
 10
2.99816
 20
3.49272
 30
0.0
 11
2.99816
 21
3.48832
 31
0.0
  0
LINE
  8
0
  6
CONTINUOUS
 62
   250
 10
2.99816
 20
3.48832
 30
0.0
 11
3.00652
 21
3.48832
 31
0.0
  0
LINE
  8
0
  6
CONTINUOUS
 62
   250
 10
3.01092
 20
3.49052
 30
0.0
 11
3.01268
 21
3.48832
 31
0.0
  0
LINE
  8
0
  6
CONTINUOUS
 62
   250
 10
3.01268
 20
3.48832
 30
0.0
 11
3.01708
 21
3.48832
 31
0.0
  0
LINE
  8
0
  6
CONTINUOUS
 62
   250
 10
2.9942
 20
3.49052
 30
0.0
 11
2.992
 21
3.48832
 31
0.0
  0
LINE
  8
0
  6
CONTINUOUS
 62
   250
 10
2.992
 20
3.48832
 30
0.0
 11
2.9898
 21
3.48832
 31
0.0
  0
LINE
  8
0
  6
CONTINUOUS
 62
   250
 10
2.9898
 20
3.48832
 30
0.0
 11
2.9876
 21
3.49052
 31
0.0
  0
LINE
  8
0
  6
CONTINUOUS
 62
   250
 10
2.9876
 20
3.49052
 30
0.0
 11
2.9876
 21
3.49888
 31
0.0
  0
LINE
  8
0
  6
CONTINUOUS
 62
   250
 10
2.9876
 20
3.49888
 30
0.0
 11
2.9898
 21
3.50108
 31
0.0
  0
LINE
  8
0
  6
CONTINUOUS
 62
   250
 10
2.9898
 20
3.50108
 30
0.0
 11
2.992
 21
3.50108
 31
0.0
  0
LINE
  8
0
  6
CONTINUOUS
 62
   250
 10
2.992
 20
3.50108
 30
0.0
 11
2.9942
 21
3.49888
 31
0.0
  0
LINE
  8
0
  6
CONTINUOUS
 62
   250
 10
2.9942
 20
3.49888
 30
0.0
 11
2.9942
 21
3.49052
 31
0.0
  0
LINE
  8
0
  6
CONTINUOUS
 62
   250
 10
2.99816
 20
3.49888
 30
0.0
 11
3.00036
 21
3.50108
 31
0.0
  0
LINE
  8
0
  6
CONTINUOUS
 62
   250
 10
3.00036
 20
3.50108
 30
0.0
 11
3.00476
 21
3.50108
 31
0.0
  0
LINE
  8
0
  6
CONTINUOUS
 62
   250
 10
2.98144
 20
3.50108
 30
0.0
 11
2.98144
 21
3.48832
 31
0.0
  0
LINE
  8
0
  6
CONTINUOUS
 62
   250
 10
2.98144
 20
3.48832
 30
0.0
 11
2.97924
 21
3.48832
 31
0.0
  0
LINE
  8
0
  6
CONTINUOUS
 62
   250
 10
2.97924
 20
3.48832
 30
0.0
 11
2.9832
 21
3.48832
 31
0.0
  0
LINE
  8
0
  6
CONTINUOUS
 62
   250
 10
2.97924
 20
3.49888
 30
0.0
 11
2.98144
 21
3.50108
 31
0.0
  0
LINE
  8
0
  6
CONTINUOUS
 62
   250
 10
2.96252
 20
3.50108
 30
0.0
 11
2.95416
 21
3.48832
 31
0.0
  0
LINE
  8
0
  6
CONTINUOUS
 62
   250
 10
2.95416
 20
3.48832
 30
0.0
 11
2.96252
 21
3.48832
 31
0.0
  0
LINE
  8
0
  6
CONTINUOUS
 62
   250
 10
2.96252
 20
3.50108
 30
0.0
 11
2.95416
 21
3.50108
 31
0.0
  0
LINE
  8
0
  6
CONTINUOUS
 62
   250
 10
2.94756
 20
3.50108
 30
0.0
 11
2.94976
 21
3.49888
 31
0.0
  0
LINE
  8
0
  6
CONTINUOUS
 62
   250
 10
2.94756
 20
3.50108
 30
0.0
 11
2.9436
 21
3.50108
 31
0.0
  0
LINE
  8
0
  6
CONTINUOUS
 62
   250
 10
2.9436
 20
3.50108
 30
0.0
 11
2.9414
 21
3.49888
 31
0.0
  0
LINE
  8
0
  6
CONTINUOUS
 62
   250
 10
2.9414
 20
3.49888
 30
0.0
 11
2.94976
 21
3.49052
 31
0.0
  0
LINE
  8
0
  6
CONTINUOUS
 62
   250
 10
2.94976
 20
3.49052
 30
0.0
 11
2.94756
 21
3.48832
 31
0.0
  0
LINE
  8
0
  6
CONTINUOUS
 62
   250
 10
2.94756
 20
3.48832
 30
0.0
 11
2.9436
 21
3.48832
 31
0.0
  0
LINE
  8
0
  6
CONTINUOUS
 62
   250
 10
2.9436
 20
3.48832
 30
0.0
 11
2.9414
 21
3.49052
 31
0.0
  0
LINE
  8
0
  6
CONTINUOUS
 62
   250
 10
2.9414
 20
3.46324
 30
0.0
 11
2.94756
 21
3.45048
 31
0.0
  0
LINE
  8
0
  6
CONTINUOUS
 62
   250
 10
2.94756
 20
3.45048
 30
0.0
 11
2.95416
 21
3.46324
 31
0.0
  0
LINE
  8
0
  6
CONTINUOUS
 62
   250
 10
2.96252
 20
3.46324
 30
0.0
 11
2.96648
 21
3.45488
 31
0.0
  0
LINE
  8
0
  6
CONTINUOUS
 62
   250
 10
2.96648
 20
3.45488
 30
0.0
 11
2.96648
 21
3.45048
 31
0.0
  0
LINE
  8
0
  6
CONTINUOUS
 62
   250
 10
2.96648
 20
3.45488
 30
0.0
 11
2.95812
 21
3.45488
 31
0.0
  0
LINE
  8
0
  6
CONTINUOUS
 62
   250
 10
2.95812
 20
3.45488
 30
0.0
 11
2.96252
 21
3.46324
 31
0.0
  0
LINE
  8
0
  6
CONTINUOUS
 62
   250
 10
2.97088
 20
3.46324
 30
0.0
 11
2.97704
 21
3.45048
 31
0.0
  0
LINE
  8
0
  6
CONTINUOUS
 62
   250
 10
2.97704
 20
3.45048
 30
0.0
 11
2.9832
 21
3.46324
 31
0.0
  0
LINE
  8
0
  6
CONTINUOUS
 62
   250
 10
3.00212
 20
3.45048
 30
0.0
 11
3.00652
 21
3.45048
 31
0.0
  0
LINE
  8
0
  6
CONTINUOUS
 62
   250
 10
3.00652
 20
3.45048
 30
0.0
 11
3.00872
 21
3.45268
 31
0.0
  0
LINE
  8
0
  6
CONTINUOUS
 62
   250
 10
2.95812
 20
3.45048
 30
0.0
 11
2.95812
 21
3.45488
 31
0.0
  0
LINE
  8
0
  6
CONTINUOUS
 62
   250
 10
3.39944
 20
3.25512
 30
0.0
 11
3.4056
 21
3.25512
 31
0.0
  0
LINE
  8
0
  6
CONTINUOUS
 62
   250
 10
3.4056
 20
3.25512
 30
0.0
 11
3.4078
 21
3.25292
 31
0.0
  0
LINE
  8
0
  6
CONTINUOUS
 62
   250
 10
3.4078
 20
3.25292
 30
0.0
 11
3.4078
 21
3.245
 31
0.0
  0
LINE
  8
0
  6
CONTINUOUS
 62
   250
 10
3.4078
 20
3.245
 30
0.0
 11
3.4056
 21
3.24236
 31
0.0
  0
LINE
  8
0
  6
CONTINUOUS
 62
   250
 10
3.4056
 20
3.24236
 30
0.0
 11
3.39944
 21
3.24236
 31
0.0
  0
LINE
  8
0
  6
CONTINUOUS
 62
   250
 10
3.39944
 20
3.24236
 30
0.0
 11
3.4012
 21
3.24236
 31
0.0
  0
LINE
  8
0
  6
CONTINUOUS
 62
   250
 10
3.4012
 20
3.24236
 30
0.0
 11
3.4012
 21
3.25512
 31
0.0
  0
LINE
  8
0
  6
CONTINUOUS
 62
   250
 10
3.41616
 20
3.25512
 30
0.0
 11
3.42012
 21
3.24676
 31
0.0
  0
LINE
  8
0
  6
CONTINUOUS
 62
   250
 10
3.42012
 20
3.24676
 30
0.0
 11
3.42012
 21
3.24236
 31
0.0
  0
LINE
  8
0
  6
CONTINUOUS
 62
   250
 10
3.42452
 20
3.24236
 30
0.0
 11
3.42452
 21
3.25512
 31
0.0
  0
LINE
  8
0
  6
CONTINUOUS
 62
   250
 10
3.42452
 20
3.25512
 30
0.0
 11
3.42892
 21
3.24676
 31
0.0
  0
LINE
  8
0
  6
CONTINUOUS
 62
   250
 10
3.42892
 20
3.24676
 30
0.0
 11
3.43288
 21
3.25512
 31
0.0
  0
LINE
  8
0
  6
CONTINUOUS
 62
   250
 10
3.43288
 20
3.25512
 30
0.0
 11
3.43288
 21
3.24236
 31
0.0
  0
LINE
  8
0
  6
CONTINUOUS
 62
   250
 10
3.43728
 20
3.24236
 30
0.0
 11
3.43728
 21
3.25512
 31
0.0
  0
LINE
  8
0
  6
CONTINUOUS
 62
   250
 10
3.43728
 20
3.25512
 30
0.0
 11
3.44344
 21
3.25512
 31
0.0
  0
LINE
  8
0
  6
CONTINUOUS
 62
   250
 10
3.44344
 20
3.25512
 30
0.0
 11
3.44564
 21
3.25292
 31
0.0
  0
LINE
  8
0
  6
CONTINUOUS
 62
   250
 10
3.44564
 20
3.25292
 30
0.0
 11
3.44564
 21
3.25072
 31
0.0
  0
LINE
  8
0
  6
CONTINUOUS
 62
   250
 10
3.44564
 20
3.25072
 30
0.0
 11
3.44344
 21
3.24896
 31
0.0
  0
LINE
  8
0
  6
CONTINUOUS
 62
   250
 10
3.44344
 20
3.24896
 30
0.0
 11
3.43728
 21
3.24896
 31
0.0
  0
LINE
  8
0
  6
CONTINUOUS
 62
   250
 10
3.4496
 20
3.24896
 30
0.0
 11
3.454
 21
3.24896
 31
0.0
  0
LINE
  8
0
  6
CONTINUOUS
 62
   250
 10
3.46236
 20
3.24896
 30
0.0
 11
3.46852
 21
3.24896
 31
0.0
  0
LINE
  8
0
  6
CONTINUOUS
 62
   250
 10
3.46852
 20
3.24896
 30
0.0
 11
3.47072
 21
3.25072
 31
0.0
  0
LINE
  8
0
  6
CONTINUOUS
 62
   250
 10
3.47072
 20
3.25072
 30
0.0
 11
3.47072
 21
3.25292
 31
0.0
  0
LINE
  8
0
  6
CONTINUOUS
 62
   250
 10
3.47072
 20
3.25292
 30
0.0
 11
3.46852
 21
3.25512
 31
0.0
  0
LINE
  8
0
  6
CONTINUOUS
 62
   250
 10
3.46852
 20
3.25512
 30
0.0
 11
3.46236
 21
3.25512
 31
0.0
  0
LINE
  8
0
  6
CONTINUOUS
 62
   250
 10
3.46236
 20
3.25512
 30
0.0
 11
3.46236
 21
3.24236
 31
0.0
  0
LINE
  8
0
  6
CONTINUOUS
 62
   250
 10
3.4584
 20
3.24236
 30
0.0
 11
3.4496
 21
3.24236
 31
0.0
  0
LINE
  8
0
  6
CONTINUOUS
 62
   250
 10
3.4496
 20
3.24236
 30
0.0
 11
3.4496
 21
3.25512
 31
0.0
  0
LINE
  8
0
  6
CONTINUOUS
 62
   250
 10
3.4496
 20
3.25512
 30
0.0
 11
3.4584
 21
3.25512
 31
0.0
  0
LINE
  8
0
  6
CONTINUOUS
 62
   250
 10
3.46456
 20
3.24896
 30
0.0
 11
3.47072
 21
3.24236
 31
0.0
  0
LINE
  8
0
  6
CONTINUOUS
 62
   250
 10
3.47072
 20
3.20452
 30
0.0
 11
3.46236
 21
3.20452
 31
0.0
  0
LINE
  8
0
  6
CONTINUOUS
 62
   250
 10
3.46236
 20
3.20452
 30
0.0
 11
3.46236
 21
3.1922
 31
0.0
  0
LINE
  8
0
  6
CONTINUOUS
 62
   250
 10
3.46236
 20
3.1922
 30
0.0
 11
3.47072
 21
3.1922
 31
0.0
  0
LINE
  8
0
  6
CONTINUOUS
 62
   250
 10
3.46676
 20
3.19836
 30
0.0
 11
3.46236
 21
3.19836
 31
0.0
  0
LINE
  8
0
  6
CONTINUOUS
 62
   250
 10
3.4584
 20
3.20452
 30
0.0
 11
3.4518
 21
3.1922
 31
0.0
  0
LINE
  8
0
  6
CONTINUOUS
 62
   250
 10
3.4518
 20
3.1922
 30
0.0
 11
3.44564
 21
3.20452
 31
0.0
  0
LINE
  8
0
  6
CONTINUOUS
 62
   250
 10
3.43288
 20
3.20452
 30
0.0
 11
3.43288
 21
3.1922
 31
0.0
  0
LINE
  8
0
  6
CONTINUOUS
 62
   250
 10
3.43288
 20
3.1922
 30
0.0
 11
3.44168
 21
3.1922
 31
0.0
  0
LINE
  8
0
  6
CONTINUOUS
 62
   250
 10
3.42892
 20
3.1922
 30
0.0
 11
3.42892
 21
3.1966
 31
0.0
  0
LINE
  8
0
  6
CONTINUOUS
 62
   250
 10
3.42892
 20
3.1966
 30
0.0
 11
3.42056
 21
3.1966
 31
0.0
  0
LINE
  8
0
  6
CONTINUOUS
 62
   250
 10
3.42056
 20
3.1966
 30
0.0
 11
3.42452
 21
3.20452
 31
0.0
  0
LINE
  8
0
  6
CONTINUOUS
 62
   250
 10
3.42452
 20
3.20452
 30
0.0
 11
3.42892
 21
3.1966
 31
0.0
  0
LINE
  8
0
  6
CONTINUOUS
 62
   250
 10
3.42056
 20
3.1966
 30
0.0
 11
3.42056
 21
3.1922
 31
0.0
  0
LINE
  8
0
  6
CONTINUOUS
 62
   250
 10
3.41
 20
3.1922
 30
0.0
 11
3.41616
 21
3.20452
 31
0.0
  0
LINE
  8
0
  6
CONTINUOUS
 62
   250
 10
3.40384
 20
3.20452
 30
0.0
 11
3.41
 21
3.1922
 31
0.0
  0
LINE
  8
0
  6
CONTINUOUS
 62
   250
 10
3.41176
 20
3.24236
 30
0.0
 11
3.41176
 21
3.24676
 31
0.0
  0
LINE
  8
0
  6
CONTINUOUS
 62
   250
 10
3.41176
 20
3.24676
 30
0.0
 11
3.41616
 21
3.25512
 31
0.0
  0
LINE
  8
0
  6
CONTINUOUS
 62
   250
 10
3.41176
 20
3.24676
 30
0.0
 11
3.42012
 21
3.24676
 31
0.0
  0
LINE
  8
0
  6
CONTINUOUS
 62
   250
 10
3.57148
 20
3.24676
 30
0.0
 11
3.57588
 21
3.25512
 31
0.0
  0
LINE
  8
0
  6
CONTINUOUS
 62
   250
 10
3.57588
 20
3.25512
 30
0.0
 11
3.58028
 21
3.24676
 31
0.0
  0
LINE
  8
0
  6
CONTINUOUS
 62
   250
 10
3.58028
 20
3.24676
 30
0.0
 11
3.58028
 21
3.24236
 31
0.0
  0
LINE
  8
0
  6
CONTINUOUS
 62
   250
 10
3.58424
 20
3.24236
 30
0.0
 11
3.58424
 21
3.25512
 31
0.0
  0
LINE
  8
0
  6
CONTINUOUS
 62
   250
 10
3.58424
 20
3.25512
 30
0.0
 11
3.5926
 21
3.25512
 31
0.0
  0
LINE
  8
0
  6
CONTINUOUS
 62
   250
 10
3.5926
 20
3.25512
 30
0.0
 11
3.5926
 21
3.24236
 31
0.0
  0
LINE
  8
0
  6
CONTINUOUS
 62
   250
 10
3.5926
 20
3.24236
 30
0.0
 11
3.58424
 21
3.24236
 31
0.0
  0
LINE
  8
0
  6
CONTINUOUS
 62
   250
 10
3.58028
 20
3.24676
 30
0.0
 11
3.57148
 21
3.24676
 31
0.0
  0
LINE
  8
0
  6
CONTINUOUS
 62
   250
 10
3.57148
 20
3.24676
 30
0.0
 11
3.57148
 21
3.24236
 31
0.0
  0
LINE
  8
0
  6
CONTINUOUS
 62
   250
 10
3.597
 20
3.24236
 30
0.0
 11
3.60096
 21
3.24236
 31
0.0
  0
LINE
  8
0
  6
CONTINUOUS
 62
   250
 10
3.60096
 20
3.24236
 30
0.0
 11
3.5992
 21
3.24236
 31
0.0
  0
LINE
  8
0
  6
CONTINUOUS
 62
   250
 10
3.5992
 20
3.24236
 30
0.0
 11
3.5992
 21
3.25512
 31
0.0
  0
LINE
  8
0
  6
CONTINUOUS
 62
   250
 10
3.5992
 20
3.25512
 30
0.0
 11
3.597
 21
3.25292
 31
0.0
  0
LINE
  8
0
  6
CONTINUOUS
 62
   250
 10
3.59744
 20
3.1966
 30
0.0
 11
3.59964
 21
3.19836
 31
0.0
  0
LINE
  8
0
  6
CONTINUOUS
 62
   250
 10
3.59964
 20
3.19836
 30
0.0
 11
3.6036
 21
3.19836
 31
0.0
  0
LINE
  8
0
  6
CONTINUOUS
 62
   250
 10
3.6036
 20
3.19836
 30
0.0
 11
3.6058
 21
3.1966
 31
0.0
  0
LINE
  8
0
  6
CONTINUOUS
 62
   250
 10
3.6058
 20
3.1966
 30
0.0
 11
3.6058
 21
3.1944
 31
0.0
  0
LINE
  8
0
  6
CONTINUOUS
 62
   250
 10
3.6058
 20
3.1944
 30
0.0
 11
3.6036
 21
3.1922
 31
0.0
  0
LINE
  8
0
  6
CONTINUOUS
 62
   250
 10
3.6036
 20
3.1922
 30
0.0
 11
3.59964
 21
3.1922
 31
0.0
  0
LINE
  8
0
  6
CONTINUOUS
 62
   250
 10
3.59964
 20
3.1922
 30
0.0
 11
3.59744
 21
3.19
 31
0.0
  0
LINE
  8
0
  6
CONTINUOUS
 62
   250
 10
3.59744
 20
3.19
 30
0.0
 11
3.59744
 21
3.18604
 31
0.0
  0
LINE
  8
0
  6
CONTINUOUS
 62
   250
 10
3.59744
 20
3.18604
 30
0.0
 11
3.6058
 21
3.18604
 31
0.0
  0
LINE
  8
0
  6
CONTINUOUS
 62
   250
 10
3.59304
 20
3.18604
 30
0.0
 11
3.58468
 21
3.18604
 31
0.0
  0
LINE
  8
0
  6
CONTINUOUS
 62
   250
 10
3.58468
 20
3.18604
 30
0.0
 11
3.58468
 21
3.19836
 31
0.0
  0
LINE
  8
0
  6
CONTINUOUS
 62
   250
 10
3.58468
 20
3.19836
 30
0.0
 11
3.59304
 21
3.19836
 31
0.0
  0
LINE
  8
0
  6
CONTINUOUS
 62
   250
 10
3.59304
 20
3.19836
 30
0.0
 11
3.59304
 21
3.18604
 31
0.0
  0
LINE
  8
0
  6
CONTINUOUS
 62
   250
 10
3.58072
 20
3.18604
 30
0.0
 11
3.58072
 21
3.19
 31
0.0
  0
LINE
  8
0
  6
CONTINUOUS
 62
   250
 10
3.58072
 20
3.19
 30
0.0
 11
3.57192
 21
3.19
 31
0.0
  0
LINE
  8
0
  6
CONTINUOUS
 62
   250
 10
3.57192
 20
3.19
 30
0.0
 11
3.57632
 21
3.19836
 31
0.0
  0
LINE
  8
0
  6
CONTINUOUS
 62
   250
 10
3.57632
 20
3.19836
 30
0.0
 11
3.58072
 21
3.19
 31
0.0
  0
LINE
  8
0
  6
CONTINUOUS
 62
   250
 10
3.57192
 20
3.19
 30
0.0
 11
3.57192
 21
3.18604
 31
0.0
  0
LINE
  8
0
  6
CONTINUOUS
 62
   250
 10
3.57368
 20
3.1416
 30
0.0
 11
3.58028
 21
3.1416
 31
0.0
  0
LINE
  8
0
  6
CONTINUOUS
 62
   250
 10
3.58424
 20
3.1416
 30
0.0
 11
3.5926
 21
3.12928
 31
0.0
  0
LINE
  8
0
  6
CONTINUOUS
 62
   250
 10
3.5926
 20
3.12928
 30
0.0
 11
3.5926
 21
3.1416
 31
0.0
  0
LINE
  8
0
  6
CONTINUOUS
 62
   250
 10
3.597
 20
3.1416
 30
0.0
 11
3.60316
 21
3.1416
 31
0.0
  0
LINE
  8
0
  6
CONTINUOUS
 62
   250
 10
3.60316
 20
3.1416
 30
0.0
 11
3.60536
 21
3.13984
 31
0.0
  0
LINE
  8
0
  6
CONTINUOUS
 62
   250
 10
3.60536
 20
3.13984
 30
0.0
 11
3.60536
 21
3.13104
 31
0.0
  0
LINE
  8
0
  6
CONTINUOUS
 62
   250
 10
3.60536
 20
3.13104
 30
0.0
 11
3.60316
 21
3.12928
 31
0.0
  0
LINE
  8
0
  6
CONTINUOUS
 62
   250
 10
3.60316
 20
3.12928
 30
0.0
 11
3.597
 21
3.12928
 31
0.0
  0
LINE
  8
0
  6
CONTINUOUS
 62
   250
 10
3.597
 20
3.12928
 30
0.0
 11
3.5992
 21
3.12928
 31
0.0
  0
LINE
  8
0
  6
CONTINUOUS
 62
   250
 10
3.5992
 20
3.12928
 30
0.0
 11
3.5992
 21
3.1416
 31
0.0
  0
LINE
  8
0
  6
CONTINUOUS
 62
   250
 10
3.58424
 20
3.1416
 30
0.0
 11
3.58424
 21
3.12928
 31
0.0
  0
LINE
  8
0
  6
CONTINUOUS
 62
   250
 10
3.58028
 20
3.12928
 30
0.0
 11
3.57368
 21
3.12928
 31
0.0
  0
LINE
  8
0
  6
CONTINUOUS
 62
   250
 10
3.57368
 20
3.12928
 30
0.0
 11
3.57148
 21
3.13104
 31
0.0
  0
LINE
  8
0
  6
CONTINUOUS
 62
   250
 10
3.57148
 20
3.13104
 30
0.0
 11
3.57148
 21
3.13984
 31
0.0
  0
LINE
  8
0
  6
CONTINUOUS
 62
   250
 10
3.57148
 20
3.13984
 30
0.0
 11
3.57368
 21
3.1416
 31
0.0
  0
LINE
  8
0
  6
CONTINUOUS
 62
   250
 10
3.57808
 20
3.13544
 30
0.0
 11
3.58028
 21
3.13544
 31
0.0
  0
LINE
  8
0
  6
CONTINUOUS
 62
   250
 10
3.58028
 20
3.13544
 30
0.0
 11
3.58028
 21
3.12928
 31
0.0
  0
LINE
  8
0
  6
CONTINUOUS
 62
   250
 10
3.58028
 20
3.07252
 30
0.0
 11
3.58028
 21
3.05976
 31
0.0
  0
LINE
  8
0
  6
CONTINUOUS
 62
   250
 10
3.58424
 20
3.06196
 30
0.0
 11
3.58644
 21
3.05976
 31
0.0
  0
LINE
  8
0
  6
CONTINUOUS
 62
   250
 10
3.58644
 20
3.05976
 30
0.0
 11
3.5904
 21
3.05976
 31
0.0
  0
LINE
  8
0
  6
CONTINUOUS
 62
   250
 10
3.5904
 20
3.05976
 30
0.0
 11
3.5926
 21
3.06196
 31
0.0
  0
LINE
  8
0
  6
CONTINUOUS
 62
   250
 10
3.5926
 20
3.06196
 30
0.0
 11
3.5926
 21
3.06592
 31
0.0
  0
LINE
  8
0
  6
CONTINUOUS
 62
   250
 10
3.5926
 20
3.06592
 30
0.0
 11
3.5904
 21
3.06812
 31
0.0
  0
LINE
  8
0
  6
CONTINUOUS
 62
   250
 10
3.5904
 20
3.06812
 30
0.0
 11
3.58424
 21
3.06812
 31
0.0
  0
LINE
  8
0
  6
CONTINUOUS
 62
   250
 10
3.58424
 20
3.06812
 30
0.0
 11
3.58424
 21
3.07252
 31
0.0
  0
LINE
  8
0
  6
CONTINUOUS
 62
   250
 10
3.58424
 20
3.07252
 30
0.0
 11
3.5926
 21
3.07252
 31
0.0
  0
LINE
  8
0
  6
CONTINUOUS
 62
   250
 10
3.58028
 20
3.07252
 30
0.0
 11
3.57588
 21
3.06416
 31
0.0
  0
LINE
  8
0
  6
CONTINUOUS
 62
   250
 10
3.57588
 20
3.06416
 30
0.0
 11
3.57148
 21
3.07252
 31
0.0
  0
LINE
  8
0
  6
CONTINUOUS
 62
   250
 10
3.57148
 20
3.07252
 30
0.0
 11
3.57148
 21
3.05976
 31
0.0
  0
LINE
  8
0
  6
CONTINUOUS
 62
   250
 10
3.57148
 20
2.959
 30
0.0
 11
3.57588
 21
2.95064
 31
0.0
  0
LINE
  8
0
  6
CONTINUOUS
 62
   250
 10
3.57588
 20
2.95064
 30
0.0
 11
3.58028
 21
2.959
 31
0.0
  0
LINE
  8
0
  6
CONTINUOUS
 62
   250
 10
3.58028
 20
2.959
 30
0.0
 11
3.58028
 21
2.94624
 31
0.0
  0
LINE
  8
0
  6
CONTINUOUS
 62
   250
 10
3.58644
 20
2.94624
 30
0.0
 11
3.58424
 21
2.94844
 31
0.0
  0
LINE
  8
0
  6
CONTINUOUS
 62
   250
 10
3.58424
 20
2.94844
 30
0.0
 11
3.58424
 21
2.9546
 31
0.0
  0
LINE
  8
0
  6
CONTINUOUS
 62
   250
 10
3.58424
 20
2.9546
 30
0.0
 11
3.58864
 21
2.959
 31
0.0
  0
LINE
  8
0
  6
CONTINUOUS
 62
   250
 10
3.58864
 20
2.959
 30
0.0
 11
3.5904
 21
2.959
 31
0.0
  0
LINE
  8
0
  6
CONTINUOUS
 62
   250
 10
3.5904
 20
2.9524
 30
0.0
 11
3.5926
 21
2.95064
 31
0.0
  0
LINE
  8
0
  6
CONTINUOUS
 62
   250
 10
3.5926
 20
2.95064
 30
0.0
 11
3.5926
 21
2.94844
 31
0.0
  0
LINE
  8
0
  6
CONTINUOUS
 62
   250
 10
3.5926
 20
2.94844
 30
0.0
 11
3.5904
 21
2.94624
 31
0.0
  0
LINE
  8
0
  6
CONTINUOUS
 62
   250
 10
3.5904
 20
2.94624
 30
0.0
 11
3.58644
 21
2.94624
 31
0.0
  0
LINE
  8
0
  6
CONTINUOUS
 62
   250
 10
3.58424
 20
2.9524
 30
0.0
 11
3.5904
 21
2.9524
 31
0.0
  0
LINE
  8
0
  6
CONTINUOUS
 62
   250
 10
3.57148
 20
2.94624
 30
0.0
 11
3.57148
 21
2.959
 31
0.0
  0
LINE
  8
0
  6
CONTINUOUS
 62
   250
 10
3.46852
 20
2.959
 30
0.0
 11
3.47072
 21
2.9568
 31
0.0
  0
LINE
  8
0
  6
CONTINUOUS
 62
   250
 10
3.47072
 20
2.9568
 30
0.0
 11
3.47072
 21
2.9546
 31
0.0
  0
LINE
  8
0
  6
CONTINUOUS
 62
   250
 10
3.47072
 20
2.9546
 30
0.0
 11
3.46852
 21
2.9524
 31
0.0
  0
LINE
  8
0
  6
CONTINUOUS
 62
   250
 10
3.46852
 20
2.9524
 30
0.0
 11
3.46456
 21
2.9524
 31
0.0
  0
LINE
  8
0
  6
CONTINUOUS
 62
   250
 10
3.46456
 20
2.9524
 30
0.0
 11
3.46236
 21
2.95064
 31
0.0
  0
LINE
  8
0
  6
CONTINUOUS
 62
   250
 10
3.46236
 20
2.95064
 30
0.0
 11
3.46236
 21
2.94624
 31
0.0
  0
LINE
  8
0
  6
CONTINUOUS
 62
   250
 10
3.46236
 20
2.94624
 30
0.0
 11
3.47072
 21
2.94624
 31
0.0
  0
LINE
  8
0
  6
CONTINUOUS
 62
   250
 10
3.4584
 20
2.94624
 30
0.0
 11
3.4496
 21
2.94624
 31
0.0
  0
LINE
  8
0
  6
CONTINUOUS
 62
   250
 10
3.4496
 20
2.94624
 30
0.0
 11
3.4496
 21
2.959
 31
0.0
  0
LINE
  8
0
  6
CONTINUOUS
 62
   250
 10
3.4496
 20
2.959
 30
0.0
 11
3.4584
 21
2.959
 31
0.0
  0
LINE
  8
0
  6
CONTINUOUS
 62
   250
 10
3.4584
 20
2.959
 30
0.0
 11
3.4584
 21
2.94624
 31
0.0
  0
LINE
  8
0
  6
CONTINUOUS
 62
   250
 10
3.44344
 20
2.94624
 30
0.0
 11
3.44564
 21
2.94844
 31
0.0
  0
LINE
  8
0
  6
CONTINUOUS
 62
   250
 10
3.44564
 20
2.94844
 30
0.0
 11
3.44564
 21
2.9568
 31
0.0
  0
LINE
  8
0
  6
CONTINUOUS
 62
   250
 10
3.44564
 20
2.9568
 30
0.0
 11
3.44344
 21
2.959
 31
0.0
  0
LINE
  8
0
  6
CONTINUOUS
 62
   250
 10
3.44344
 20
2.959
 30
0.0
 11
3.43728
 21
2.959
 31
0.0
  0
LINE
  8
0
  6
CONTINUOUS
 62
   250
 10
3.43728
 20
2.959
 30
0.0
 11
3.43948
 21
2.959
 31
0.0
  0
LINE
  8
0
  6
CONTINUOUS
 62
   250
 10
3.43948
 20
2.959
 30
0.0
 11
3.43948
 21
2.94624
 31
0.0
  0
LINE
  8
0
  6
CONTINUOUS
 62
   250
 10
3.43948
 20
2.94624
 30
0.0
 11
3.43728
 21
2.94624
 31
0.0
  0
LINE
  8
0
  6
CONTINUOUS
 62
   250
 10
3.43728
 20
2.94624
 30
0.0
 11
3.44344
 21
2.94624
 31
0.0
  0
LINE
  8
0
  6
CONTINUOUS
 62
   250
 10
3.46236
 20
2.9568
 30
0.0
 11
3.46456
 21
2.959
 31
0.0
  0
LINE
  8
0
  6
CONTINUOUS
 62
   250
 10
3.46456
 20
2.959
 30
0.0
 11
3.46852
 21
2.959
 31
0.0
  0
LINE
  8
0
  6
CONTINUOUS
 62
   250
 10
3.47072
 20
3.003
 30
0.0
 11
3.47072
 21
3.01576
 31
0.0
  0
LINE
  8
0
  6
CONTINUOUS
 62
   250
 10
3.47072
 20
3.01576
 30
0.0
 11
3.46676
 21
3.0074
 31
0.0
  0
LINE
  8
0
  6
CONTINUOUS
 62
   250
 10
3.46676
 20
3.0074
 30
0.0
 11
3.46236
 21
3.01576
 31
0.0
  0
LINE
  8
0
  6
CONTINUOUS
 62
   250
 10
3.46236
 20
3.01576
 30
0.0
 11
3.46236
 21
3.003
 31
0.0
  0
LINE
  8
0
  6
CONTINUOUS
 62
   250
 10
3.4584
 20
3.003
 30
0.0
 11
3.4496
 21
3.003
 31
0.0
  0
LINE
  8
0
  6
CONTINUOUS
 62
   250
 10
3.4496
 20
3.003
 30
0.0
 11
3.4496
 21
3.01576
 31
0.0
  0
LINE
  8
0
  6
CONTINUOUS
 62
   250
 10
3.4496
 20
3.01576
 30
0.0
 11
3.4584
 21
3.01576
 31
0.0
  0
LINE
  8
0
  6
CONTINUOUS
 62
   250
 10
3.4584
 20
3.01576
 30
0.0
 11
3.4584
 21
3.003
 31
0.0
  0
LINE
  8
0
  6
CONTINUOUS
 62
   250
 10
3.44564
 20
3.0052
 30
0.0
 11
3.44344
 21
3.003
 31
0.0
  0
LINE
  8
0
  6
CONTINUOUS
 62
   250
 10
3.44344
 20
3.003
 30
0.0
 11
3.43948
 21
3.003
 31
0.0
  0
LINE
  8
0
  6
CONTINUOUS
 62
   250
 10
3.43948
 20
3.003
 30
0.0
 11
3.43728
 21
3.0052
 31
0.0
  0
LINE
  8
0
  6
CONTINUOUS
 62
   250
 10
3.43728
 20
3.0052
 30
0.0
 11
3.43728
 21
3.01356
 31
0.0
  0
LINE
  8
0
  6
CONTINUOUS
 62
   250
 10
3.43728
 20
3.01356
 30
0.0
 11
3.43948
 21
3.01576
 31
0.0
  0
LINE
  8
0
  6
CONTINUOUS
 62
   250
 10
3.43948
 20
3.01576
 30
0.0
 11
3.44344
 21
3.01576
 31
0.0
  0
LINE
  8
0
  6
CONTINUOUS
 62
   250
 10
3.44344
 20
3.01576
 30
0.0
 11
3.44564
 21
3.01356
 31
0.0
  0
LINE
  8
0
  6
CONTINUOUS
 62
   250
 10
3.44784
 20
3.05976
 30
0.0
 11
3.4496
 21
3.06196
 31
0.0
  0
LINE
  8
0
  6
CONTINUOUS
 62
   250
 10
3.4496
 20
3.06196
 30
0.0
 11
3.4496
 21
3.07032
 31
0.0
  0
LINE
  8
0
  6
CONTINUOUS
 62
   250
 10
3.4496
 20
3.07032
 30
0.0
 11
3.44784
 21
3.07252
 31
0.0
  0
LINE
  8
0
  6
CONTINUOUS
 62
   250
 10
3.44784
 20
3.07252
 30
0.0
 11
3.44124
 21
3.07252
 31
0.0
  0
LINE
  8
0
  6
CONTINUOUS
 62
   250
 10
3.44124
 20
3.07252
 30
0.0
 11
3.44344
 21
3.07252
 31
0.0
  0
LINE
  8
0
  6
CONTINUOUS
 62
   250
 10
3.44344
 20
3.07252
 30
0.0
 11
3.44344
 21
3.05976
 31
0.0
  0
LINE
  8
0
  6
CONTINUOUS
 62
   250
 10
3.44344
 20
3.05976
 30
0.0
 11
3.44124
 21
3.05976
 31
0.0
  0
LINE
  8
0
  6
CONTINUOUS
 62
   250
 10
3.44124
 20
3.05976
 30
0.0
 11
3.44784
 21
3.05976
 31
0.0
  0
LINE
  8
0
  6
CONTINUOUS
 62
   250
 10
3.454
 20
3.05976
 30
0.0
 11
3.454
 21
3.07252
 31
0.0
  0
LINE
  8
0
  6
CONTINUOUS
 62
   250
 10
3.454
 20
3.07252
 30
0.0
 11
3.46236
 21
3.07252
 31
0.0
  0
LINE
  8
0
  6
CONTINUOUS
 62
   250
 10
3.46236
 20
3.07252
 30
0.0
 11
3.46236
 21
3.05976
 31
0.0
  0
LINE
  8
0
  6
CONTINUOUS
 62
   250
 10
3.46236
 20
3.05976
 30
0.0
 11
3.454
 21
3.05976
 31
0.0
  0
LINE
  8
0
  6
CONTINUOUS
 62
   250
 10
3.46676
 20
3.05976
 30
0.0
 11
3.47072
 21
3.05976
 31
0.0
  0
LINE
  8
0
  6
CONTINUOUS
 62
   250
 10
3.47072
 20
3.05976
 30
0.0
 11
3.46852
 21
3.05976
 31
0.0
  0
LINE
  8
0
  6
CONTINUOUS
 62
   250
 10
3.46852
 20
3.05976
 30
0.0
 11
3.46852
 21
3.07252
 31
0.0
  0
LINE
  8
0
  6
CONTINUOUS
 62
   250
 10
3.46852
 20
3.07252
 30
0.0
 11
3.46676
 21
3.07032
 31
0.0
  0
LINE
  8
0
  6
CONTINUOUS
 62
   250
 10
3.46676
 20
2.8864
 30
0.0
 11
3.47072
 21
2.87804
 31
0.0
  0
LINE
  8
0
  6
CONTINUOUS
 62
   250
 10
3.47072
 20
2.87804
 30
0.0
 11
3.47072
 21
2.87408
 31
0.0
  0
LINE
  8
0
  6
CONTINUOUS
 62
   250
 10
3.47072
 20
2.87804
 30
0.0
 11
3.46236
 21
2.87804
 31
0.0
  0
LINE
  8
0
  6
CONTINUOUS
 62
   250
 10
3.46236
 20
2.87804
 30
0.0
 11
3.46676
 21
2.8864
 31
0.0
  0
LINE
  8
0
  6
CONTINUOUS
 62
   250
 10
3.46236
 20
2.87804
 30
0.0
 11
3.46236
 21
2.87408
 31
0.0
  0
LINE
  8
0
  6
CONTINUOUS
 62
   250
 10
3.46456
 20
2.83624
 30
0.0
 11
3.46852
 21
2.83624
 31
0.0
  0
LINE
  8
0
  6
CONTINUOUS
 62
   250
 10
3.46852
 20
2.83624
 30
0.0
 11
3.47072
 21
2.838
 31
0.0
  0
LINE
  8
0
  6
CONTINUOUS
 62
   250
 10
3.47072
 20
2.838
 30
0.0
 11
3.47072
 21
2.8402
 31
0.0
  0
LINE
  8
0
  6
CONTINUOUS
 62
   250
 10
3.47072
 20
2.8402
 30
0.0
 11
3.46852
 21
2.8424
 31
0.0
  0
LINE
  8
0
  6
CONTINUOUS
 62
   250
 10
3.46852
 20
2.8424
 30
0.0
 11
3.46236
 21
2.8424
 31
0.0
  0
LINE
  8
0
  6
CONTINUOUS
 62
   250
 10
3.46236
 20
2.8424
 30
0.0
 11
3.46456
 21
2.8424
 31
0.0
  0
LINE
  8
0
  6
CONTINUOUS
 62
   250
 10
3.46456
 20
2.8424
 30
0.0
 11
3.46456
 21
2.82964
 31
0.0
  0
LINE
  8
0
  6
CONTINUOUS
 62
   250
 10
3.46456
 20
2.82964
 30
0.0
 11
3.46236
 21
2.82964
 31
0.0
  0
LINE
  8
0
  6
CONTINUOUS
 62
   250
 10
3.46236
 20
2.82964
 30
0.0
 11
3.46852
 21
2.82964
 31
0.0
  0
LINE
  8
0
  6
CONTINUOUS
 62
   250
 10
3.46852
 20
2.82964
 30
0.0
 11
3.47072
 21
2.83184
 31
0.0
  0
LINE
  8
0
  6
CONTINUOUS
 62
   250
 10
3.47072
 20
2.83184
 30
0.0
 11
3.47072
 21
2.83404
 31
0.0
  0
LINE
  8
0
  6
CONTINUOUS
 62
   250
 10
3.47072
 20
2.83404
 30
0.0
 11
3.46852
 21
2.83624
 31
0.0
  0
LINE
  8
0
  6
CONTINUOUS
 62
   250
 10
3.46456
 20
2.78872
 30
0.0
 11
3.46236
 21
2.78256
 31
0.0
  0
LINE
  8
0
  6
CONTINUOUS
 62
   250
 10
3.46236
 20
2.78256
 30
0.0
 11
3.4584
 21
2.79488
 31
0.0
  0
LINE
  8
0
  6
CONTINUOUS
 62
   250
 10
3.454
 20
2.79488
 30
0.0
 11
3.454
 21
2.78256
 31
0.0
  0
LINE
  8
0
  6
CONTINUOUS
 62
   250
 10
3.454
 20
2.78256
 30
0.0
 11
3.44564
 21
2.79488
 31
0.0
  0
LINE
  8
0
  6
CONTINUOUS
 62
   250
 10
3.44564
 20
2.79488
 30
0.0
 11
3.44564
 21
2.78256
 31
0.0
  0
LINE
  8
0
  6
CONTINUOUS
 62
   250
 10
3.46676
 20
2.78256
 30
0.0
 11
3.47072
 21
2.79488
 31
0.0
  0
LINE
  8
0
  6
CONTINUOUS
 62
   250
 10
3.46456
 20
2.78872
 30
0.0
 11
3.46676
 21
2.78256
 31
0.0
  0
LINE
  8
0
  6
CONTINUOUS
 62
   250
 10
3.35764
 20
2.78256
 30
0.0
 11
3.35104
 21
2.78872
 31
0.0
  0
LINE
  8
0
  6
CONTINUOUS
 62
   250
 10
3.35104
 20
2.78872
 30
0.0
 11
3.34884
 21
2.78872
 31
0.0
  0
LINE
  8
0
  6
CONTINUOUS
 62
   250
 10
3.34884
 20
2.78872
 30
0.0
 11
3.35104
 21
2.78872
 31
0.0
  0
LINE
  8
0
  6
CONTINUOUS
 62
   250
 10
3.35104
 20
2.78872
 30
0.0
 11
3.35764
 21
2.79488
 31
0.0
  0
LINE
  8
0
  6
CONTINUOUS
 62
   250
 10
3.35764
 20
2.80148
 30
0.0
 11
3.35104
 21
2.80764
 31
0.0
  0
LINE
  8
0
  6
CONTINUOUS
 62
   250
 10
3.35104
 20
2.80764
 30
0.0
 11
3.34884
 21
2.80764
 31
0.0
  0
LINE
  8
0
  6
CONTINUOUS
 62
   250
 10
3.34884
 20
2.80764
 30
0.0
 11
3.35104
 21
2.80764
 31
0.0
  0
LINE
  8
0
  6
CONTINUOUS
 62
   250
 10
3.35104
 20
2.80764
 30
0.0
 11
3.35764
 21
2.8138
 31
0.0
  0
LINE
  8
0
  6
CONTINUOUS
 62
   250
 10
3.35764
 20
2.8204
 30
0.0
 11
3.35104
 21
2.82656
 31
0.0
  0
LINE
  8
0
  6
CONTINUOUS
 62
   250
 10
3.35104
 20
2.82656
 30
0.0
 11
3.34884
 21
2.82656
 31
0.0
  0
LINE
  8
0
  6
CONTINUOUS
 62
   250
 10
3.34884
 20
2.82656
 30
0.0
 11
3.35104
 21
2.82656
 31
0.0
  0
LINE
  8
0
  6
CONTINUOUS
 62
   250
 10
3.35104
 20
2.82656
 30
0.0
 11
3.35764
 21
2.83272
 31
0.0
  0
LINE
  8
0
  6
CONTINUOUS
 62
   250
 10
3.34884
 20
2.83272
 30
0.0
 11
3.34884
 21
2.8204
 31
0.0
  0
LINE
  8
0
  6
CONTINUOUS
 62
   250
 10
3.34488
 20
2.82216
 30
0.0
 11
3.34268
 21
2.8204
 31
0.0
  0
LINE
  8
0
  6
CONTINUOUS
 62
   250
 10
3.34268
 20
2.8204
 30
0.0
 11
3.33872
 21
2.8204
 31
0.0
  0
LINE
  8
0
  6
CONTINUOUS
 62
   250
 10
3.33872
 20
2.8204
 30
0.0
 11
3.33652
 21
2.82216
 31
0.0
  0
LINE
  8
0
  6
CONTINUOUS
 62
   250
 10
3.33652
 20
2.82216
 30
0.0
 11
3.33652
 21
2.82436
 31
0.0
  0
LINE
  8
0
  6
CONTINUOUS
 62
   250
 10
3.33652
 20
2.82436
 30
0.0
 11
3.33872
 21
2.82656
 31
0.0
  0
LINE
  8
0
  6
CONTINUOUS
 62
   250
 10
3.33872
 20
2.82656
 30
0.0
 11
3.34268
 21
2.82656
 31
0.0
  0
LINE
  8
0
  6
CONTINUOUS
 62
   250
 10
3.34268
 20
2.82656
 30
0.0
 11
3.34488
 21
2.82876
 31
0.0
  0
LINE
  8
0
  6
CONTINUOUS
 62
   250
 10
3.34488
 20
2.82876
 30
0.0
 11
3.34488
 21
2.83096
 31
0.0
  0
LINE
  8
0
  6
CONTINUOUS
 62
   250
 10
3.34488
 20
2.83096
 30
0.0
 11
3.34268
 21
2.83272
 31
0.0
  0
LINE
  8
0
  6
CONTINUOUS
 62
   250
 10
3.34268
 20
2.83272
 30
0.0
 11
3.33872
 21
2.83272
 31
0.0
  0
LINE
  8
0
  6
CONTINUOUS
 62
   250
 10
3.33872
 20
2.83272
 30
0.0
 11
3.33652
 21
2.83096
 31
0.0
  0
LINE
  8
0
  6
CONTINUOUS
 62
   250
 10
3.33652
 20
2.83096
 30
0.0
 11
3.33652
 21
2.82876
 31
0.0
  0
LINE
  8
0
  6
CONTINUOUS
 62
   250
 10
3.33652
 20
2.82876
 30
0.0
 11
3.33872
 21
2.82656
 31
0.0
  0
LINE
  8
0
  6
CONTINUOUS
 62
   250
 10
3.34268
 20
2.82656
 30
0.0
 11
3.34488
 21
2.82436
 31
0.0
  0
LINE
  8
0
  6
CONTINUOUS
 62
   250
 10
3.34488
 20
2.82436
 30
0.0
 11
3.34488
 21
2.82216
 31
0.0
  0
LINE
  8
0
  6
CONTINUOUS
 62
   250
 10
3.34268
 20
2.8138
 30
0.0
 11
3.34048
 21
2.8138
 31
0.0
  0
LINE
  8
0
  6
CONTINUOUS
 62
   250
 10
3.34048
 20
2.8138
 30
0.0
 11
3.33652
 21
2.80984
 31
0.0
  0
LINE
  8
0
  6
CONTINUOUS
 62
   250
 10
3.33652
 20
2.80984
 30
0.0
 11
3.33652
 21
2.80324
 31
0.0
  0
LINE
  8
0
  6
CONTINUOUS
 62
   250
 10
3.33652
 20
2.80324
 30
0.0
 11
3.33872
 21
2.80148
 31
0.0
  0
LINE
  8
0
  6
CONTINUOUS
 62
   250
 10
3.33872
 20
2.80148
 30
0.0
 11
3.34268
 21
2.80148
 31
0.0
  0
LINE
  8
0
  6
CONTINUOUS
 62
   250
 10
3.34268
 20
2.80148
 30
0.0
 11
3.34488
 21
2.80324
 31
0.0
  0
LINE
  8
0
  6
CONTINUOUS
 62
   250
 10
3.34488
 20
2.80324
 30
0.0
 11
3.34488
 21
2.80544
 31
0.0
  0
LINE
  8
0
  6
CONTINUOUS
 62
   250
 10
3.34488
 20
2.80544
 30
0.0
 11
3.34268
 21
2.80764
 31
0.0
  0
LINE
  8
0
  6
CONTINUOUS
 62
   250
 10
3.34268
 20
2.80764
 30
0.0
 11
3.33652
 21
2.80764
 31
0.0
  0
LINE
  8
0
  6
CONTINUOUS
 62
   250
 10
3.32816
 20
2.80764
 30
0.0
 11
3.32156
 21
2.80764
 31
0.0
  0
LINE
  8
0
  6
CONTINUOUS
 62
   250
 10
3.32156
 20
2.80764
 30
0.0
 11
3.3198
 21
2.80984
 31
0.0
  0
LINE
  8
0
  6
CONTINUOUS
 62
   250
 10
3.3198
 20
2.80984
 30
0.0
 11
3.3198
 21
2.81204
 31
0.0
  0
LINE
  8
0
  6
CONTINUOUS
 62
   250
 10
3.3198
 20
2.81204
 30
0.0
 11
3.32156
 21
2.8138
 31
0.0
  0
LINE
  8
0
  6
CONTINUOUS
 62
   250
 10
3.32156
 20
2.8138
 30
0.0
 11
3.32596
 21
2.8138
 31
0.0
  0
LINE
  8
0
  6
CONTINUOUS
 62
   250
 10
3.32596
 20
2.8138
 30
0.0
 11
3.32816
 21
2.81204
 31
0.0
  0
LINE
  8
0
  6
CONTINUOUS
 62
   250
 10
3.32816
 20
2.81204
 30
0.0
 11
3.32816
 21
2.80544
 31
0.0
  0
LINE
  8
0
  6
CONTINUOUS
 62
   250
 10
3.32816
 20
2.80544
 30
0.0
 11
3.32376
 21
2.80148
 31
0.0
  0
LINE
  8
0
  6
CONTINUOUS
 62
   250
 10
3.32376
 20
2.80148
 30
0.0
 11
3.32156
 21
2.80148
 31
0.0
  0
LINE
  8
0
  6
CONTINUOUS
 62
   250
 10
3.32156
 20
2.79488
 30
0.0
 11
3.3198
 21
2.79312
 31
0.0
  0
LINE
  8
0
  6
CONTINUOUS
 62
   250
 10
3.3198
 20
2.79312
 30
0.0
 11
3.3198
 21
2.79092
 31
0.0
  0
LINE
  8
0
  6
CONTINUOUS
 62
   250
 10
3.3198
 20
2.79092
 30
0.0
 11
3.32156
 21
2.78872
 31
0.0
  0
LINE
  8
0
  6
CONTINUOUS
 62
   250
 10
3.32156
 20
2.78872
 30
0.0
 11
3.32816
 21
2.78872
 31
0.0
  0
LINE
  8
0
  6
CONTINUOUS
 62
   250
 10
3.32816
 20
2.78872
 30
0.0
 11
3.32816
 21
2.78652
 31
0.0
  0
LINE
  8
0
  6
CONTINUOUS
 62
   250
 10
3.32816
 20
2.78652
 30
0.0
 11
3.32816
 21
2.79312
 31
0.0
  0
LINE
  8
0
  6
CONTINUOUS
 62
   250
 10
3.32816
 20
2.79312
 30
0.0
 11
3.32596
 21
2.79488
 31
0.0
  0
LINE
  8
0
  6
CONTINUOUS
 62
   250
 10
3.32596
 20
2.79488
 30
0.0
 11
3.32156
 21
2.79488
 31
0.0
  0
LINE
  8
0
  6
CONTINUOUS
 62
   250
 10
3.3132
 20
2.79488
 30
0.0
 11
3.3132
 21
2.78256
 31
0.0
  0
LINE
  8
0
  6
CONTINUOUS
 62
   250
 10
3.3132
 20
2.78256
 30
0.0
 11
3.311
 21
2.78256
 31
0.0
  0
LINE
  8
0
  6
CONTINUOUS
 62
   250
 10
3.311
 20
2.78256
 30
0.0
 11
3.3154
 21
2.78256
 31
0.0
  0
LINE
  8
0
  6
CONTINUOUS
 62
   250
 10
3.32156
 20
2.78256
 30
0.0
 11
3.32376
 21
2.78256
 31
0.0
  0
LINE
  8
0
  6
CONTINUOUS
 62
   250
 10
3.32376
 20
2.78256
 30
0.0
 11
3.32816
 21
2.78652
 31
0.0
  0
LINE
  8
0
  6
CONTINUOUS
 62
   250
 10
3.33212
 20
2.78432
 30
0.0
 11
3.33212
 21
2.78256
 31
0.0
  0
LINE
  8
0
  6
CONTINUOUS
 62
   250
 10
3.33652
 20
2.78256
 30
0.0
 11
3.34488
 21
2.78256
 31
0.0
  0
LINE
  8
0
  6
CONTINUOUS
 62
   250
 10
3.34884
 20
2.78256
 30
0.0
 11
3.34884
 21
2.79488
 31
0.0
  0
LINE
  8
0
  6
CONTINUOUS
 62
   250
 10
3.34884
 20
2.80148
 30
0.0
 11
3.34884
 21
2.8138
 31
0.0
  0
LINE
  8
0
  6
CONTINUOUS
 62
   250
 10
3.33212
 20
2.8204
 30
0.0
 11
3.33212
 21
2.82216
 31
0.0
  0
LINE
  8
0
  6
CONTINUOUS
 62
   250
 10
3.32816
 20
2.82436
 30
0.0
 11
3.3198
 21
2.82436
 31
0.0
  0
LINE
  8
0
  6
CONTINUOUS
 62
   250
 10
3.3198
 20
2.82436
 30
0.0
 11
3.32596
 21
2.83272
 31
0.0
  0
LINE
  8
0
  6
CONTINUOUS
 62
   250
 10
3.32596
 20
2.83272
 30
0.0
 11
3.32596
 21
2.8204
 31
0.0
  0
LINE
  8
0
  6
CONTINUOUS
 62
   250
 10
3.33212
 20
2.80324
 30
0.0
 11
3.33212
 21
2.80148
 31
0.0
  0
LINE
  8
0
  6
CONTINUOUS
 62
   250
 10
3.33652
 20
2.79312
 30
0.0
 11
3.33872
 21
2.79488
 31
0.0
  0
LINE
  8
0
  6
CONTINUOUS
 62
   250
 10
3.33872
 20
2.79488
 30
0.0
 11
3.34268
 21
2.79488
 31
0.0
  0
LINE
  8
0
  6
CONTINUOUS
 62
   250
 10
3.34268
 20
2.79488
 30
0.0
 11
3.34488
 21
2.79312
 31
0.0
  0
LINE
  8
0
  6
CONTINUOUS
 62
   250
 10
3.34488
 20
2.79312
 30
0.0
 11
3.34488
 21
2.79092
 31
0.0
  0
LINE
  8
0
  6
CONTINUOUS
 62
   250
 10
3.34488
 20
2.79092
 30
0.0
 11
3.34268
 21
2.78872
 31
0.0
  0
LINE
  8
0
  6
CONTINUOUS
 62
   250
 10
3.34268
 20
2.78872
 30
0.0
 11
3.33872
 21
2.78872
 31
0.0
  0
LINE
  8
0
  6
CONTINUOUS
 62
   250
 10
3.33872
 20
2.78872
 30
0.0
 11
3.33652
 21
2.78652
 31
0.0
  0
LINE
  8
0
  6
CONTINUOUS
 62
   250
 10
3.33652
 20
2.78652
 30
0.0
 11
3.33652
 21
2.78256
 31
0.0
  0
LINE
  8
0
  6
CONTINUOUS
 62
   250
 10
3.311
 20
2.79312
 30
0.0
 11
3.3132
 21
2.79488
 31
0.0
  0
LINE
  8
0
  6
CONTINUOUS
 62
   250
 10
3.37832
 20
2.85824
 30
0.0
 11
3.38492
 21
2.85824
 31
0.0
  0
LINE
  8
0
  6
CONTINUOUS
 62
   250
 10
3.38492
 20
2.85824
 30
0.0
 11
3.38712
 21
2.86
 31
0.0
  0
LINE
  8
0
  6
CONTINUOUS
 62
   250
 10
3.38712
 20
2.86
 30
0.0
 11
3.38712
 21
2.8622
 31
0.0
  0
LINE
  8
0
  6
CONTINUOUS
 62
   250
 10
3.38712
 20
2.8622
 30
0.0
 11
3.38492
 21
2.8644
 31
0.0
  0
LINE
  8
0
  6
CONTINUOUS
 62
   250
 10
3.38492
 20
2.8644
 30
0.0
 11
3.38052
 21
2.8644
 31
0.0
  0
LINE
  8
0
  6
CONTINUOUS
 62
   250
 10
3.38492
 20
2.8644
 30
0.0
 11
3.38712
 21
2.8666
 31
0.0
  0
LINE
  8
0
  6
CONTINUOUS
 62
   250
 10
3.38712
 20
2.8666
 30
0.0
 11
3.38712
 21
2.8688
 31
0.0
  0
LINE
  8
0
  6
CONTINUOUS
 62
   250
 10
3.38712
 20
2.8688
 30
0.0
 11
3.38492
 21
2.87056
 31
0.0
  0
LINE
  8
0
  6
CONTINUOUS
 62
   250
 10
3.38492
 20
2.87056
 30
0.0
 11
3.37832
 21
2.87056
 31
0.0
  0
LINE
  8
0
  6
CONTINUOUS
 62
   250
 10
3.37832
 20
2.87056
 30
0.0
 11
3.38052
 21
2.87056
 31
0.0
  0
LINE
  8
0
  6
CONTINUOUS
 62
   250
 10
3.38052
 20
2.87056
 30
0.0
 11
3.38052
 21
2.85824
 31
0.0
  0
LINE
  8
0
  6
CONTINUOUS
 62
   250
 10
3.39108
 20
2.85824
 30
0.0
 11
3.39108
 21
2.87056
 31
0.0
  0
LINE
  8
0
  6
CONTINUOUS
 62
   250
 10
3.39108
 20
2.87056
 30
0.0
 11
3.39724
 21
2.87056
 31
0.0
  0
LINE
  8
0
  6
CONTINUOUS
 62
   250
 10
3.39724
 20
2.87056
 30
0.0
 11
3.39944
 21
2.8688
 31
0.0
  0
LINE
  8
0
  6
CONTINUOUS
 62
   250
 10
3.39944
 20
2.8688
 30
0.0
 11
3.39944
 21
2.8666
 31
0.0
  0
LINE
  8
0
  6
CONTINUOUS
 62
   250
 10
3.39944
 20
2.8666
 30
0.0
 11
3.39724
 21
2.8644
 31
0.0
  0
LINE
  8
0
  6
CONTINUOUS
 62
   250
 10
3.39724
 20
2.8644
 30
0.0
 11
3.39108
 21
2.8644
 31
0.0
  0
LINE
  8
0
  6
CONTINUOUS
 62
   250
 10
3.40384
 20
2.86
 30
0.0
 11
3.40604
 21
2.85824
 31
0.0
  0
LINE
  8
0
  6
CONTINUOUS
 62
   250
 10
3.40604
 20
2.85824
 30
0.0
 11
3.41
 21
2.85824
 31
0.0
  0
LINE
  8
0
  6
CONTINUOUS
 62
   250
 10
3.41
 20
2.85824
 30
0.0
 11
3.41176
 21
2.86
 31
0.0
  0
LINE
  8
0
  6
CONTINUOUS
 62
   250
 10
3.41176
 20
2.86
 30
0.0
 11
3.40384
 21
2.8688
 31
0.0
  0
LINE
  8
0
  6
CONTINUOUS
 62
   250
 10
3.40384
 20
2.8688
 30
0.0
 11
3.40604
 21
2.87056
 31
0.0
  0
LINE
  8
0
  6
CONTINUOUS
 62
   250
 10
3.40604
 20
2.87056
 30
0.0
 11
3.41
 21
2.87056
 31
0.0
  0
LINE
  8
0
  6
CONTINUOUS
 62
   250
 10
3.41
 20
2.87056
 30
0.0
 11
3.41176
 21
2.8688
 31
0.0
  0
LINE
  8
0
  6
CONTINUOUS
 62
   250
 10
3.058
 20
2.86748
 30
0.0
 11
3.058
 21
2.88332
 31
0.0
  0
LINE
  8
0
  6
CONTINUOUS
 62
   250
 10
3.058
 20
2.88332
 30
0.0
 11
3.02632
 21
2.88332
 31
0.0
  0
LINE
  8
0
  6
CONTINUOUS
 62
   250
 10
3.02632
 20
2.88332
 30
0.0
 11
3.02632
 21
2.86748
 31
0.0
  0
LINE
  8
0
  6
CONTINUOUS
 62
   250
 10
3.02632
 20
2.86748
 30
0.0
 11
3.02632
 21
2.85164
 31
0.0
  0
LINE
  8
0
  6
CONTINUOUS
 62
   250
 10
3.02632
 20
2.85164
 30
0.0
 11
3.058
 21
2.85164
 31
0.0
  0
LINE
  8
0
  6
CONTINUOUS
 62
   250
 10
3.058
 20
2.85164
 30
0.0
 11
3.058
 21
2.86748
 31
0.0
  0
LINE
  8
0
  6
CONTINUOUS
 62
   250
 10
3.05184
 20
2.85164
 30
0.0
 11
3.03292
 21
2.85164
 31
0.0
  0
LINE
  8
0
  6
CONTINUOUS
 62
   250
 10
3.03292
 20
2.88332
 30
0.0
 11
3.05184
 21
2.88332
 31
0.0
  0
LINE
  8
0
  6
CONTINUOUS
 62
   250
 10
3.05184
 20
2.89608
 30
0.0
 11
3.03292
 21
2.89608
 31
0.0
  0
LINE
  8
0
  6
CONTINUOUS
 62
   250
 10
3.02984
 20
2.89608
 30
0.0
 11
3.036
 21
2.89608
 31
0.0
  0
LINE
  8
0
  6
CONTINUOUS
 62
   250
 10
3.036
 20
2.89608
 30
0.0
 11
3.02984
 21
2.89608
 31
0.0
  0
LINE
  8
0
  6
CONTINUOUS
 62
   250
 10
3.02632
 20
2.89608
 30
0.0
 11
3.058
 21
2.89608
 31
0.0
  0
LINE
  8
0
  6
CONTINUOUS
 62
   250
 10
3.058
 20
2.89608
 30
0.0
 11
3.058
 21
2.91192
 31
0.0
  0
LINE
  8
0
  6
CONTINUOUS
 62
   250
 10
3.058
 20
2.91192
 30
0.0
 11
3.058
 21
2.92732
 31
0.0
  0
LINE
  8
0
  6
CONTINUOUS
 62
   250
 10
3.058
 20
2.92732
 30
0.0
 11
3.02632
 21
2.92732
 31
0.0
  0
LINE
  8
0
  6
CONTINUOUS
 62
   250
 10
3.02632
 20
2.92732
 30
0.0
 11
3.02632
 21
2.91192
 31
0.0
  0
LINE
  8
0
  6
CONTINUOUS
 62
   250
 10
3.02632
 20
2.91192
 30
0.0
 11
3.02632
 21
2.89608
 31
0.0
  0
LINE
  8
0
  6
CONTINUOUS
 62
   250
 10
3.03468
 20
2.9062
 30
0.0
 11
3.03688
 21
2.904
 31
0.0
  0
LINE
  8
0
  6
CONTINUOUS
 62
   250
 10
3.03688
 20
2.904
 30
0.0
 11
3.03952
 21
2.90268
 31
0.0
  0
LINE
  8
0
  6
CONTINUOUS
 62
   250
 10
3.03952
 20
2.90268
 30
0.0
 11
3.0426
 21
2.90224
 31
0.0
  0
LINE
  8
0
  6
CONTINUOUS
 62
   250
 10
3.0426
 20
2.90224
 30
0.0
 11
3.04524
 21
2.90268
 31
0.0
  0
LINE
  8
0
  6
CONTINUOUS
 62
   250
 10
3.04524
 20
2.90268
 30
0.0
 11
3.04788
 21
2.904
 31
0.0
  0
LINE
  8
0
  6
CONTINUOUS
 62
   250
 10
3.04788
 20
2.904
 30
0.0
 11
3.05008
 21
2.9062
 31
0.0
  0
LINE
  8
0
  6
CONTINUOUS
 62
   250
 10
3.05008
 20
2.9062
 30
0.0
 11
3.0514
 21
2.90884
 31
0.0
  0
LINE
  8
0
  6
CONTINUOUS
 62
   250
 10
3.0514
 20
2.90884
 30
0.0
 11
3.05184
 21
2.91192
 31
0.0
  0
LINE
  8
0
  6
CONTINUOUS
 62
   250
 10
3.05184
 20
2.91192
 30
0.0
 11
3.0514
 21
2.91456
 31
0.0
  0
LINE
  8
0
  6
CONTINUOUS
 62
   250
 10
3.0514
 20
2.91456
 30
0.0
 11
3.05008
 21
2.9172
 31
0.0
  0
LINE
  8
0
  6
CONTINUOUS
 62
   250
 10
3.05008
 20
2.9172
 30
0.0
 11
3.04788
 21
2.9194
 31
0.0
  0
LINE
  8
0
  6
CONTINUOUS
 62
   250
 10
3.04788
 20
2.9194
 30
0.0
 11
3.04524
 21
2.92072
 31
0.0
  0
LINE
  8
0
  6
CONTINUOUS
 62
   250
 10
3.04524
 20
2.92072
 30
0.0
 11
3.0426
 21
2.92116
 31
0.0
  0
LINE
  8
0
  6
CONTINUOUS
 62
   250
 10
3.0426
 20
2.92116
 30
0.0
 11
3.03952
 21
2.92072
 31
0.0
  0
LINE
  8
0
  6
CONTINUOUS
 62
   250
 10
3.03952
 20
2.92072
 30
0.0
 11
3.03688
 21
2.9194
 31
0.0
  0
LINE
  8
0
  6
CONTINUOUS
 62
   250
 10
3.03688
 20
2.9194
 30
0.0
 11
3.03468
 21
2.9172
 31
0.0
  0
LINE
  8
0
  6
CONTINUOUS
 62
   250
 10
3.03468
 20
2.9172
 30
0.0
 11
3.03336
 21
2.91456
 31
0.0
  0
LINE
  8
0
  6
CONTINUOUS
 62
   250
 10
3.03336
 20
2.91456
 30
0.0
 11
3.03292
 21
2.91192
 31
0.0
  0
LINE
  8
0
  6
CONTINUOUS
 62
   250
 10
3.03292
 20
2.91192
 30
0.0
 11
3.03336
 21
2.90884
 31
0.0
  0
LINE
  8
0
  6
CONTINUOUS
 62
   250
 10
3.03336
 20
2.90884
 30
0.0
 11
3.03468
 21
2.9062
 31
0.0
  0
LINE
  8
0
  6
CONTINUOUS
 62
   250
 10
3.03336
 20
2.9084
 30
0.0
 11
3.036
 21
2.9084
 31
0.0
  0
LINE
  8
0
  6
CONTINUOUS
 62
   250
 10
3.036
 20
2.9084
 30
0.0
 11
3.036
 21
2.915
 31
0.0
  0
LINE
  8
0
  6
CONTINUOUS
 62
   250
 10
3.036
 20
2.915
 30
0.0
 11
3.03336
 21
2.915
 31
0.0
  0
LINE
  8
0
  6
CONTINUOUS
 62
   250
 10
3.03292
 20
2.92732
 30
0.0
 11
3.05184
 21
2.92732
 31
0.0
  0
LINE
  8
0
  6
CONTINUOUS
 62
   250
 10
3.05184
 20
2.94008
 30
0.0
 11
3.03292
 21
2.94008
 31
0.0
  0
LINE
  8
0
  6
CONTINUOUS
 62
   250
 10
3.02984
 20
2.94008
 30
0.0
 11
3.036
 21
2.94008
 31
0.0
  0
LINE
  8
0
  6
CONTINUOUS
 62
   250
 10
3.036
 20
2.94008
 30
0.0
 11
3.02984
 21
2.94008
 31
0.0
  0
LINE
  8
0
  6
CONTINUOUS
 62
   250
 10
3.02632
 20
2.94008
 30
0.0
 11
3.058
 21
2.94008
 31
0.0
  0
LINE
  8
0
  6
CONTINUOUS
 62
   250
 10
3.058
 20
2.94008
 30
0.0
 11
3.058
 21
2.95548
 31
0.0
  0
LINE
  8
0
  6
CONTINUOUS
 62
   250
 10
3.058
 20
2.95548
 30
0.0
 11
3.058
 21
2.97132
 31
0.0
  0
LINE
  8
0
  6
CONTINUOUS
 62
   250
 10
3.058
 20
2.97132
 30
0.0
 11
3.02632
 21
2.97132
 31
0.0
  0
LINE
  8
0
  6
CONTINUOUS
 62
   250
 10
3.02632
 20
2.97132
 30
0.0
 11
3.02632
 21
2.95548
 31
0.0
  0
LINE
  8
0
  6
CONTINUOUS
 62
   250
 10
3.02632
 20
2.95548
 30
0.0
 11
3.02632
 21
2.94008
 31
0.0
  0
LINE
  8
0
  6
CONTINUOUS
 62
   250
 10
3.03468
 20
2.9502
 30
0.0
 11
3.03688
 21
2.948
 31
0.0
  0
LINE
  8
0
  6
CONTINUOUS
 62
   250
 10
3.03688
 20
2.948
 30
0.0
 11
3.03952
 21
2.94668
 31
0.0
  0
LINE
  8
0
  6
CONTINUOUS
 62
   250
 10
3.03952
 20
2.94668
 30
0.0
 11
3.0426
 21
2.94624
 31
0.0
  0
LINE
  8
0
  6
CONTINUOUS
 62
   250
 10
3.0426
 20
2.94624
 30
0.0
 11
3.04524
 21
2.94668
 31
0.0
  0
LINE
  8
0
  6
CONTINUOUS
 62
   250
 10
3.04524
 20
2.94668
 30
0.0
 11
3.04788
 21
2.948
 31
0.0
  0
LINE
  8
0
  6
CONTINUOUS
 62
   250
 10
3.04788
 20
2.948
 30
0.0
 11
3.05008
 21
2.9502
 31
0.0
  0
LINE
  8
0
  6
CONTINUOUS
 62
   250
 10
3.05008
 20
2.9502
 30
0.0
 11
3.0514
 21
2.95284
 31
0.0
  0
LINE
  8
0
  6
CONTINUOUS
 62
   250
 10
3.0514
 20
2.95284
 30
0.0
 11
3.05184
 21
2.95548
 31
0.0
  0
LINE
  8
0
  6
CONTINUOUS
 62
   250
 10
3.05184
 20
2.95548
 30
0.0
 11
3.0514
 21
2.95856
 31
0.0
  0
LINE
  8
0
  6
CONTINUOUS
 62
   250
 10
3.0514
 20
2.95856
 30
0.0
 11
3.05008
 21
2.9612
 31
0.0
  0
LINE
  8
0
  6
CONTINUOUS
 62
   250
 10
3.05008
 20
2.9612
 30
0.0
 11
3.04788
 21
2.9634
 31
0.0
  0
LINE
  8
0
  6
CONTINUOUS
 62
   250
 10
3.04788
 20
2.9634
 30
0.0
 11
3.04524
 21
2.96472
 31
0.0
  0
LINE
  8
0
  6
CONTINUOUS
 62
   250
 10
3.04524
 20
2.96472
 30
0.0
 11
3.0426
 21
2.96516
 31
0.0
  0
LINE
  8
0
  6
CONTINUOUS
 62
   250
 10
3.0426
 20
2.96516
 30
0.0
 11
3.03952
 21
2.96472
 31
0.0
  0
LINE
  8
0
  6
CONTINUOUS
 62
   250
 10
3.03952
 20
2.96472
 30
0.0
 11
3.03688
 21
2.9634
 31
0.0
  0
LINE
  8
0
  6
CONTINUOUS
 62
   250
 10
3.03688
 20
2.9634
 30
0.0
 11
3.03468
 21
2.9612
 31
0.0
  0
LINE
  8
0
  6
CONTINUOUS
 62
   250
 10
3.03468
 20
2.9612
 30
0.0
 11
3.03336
 21
2.95856
 31
0.0
  0
LINE
  8
0
  6
CONTINUOUS
 62
   250
 10
3.03336
 20
2.95856
 30
0.0
 11
3.03292
 21
2.95548
 31
0.0
  0
LINE
  8
0
  6
CONTINUOUS
 62
   250
 10
3.03292
 20
2.95548
 30
0.0
 11
3.03336
 21
2.95284
 31
0.0
  0
LINE
  8
0
  6
CONTINUOUS
 62
   250
 10
3.03336
 20
2.95284
 30
0.0
 11
3.03468
 21
2.9502
 31
0.0
  0
LINE
  8
0
  6
CONTINUOUS
 62
   250
 10
3.036
 20
2.9524
 30
0.0
 11
3.036
 21
2.959
 31
0.0
  0
LINE
  8
0
  6
CONTINUOUS
 62
   250
 10
3.036
 20
2.959
 30
0.0
 11
3.03336
 21
2.959
 31
0.0
  0
LINE
  8
0
  6
CONTINUOUS
 62
   250
 10
3.03336
 20
2.9524
 30
0.0
 11
3.036
 21
2.9524
 31
0.0
  0
LINE
  8
0
  6
CONTINUOUS
 62
   250
 10
3.03292
 20
2.97132
 30
0.0
 11
3.05184
 21
2.97132
 31
0.0
  0
LINE
  8
0
  6
CONTINUOUS
 62
   250
 10
3.05184
 20
2.98408
 30
0.0
 11
3.03292
 21
2.98408
 31
0.0
  0
LINE
  8
0
  6
CONTINUOUS
 62
   250
 10
3.02984
 20
2.98408
 30
0.0
 11
3.036
 21
2.98408
 31
0.0
  0
LINE
  8
0
  6
CONTINUOUS
 62
   250
 10
3.036
 20
2.98408
 30
0.0
 11
3.02984
 21
2.98408
 31
0.0
  0
LINE
  8
0
  6
CONTINUOUS
 62
   250
 10
3.02632
 20
2.98408
 30
0.0
 11
3.058
 21
2.98408
 31
0.0
  0
LINE
  8
0
  6
CONTINUOUS
 62
   250
 10
3.058
 20
2.98408
 30
0.0
 11
3.058
 21
2.99992
 31
0.0
  0
LINE
  8
0
  6
CONTINUOUS
 62
   250
 10
3.058
 20
2.99992
 30
0.0
 11
3.058
 21
3.01576
 31
0.0
  0
LINE
  8
0
  6
CONTINUOUS
 62
   250
 10
3.058
 20
3.01576
 30
0.0
 11
3.02632
 21
3.01576
 31
0.0
  0
LINE
  8
0
  6
CONTINUOUS
 62
   250
 10
3.02632
 20
3.01576
 30
0.0
 11
3.02632
 21
2.99992
 31
0.0
  0
LINE
  8
0
  6
CONTINUOUS
 62
   250
 10
3.02632
 20
2.99992
 30
0.0
 11
3.02632
 21
2.98408
 31
0.0
  0
LINE
  8
0
  6
CONTINUOUS
 62
   250
 10
3.03468
 20
2.9942
 30
0.0
 11
3.03688
 21
2.992
 31
0.0
  0
LINE
  8
0
  6
CONTINUOUS
 62
   250
 10
3.03688
 20
2.992
 30
0.0
 11
3.03952
 21
2.99068
 31
0.0
  0
LINE
  8
0
  6
CONTINUOUS
 62
   250
 10
3.03952
 20
2.99068
 30
0.0
 11
3.0426
 21
2.99024
 31
0.0
  0
LINE
  8
0
  6
CONTINUOUS
 62
   250
 10
3.0426
 20
2.99024
 30
0.0
 11
3.04524
 21
2.99068
 31
0.0
  0
LINE
  8
0
  6
CONTINUOUS
 62
   250
 10
3.04524
 20
2.99068
 30
0.0
 11
3.04788
 21
2.992
 31
0.0
  0
LINE
  8
0
  6
CONTINUOUS
 62
   250
 10
3.04788
 20
2.992
 30
0.0
 11
3.05008
 21
2.9942
 31
0.0
  0
LINE
  8
0
  6
CONTINUOUS
 62
   250
 10
3.05008
 20
2.9942
 30
0.0
 11
3.0514
 21
2.99684
 31
0.0
  0
LINE
  8
0
  6
CONTINUOUS
 62
   250
 10
3.0514
 20
2.99684
 30
0.0
 11
3.05184
 21
2.99992
 31
0.0
  0
LINE
  8
0
  6
CONTINUOUS
 62
   250
 10
3.05184
 20
2.99992
 30
0.0
 11
3.0514
 21
3.003
 31
0.0
  0
LINE
  8
0
  6
CONTINUOUS
 62
   250
 10
3.0514
 20
3.003
 30
0.0
 11
3.05008
 21
3.0052
 31
0.0
  0
LINE
  8
0
  6
CONTINUOUS
 62
   250
 10
3.05008
 20
3.0052
 30
0.0
 11
3.04788
 21
3.0074
 31
0.0
  0
LINE
  8
0
  6
CONTINUOUS
 62
   250
 10
3.04788
 20
3.0074
 30
0.0
 11
3.04524
 21
3.00872
 31
0.0
  0
LINE
  8
0
  6
CONTINUOUS
 62
   250
 10
3.04524
 20
3.00872
 30
0.0
 11
3.0426
 21
3.00916
 31
0.0
  0
LINE
  8
0
  6
CONTINUOUS
 62
   250
 10
3.0426
 20
3.00916
 30
0.0
 11
3.03952
 21
3.00872
 31
0.0
  0
LINE
  8
0
  6
CONTINUOUS
 62
   250
 10
3.03952
 20
3.00872
 30
0.0
 11
3.03688
 21
3.0074
 31
0.0
  0
LINE
  8
0
  6
CONTINUOUS
 62
   250
 10
3.03688
 20
3.0074
 30
0.0
 11
3.03468
 21
3.0052
 31
0.0
  0
LINE
  8
0
  6
CONTINUOUS
 62
   250
 10
3.03468
 20
3.0052
 30
0.0
 11
3.03336
 21
3.003
 31
0.0
  0
LINE
  8
0
  6
CONTINUOUS
 62
   250
 10
3.03336
 20
3.003
 30
0.0
 11
3.03292
 21
2.99992
 31
0.0
  0
LINE
  8
0
  6
CONTINUOUS
 62
   250
 10
3.03292
 20
2.99992
 30
0.0
 11
3.03336
 21
2.99684
 31
0.0
  0
LINE
  8
0
  6
CONTINUOUS
 62
   250
 10
3.03336
 20
2.99684
 30
0.0
 11
3.03468
 21
2.9942
 31
0.0
  0
LINE
  8
0
  6
CONTINUOUS
 62
   250
 10
3.03336
 20
2.99684
 30
0.0
 11
3.036
 21
2.99684
 31
0.0
  0
LINE
  8
0
  6
CONTINUOUS
 62
   250
 10
3.036
 20
2.99684
 30
0.0
 11
3.036
 21
3.003
 31
0.0
  0
LINE
  8
0
  6
CONTINUOUS
 62
   250
 10
3.036
 20
3.003
 30
0.0
 11
3.03336
 21
3.003
 31
0.0
  0
LINE
  8
0
  6
CONTINUOUS
 62
   250
 10
3.03292
 20
3.01576
 30
0.0
 11
3.05184
 21
3.01576
 31
0.0
  0
LINE
  8
0
  6
CONTINUOUS
 62
   250
 10
3.05184
 20
3.05976
 30
0.0
 11
3.03292
 21
3.05976
 31
0.0
  0
LINE
  8
0
  6
CONTINUOUS
 62
   250
 10
3.02984
 20
3.05976
 30
0.0
 11
3.036
 21
3.05976
 31
0.0
  0
LINE
  8
0
  6
CONTINUOUS
 62
   250
 10
3.036
 20
3.05976
 30
0.0
 11
3.02984
 21
3.05976
 31
0.0
  0
LINE
  8
0
  6
CONTINUOUS
 62
   250
 10
3.02632
 20
3.05976
 30
0.0
 11
3.058
 21
3.05976
 31
0.0
  0
LINE
  8
0
  6
CONTINUOUS
 62
   250
 10
3.058
 20
3.05976
 30
0.0
 11
3.058
 21
3.0756
 31
0.0
  0
LINE
  8
0
  6
CONTINUOUS
 62
   250
 10
3.058
 20
3.0756
 30
0.0
 11
3.058
 21
3.09144
 31
0.0
  0
LINE
  8
0
  6
CONTINUOUS
 62
   250
 10
3.058
 20
3.09144
 30
0.0
 11
3.02632
 21
3.09144
 31
0.0
  0
LINE
  8
0
  6
CONTINUOUS
 62
   250
 10
3.02632
 20
3.09144
 30
0.0
 11
3.02632
 21
3.0756
 31
0.0
  0
LINE
  8
0
  6
CONTINUOUS
 62
   250
 10
3.02632
 20
3.0756
 30
0.0
 11
3.02632
 21
3.05976
 31
0.0
  0
LINE
  8
0
  6
CONTINUOUS
 62
   250
 10
3.03468
 20
3.06988
 30
0.0
 11
3.03688
 21
3.06768
 31
0.0
  0
LINE
  8
0
  6
CONTINUOUS
 62
   250
 10
3.03688
 20
3.06768
 30
0.0
 11
3.03952
 21
3.06636
 31
0.0
  0
LINE
  8
0
  6
CONTINUOUS
 62
   250
 10
3.03952
 20
3.06636
 30
0.0
 11
3.0426
 21
3.06592
 31
0.0
  0
LINE
  8
0
  6
CONTINUOUS
 62
   250
 10
3.0426
 20
3.06592
 30
0.0
 11
3.04524
 21
3.06636
 31
0.0
  0
LINE
  8
0
  6
CONTINUOUS
 62
   250
 10
3.04524
 20
3.06636
 30
0.0
 11
3.04788
 21
3.06768
 31
0.0
  0
LINE
  8
0
  6
CONTINUOUS
 62
   250
 10
3.04788
 20
3.06768
 30
0.0
 11
3.05008
 21
3.06988
 31
0.0
  0
LINE
  8
0
  6
CONTINUOUS
 62
   250
 10
3.05008
 20
3.06988
 30
0.0
 11
3.0514
 21
3.07252
 31
0.0
  0
LINE
  8
0
  6
CONTINUOUS
 62
   250
 10
3.0514
 20
3.07252
 30
0.0
 11
3.05184
 21
3.0756
 31
0.0
  0
LINE
  8
0
  6
CONTINUOUS
 62
   250
 10
3.05184
 20
3.0756
 30
0.0
 11
3.0514
 21
3.07824
 31
0.0
  0
LINE
  8
0
  6
CONTINUOUS
 62
   250
 10
3.0514
 20
3.07824
 30
0.0
 11
3.05008
 21
3.08088
 31
0.0
  0
LINE
  8
0
  6
CONTINUOUS
 62
   250
 10
3.05008
 20
3.08088
 30
0.0
 11
3.04788
 21
3.08308
 31
0.0
  0
LINE
  8
0
  6
CONTINUOUS
 62
   250
 10
3.04788
 20
3.08308
 30
0.0
 11
3.04524
 21
3.0844
 31
0.0
  0
LINE
  8
0
  6
CONTINUOUS
 62
   250
 10
3.04524
 20
3.0844
 30
0.0
 11
3.0426
 21
3.08484
 31
0.0
  0
LINE
  8
0
  6
CONTINUOUS
 62
   250
 10
3.0426
 20
3.08484
 30
0.0
 11
3.03952
 21
3.0844
 31
0.0
  0
LINE
  8
0
  6
CONTINUOUS
 62
   250
 10
3.03952
 20
3.0844
 30
0.0
 11
3.03688
 21
3.08308
 31
0.0
  0
LINE
  8
0
  6
CONTINUOUS
 62
   250
 10
3.03688
 20
3.08308
 30
0.0
 11
3.03468
 21
3.08088
 31
0.0
  0
LINE
  8
0
  6
CONTINUOUS
 62
   250
 10
3.03468
 20
3.08088
 30
0.0
 11
3.03336
 21
3.07824
 31
0.0
  0
LINE
  8
0
  6
CONTINUOUS
 62
   250
 10
3.03336
 20
3.07824
 30
0.0
 11
3.03292
 21
3.0756
 31
0.0
  0
LINE
  8
0
  6
CONTINUOUS
 62
   250
 10
3.03292
 20
3.0756
 30
0.0
 11
3.03336
 21
3.07252
 31
0.0
  0
LINE
  8
0
  6
CONTINUOUS
 62
   250
 10
3.03336
 20
3.07252
 30
0.0
 11
3.03468
 21
3.06988
 31
0.0
  0
LINE
  8
0
  6
CONTINUOUS
 62
   250
 10
3.036
 20
3.07252
 30
0.0
 11
3.036
 21
3.07868
 31
0.0
  0
LINE
  8
0
  6
CONTINUOUS
 62
   250
 10
3.036
 20
3.07868
 30
0.0
 11
3.03336
 21
3.07868
 31
0.0
  0
LINE
  8
0
  6
CONTINUOUS
 62
   250
 10
3.03336
 20
3.07252
 30
0.0
 11
3.036
 21
3.07252
 31
0.0
  0
LINE
  8
0
  6
CONTINUOUS
 62
   250
 10
3.03292
 20
3.09144
 30
0.0
 11
3.05184
 21
3.09144
 31
0.0
  0
LINE
  8
0
  6
CONTINUOUS
 62
   250
 10
3.05184
 20
3.10376
 30
0.0
 11
3.03292
 21
3.10376
 31
0.0
  0
LINE
  8
0
  6
CONTINUOUS
 62
   250
 10
3.02984
 20
3.10376
 30
0.0
 11
3.036
 21
3.10376
 31
0.0
  0
LINE
  8
0
  6
CONTINUOUS
 62
   250
 10
3.036
 20
3.10376
 30
0.0
 11
3.02984
 21
3.10376
 31
0.0
  0
LINE
  8
0
  6
CONTINUOUS
 62
   250
 10
3.02632
 20
3.10376
 30
0.0
 11
3.058
 21
3.10376
 31
0.0
  0
LINE
  8
0
  6
CONTINUOUS
 62
   250
 10
3.058
 20
3.10376
 30
0.0
 11
3.058
 21
3.1196
 31
0.0
  0
LINE
  8
0
  6
CONTINUOUS
 62
   250
 10
3.058
 20
3.1196
 30
0.0
 11
3.058
 21
3.13544
 31
0.0
  0
LINE
  8
0
  6
CONTINUOUS
 62
   250
 10
3.058
 20
3.13544
 30
0.0
 11
3.02632
 21
3.13544
 31
0.0
  0
LINE
  8
0
  6
CONTINUOUS
 62
   250
 10
3.02632
 20
3.13544
 30
0.0
 11
3.02632
 21
3.1196
 31
0.0
  0
LINE
  8
0
  6
CONTINUOUS
 62
   250
 10
3.02632
 20
3.1196
 30
0.0
 11
3.02632
 21
3.10376
 31
0.0
  0
LINE
  8
0
  6
CONTINUOUS
 62
   250
 10
3.03468
 20
3.11432
 30
0.0
 11
3.03688
 21
3.11212
 31
0.0
  0
LINE
  8
0
  6
CONTINUOUS
 62
   250
 10
3.03688
 20
3.11212
 30
0.0
 11
3.03952
 21
3.1108
 31
0.0
  0
LINE
  8
0
  6
CONTINUOUS
 62
   250
 10
3.03952
 20
3.1108
 30
0.0
 11
3.0426
 21
3.11036
 31
0.0
  0
LINE
  8
0
  6
CONTINUOUS
 62
   250
 10
3.0426
 20
3.11036
 30
0.0
 11
3.04524
 21
3.1108
 31
0.0
  0
LINE
  8
0
  6
CONTINUOUS
 62
   250
 10
3.04524
 20
3.1108
 30
0.0
 11
3.04788
 21
3.11212
 31
0.0
  0
LINE
  8
0
  6
CONTINUOUS
 62
   250
 10
3.04788
 20
3.11212
 30
0.0
 11
3.05008
 21
3.11432
 31
0.0
  0
LINE
  8
0
  6
CONTINUOUS
 62
   250
 10
3.05008
 20
3.11432
 30
0.0
 11
3.0514
 21
3.11652
 31
0.0
  0
LINE
  8
0
  6
CONTINUOUS
 62
   250
 10
3.0514
 20
3.11652
 30
0.0
 11
3.05184
 21
3.1196
 31
0.0
  0
LINE
  8
0
  6
CONTINUOUS
 62
   250
 10
3.05184
 20
3.1196
 30
0.0
 11
3.0514
 21
3.12268
 31
0.0
  0
LINE
  8
0
  6
CONTINUOUS
 62
   250
 10
3.0514
 20
3.12268
 30
0.0
 11
3.05008
 21
3.12532
 31
0.0
  0
LINE
  8
0
  6
CONTINUOUS
 62
   250
 10
3.05008
 20
3.12532
 30
0.0
 11
3.04788
 21
3.12752
 31
0.0
  0
LINE
  8
0
  6
CONTINUOUS
 62
   250
 10
3.04788
 20
3.12752
 30
0.0
 11
3.04524
 21
3.12884
 31
0.0
  0
LINE
  8
0
  6
CONTINUOUS
 62
   250
 10
3.04524
 20
3.12884
 30
0.0
 11
3.0426
 21
3.12928
 31
0.0
  0
LINE
  8
0
  6
CONTINUOUS
 62
   250
 10
3.0426
 20
3.12928
 30
0.0
 11
3.03952
 21
3.12884
 31
0.0
  0
LINE
  8
0
  6
CONTINUOUS
 62
   250
 10
3.03952
 20
3.12884
 30
0.0
 11
3.03688
 21
3.12752
 31
0.0
  0
LINE
  8
0
  6
CONTINUOUS
 62
   250
 10
3.03688
 20
3.12752
 30
0.0
 11
3.03468
 21
3.12532
 31
0.0
  0
LINE
  8
0
  6
CONTINUOUS
 62
   250
 10
3.03468
 20
3.12532
 30
0.0
 11
3.03336
 21
3.12268
 31
0.0
  0
LINE
  8
0
  6
CONTINUOUS
 62
   250
 10
3.03336
 20
3.12268
 30
0.0
 11
3.03292
 21
3.1196
 31
0.0
  0
LINE
  8
0
  6
CONTINUOUS
 62
   250
 10
3.03292
 20
3.1196
 30
0.0
 11
3.03336
 21
3.11652
 31
0.0
  0
LINE
  8
0
  6
CONTINUOUS
 62
   250
 10
3.03336
 20
3.11652
 30
0.0
 11
3.03468
 21
3.11432
 31
0.0
  0
LINE
  8
0
  6
CONTINUOUS
 62
   250
 10
3.03336
 20
3.11652
 30
0.0
 11
3.036
 21
3.11652
 31
0.0
  0
LINE
  8
0
  6
CONTINUOUS
 62
   250
 10
3.036
 20
3.11652
 30
0.0
 11
3.036
 21
3.12268
 31
0.0
  0
LINE
  8
0
  6
CONTINUOUS
 62
   250
 10
3.036
 20
3.12268
 30
0.0
 11
3.03336
 21
3.12268
 31
0.0
  0
LINE
  8
0
  6
CONTINUOUS
 62
   250
 10
3.03292
 20
3.13544
 30
0.0
 11
3.05184
 21
3.13544
 31
0.0
  0
LINE
  8
0
  6
CONTINUOUS
 62
   250
 10
3.05184
 20
3.1482
 30
0.0
 11
3.03292
 21
3.1482
 31
0.0
  0
LINE
  8
0
  6
CONTINUOUS
 62
   250
 10
3.02984
 20
3.1482
 30
0.0
 11
3.036
 21
3.1482
 31
0.0
  0
LINE
  8
0
  6
CONTINUOUS
 62
   250
 10
3.036
 20
3.1482
 30
0.0
 11
3.02984
 21
3.1482
 31
0.0
  0
LINE
  8
0
  6
CONTINUOUS
 62
   250
 10
3.02632
 20
3.1482
 30
0.0
 11
3.058
 21
3.1482
 31
0.0
  0
LINE
  8
0
  6
CONTINUOUS
 62
   250
 10
3.058
 20
3.1482
 30
0.0
 11
3.058
 21
3.1636
 31
0.0
  0
LINE
  8
0
  6
CONTINUOUS
 62
   250
 10
3.058
 20
3.1636
 30
0.0
 11
3.058
 21
3.17944
 31
0.0
  0
LINE
  8
0
  6
CONTINUOUS
 62
   250
 10
3.058
 20
3.17944
 30
0.0
 11
3.02632
 21
3.17944
 31
0.0
  0
LINE
  8
0
  6
CONTINUOUS
 62
   250
 10
3.02632
 20
3.17944
 30
0.0
 11
3.02632
 21
3.1636
 31
0.0
  0
LINE
  8
0
  6
CONTINUOUS
 62
   250
 10
3.02632
 20
3.1636
 30
0.0
 11
3.02632
 21
3.1482
 31
0.0
  0
LINE
  8
0
  6
CONTINUOUS
 62
   250
 10
3.03468
 20
3.15788
 30
0.0
 11
3.03688
 21
3.15612
 31
0.0
  0
LINE
  8
0
  6
CONTINUOUS
 62
   250
 10
3.03688
 20
3.15612
 30
0.0
 11
3.03952
 21
3.1548
 31
0.0
  0
LINE
  8
0
  6
CONTINUOUS
 62
   250
 10
3.03952
 20
3.1548
 30
0.0
 11
3.0426
 21
3.15436
 31
0.0
  0
LINE
  8
0
  6
CONTINUOUS
 62
   250
 10
3.0426
 20
3.15436
 30
0.0
 11
3.04524
 21
3.1548
 31
0.0
  0
LINE
  8
0
  6
CONTINUOUS
 62
   250
 10
3.04524
 20
3.1548
 30
0.0
 11
3.04788
 21
3.15612
 31
0.0
  0
LINE
  8
0
  6
CONTINUOUS
 62
   250
 10
3.04788
 20
3.15612
 30
0.0
 11
3.05008
 21
3.15788
 31
0.0
  0
LINE
  8
0
  6
CONTINUOUS
 62
   250
 10
3.05008
 20
3.15788
 30
0.0
 11
3.0514
 21
3.16096
 31
0.0
  0
LINE
  8
0
  6
CONTINUOUS
 62
   250
 10
3.0514
 20
3.16096
 30
0.0
 11
3.05184
 21
3.1636
 31
0.0
  0
LINE
  8
0
  6
CONTINUOUS
 62
   250
 10
3.05184
 20
3.1636
 30
0.0
 11
3.0514
 21
3.16668
 31
0.0
  0
LINE
  8
0
  6
CONTINUOUS
 62
   250
 10
3.0514
 20
3.16668
 30
0.0
 11
3.05008
 21
3.16932
 31
0.0
  0
LINE
  8
0
  6
CONTINUOUS
 62
   250
 10
3.05008
 20
3.16932
 30
0.0
 11
3.04788
 21
3.17108
 31
0.0
  0
LINE
  8
0
  6
CONTINUOUS
 62
   250
 10
3.04788
 20
3.17108
 30
0.0
 11
3.04524
 21
3.17284
 31
0.0
  0
LINE
  8
0
  6
CONTINUOUS
 62
   250
 10
3.04524
 20
3.17284
 30
0.0
 11
3.0426
 21
3.17328
 31
0.0
  0
LINE
  8
0
  6
CONTINUOUS
 62
   250
 10
3.0426
 20
3.17328
 30
0.0
 11
3.03952
 21
3.17284
 31
0.0
  0
LINE
  8
0
  6
CONTINUOUS
 62
   250
 10
3.03952
 20
3.17284
 30
0.0
 11
3.03688
 21
3.17108
 31
0.0
  0
LINE
  8
0
  6
CONTINUOUS
 62
   250
 10
3.03688
 20
3.17108
 30
0.0
 11
3.03468
 21
3.16932
 31
0.0
  0
LINE
  8
0
  6
CONTINUOUS
 62
   250
 10
3.03468
 20
3.16932
 30
0.0
 11
3.03336
 21
3.16668
 31
0.0
  0
LINE
  8
0
  6
CONTINUOUS
 62
   250
 10
3.03336
 20
3.16668
 30
0.0
 11
3.03292
 21
3.1636
 31
0.0
  0
LINE
  8
0
  6
CONTINUOUS
 62
   250
 10
3.03292
 20
3.1636
 30
0.0
 11
3.03336
 21
3.16096
 31
0.0
  0
LINE
  8
0
  6
CONTINUOUS
 62
   250
 10
3.03336
 20
3.16096
 30
0.0
 11
3.03468
 21
3.15788
 31
0.0
  0
LINE
  8
0
  6
CONTINUOUS
 62
   250
 10
3.036
 20
3.16052
 30
0.0
 11
3.036
 21
3.16712
 31
0.0
  0
LINE
  8
0
  6
CONTINUOUS
 62
   250
 10
3.036
 20
3.16712
 30
0.0
 11
3.03336
 21
3.16712
 31
0.0
  0
LINE
  8
0
  6
CONTINUOUS
 62
   250
 10
3.03336
 20
3.16052
 30
0.0
 11
3.036
 21
3.16052
 31
0.0
  0
LINE
  8
0
  6
CONTINUOUS
 62
   250
 10
3.03292
 20
3.17944
 30
0.0
 11
3.05184
 21
3.17944
 31
0.0
  0
LINE
  8
0
  6
CONTINUOUS
 62
   250
 10
3.058
 20
3.34356
 30
0.0
 11
3.02632
 21
3.34356
 31
0.0
  0
LINE
  8
0
  6
CONTINUOUS
 62
   250
 10
3.03468
 20
3.35368
 30
0.0
 11
3.03688
 21
3.35148
 31
0.0
  0
LINE
  8
0
  6
CONTINUOUS
 62
   250
 10
3.03688
 20
3.35148
 30
0.0
 11
3.03952
 21
3.35016
 31
0.0
  0
LINE
  8
0
  6
CONTINUOUS
 62
   250
 10
3.03952
 20
3.35016
 30
0.0
 11
3.0426
 21
3.34972
 31
0.0
  0
LINE
  8
0
  6
CONTINUOUS
 62
   250
 10
3.0426
 20
3.34972
 30
0.0
 11
3.04524
 21
3.35016
 31
0.0
  0
LINE
  8
0
  6
CONTINUOUS
 62
   250
 10
3.04524
 20
3.35016
 30
0.0
 11
3.04788
 21
3.35148
 31
0.0
  0
LINE
  8
0
  6
CONTINUOUS
 62
   250
 10
3.04788
 20
3.35148
 30
0.0
 11
3.05008
 21
3.35368
 31
0.0
  0
LINE
  8
0
  6
CONTINUOUS
 62
   250
 10
3.05008
 20
3.35368
 30
0.0
 11
3.0514
 21
3.35632
 31
0.0
  0
LINE
  8
0
  6
CONTINUOUS
 62
   250
 10
3.0514
 20
3.35632
 30
0.0
 11
3.05184
 21
3.3594
 31
0.0
  0
LINE
  8
0
  6
CONTINUOUS
 62
   250
 10
3.05184
 20
3.3594
 30
0.0
 11
3.0514
 21
3.36204
 31
0.0
  0
LINE
  8
0
  6
CONTINUOUS
 62
   250
 10
3.0514
 20
3.36204
 30
0.0
 11
3.05008
 21
3.36468
 31
0.0
  0
LINE
  8
0
  6
CONTINUOUS
 62
   250
 10
3.05008
 20
3.36468
 30
0.0
 11
3.04788
 21
3.36688
 31
0.0
  0
LINE
  8
0
  6
CONTINUOUS
 62
   250
 10
3.04788
 20
3.36688
 30
0.0
 11
3.04524
 21
3.3682
 31
0.0
  0
LINE
  8
0
  6
CONTINUOUS
 62
   250
 10
3.04524
 20
3.3682
 30
0.0
 11
3.0426
 21
3.36864
 31
0.0
  0
LINE
  8
0
  6
CONTINUOUS
 62
   250
 10
3.0426
 20
3.36864
 30
0.0
 11
3.03952
 21
3.3682
 31
0.0
  0
LINE
  8
0
  6
CONTINUOUS
 62
   250
 10
3.03952
 20
3.3682
 30
0.0
 11
3.03688
 21
3.36688
 31
0.0
  0
LINE
  8
0
  6
CONTINUOUS
 62
   250
 10
3.03688
 20
3.36688
 30
0.0
 11
3.03468
 21
3.36468
 31
0.0
  0
LINE
  8
0
  6
CONTINUOUS
 62
   250
 10
3.03468
 20
3.36468
 30
0.0
 11
3.03336
 21
3.36204
 31
0.0
  0
LINE
  8
0
  6
CONTINUOUS
 62
   250
 10
3.03336
 20
3.36204
 30
0.0
 11
3.03292
 21
3.3594
 31
0.0
  0
LINE
  8
0
  6
CONTINUOUS
 62
   250
 10
3.03292
 20
3.3594
 30
0.0
 11
3.03336
 21
3.35632
 31
0.0
  0
LINE
  8
0
  6
CONTINUOUS
 62
   250
 10
3.03336
 20
3.35632
 30
0.0
 11
3.03468
 21
3.35368
 31
0.0
  0
LINE
  8
0
  6
CONTINUOUS
 62
   250
 10
3.036
 20
3.35588
 30
0.0
 11
3.036
 21
3.36248
 31
0.0
  0
LINE
  8
0
  6
CONTINUOUS
 62
   250
 10
3.036
 20
3.36248
 30
0.0
 11
3.03336
 21
3.36248
 31
0.0
  0
LINE
  8
0
  6
CONTINUOUS
 62
   250
 10
3.03336
 20
3.35588
 30
0.0
 11
3.036
 21
3.35588
 31
0.0
  0
LINE
  8
0
  6
CONTINUOUS
 62
   250
 10
3.036
 20
3.34356
 30
0.0
 11
3.02984
 21
3.34356
 31
0.0
  0
LINE
  8
0
  6
CONTINUOUS
 62
   250
 10
3.02984
 20
3.34356
 30
0.0
 11
3.036
 21
3.34356
 31
0.0
  0
LINE
  8
0
  6
CONTINUOUS
 62
   250
 10
3.03292
 20
3.34356
 30
0.0
 11
3.05184
 21
3.34356
 31
0.0
  0
LINE
  8
0
  6
CONTINUOUS
 62
   250
 10
3.058
 20
3.34356
 30
0.0
 11
3.058
 21
3.3594
 31
0.0
  0
LINE
  8
0
  6
CONTINUOUS
 62
   250
 10
3.058
 20
3.3594
 30
0.0
 11
3.058
 21
3.3748
 31
0.0
  0
LINE
  8
0
  6
CONTINUOUS
 62
   250
 10
3.058
 20
3.3748
 30
0.0
 11
3.02632
 21
3.3748
 31
0.0
  0
LINE
  8
0
  6
CONTINUOUS
 62
   250
 10
3.02632
 20
3.3748
 30
0.0
 11
3.02632
 21
3.3594
 31
0.0
  0
LINE
  8
0
  6
CONTINUOUS
 62
   250
 10
3.02632
 20
3.3594
 30
0.0
 11
3.02632
 21
3.34356
 31
0.0
  0
LINE
  8
0
  6
CONTINUOUS
 62
   250
 10
3.03292
 20
3.3748
 30
0.0
 11
3.05184
 21
3.3748
 31
0.0
  0
LINE
  8
0
  6
CONTINUOUS
 62
   250
 10
3.05184
 20
3.38756
 30
0.0
 11
3.03292
 21
3.38756
 31
0.0
  0
LINE
  8
0
  6
CONTINUOUS
 62
   250
 10
3.02984
 20
3.38756
 30
0.0
 11
3.036
 21
3.38756
 31
0.0
  0
LINE
  8
0
  6
CONTINUOUS
 62
   250
 10
3.036
 20
3.38756
 30
0.0
 11
3.02984
 21
3.38756
 31
0.0
  0
LINE
  8
0
  6
CONTINUOUS
 62
   250
 10
3.02632
 20
3.38756
 30
0.0
 11
3.058
 21
3.38756
 31
0.0
  0
LINE
  8
0
  6
CONTINUOUS
 62
   250
 10
3.058
 20
3.38756
 30
0.0
 11
3.058
 21
3.40296
 31
0.0
  0
LINE
  8
0
  6
CONTINUOUS
 62
   250
 10
3.058
 20
3.40296
 30
0.0
 11
3.058
 21
3.4188
 31
0.0
  0
LINE
  8
0
  6
CONTINUOUS
 62
   250
 10
3.058
 20
3.4188
 30
0.0
 11
3.02632
 21
3.4188
 31
0.0
  0
LINE
  8
0
  6
CONTINUOUS
 62
   250
 10
3.02632
 20
3.4188
 30
0.0
 11
3.02632
 21
3.40296
 31
0.0
  0
LINE
  8
0
  6
CONTINUOUS
 62
   250
 10
3.02632
 20
3.40296
 30
0.0
 11
3.02632
 21
3.38756
 31
0.0
  0
LINE
  8
0
  6
CONTINUOUS
 62
   250
 10
3.03468
 20
3.39768
 30
0.0
 11
3.03688
 21
3.39548
 31
0.0
  0
LINE
  8
0
  6
CONTINUOUS
 62
   250
 10
3.03688
 20
3.39548
 30
0.0
 11
3.03952
 21
3.39416
 31
0.0
  0
LINE
  8
0
  6
CONTINUOUS
 62
   250
 10
3.03952
 20
3.39416
 30
0.0
 11
3.0426
 21
3.39372
 31
0.0
  0
LINE
  8
0
  6
CONTINUOUS
 62
   250
 10
3.0426
 20
3.39372
 30
0.0
 11
3.04524
 21
3.39416
 31
0.0
  0
LINE
  8
0
  6
CONTINUOUS
 62
   250
 10
3.04524
 20
3.39416
 30
0.0
 11
3.04788
 21
3.39548
 31
0.0
  0
LINE
  8
0
  6
CONTINUOUS
 62
   250
 10
3.04788
 20
3.39548
 30
0.0
 11
3.05008
 21
3.39768
 31
0.0
  0
LINE
  8
0
  6
CONTINUOUS
 62
   250
 10
3.05008
 20
3.39768
 30
0.0
 11
3.0514
 21
3.40032
 31
0.0
  0
LINE
  8
0
  6
CONTINUOUS
 62
   250
 10
3.0514
 20
3.40032
 30
0.0
 11
3.05184
 21
3.40296
 31
0.0
  0
LINE
  8
0
  6
CONTINUOUS
 62
   250
 10
3.05184
 20
3.40296
 30
0.0
 11
3.0514
 21
3.40604
 31
0.0
  0
LINE
  8
0
  6
CONTINUOUS
 62
   250
 10
3.0514
 20
3.40604
 30
0.0
 11
3.05008
 21
3.40868
 31
0.0
  0
LINE
  8
0
  6
CONTINUOUS
 62
   250
 10
3.05008
 20
3.40868
 30
0.0
 11
3.04788
 21
3.41088
 31
0.0
  0
LINE
  8
0
  6
CONTINUOUS
 62
   250
 10
3.04788
 20
3.41088
 30
0.0
 11
3.04524
 21
3.4122
 31
0.0
  0
LINE
  8
0
  6
CONTINUOUS
 62
   250
 10
3.04524
 20
3.4122
 30
0.0
 11
3.0426
 21
3.41264
 31
0.0
  0
LINE
  8
0
  6
CONTINUOUS
 62
   250
 10
3.0426
 20
3.41264
 30
0.0
 11
3.03952
 21
3.4122
 31
0.0
  0
LINE
  8
0
  6
CONTINUOUS
 62
   250
 10
3.03952
 20
3.4122
 30
0.0
 11
3.03688
 21
3.41088
 31
0.0
  0
LINE
  8
0
  6
CONTINUOUS
 62
   250
 10
3.03688
 20
3.41088
 30
0.0
 11
3.03468
 21
3.40868
 31
0.0
  0
LINE
  8
0
  6
CONTINUOUS
 62
   250
 10
3.03468
 20
3.40868
 30
0.0
 11
3.03336
 21
3.40604
 31
0.0
  0
LINE
  8
0
  6
CONTINUOUS
 62
   250
 10
3.03336
 20
3.40604
 30
0.0
 11
3.03292
 21
3.40296
 31
0.0
  0
LINE
  8
0
  6
CONTINUOUS
 62
   250
 10
3.03292
 20
3.40296
 30
0.0
 11
3.03336
 21
3.40032
 31
0.0
  0
LINE
  8
0
  6
CONTINUOUS
 62
   250
 10
3.03336
 20
3.40032
 30
0.0
 11
3.03468
 21
3.39768
 31
0.0
  0
LINE
  8
0
  6
CONTINUOUS
 62
   250
 10
3.03336
 20
3.40032
 30
0.0
 11
3.036
 21
3.40032
 31
0.0
  0
LINE
  8
0
  6
CONTINUOUS
 62
   250
 10
3.036
 20
3.40032
 30
0.0
 11
3.036
 21
3.40648
 31
0.0
  0
LINE
  8
0
  6
CONTINUOUS
 62
   250
 10
3.036
 20
3.40648
 30
0.0
 11
3.03336
 21
3.40648
 31
0.0
  0
LINE
  8
0
  6
CONTINUOUS
 62
   250
 10
3.03292
 20
3.4188
 30
0.0
 11
3.05184
 21
3.4188
 31
0.0
  0
LINE
  8
0
  6
CONTINUOUS
 62
   250
 10
3.04788
 20
3.2912
 30
0.0
 11
3.04524
 21
3.29252
 31
0.0
  0
LINE
  8
0
  6
CONTINUOUS
 62
   250
 10
3.04524
 20
3.29252
 30
0.0
 11
3.0426
 21
3.29296
 31
0.0
  0
LINE
  8
0
  6
CONTINUOUS
 62
   250
 10
3.0426
 20
3.29296
 30
0.0
 11
3.03952
 21
3.29252
 31
0.0
  0
LINE
  8
0
  6
CONTINUOUS
 62
   250
 10
3.03952
 20
3.29252
 30
0.0
 11
3.03688
 21
3.2912
 31
0.0
  0
LINE
  8
0
  6
CONTINUOUS
 62
   250
 10
3.03688
 20
3.2912
 30
0.0
 11
3.03468
 21
3.289
 31
0.0
  0
LINE
  8
0
  6
CONTINUOUS
 62
   250
 10
3.03468
 20
3.289
 30
0.0
 11
3.03336
 21
3.28636
 31
0.0
  0
LINE
  8
0
  6
CONTINUOUS
 62
   250
 10
3.03336
 20
3.28636
 30
0.0
 11
3.03292
 21
3.28328
 31
0.0
  0
LINE
  8
0
  6
CONTINUOUS
 62
   250
 10
3.03292
 20
3.28328
 30
0.0
 11
3.03336
 21
3.28064
 31
0.0
  0
LINE
  8
0
  6
CONTINUOUS
 62
   250
 10
3.03336
 20
3.28064
 30
0.0
 11
3.03468
 21
3.278
 31
0.0
  0
LINE
  8
0
  6
CONTINUOUS
 62
   250
 10
3.03468
 20
3.278
 30
0.0
 11
3.03688
 21
3.2758
 31
0.0
  0
LINE
  8
0
  6
CONTINUOUS
 62
   250
 10
3.03688
 20
3.2758
 30
0.0
 11
3.03952
 21
3.27448
 31
0.0
  0
LINE
  8
0
  6
CONTINUOUS
 62
   250
 10
3.03952
 20
3.27448
 30
0.0
 11
3.0426
 21
3.27404
 31
0.0
  0
LINE
  8
0
  6
CONTINUOUS
 62
   250
 10
3.0426
 20
3.27404
 30
0.0
 11
3.04524
 21
3.27448
 31
0.0
  0
LINE
  8
0
  6
CONTINUOUS
 62
   250
 10
3.04524
 20
3.27448
 30
0.0
 11
3.04788
 21
3.2758
 31
0.0
  0
LINE
  8
0
  6
CONTINUOUS
 62
   250
 10
3.04788
 20
3.2758
 30
0.0
 11
3.05008
 21
3.278
 31
0.0
  0
LINE
  8
0
  6
CONTINUOUS
 62
   250
 10
3.05008
 20
3.278
 30
0.0
 11
3.0514
 21
3.28064
 31
0.0
  0
LINE
  8
0
  6
CONTINUOUS
 62
   250
 10
3.0514
 20
3.28064
 30
0.0
 11
3.05184
 21
3.28328
 31
0.0
  0
LINE
  8
0
  6
CONTINUOUS
 62
   250
 10
3.05184
 20
3.28328
 30
0.0
 11
3.0514
 21
3.28636
 31
0.0
  0
LINE
  8
0
  6
CONTINUOUS
 62
   250
 10
3.0514
 20
3.28636
 30
0.0
 11
3.05008
 21
3.289
 31
0.0
  0
LINE
  8
0
  6
CONTINUOUS
 62
   250
 10
3.05008
 20
3.289
 30
0.0
 11
3.04788
 21
3.2912
 31
0.0
  0
LINE
  8
0
  6
CONTINUOUS
 62
   250
 10
3.05184
 20
3.29912
 30
0.0
 11
3.03292
 21
3.29912
 31
0.0
  0
LINE
  8
0
  6
CONTINUOUS
 62
   250
 10
3.02632
 20
3.29912
 30
0.0
 11
3.058
 21
3.29912
 31
0.0
  0
LINE
  8
0
  6
CONTINUOUS
 62
   250
 10
3.058
 20
3.26788
 30
0.0
 11
3.02632
 21
3.26788
 31
0.0
  0
LINE
  8
0
  6
CONTINUOUS
 62
   250
 10
3.02632
 20
3.26788
 30
0.0
 11
3.02632
 21
3.28328
 31
0.0
  0
LINE
  8
0
  6
CONTINUOUS
 62
   250
 10
3.02632
 20
3.28328
 30
0.0
 11
3.02632
 21
3.29912
 31
0.0
  0
LINE
  8
0
  6
CONTINUOUS
 62
   250
 10
3.03336
 20
3.2868
 30
0.0
 11
3.036
 21
3.2868
 31
0.0
  0
LINE
  8
0
  6
CONTINUOUS
 62
   250
 10
3.036
 20
3.2868
 30
0.0
 11
3.036
 21
3.2802
 31
0.0
  0
LINE
  8
0
  6
CONTINUOUS
 62
   250
 10
3.036
 20
3.2802
 30
0.0
 11
3.03336
 21
3.2802
 31
0.0
  0
LINE
  8
0
  6
CONTINUOUS
 62
   250
 10
3.03292
 20
3.26788
 30
0.0
 11
3.05184
 21
3.26788
 31
0.0
  0
LINE
  8
0
  6
CONTINUOUS
 62
   250
 10
3.058
 20
3.26788
 30
0.0
 11
3.058
 21
3.28328
 31
0.0
  0
LINE
  8
0
  6
CONTINUOUS
 62
   250
 10
3.058
 20
3.28328
 30
0.0
 11
3.058
 21
3.29912
 31
0.0
  0
LINE
  8
0
  6
CONTINUOUS
 62
   250
 10
3.058
 20
3.25512
 30
0.0
 11
3.02632
 21
3.25512
 31
0.0
  0
LINE
  8
0
  6
CONTINUOUS
 62
   250
 10
3.02632
 20
3.25512
 30
0.0
 11
3.02632
 21
3.23928
 31
0.0
  0
LINE
  8
0
  6
CONTINUOUS
 62
   250
 10
3.02632
 20
3.23928
 30
0.0
 11
3.02632
 21
3.22344
 31
0.0
  0
LINE
  8
0
  6
CONTINUOUS
 62
   250
 10
3.02632
 20
3.22344
 30
0.0
 11
3.058
 21
3.22344
 31
0.0
  0
LINE
  8
0
  6
CONTINUOUS
 62
   250
 10
3.058
 20
3.22344
 30
0.0
 11
3.058
 21
3.23928
 31
0.0
  0
LINE
  8
0
  6
CONTINUOUS
 62
   250
 10
3.058
 20
3.23928
 30
0.0
 11
3.058
 21
3.25512
 31
0.0
  0
LINE
  8
0
  6
CONTINUOUS
 62
   250
 10
3.05184
 20
3.25512
 30
0.0
 11
3.03292
 21
3.25512
 31
0.0
  0
LINE
  8
0
  6
CONTINUOUS
 62
   250
 10
3.03688
 20
3.2472
 30
0.0
 11
3.03468
 21
3.245
 31
0.0
  0
LINE
  8
0
  6
CONTINUOUS
 62
   250
 10
3.03468
 20
3.245
 30
0.0
 11
3.03336
 21
3.24236
 31
0.0
  0
LINE
  8
0
  6
CONTINUOUS
 62
   250
 10
3.03336
 20
3.24236
 30
0.0
 11
3.03292
 21
3.23928
 31
0.0
  0
LINE
  8
0
  6
CONTINUOUS
 62
   250
 10
3.03292
 20
3.23928
 30
0.0
 11
3.03336
 21
3.23664
 31
0.0
  0
LINE
  8
0
  6
CONTINUOUS
 62
   250
 10
3.03336
 20
3.23664
 30
0.0
 11
3.03468
 21
3.234
 31
0.0
  0
LINE
  8
0
  6
CONTINUOUS
 62
   250
 10
3.03468
 20
3.234
 30
0.0
 11
3.03688
 21
3.2318
 31
0.0
  0
LINE
  8
0
  6
CONTINUOUS
 62
   250
 10
3.03688
 20
3.2318
 30
0.0
 11
3.03952
 21
3.23048
 31
0.0
  0
LINE
  8
0
  6
CONTINUOUS
 62
   250
 10
3.03952
 20
3.23048
 30
0.0
 11
3.0426
 21
3.23004
 31
0.0
  0
LINE
  8
0
  6
CONTINUOUS
 62
   250
 10
3.0426
 20
3.23004
 30
0.0
 11
3.04524
 21
3.23048
 31
0.0
  0
LINE
  8
0
  6
CONTINUOUS
 62
   250
 10
3.04524
 20
3.23048
 30
0.0
 11
3.04788
 21
3.2318
 31
0.0
  0
LINE
  8
0
  6
CONTINUOUS
 62
   250
 10
3.04788
 20
3.2318
 30
0.0
 11
3.05008
 21
3.234
 31
0.0
  0
LINE
  8
0
  6
CONTINUOUS
 62
   250
 10
3.05008
 20
3.234
 30
0.0
 11
3.0514
 21
3.23664
 31
0.0
  0
LINE
  8
0
  6
CONTINUOUS
 62
   250
 10
3.0514
 20
3.23664
 30
0.0
 11
3.05184
 21
3.23928
 31
0.0
  0
LINE
  8
0
  6
CONTINUOUS
 62
   250
 10
3.05184
 20
3.23928
 30
0.0
 11
3.0514
 21
3.24236
 31
0.0
  0
LINE
  8
0
  6
CONTINUOUS
 62
   250
 10
3.0514
 20
3.24236
 30
0.0
 11
3.05008
 21
3.245
 31
0.0
  0
LINE
  8
0
  6
CONTINUOUS
 62
   250
 10
3.05008
 20
3.245
 30
0.0
 11
3.04788
 21
3.2472
 31
0.0
  0
LINE
  8
0
  6
CONTINUOUS
 62
   250
 10
3.04788
 20
3.2472
 30
0.0
 11
3.04524
 21
3.24852
 31
0.0
  0
LINE
  8
0
  6
CONTINUOUS
 62
   250
 10
3.04524
 20
3.24852
 30
0.0
 11
3.0426
 21
3.24896
 31
0.0
  0
LINE
  8
0
  6
CONTINUOUS
 62
   250
 10
3.0426
 20
3.24896
 30
0.0
 11
3.03952
 21
3.24852
 31
0.0
  0
LINE
  8
0
  6
CONTINUOUS
 62
   250
 10
3.03952
 20
3.24852
 30
0.0
 11
3.03688
 21
3.2472
 31
0.0
  0
LINE
  8
0
  6
CONTINUOUS
 62
   250
 10
3.036
 20
3.24236
 30
0.0
 11
3.03336
 21
3.24236
 31
0.0
  0
LINE
  8
0
  6
CONTINUOUS
 62
   250
 10
3.036
 20
3.24236
 30
0.0
 11
3.036
 21
3.2362
 31
0.0
  0
LINE
  8
0
  6
CONTINUOUS
 62
   250
 10
3.036
 20
3.2362
 30
0.0
 11
3.03336
 21
3.2362
 31
0.0
  0
LINE
  8
0
  6
CONTINUOUS
 62
   250
 10
3.03292
 20
3.22344
 30
0.0
 11
3.05184
 21
3.22344
 31
0.0
  0
LINE
  8
0
  6
CONTINUOUS
 62
   250
 10
3.036
 20
3.22344
 30
0.0
 11
3.02984
 21
3.22344
 31
0.0
  0
LINE
  8
0
  6
CONTINUOUS
 62
   250
 10
3.02984
 20
3.22344
 30
0.0
 11
3.036
 21
3.22344
 31
0.0
  0
LINE
  8
0
  6
CONTINUOUS
 62
   250
 10
3.036
 20
3.26788
 30
0.0
 11
3.02984
 21
3.26788
 31
0.0
  0
LINE
  8
0
  6
CONTINUOUS
 62
   250
 10
3.02984
 20
3.26788
 30
0.0
 11
3.036
 21
3.26788
 31
0.0
  0
LINE
  8
0
  6
CONTINUOUS
 62
   250
 10
3.06768
 20
2.85164
 30
0.0
 11
2.97924
 21
2.85164
 31
0.0
  0
LINE
  8
0
  6
CONTINUOUS
 62
   250
 10
3.43288
 20
2.83624
 30
0.0
 11
3.43948
 21
2.83624
 31
0.0
  0
LINE
  8
0
  6
CONTINUOUS
 62
   250
 10
3.43948
 20
2.83624
 30
0.0
 11
3.4584
 21
2.83624
 31
0.0
  0
LINE
  8
0
  6
CONTINUOUS
 62
   250
 10
3.48656
 20
2.83624
 30
0.0
 11
3.48656
 21
2.85164
 31
0.0
  0
LINE
  8
0
  6
CONTINUOUS
 62
   250
 10
3.48656
 20
2.85164
 30
0.0
 11
3.51824
 21
2.85164
 31
0.0
  0
LINE
  8
0
  6
CONTINUOUS
 62
   250
 10
3.51824
 20
2.85164
 30
0.0
 11
3.51824
 21
2.83624
 31
0.0
  0
LINE
  8
0
  6
CONTINUOUS
 62
   250
 10
3.51824
 20
2.83624
 30
0.0
 11
3.51824
 21
2.8204
 31
0.0
  0
LINE
  8
0
  6
CONTINUOUS
 62
   250
 10
3.51824
 20
2.8204
 30
0.0
 11
3.48656
 21
2.8204
 31
0.0
  0
LINE
  8
0
  6
CONTINUOUS
 62
   250
 10
3.48656
 20
2.8204
 30
0.0
 11
3.48656
 21
2.83624
 31
0.0
  0
LINE
  8
0
  6
CONTINUOUS
 62
   250
 10
3.49272
 20
2.83624
 30
0.0
 11
3.49316
 21
2.83316
 31
0.0
  0
LINE
  8
0
  6
CONTINUOUS
 62
   250
 10
3.49316
 20
2.83316
 30
0.0
 11
3.49448
 21
2.83052
 31
0.0
  0
LINE
  8
0
  6
CONTINUOUS
 62
   250
 10
3.49448
 20
2.83052
 30
0.0
 11
3.49668
 21
2.82832
 31
0.0
  0
LINE
  8
0
  6
CONTINUOUS
 62
   250
 10
3.49668
 20
2.82832
 30
0.0
 11
3.49932
 21
2.827
 31
0.0
  0
LINE
  8
0
  6
CONTINUOUS
 62
   250
 10
3.49932
 20
2.827
 30
0.0
 11
3.5024
 21
2.82656
 31
0.0
  0
LINE
  8
0
  6
CONTINUOUS
 62
   250
 10
3.5024
 20
2.82656
 30
0.0
 11
3.50548
 21
2.827
 31
0.0
  0
LINE
  8
0
  6
CONTINUOUS
 62
   250
 10
3.50548
 20
2.827
 30
0.0
 11
3.50768
 21
2.82832
 31
0.0
  0
LINE
  8
0
  6
CONTINUOUS
 62
   250
 10
3.50768
 20
2.82832
 30
0.0
 11
3.50988
 21
2.83052
 31
0.0
  0
LINE
  8
0
  6
CONTINUOUS
 62
   250
 10
3.50988
 20
2.83052
 30
0.0
 11
3.5112
 21
2.83316
 31
0.0
  0
LINE
  8
0
  6
CONTINUOUS
 62
   250
 10
3.5112
 20
2.83316
 30
0.0
 11
3.51164
 21
2.83624
 31
0.0
  0
LINE
  8
0
  6
CONTINUOUS
 62
   250
 10
3.51164
 20
2.83624
 30
0.0
 11
3.5112
 21
2.83888
 31
0.0
  0
LINE
  8
0
  6
CONTINUOUS
 62
   250
 10
3.5112
 20
2.83888
 30
0.0
 11
3.50988
 21
2.84152
 31
0.0
  0
LINE
  8
0
  6
CONTINUOUS
 62
   250
 10
3.50988
 20
2.84152
 30
0.0
 11
3.50768
 21
2.84372
 31
0.0
  0
LINE
  8
0
  6
CONTINUOUS
 62
   250
 10
3.50768
 20
2.84372
 30
0.0
 11
3.50548
 21
2.84504
 31
0.0
  0
LINE
  8
0
  6
CONTINUOUS
 62
   250
 10
3.50548
 20
2.84504
 30
0.0
 11
3.5024
 21
2.84548
 31
0.0
  0
LINE
  8
0
  6
CONTINUOUS
 62
   250
 10
3.5024
 20
2.84548
 30
0.0
 11
3.49932
 21
2.84504
 31
0.0
  0
LINE
  8
0
  6
CONTINUOUS
 62
   250
 10
3.49932
 20
2.84504
 30
0.0
 11
3.49668
 21
2.84372
 31
0.0
  0
LINE
  8
0
  6
CONTINUOUS
 62
   250
 10
3.49668
 20
2.84372
 30
0.0
 11
3.49448
 21
2.84152
 31
0.0
  0
LINE
  8
0
  6
CONTINUOUS
 62
   250
 10
3.49448
 20
2.84152
 30
0.0
 11
3.49316
 21
2.83888
 31
0.0
  0
LINE
  8
0
  6
CONTINUOUS
 62
   250
 10
3.49316
 20
2.83888
 30
0.0
 11
3.49272
 21
2.83624
 31
0.0
  0
LINE
  8
0
  6
CONTINUOUS
 62
   250
 10
3.49272
 20
2.8204
 30
0.0
 11
3.51164
 21
2.8204
 31
0.0
  0
LINE
  8
0
  6
CONTINUOUS
 62
   250
 10
3.49624
 20
2.8204
 30
0.0
 11
3.48964
 21
2.8204
 31
0.0
  0
LINE
  8
0
  6
CONTINUOUS
 62
   250
 10
3.48964
 20
2.8204
 30
0.0
 11
3.49624
 21
2.8204
 31
0.0
  0
LINE
  8
0
  6
CONTINUOUS
 62
   250
 10
3.49272
 20
2.85164
 30
0.0
 11
3.51164
 21
2.85164
 31
0.0
  0
LINE
  8
0
  6
CONTINUOUS
 62
   250
 10
3.51164
 20
2.8644
 30
0.0
 11
3.49272
 21
2.8644
 31
0.0
  0
LINE
  8
0
  6
CONTINUOUS
 62
   250
 10
3.48964
 20
2.8644
 30
0.0
 11
3.49624
 21
2.8644
 31
0.0
  0
LINE
  8
0
  6
CONTINUOUS
 62
   250
 10
3.49624
 20
2.8644
 30
0.0
 11
3.48964
 21
2.8644
 31
0.0
  0
LINE
  8
0
  6
CONTINUOUS
 62
   250
 10
3.48656
 20
2.8644
 30
0.0
 11
3.51824
 21
2.8644
 31
0.0
  0
LINE
  8
0
  6
CONTINUOUS
 62
   250
 10
3.51824
 20
2.8644
 30
0.0
 11
3.51824
 21
2.88024
 31
0.0
  0
LINE
  8
0
  6
CONTINUOUS
 62
   250
 10
3.51824
 20
2.88024
 30
0.0
 11
3.51824
 21
2.89608
 31
0.0
  0
LINE
  8
0
  6
CONTINUOUS
 62
   250
 10
3.51824
 20
2.89608
 30
0.0
 11
3.48656
 21
2.89608
 31
0.0
  0
LINE
  8
0
  6
CONTINUOUS
 62
   250
 10
3.48656
 20
2.89608
 30
0.0
 11
3.48656
 21
2.88024
 31
0.0
  0
LINE
  8
0
  6
CONTINUOUS
 62
   250
 10
3.48656
 20
2.88024
 30
0.0
 11
3.48656
 21
2.8644
 31
0.0
  0
LINE
  8
0
  6
CONTINUOUS
 62
   250
 10
3.49448
 20
2.87452
 30
0.0
 11
3.49668
 21
2.87232
 31
0.0
  0
LINE
  8
0
  6
CONTINUOUS
 62
   250
 10
3.49668
 20
2.87232
 30
0.0
 11
3.49932
 21
2.871
 31
0.0
  0
LINE
  8
0
  6
CONTINUOUS
 62
   250
 10
3.49932
 20
2.871
 30
0.0
 11
3.5024
 21
2.87056
 31
0.0
  0
LINE
  8
0
  6
CONTINUOUS
 62
   250
 10
3.5024
 20
2.87056
 30
0.0
 11
3.50548
 21
2.871
 31
0.0
  0
LINE
  8
0
  6
CONTINUOUS
 62
   250
 10
3.50548
 20
2.871
 30
0.0
 11
3.50768
 21
2.87232
 31
0.0
  0
LINE
  8
0
  6
CONTINUOUS
 62
   250
 10
3.50768
 20
2.87232
 30
0.0
 11
3.50988
 21
2.87452
 31
0.0
  0
LINE
  8
0
  6
CONTINUOUS
 62
   250
 10
3.50988
 20
2.87452
 30
0.0
 11
3.5112
 21
2.87716
 31
0.0
  0
LINE
  8
0
  6
CONTINUOUS
 62
   250
 10
3.5112
 20
2.87716
 30
0.0
 11
3.51164
 21
2.88024
 31
0.0
  0
LINE
  8
0
  6
CONTINUOUS
 62
   250
 10
3.51164
 20
2.88024
 30
0.0
 11
3.5112
 21
2.88288
 31
0.0
  0
LINE
  8
0
  6
CONTINUOUS
 62
   250
 10
3.5112
 20
2.88288
 30
0.0
 11
3.50988
 21
2.88552
 31
0.0
  0
LINE
  8
0
  6
CONTINUOUS
 62
   250
 10
3.50988
 20
2.88552
 30
0.0
 11
3.50768
 21
2.88772
 31
0.0
  0
LINE
  8
0
  6
CONTINUOUS
 62
   250
 10
3.50768
 20
2.88772
 30
0.0
 11
3.50548
 21
2.88904
 31
0.0
  0
LINE
  8
0
  6
CONTINUOUS
 62
   250
 10
3.50548
 20
2.88904
 30
0.0
 11
3.5024
 21
2.88948
 31
0.0
  0
LINE
  8
0
  6
CONTINUOUS
 62
   250
 10
3.5024
 20
2.88948
 30
0.0
 11
3.49932
 21
2.88904
 31
0.0
  0
LINE
  8
0
  6
CONTINUOUS
 62
   250
 10
3.49932
 20
2.88904
 30
0.0
 11
3.49668
 21
2.88772
 31
0.0
  0
LINE
  8
0
  6
CONTINUOUS
 62
   250
 10
3.49668
 20
2.88772
 30
0.0
 11
3.49448
 21
2.88552
 31
0.0
  0
LINE
  8
0
  6
CONTINUOUS
 62
   250
 10
3.49448
 20
2.88552
 30
0.0
 11
3.49316
 21
2.88288
 31
0.0
  0
LINE
  8
0
  6
CONTINUOUS
 62
   250
 10
3.49316
 20
2.88288
 30
0.0
 11
3.49272
 21
2.88024
 31
0.0
  0
LINE
  8
0
  6
CONTINUOUS
 62
   250
 10
3.49272
 20
2.88024
 30
0.0
 11
3.49316
 21
2.87716
 31
0.0
  0
LINE
  8
0
  6
CONTINUOUS
 62
   250
 10
3.49316
 20
2.87716
 30
0.0
 11
3.49448
 21
2.87452
 31
0.0
  0
LINE
  8
0
  6
CONTINUOUS
 62
   250
 10
3.49272
 20
2.89608
 30
0.0
 11
3.51164
 21
2.89608
 31
0.0
  0
LINE
  8
0
  6
CONTINUOUS
 62
   250
 10
3.4584
 20
2.88024
 30
0.0
 11
3.43288
 21
2.88024
 31
0.0
  0
LINE
  8
0
  6
CONTINUOUS
 62
   250
 10
3.43288
 20
2.88024
 30
0.0
 11
3.43288
 21
2.78872
 31
0.0
  0
LINE
  8
0
  6
CONTINUOUS
 62
   250
 10
3.43288
 20
2.78872
 30
0.0
 11
3.43948
 21
2.78872
 31
0.0
  0
LINE
  8
0
  6
CONTINUOUS
 62
   250
 10
3.60624
 20
2.79312
 30
0.0
 11
3.60844
 21
2.79488
 31
0.0
  0
LINE
  8
0
  6
CONTINUOUS
 62
   250
 10
3.60844
 20
2.79488
 30
0.0
 11
3.61284
 21
2.79488
 31
0.0
  0
LINE
  8
0
  6
CONTINUOUS
 62
   250
 10
3.61284
 20
2.79488
 30
0.0
 11
3.6146
 21
2.79312
 31
0.0
  0
LINE
  8
0
  6
CONTINUOUS
 62
   250
 10
3.6146
 20
2.78432
 30
0.0
 11
3.60624
 21
2.79312
 31
0.0
  0
LINE
  8
0
  6
CONTINUOUS
 62
   250
 10
3.60624
 20
2.78432
 30
0.0
 11
3.60844
 21
2.78256
 31
0.0
  0
LINE
  8
0
  6
CONTINUOUS
 62
   250
 10
3.60844
 20
2.78256
 30
0.0
 11
3.61284
 21
2.78256
 31
0.0
  0
LINE
  8
0
  6
CONTINUOUS
 62
   250
 10
3.61284
 20
2.78256
 30
0.0
 11
3.6146
 21
2.78432
 31
0.0
  0
LINE
  8
0
  6
CONTINUOUS
 62
   250
 10
3.619
 20
2.78256
 30
0.0
 11
3.619
 21
2.78652
 31
0.0
  0
LINE
  8
0
  6
CONTINUOUS
 62
   250
 10
3.619
 20
2.78652
 30
0.0
 11
3.6234
 21
2.79488
 31
0.0
  0
LINE
  8
0
  6
CONTINUOUS
 62
   250
 10
3.6234
 20
2.79488
 30
0.0
 11
3.62736
 21
2.78652
 31
0.0
  0
LINE
  8
0
  6
CONTINUOUS
 62
   250
 10
3.62736
 20
2.78652
 30
0.0
 11
3.62736
 21
2.78256
 31
0.0
  0
LINE
  8
0
  6
CONTINUOUS
 62
   250
 10
3.62736
 20
2.78652
 30
0.0
 11
3.619
 21
2.78652
 31
0.0
  0
LINE
  8
0
  6
CONTINUOUS
 62
   250
 10
3.619
 20
2.7698
 30
0.0
 11
3.619
 21
2.70688
 31
0.0
  0
LINE
  8
0
  6
CONTINUOUS
 62
   250
 10
3.62032
 20
2.69412
 30
0.0
 11
3.62032
 21
2.6818
 31
0.0
  0
LINE
  8
0
  6
CONTINUOUS
 62
   250
 10
3.6256
 20
2.6818
 30
0.0
 11
3.62428
 21
2.68356
 31
0.0
  0
LINE
  8
0
  6
CONTINUOUS
 62
   250
 10
3.62428
 20
2.68356
 30
0.0
 11
3.62428
 21
2.68576
 31
0.0
  0
LINE
  8
0
  6
CONTINUOUS
 62
   250
 10
3.62428
 20
2.68576
 30
0.0
 11
3.6256
 21
2.68796
 31
0.0
  0
LINE
  8
0
  6
CONTINUOUS
 62
   250
 10
3.6256
 20
2.68796
 30
0.0
 11
3.62824
 21
2.68796
 31
0.0
  0
LINE
  8
0
  6
CONTINUOUS
 62
   250
 10
3.62824
 20
2.68796
 30
0.0
 11
3.63
 21
2.69016
 31
0.0
  0
LINE
  8
0
  6
CONTINUOUS
 62
   250
 10
3.63
 20
2.69016
 30
0.0
 11
3.63
 21
2.69236
 31
0.0
  0
LINE
  8
0
  6
CONTINUOUS
 62
   250
 10
3.63
 20
2.69236
 30
0.0
 11
3.62824
 21
2.69412
 31
0.0
  0
LINE
  8
0
  6
CONTINUOUS
 62
   250
 10
3.62824
 20
2.69412
 30
0.0
 11
3.6256
 21
2.69412
 31
0.0
  0
LINE
  8
0
  6
CONTINUOUS
 62
   250
 10
3.6256
 20
2.69412
 30
0.0
 11
3.62428
 21
2.69236
 31
0.0
  0
LINE
  8
0
  6
CONTINUOUS
 62
   250
 10
3.62428
 20
2.69236
 30
0.0
 11
3.62428
 21
2.69016
 31
0.0
  0
LINE
  8
0
  6
CONTINUOUS
 62
   250
 10
3.62428
 20
2.69016
 30
0.0
 11
3.6256
 21
2.68796
 31
0.0
  0
LINE
  8
0
  6
CONTINUOUS
 62
   250
 10
3.62824
 20
2.68796
 30
0.0
 11
3.63
 21
2.68576
 31
0.0
  0
LINE
  8
0
  6
CONTINUOUS
 62
   250
 10
3.63
 20
2.68576
 30
0.0
 11
3.63
 21
2.68356
 31
0.0
  0
LINE
  8
0
  6
CONTINUOUS
 62
   250
 10
3.63
 20
2.68356
 30
0.0
 11
3.62824
 21
2.6818
 31
0.0
  0
LINE
  8
0
  6
CONTINUOUS
 62
   250
 10
3.62824
 20
2.6818
 30
0.0
 11
3.6256
 21
2.6818
 31
0.0
  0
LINE
  8
0
  6
CONTINUOUS
 62
   250
 10
3.63352
 20
2.6818
 30
0.0
 11
3.6366
 21
2.6818
 31
0.0
  0
LINE
  8
0
  6
CONTINUOUS
 62
   250
 10
3.6366
 20
2.6818
 30
0.0
 11
3.63792
 21
2.68356
 31
0.0
  0
LINE
  8
0
  6
CONTINUOUS
 62
   250
 10
3.63792
 20
2.68356
 30
0.0
 11
3.63792
 21
2.68796
 31
0.0
  0
LINE
  8
0
  6
CONTINUOUS
 62
   250
 10
3.63792
 20
2.68796
 30
0.0
 11
3.6366
 21
2.69016
 31
0.0
  0
LINE
  8
0
  6
CONTINUOUS
 62
   250
 10
3.6366
 20
2.69016
 30
0.0
 11
3.6322
 21
2.69016
 31
0.0
  0
LINE
  8
0
  6
CONTINUOUS
 62
   250
 10
3.6322
 20
2.69016
 30
0.0
 11
3.6322
 21
2.69412
 31
0.0
  0
LINE
  8
0
  6
CONTINUOUS
 62
   250
 10
3.6322
 20
2.69412
 30
0.0
 11
3.63792
 21
2.69412
 31
0.0
  0
LINE
  8
0
  6
CONTINUOUS
 62
   250
 10
3.6322
 20
2.68356
 30
0.0
 11
3.63352
 21
2.6818
 31
0.0
  0
LINE
  8
0
  6
CONTINUOUS
 62
   250
 10
3.62164
 20
2.68576
 30
0.0
 11
3.61636
 21
2.68576
 31
0.0
  0
LINE
  8
0
  6
CONTINUOUS
 62
   250
 10
3.61636
 20
2.68576
 30
0.0
 11
3.62032
 21
2.69412
 31
0.0
  0
LINE
  8
0
  6
CONTINUOUS
 62
   250
 10
3.6124
 20
2.69412
 30
0.0
 11
3.61372
 21
2.69236
 31
0.0
  0
LINE
  8
0
  6
CONTINUOUS
 62
   250
 10
3.6124
 20
2.69412
 30
0.0
 11
3.60932
 21
2.69412
 31
0.0
  0
LINE
  8
0
  6
CONTINUOUS
 62
   250
 10
3.60932
 20
2.69412
 30
0.0
 11
3.60844
 21
2.69236
 31
0.0
  0
LINE
  8
0
  6
CONTINUOUS
 62
   250
 10
3.60844
 20
2.69236
 30
0.0
 11
3.61372
 21
2.68356
 31
0.0
  0
LINE
  8
0
  6
CONTINUOUS
 62
   250
 10
3.61372
 20
2.68356
 30
0.0
 11
3.6124
 21
2.6818
 31
0.0
  0
LINE
  8
0
  6
CONTINUOUS
 62
   250
 10
3.6124
 20
2.6818
 30
0.0
 11
3.60932
 21
2.6818
 31
0.0
  0
LINE
  8
0
  6
CONTINUOUS
 62
   250
 10
3.60932
 20
2.6818
 30
0.0
 11
3.60844
 21
2.68356
 31
0.0
  0
LINE
  8
0
  6
CONTINUOUS
 62
   250
 10
3.60536
 20
2.6818
 30
0.0
 11
3.6014
 21
2.68796
 31
0.0
  0
LINE
  8
0
  6
CONTINUOUS
 62
   250
 10
3.6014
 20
2.68796
 30
0.0
 11
3.60008
 21
2.68796
 31
0.0
  0
LINE
  8
0
  6
CONTINUOUS
 62
   250
 10
3.60008
 20
2.68796
 30
0.0
 11
3.60404
 21
2.68796
 31
0.0
  0
LINE
  8
0
  6
CONTINUOUS
 62
   250
 10
3.60404
 20
2.68796
 30
0.0
 11
3.60536
 21
2.69016
 31
0.0
  0
LINE
  8
0
  6
CONTINUOUS
 62
   250
 10
3.60536
 20
2.69016
 30
0.0
 11
3.60536
 21
2.69236
 31
0.0
  0
LINE
  8
0
  6
CONTINUOUS
 62
   250
 10
3.60536
 20
2.69236
 30
0.0
 11
3.60404
 21
2.69412
 31
0.0
  0
LINE
  8
0
  6
CONTINUOUS
 62
   250
 10
3.60404
 20
2.69412
 30
0.0
 11
3.60008
 21
2.69412
 31
0.0
  0
LINE
  8
0
  6
CONTINUOUS
 62
   250
 10
3.60008
 20
2.69412
 30
0.0
 11
3.60008
 21
2.6818
 31
0.0
  0
LINE
  8
0
  6
CONTINUOUS
 62
   250
 10
3.59568
 20
3.003
 30
0.0
 11
3.6036
 21
3.01576
 31
0.0
  0
LINE
  8
0
  6
CONTINUOUS
 62
   250
 10
3.60756
 20
3.01136
 30
0.0
 11
3.61196
 21
3.01576
 31
0.0
  0
LINE
  8
0
  6
CONTINUOUS
 62
   250
 10
3.61196
 20
3.01576
 30
0.0
 11
3.61372
 21
3.01576
 31
0.0
  0
LINE
  8
0
  6
CONTINUOUS
 62
   250
 10
3.61372
 20
3.00916
 30
0.0
 11
3.61592
 21
3.0074
 31
0.0
  0
LINE
  8
0
  6
CONTINUOUS
 62
   250
 10
3.61592
 20
3.0074
 30
0.0
 11
3.61592
 21
3.0052
 31
0.0
  0
LINE
  8
0
  6
CONTINUOUS
 62
   250
 10
3.61592
 20
3.0052
 30
0.0
 11
3.61372
 21
3.003
 31
0.0
  0
LINE
  8
0
  6
CONTINUOUS
 62
   250
 10
3.61372
 20
3.003
 30
0.0
 11
3.60976
 21
3.003
 31
0.0
  0
LINE
  8
0
  6
CONTINUOUS
 62
   250
 10
3.60976
 20
3.003
 30
0.0
 11
3.60756
 21
3.0052
 31
0.0
  0
LINE
  8
0
  6
CONTINUOUS
 62
   250
 10
3.60756
 20
3.0052
 30
0.0
 11
3.60756
 21
3.01136
 31
0.0
  0
LINE
  8
0
  6
CONTINUOUS
 62
   250
 10
3.60756
 20
3.01136
 30
0.0
 11
3.60756
 21
3.00916
 31
0.0
  0
LINE
  8
0
  6
CONTINUOUS
 62
   250
 10
3.60756
 20
3.00916
 30
0.0
 11
3.61372
 21
3.00916
 31
0.0
  0
LINE
  8
0
  6
CONTINUOUS
 62
   250
 10
3.59172
 20
3.00916
 30
0.0
 11
3.58996
 21
3.01136
 31
0.0
  0
LINE
  8
0
  6
CONTINUOUS
 62
   250
 10
3.58996
 20
3.01136
 30
0.0
 11
3.5838
 21
3.01136
 31
0.0
  0
LINE
  8
0
  6
CONTINUOUS
 62
   250
 10
3.5838
 20
3.01136
 30
0.0
 11
3.5838
 21
3.01576
 31
0.0
  0
LINE
  8
0
  6
CONTINUOUS
 62
   250
 10
3.5838
 20
3.01576
 30
0.0
 11
3.59172
 21
3.01576
 31
0.0
  0
LINE
  8
0
  6
CONTINUOUS
 62
   250
 10
3.59172
 20
3.00916
 30
0.0
 11
3.59172
 21
3.0052
 31
0.0
  0
LINE
  8
0
  6
CONTINUOUS
 62
   250
 10
3.59172
 20
3.0052
 30
0.0
 11
3.58996
 21
3.003
 31
0.0
  0
LINE
  8
0
  6
CONTINUOUS
 62
   250
 10
3.58996
 20
3.003
 30
0.0
 11
3.58556
 21
3.003
 31
0.0
  0
LINE
  8
0
  6
CONTINUOUS
 62
   250
 10
3.58556
 20
3.003
 30
0.0
 11
3.5838
 21
3.0052
 31
0.0
  0
LINE
  8
0
  6
CONTINUOUS
 62
   250
 10
3.57984
 20
3.003
 30
0.0
 11
3.57148
 21
3.003
 31
0.0
  0
LINE
  8
0
  6
CONTINUOUS
 62
   250
 10
3.57148
 20
3.003
 30
0.0
 11
3.57148
 21
3.01576
 31
0.0
  0
LINE
  8
0
  6
CONTINUOUS
 62
   250
 10
3.57148
 20
3.01576
 30
0.0
 11
3.57148
 21
3.003
 31
0.0
  0
LINE
  8
0
  6
CONTINUOUS
 62
   250
 10
3.58424
 20
2.73196
 30
0.0
 11
3.58424
 21
2.60612
 31
0.0
  0
LINE
  8
0
  6
CONTINUOUS
 62
   250
 10
3.58424
 20
2.60612
 30
0.0
 11
3.4584
 21
2.60612
 31
0.0
  0
LINE
  8
0
  6
CONTINUOUS
 62
   250
 10
3.50548
 20
2.61228
 30
0.0
 11
3.53716
 21
2.61228
 31
0.0
  0
LINE
  8
0
  6
CONTINUOUS
 62
   250
 10
3.53716
 20
2.61228
 30
0.0
 11
3.53716
 21
2.6312
 31
0.0
  0
LINE
  8
0
  6
CONTINUOUS
 62
   250
 10
3.53716
 20
2.6312
 30
0.0
 11
3.54948
 21
2.6312
 31
0.0
  0
LINE
  8
0
  6
CONTINUOUS
 62
   250
 10
3.54948
 20
2.6312
 30
0.0
 11
3.54948
 21
2.64396
 31
0.0
  0
LINE
  8
0
  6
CONTINUOUS
 62
   250
 10
3.54948
 20
2.64396
 30
0.0
 11
3.56224
 21
2.64396
 31
0.0
  0
LINE
  8
0
  6
CONTINUOUS
 62
   250
 10
3.56224
 20
2.64396
 30
0.0
 11
3.56224
 21
2.64704
 31
0.0
  0
LINE
  8
0
  6
CONTINUOUS
 62
   250
 10
3.56224
 20
2.64704
 30
0.0
 11
3.56532
 21
2.64704
 31
0.0
  0
LINE
  8
0
  6
CONTINUOUS
 62
   250
 10
3.56532
 20
2.64704
 30
0.0
 11
3.56532
 21
2.67212
 31
0.0
  0
LINE
  8
0
  6
CONTINUOUS
 62
   250
 10
3.56532
 20
2.67212
 30
0.0
 11
3.56224
 21
2.67212
 31
0.0
  0
LINE
  8
0
  6
CONTINUOUS
 62
   250
 10
3.56224
 20
2.67212
 30
0.0
 11
3.56224
 21
2.6818
 31
0.0
  0
LINE
  8
0
  6
CONTINUOUS
 62
   250
 10
3.56224
 20
2.6818
 30
0.0
 11
3.56224
 21
2.70072
 31
0.0
  0
LINE
  8
0
  6
CONTINUOUS
 62
   250
 10
3.56224
 20
2.70072
 30
0.0
 11
3.54948
 21
2.70072
 31
0.0
  0
LINE
  8
0
  6
CONTINUOUS
 62
   250
 10
3.54948
 20
2.70072
 30
0.0
 11
3.54948
 21
2.70688
 31
0.0
  0
LINE
  8
0
  6
CONTINUOUS
 62
   250
 10
3.54948
 20
2.70688
 30
0.0
 11
3.52132
 21
2.70688
 31
0.0
  0
LINE
  8
0
  6
CONTINUOUS
 62
   250
 10
3.52132
 20
2.70688
 30
0.0
 11
3.49272
 21
2.70688
 31
0.0
  0
LINE
  8
0
  6
CONTINUOUS
 62
   250
 10
3.49272
 20
2.70072
 30
0.0
 11
3.4804
 21
2.70072
 31
0.0
  0
LINE
  8
0
  6
CONTINUOUS
 62
   250
 10
3.5002
 20
2.70688
 30
0.0
 11
3.5002
 21
2.65628
 31
0.0
  0
LINE
  8
0
  6
CONTINUOUS
 62
   250
 10
3.50856
 20
2.65628
 30
0.0
 11
3.50856
 21
2.70688
 31
0.0
  0
LINE
  8
0
  6
CONTINUOUS
 62
   250
 10
3.51692
 20
2.70688
 30
0.0
 11
3.51692
 21
2.65628
 31
0.0
  0
LINE
  8
0
  6
CONTINUOUS
 62
   250
 10
3.52572
 20
2.65628
 30
0.0
 11
3.52572
 21
2.70688
 31
0.0
  0
LINE
  8
0
  6
CONTINUOUS
 62
   250
 10
3.53408
 20
2.70688
 30
0.0
 11
3.53408
 21
2.65628
 31
0.0
  0
LINE
  8
0
  6
CONTINUOUS
 62
   250
 10
3.54244
 20
2.65628
 30
0.0
 11
3.54244
 21
2.70688
 31
0.0
  0
LINE
  8
0
  6
CONTINUOUS
 62
   250
 10
3.58424
 20
2.73196
 30
0.0
 11
3.4584
 21
2.73196
 31
0.0
  0
LINE
  8
0
  6
CONTINUOUS
 62
   250
 10
3.47732
 20
2.67212
 30
0.0
 11
3.47732
 21
2.64704
 31
0.0
  0
LINE
  8
0
  6
CONTINUOUS
 62
   250
 10
3.4804
 20
2.64396
 30
0.0
 11
3.49272
 21
2.64396
 31
0.0
  0
LINE
  8
0
  6
CONTINUOUS
 62
   250
 10
3.49272
 20
2.64396
 30
0.0
 11
3.49272
 21
2.6312
 31
0.0
  0
LINE
  8
0
  6
CONTINUOUS
 62
   250
 10
3.49272
 20
2.6312
 30
0.0
 11
3.49624
 21
2.6312
 31
0.0
  0
LINE
  8
0
  6
CONTINUOUS
 62
   250
 10
3.50548
 20
2.6312
 30
0.0
 11
3.50548
 21
2.61228
 31
0.0
  0
LINE
  8
0
  6
CONTINUOUS
 62
   250
 10
3.5464
 20
2.6312
 30
0.0
 11
3.54948
 21
2.6312
 31
0.0
  0
LINE
  8
0
  6
CONTINUOUS
 62
   250
 10
3.4804
 20
2.67212
 30
0.0
 11
3.47732
 21
2.67212
 31
0.0
  0
LINE
  8
0
  6
CONTINUOUS
 62
   250
 10
3.44564
 20
3.39372
 30
0.0
 11
3.4452
 21
3.39724
 31
0.0
  0
LINE
  8
0
  6
CONTINUOUS
 62
   250
 10
3.4452
 20
3.39724
 30
0.0
 11
3.44388
 21
3.40032
 31
0.0
  0
LINE
  8
0
  6
CONTINUOUS
 62
   250
 10
3.44388
 20
3.40032
 30
0.0
 11
3.44212
 21
3.40252
 31
0.0
  0
LINE
  8
0
  6
CONTINUOUS
 62
   250
 10
3.44212
 20
3.40252
 30
0.0
 11
3.43948
 21
3.40472
 31
0.0
  0
LINE
  8
0
  6
CONTINUOUS
 62
   250
 10
3.43948
 20
3.40472
 30
0.0
 11
3.4364
 21
3.40604
 31
0.0
  0
LINE
  8
0
  6
CONTINUOUS
 62
   250
 10
3.4364
 20
3.40604
 30
0.0
 11
3.43288
 21
3.40648
 31
0.0
  0
LINE
  8
0
  6
CONTINUOUS
 62
   250
 10
3.43288
 20
3.40648
 30
0.0
 11
3.4298
 21
3.40604
 31
0.0
  0
LINE
  8
0
  6
CONTINUOUS
 62
   250
 10
3.4298
 20
3.40604
 30
0.0
 11
3.42672
 21
3.40472
 31
0.0
  0
LINE
  8
0
  6
CONTINUOUS
 62
   250
 10
3.42672
 20
3.40472
 30
0.0
 11
3.42452
 21
3.40252
 31
0.0
  0
LINE
  8
0
  6
CONTINUOUS
 62
   250
 10
3.42452
 20
3.40252
 30
0.0
 11
3.42232
 21
3.40032
 31
0.0
  0
LINE
  8
0
  6
CONTINUOUS
 62
   250
 10
3.42232
 20
3.40032
 30
0.0
 11
3.421
 21
3.39724
 31
0.0
  0
LINE
  8
0
  6
CONTINUOUS
 62
   250
 10
3.421
 20
3.39724
 30
0.0
 11
3.42012
 21
3.39372
 31
0.0
  0
LINE
  8
0
  6
CONTINUOUS
 62
   250
 10
3.42012
 20
3.39372
 30
0.0
 11
3.421
 21
3.39064
 31
0.0
  0
LINE
  8
0
  6
CONTINUOUS
 62
   250
 10
3.421
 20
3.39064
 30
0.0
 11
3.42232
 21
3.38756
 31
0.0
  0
LINE
  8
0
  6
CONTINUOUS
 62
   250
 10
3.42232
 20
3.38756
 30
0.0
 11
3.42452
 21
3.38492
 31
0.0
  0
LINE
  8
0
  6
CONTINUOUS
 62
   250
 10
3.42452
 20
3.38492
 30
0.0
 11
3.42672
 21
3.38272
 31
0.0
  0
LINE
  8
0
  6
CONTINUOUS
 62
   250
 10
3.42672
 20
3.38272
 30
0.0
 11
3.4298
 21
3.3814
 31
0.0
  0
LINE
  8
0
  6
CONTINUOUS
 62
   250
 10
3.4298
 20
3.3814
 30
0.0
 11
3.43288
 21
3.3814
 31
0.0
  0
LINE
  8
0
  6
CONTINUOUS
 62
   250
 10
3.43288
 20
3.3814
 30
0.0
 11
3.4364
 21
3.3814
 31
0.0
  0
LINE
  8
0
  6
CONTINUOUS
 62
   250
 10
3.4364
 20
3.3814
 30
0.0
 11
3.43948
 21
3.38272
 31
0.0
  0
LINE
  8
0
  6
CONTINUOUS
 62
   250
 10
3.43948
 20
3.38272
 30
0.0
 11
3.44212
 21
3.38492
 31
0.0
  0
LINE
  8
0
  6
CONTINUOUS
 62
   250
 10
3.44212
 20
3.38492
 30
0.0
 11
3.44388
 21
3.38756
 31
0.0
  0
LINE
  8
0
  6
CONTINUOUS
 62
   250
 10
3.44388
 20
3.38756
 30
0.0
 11
3.4452
 21
3.39064
 31
0.0
  0
LINE
  8
0
  6
CONTINUOUS
 62
   250
 10
3.4452
 20
3.39064
 30
0.0
 11
3.44564
 21
3.39372
 31
0.0
  0
LINE
  8
0
  6
CONTINUOUS
 62
   250
 10
3.44212
 20
3.32728
 30
0.0
 11
3.43948
 21
3.32904
 31
0.0
  0
LINE
  8
0
  6
CONTINUOUS
 62
   250
 10
3.43948
 20
3.32904
 30
0.0
 11
3.4364
 21
3.33036
 31
0.0
  0
LINE
  8
0
  6
CONTINUOUS
 62
   250
 10
3.4364
 20
3.33036
 30
0.0
 11
3.43288
 21
3.3308
 31
0.0
  0
LINE
  8
0
  6
CONTINUOUS
 62
   250
 10
3.43288
 20
3.3308
 30
0.0
 11
3.4298
 21
3.33036
 31
0.0
  0
LINE
  8
0
  6
CONTINUOUS
 62
   250
 10
3.4298
 20
3.33036
 30
0.0
 11
3.42672
 21
3.32904
 31
0.0
  0
LINE
  8
0
  6
CONTINUOUS
 62
   250
 10
3.42672
 20
3.32904
 30
0.0
 11
3.42452
 21
3.32728
 31
0.0
  0
LINE
  8
0
  6
CONTINUOUS
 62
   250
 10
3.42452
 20
3.32728
 30
0.0
 11
3.42232
 21
3.32464
 31
0.0
  0
LINE
  8
0
  6
CONTINUOUS
 62
   250
 10
3.42232
 20
3.32464
 30
0.0
 11
3.421
 21
3.32156
 31
0.0
  0
LINE
  8
0
  6
CONTINUOUS
 62
   250
 10
3.421
 20
3.32156
 30
0.0
 11
3.42012
 21
3.31804
 31
0.0
  0
LINE
  8
0
  6
CONTINUOUS
 62
   250
 10
3.42012
 20
3.31804
 30
0.0
 11
3.421
 21
3.31496
 31
0.0
  0
LINE
  8
0
  6
CONTINUOUS
 62
   250
 10
3.421
 20
3.31496
 30
0.0
 11
3.42232
 21
3.31188
 31
0.0
  0
LINE
  8
0
  6
CONTINUOUS
 62
   250
 10
3.42232
 20
3.31188
 30
0.0
 11
3.42452
 21
3.30924
 31
0.0
  0
LINE
  8
0
  6
CONTINUOUS
 62
   250
 10
3.42452
 20
3.30924
 30
0.0
 11
3.42672
 21
3.30704
 31
0.0
  0
LINE
  8
0
  6
CONTINUOUS
 62
   250
 10
3.42672
 20
3.30704
 30
0.0
 11
3.4298
 21
3.30616
 31
0.0
  0
LINE
  8
0
  6
CONTINUOUS
 62
   250
 10
3.4298
 20
3.30616
 30
0.0
 11
3.43288
 21
3.30572
 31
0.0
  0
LINE
  8
0
  6
CONTINUOUS
 62
   250
 10
3.43288
 20
3.30572
 30
0.0
 11
3.4364
 21
3.30616
 31
0.0
  0
LINE
  8
0
  6
CONTINUOUS
 62
   250
 10
3.4364
 20
3.30616
 30
0.0
 11
3.43948
 21
3.30704
 31
0.0
  0
LINE
  8
0
  6
CONTINUOUS
 62
   250
 10
3.43948
 20
3.30704
 30
0.0
 11
3.44212
 21
3.30924
 31
0.0
  0
LINE
  8
0
  6
CONTINUOUS
 62
   250
 10
3.44212
 20
3.30924
 30
0.0
 11
3.44388
 21
3.31188
 31
0.0
  0
LINE
  8
0
  6
CONTINUOUS
 62
   250
 10
3.44388
 20
3.31188
 30
0.0
 11
3.4452
 21
3.31496
 31
0.0
  0
LINE
  8
0
  6
CONTINUOUS
 62
   250
 10
3.4452
 20
3.31496
 30
0.0
 11
3.44564
 21
3.31804
 31
0.0
  0
LINE
  8
0
  6
CONTINUOUS
 62
   250
 10
3.44564
 20
3.31804
 30
0.0
 11
3.4452
 21
3.32156
 31
0.0
  0
LINE
  8
0
  6
CONTINUOUS
 62
   250
 10
3.4452
 20
3.32156
 30
0.0
 11
3.44388
 21
3.32464
 31
0.0
  0
LINE
  8
0
  6
CONTINUOUS
 62
   250
 10
3.44388
 20
3.32464
 30
0.0
 11
3.44212
 21
3.32728
 31
0.0
  0
LINE
  8
0
  6
CONTINUOUS
 62
   250
 10
3.41044
 20
2.69676
 30
0.0
 11
3.4078
 21
2.69896
 31
0.0
  0
LINE
  8
0
  6
CONTINUOUS
 62
   250
 10
3.4078
 20
2.69896
 30
0.0
 11
3.40472
 21
2.70028
 31
0.0
  0
LINE
  8
0
  6
CONTINUOUS
 62
   250
 10
3.40472
 20
2.70028
 30
0.0
 11
3.4012
 21
2.70072
 31
0.0
  0
LINE
  8
0
  6
CONTINUOUS
 62
   250
 10
3.4012
 20
2.70072
 30
0.0
 11
3.39812
 21
2.70028
 31
0.0
  0
LINE
  8
0
  6
CONTINUOUS
 62
   250
 10
3.39812
 20
2.70028
 30
0.0
 11
3.39548
 21
2.69896
 31
0.0
  0
LINE
  8
0
  6
CONTINUOUS
 62
   250
 10
3.39548
 20
2.69896
 30
0.0
 11
3.3924
 21
2.69676
 31
0.0
  0
LINE
  8
0
  6
CONTINUOUS
 62
   250
 10
3.3924
 20
2.69676
 30
0.0
 11
3.39064
 21
2.69412
 31
0.0
  0
LINE
  8
0
  6
CONTINUOUS
 62
   250
 10
3.39064
 20
2.69412
 30
0.0
 11
3.38932
 21
2.69104
 31
0.0
  0
LINE
  8
0
  6
CONTINUOUS
 62
   250
 10
3.38932
 20
2.69104
 30
0.0
 11
3.38888
 21
2.68796
 31
0.0
  0
LINE
  8
0
  6
CONTINUOUS
 62
   250
 10
3.38888
 20
2.68796
 30
0.0
 11
3.38932
 21
2.68488
 31
0.0
  0
LINE
  8
0
  6
CONTINUOUS
 62
   250
 10
3.38932
 20
2.68488
 30
0.0
 11
3.39064
 21
2.6818
 31
0.0
  0
LINE
  8
0
  6
CONTINUOUS
 62
   250
 10
3.39064
 20
2.6818
 30
0.0
 11
3.3924
 21
2.67916
 31
0.0
  0
LINE
  8
0
  6
CONTINUOUS
 62
   250
 10
3.3924
 20
2.67916
 30
0.0
 11
3.39548
 21
2.67696
 31
0.0
  0
LINE
  8
0
  6
CONTINUOUS
 62
   250
 10
3.39548
 20
2.67696
 30
0.0
 11
3.39812
 21
2.67564
 31
0.0
  0
LINE
  8
0
  6
CONTINUOUS
 62
   250
 10
3.39812
 20
2.67564
 30
0.0
 11
3.4012
 21
2.6752
 31
0.0
  0
LINE
  8
0
  6
CONTINUOUS
 62
   250
 10
3.4012
 20
2.6752
 30
0.0
 11
3.40472
 21
2.67564
 31
0.0
  0
LINE
  8
0
  6
CONTINUOUS
 62
   250
 10
3.40472
 20
2.67564
 30
0.0
 11
3.4078
 21
2.67696
 31
0.0
  0
LINE
  8
0
  6
CONTINUOUS
 62
   250
 10
3.4078
 20
2.67696
 30
0.0
 11
3.41044
 21
2.67916
 31
0.0
  0
LINE
  8
0
  6
CONTINUOUS
 62
   250
 10
3.41044
 20
2.67916
 30
0.0
 11
3.4122
 21
2.6818
 31
0.0
  0
LINE
  8
0
  6
CONTINUOUS
 62
   250
 10
3.4122
 20
2.6818
 30
0.0
 11
3.41396
 21
2.68488
 31
0.0
  0
LINE
  8
0
  6
CONTINUOUS
 62
   250
 10
3.41396
 20
2.68488
 30
0.0
 11
3.4144
 21
2.68796
 31
0.0
  0
LINE
  8
0
  6
CONTINUOUS
 62
   250
 10
3.4144
 20
2.68796
 30
0.0
 11
3.41396
 21
2.69104
 31
0.0
  0
LINE
  8
0
  6
CONTINUOUS
 62
   250
 10
3.41396
 20
2.69104
 30
0.0
 11
3.4122
 21
2.69412
 31
0.0
  0
LINE
  8
0
  6
CONTINUOUS
 62
   250
 10
3.4122
 20
2.69412
 30
0.0
 11
3.41044
 21
2.69676
 31
0.0
  0
ENDSEC
  0
EOF
