  0
SECTION
  2
HEADER
  9
$ACADVER
  1
AC1009
  9
$INSBASE
 10
0.0
 20
0.0
 30
0.0
  9
$EXTMIN
 10
6.29376
 20
1.1946
 30
0.0
  9
$EXTMAX
 10
7.59704
 20
1.89728
 30
0.0
  9
$LIMMIN
 10
0.0
 20
0.0
  9
$LIMMAX
 10
12.0
 20
9.0
  9
$ORTHOMODE
 70
     0
  9
$REGENMODE
 70
     1
  9
$FILLMODE
 70
     1
  9
$QTEXTMODE
 70
     0
  9
$MIRRTEXT
 70
     1
  9
$DRAGMODE
 70
     2
  9
$LTSCALE
 40
0.044
  9
$OSMODE
 70
     0
  9
$ATTMODE
 70
     1
  9
$TEXTSIZE
 40
0.2
  9
$TRACEWID
 40
0.05
  9
$TEXTSTYLE
  7
STANDARD
  9
$CLAYER
  8
0
  9
$CELTYPE
  6
BYLAYER
  9
$CECOLOR
 62
   256
  9
$DIMSCALE
 40
1.0
  9
$DIMASZ
 40
0.18
  9
$DIMEXO
 40
0.0625
  9
$DIMDLI
 40
0.38
  9
$DIMRND
 40
0.0
  9
$DIMDLE
 40
0.0
  9
$DIMEXE
 40
0.18
  9
$DIMTP
 40
0.0
  9
$DIMTM
 40
0.0
  9
$DIMTXT
 40
0.18
  9
$DIMCEN
 40
0.09
  9
$DIMTSZ
 40
0.0
  9
$DIMTOL
 70
     0
  9
$DIMLIM
 70
     0
  9
$DIMTIH
 70
     1
  9
$DIMTOH
 70
     1
  9
$DIMSE1
 70
     0
  9
$DIMSE2
 70
     0
  9
$DIMTAD
 70
     0
  9
$DIMZIN
 70
     0
  9
$DIMBLK
  1

  9
$DIMASO
 70
     1
  9
$DIMSHO
 70
     1
  9
$DIMPOST
  1

  9
$DIMAPOST
  1

  9
$DIMALT
 70
     0
  9
$DIMALTD
 70
     2
  9
$DIMALTF
 40
25.4
  9
$DIMLFAC
 40
1.0
  9
$DIMTOFL
 70
     0
  9
$DIMTVP
 40
0.0
  9
$DIMTIX
 70
     0
  9
$DIMSOXD
 70
     0
  9
$DIMSAH
 70
     0
  9
$DIMBLK1
  1

  9
$DIMBLK2
  1

  9
$DIMSTYLE
  2
*UNNAMED
  9
$DIMCLRD
 70
     0
  9
$DIMCLRE
 70
     0
  9
$DIMCLRT
 70
     0
  9
$DIMTFAC
 40
1.0
  9
$DIMGAP
 40
0.09
  9
$LUNITS
 70
     2
  9
$LUPREC
 70
     4
  9
$SKETCHINC
 40
0.1
  9
$FILLETRAD
 40
0.0
  9
$AUNITS
 70
     0
  9
$AUPREC
 70
     0
  9
$MENU
  1
acad
  9
$ELEVATION
 40
0.0
  9
$PELEVATION
 40
0.0
  9
$THICKNESS
 40
0.0
  9
$LIMCHECK
 70
     0
  9
$BLIPMODE
 70
     0
  9
$CHAMFERA
 40
0.0
  9
$CHAMFERB
 40
0.0
  9
$SKPOLY
 70
     0
  9
$TDCREATE
 40
2451092.591209953
  9
$TDUPDATE
 40
2451092.591209953
  9
$TDINDWG
 40
0.0000000000
  9
$TDUSRTIMER
 40
0.0000000000
  9
$USRTIMER
 70
     1
  9
$ANGBASE
 50
0.0
  9
$ANGDIR
 70
     0
  9
$PDMODE
 70
    35
  9
$PDSIZE
 40
0.0352
  9
$PLINEWID
 40
0.0
  9
$COORDS
 70
     1
  9
$SPLFRAME
 70
     0
  9
$SPLINETYPE
 70
     6
  9
$SPLINESEGS
 70
     8
  9
$ATTDIA
 70
     0
  9
$ATTREQ
 70
     1
  9
$HANDLING
 70
     0
  9
$HANDSEED
  5
0
  9
$SURFTAB1
 70
     6
  9
$SURFTAB2
 70
     6
  9
$SURFTYPE
 70
     6
  9
$SURFU
 70
     6
  9
$SURFV
 70
     6
  9
$UCSNAME
  2

  9
$UCSORG
 10
0.0
 20
0.0
 30
0.0
  9
$UCSXDIR
 10
1.0
 20
0.0
 30
0.0
  9
$UCSYDIR
 10
0.0
 20
1.0
 30
0.0
  9
$PUCSNAME
  2

  9
$PUCSORG
 10
0.0
 20
0.0
 30
0.0
  9
$PUCSXDIR
 10
1.0
 20
0.0
 30
0.0
  9
$PUCSYDIR
 10
0.0
 20
1.0
 30
0.0
  9
$USERI1
 70
     0
  9
$USERI2
 70
     0
  9
$USERI3
 70
     0
  9
$USERI4
 70
     0
  9
$USERI5
 70
     0
  9
$USERR1
 40
0.0
  9
$USERR2
 40
0.0
  9
$USERR3
 40
0.0
  9
$USERR4
 40
0.0
  9
$USERR5
 40
0.0
  9
$WORLDVIEW
 70
     1
  9
$SHADEDGE
 70
     3
  9
$SHADEDIF
 70
    70
  9
$TILEMODE
 70
     1
  9
$MAXACTVP
 70
    16
  9
$PINSBASE
 10
0.0
 20
0.0
 30
0.0
  9
$PLIMCHECK
 70
     0
  9
$PEXTMIN
 10
1.000000E+20
 20
1.000000E+20
 30
1.000000E+20
  9
$PEXTMAX
 10
-1.000000E+20
 20
-1.000000E+20
 30
-1.000000E+20
  9
$PLIMMIN
 10
0.0
 20
0.0
  9
$PLIMMAX
 10
12.0
 20
9.0
  9
$UNITMODE
 70
     0
  9
$VISRETAIN
 70
     0
  9
$PLINEGEN
 70
     0
  9
$PSLTSCALE
 70
     1
  9
$TREEDEPTH
 70
  3020
  9
$DWGCODEPAGE
  3
ascii
  0
ENDSEC
  0
SECTION
  2
TABLES
  0
TABLE
  2
VPORT
 70
     2
  0
VPORT
  2
*ACTIVE
 70
     0
 10
0.0
 20
0.0
 11
1.0
 21
1.0
 12
6.243341
 22
4.5
 13
0.0
 23
0.0
 14
1.0
 24
1.0
 15
0.0
 25
0.0
 16
0.0
 26
0.0
 36
1.0
 17
0.0
 27
0.0
 37
0.0
 40
9.0
 41
1.387409
 42
50.0
 43
0.0
 44
0.0
 50
0.0
 51
0.0
 71
     0
 72
   100
 73
     1
 74
     1
 75
     0
 76
     0
 77
     0
 78
     0
  0
ENDTAB
  0
TABLE
  2
LTYPE
 70
    10
  0
LTYPE
  2
CONTINUOUS
 70
    64
  3
Solid line
 72
    65
 73
     0
 40
0.0
  0
LTYPE
  2
DASHED
 70
    64
  3
__ __ __ __ __ __ __ __ __ __ __ __ __ __ __
 72
    65
 73
     2
 40
0.00033
 49
0.00022
 49
-0.00011
  0
LTYPE
  2
HIDDEN
 70
    64
  3
 _ _ _ _ _ _ _ _ _ _ _ _ _ _ _ _ _ _ _ _ _ _
 72
    65
 73
     2
 40
0.000165
 49
0.00011
 49
-0.000055
  0
LTYPE
  2
CENTER
 70
    64
  3
____ _ ____ _ ____ _ ____ _ ____ _ ____ _ ____
 72
    65
 73
     4
 40
0.00088
 49
0.00055
 49
-0.00011
 49
0.00011
 49
-0.00011
  0
LTYPE
  2
PHANTOM
 70
    64
  3
_____ _ _ _____ _ _ _____ _ _ _____ _ _ ____
 72
    65
 73
     6
 40
0.0011
 49
0.00055
 49
-0.00011
 49
0.00011
 49
-0.00011
 49
0.00011
 49
-0.00011
  0
LTYPE
  2
DOT
 70
    64
  3
...............................................
 72
    65
 73
     2
 40
0.00011
 49
0.0
 49
-0.00011
  0
LTYPE
  2
DASHDOT
 70
    64
  3
__ . __ . __ . __ . __ . __ . __ . __ . __ . __
 72
    65
 73
     4
 40
0.00044
 49
0.00022
 49
-0.00011
 49
0.0
 49
-0.00011
  0
LTYPE
  2
BORDER
 70
    64
  3
__ __ . __ __ . __ __ . __ __ . __ __ . __ __
 72
    65
 73
     6
 40
0.00077
 49
0.00022
 49
-0.00011
 49
0.00022
 49
-0.00011
 49
0.0
 49
-0.00011
  0
LTYPE
  2
DIVIDE
 70
    64
  3
__ . . __ . . __ . . __ . . __ . . __ . . __
 72
    65
 73
     6
 40
0.00055
 49
0.00022
 49
-0.00011
 49
0.0
 49
-0.00011
 49
0.0
 49
-0.00011
  0
LTYPE
  2
DOTDOT
 70
    64
  3
 . .  . .  . .  . .  . .  . . 
 72
    65
 73
     5
 40
0.000242
 49
-0.00011
 49
0.0
 49
-0.00011
 49
0.0
 49
-0.00011
  0
ENDTAB
  0
TABLE
  2
LAYER
 70
     3
  0
LAYER
  2
0
 70
    64
 62
     7
  6
CONTINUOUS
  0
LAYER
  2
FOREGROUND
 70
    64
 62
     7
  6
CONTINUOUS
  0
LAYER
  2
BACKGROUND
 70
    65
 62
    -7
  6
CONTINUOUS
  0
ENDTAB
  0
TABLE
  2
STYLE
 70
     1
  0
STYLE
  2
STANDARD
 70
     0
 40
0.0
 41
1.0
 50
0.0
 71
     0
 42
0.2
  3
txt
  4

  0
ENDTAB
  0
TABLE
  2
VIEW
 70
     0
  0
ENDTAB
  0
TABLE
  2
UCS
 70
     0
  0
ENDTAB
  0
TABLE
  2
APPID
 70
     1
  0
APPID
  2
ACAD
 70
    64
  0
ENDTAB
  0
TABLE
  2
DIMSTYLE
 70
     0
  0
ENDTAB
  0
ENDSEC
  0
SECTION
  2
BLOCKS
  0
ENDSEC
  0
SECTION
  2
ENTITIES
  0
LINE
  8
0
  6
CONTINUOUS
 62
   250
 10
7.39508
 20
1.37808
 30
0.0
 11
7.43248
 21
1.41548
 31
0.0
  0
LINE
  8
0
  6
CONTINUOUS
 62
   250
 10
7.36824
 20
1.40492
 30
0.0
 11
7.40564
 21
1.44276
 31
0.0
  0
LINE
  8
0
  6
CONTINUOUS
 62
   250
 10
6.49528
 20
1.37808
 30
0.0
 11
6.45788
 21
1.41548
 31
0.0
  0
LINE
  8
0
  6
CONTINUOUS
 62
   250
 10
6.52256
 20
1.40492
 30
0.0
 11
6.48472
 21
1.44276
 31
0.0
  0
LINE
  8
0
  6
CONTINUOUS
 62
   250
 10
7.57768
 20
1.89728
 30
0.0
 11
6.35932
 21
1.89728
 31
0.0
  0
LINE
  8
0
  6
CONTINUOUS
 62
   250
 10
6.31268
 20
1.24476
 30
0.0
 11
6.32676
 21
1.24476
 31
0.0
  0
LINE
  8
0
  6
CONTINUOUS
 62
   250
 10
6.31268
 20
1.21616
 30
0.0
 11
6.35932
 21
1.21616
 31
0.0
  0
LINE
  8
0
  6
CONTINUOUS
 62
   250
 10
6.32676
 20
1.23068
 30
0.0
 11
6.3734
 21
1.23068
 31
0.0
  0
LINE
  8
0
  6
CONTINUOUS
 62
   250
 10
7.57768
 20
1.1946
 30
0.0
 11
6.35932
 21
1.1946
 31
0.0
  0
LINE
  8
0
  6
CONTINUOUS
 62
   250
 10
6.35932
 20
1.1946
 30
0.0
 11
6.35932
 21
1.21616
 31
0.0
  0
LINE
  8
0
  6
CONTINUOUS
 62
   250
 10
7.5636
 20
1.20912
 30
0.0
 11
6.3734
 21
1.20912
 31
0.0
  0
LINE
  8
0
  6
CONTINUOUS
 62
   250
 10
6.4724
 20
1.54704
 30
0.0
 11
6.4724
 21
1.54924
 31
0.0
  0
LINE
  8
0
  6
CONTINUOUS
 62
   250
 10
6.4724
 20
1.54924
 30
0.0
 11
6.47196
 21
1.551
 31
0.0
  0
LINE
  8
0
  6
CONTINUOUS
 62
   250
 10
6.47196
 20
1.551
 30
0.0
 11
6.47152
 21
1.55276
 31
0.0
  0
LINE
  8
0
  6
CONTINUOUS
 62
   250
 10
6.47152
 20
1.55276
 30
0.0
 11
6.4702
 21
1.55452
 31
0.0
  0
LINE
  8
0
  6
CONTINUOUS
 62
   250
 10
6.4702
 20
1.55452
 30
0.0
 11
6.46932
 21
1.55584
 31
0.0
  0
LINE
  8
0
  6
CONTINUOUS
 62
   250
 10
6.46932
 20
1.55584
 30
0.0
 11
6.468
 21
1.55716
 31
0.0
  0
LINE
  8
0
  6
CONTINUOUS
 62
   250
 10
6.468
 20
1.55716
 30
0.0
 11
6.46668
 21
1.55848
 31
0.0
  0
LINE
  8
0
  6
CONTINUOUS
 62
   250
 10
6.46668
 20
1.55848
 30
0.0
 11
6.46492
 21
1.55936
 31
0.0
  0
LINE
  8
0
  6
CONTINUOUS
 62
   250
 10
6.46492
 20
1.55936
 30
0.0
 11
6.46316
 21
1.5598
 31
0.0
  0
LINE
  8
0
  6
CONTINUOUS
 62
   250
 10
6.46316
 20
1.5598
 30
0.0
 11
6.4614
 21
1.56024
 31
0.0
  0
LINE
  8
0
  6
CONTINUOUS
 62
   250
 10
6.4614
 20
1.56024
 30
0.0
 11
6.45964
 21
1.56068
 31
0.0
  0
LINE
  8
0
  6
CONTINUOUS
 62
   250
 10
6.45964
 20
1.56068
 30
0.0
 11
6.45744
 21
1.56068
 31
0.0
  0
LINE
  8
0
  6
CONTINUOUS
 62
   250
 10
6.45744
 20
1.56068
 30
0.0
 11
6.45568
 21
1.56024
 31
0.0
  0
LINE
  8
0
  6
CONTINUOUS
 62
   250
 10
6.45568
 20
1.56024
 30
0.0
 11
6.45392
 21
1.55936
 31
0.0
  0
LINE
  8
0
  6
CONTINUOUS
 62
   250
 10
6.45392
 20
1.55936
 30
0.0
 11
6.4526
 21
1.55848
 31
0.0
  0
LINE
  8
0
  6
CONTINUOUS
 62
   250
 10
6.4526
 20
1.55848
 30
0.0
 11
6.45084
 21
1.5576
 31
0.0
  0
LINE
  8
0
  6
CONTINUOUS
 62
   250
 10
6.45084
 20
1.5576
 30
0.0
 11
6.44952
 21
1.55628
 31
0.0
  0
LINE
  8
0
  6
CONTINUOUS
 62
   250
 10
6.44952
 20
1.55628
 30
0.0
 11
6.4482
 21
1.55496
 31
0.0
  0
LINE
  8
0
  6
CONTINUOUS
 62
   250
 10
6.4482
 20
1.55496
 30
0.0
 11
6.44732
 21
1.5532
 31
0.0
  0
LINE
  8
0
  6
CONTINUOUS
 62
   250
 10
6.44732
 20
1.5532
 30
0.0
 11
6.44644
 21
1.55144
 31
0.0
  0
LINE
  8
0
  6
CONTINUOUS
 62
   250
 10
6.44644
 20
1.55144
 30
0.0
 11
6.446
 21
1.54968
 31
0.0
  0
LINE
  8
0
  6
CONTINUOUS
 62
   250
 10
6.446
 20
1.54968
 30
0.0
 11
6.446
 21
1.54792
 31
0.0
  0
LINE
  8
0
  6
CONTINUOUS
 62
   250
 10
6.446
 20
1.54792
 30
0.0
 11
6.446
 21
1.54616
 31
0.0
  0
LINE
  8
0
  6
CONTINUOUS
 62
   250
 10
6.446
 20
1.54616
 30
0.0
 11
6.446
 21
1.54396
 31
0.0
  0
LINE
  8
0
  6
CONTINUOUS
 62
   250
 10
6.446
 20
1.54396
 30
0.0
 11
6.44688
 21
1.54264
 31
0.0
  0
LINE
  8
0
  6
CONTINUOUS
 62
   250
 10
6.44688
 20
1.54264
 30
0.0
 11
6.44776
 21
1.54088
 31
0.0
  0
LINE
  8
0
  6
CONTINUOUS
 62
   250
 10
6.44776
 20
1.54088
 30
0.0
 11
6.44864
 21
1.53912
 31
0.0
  0
LINE
  8
0
  6
CONTINUOUS
 62
   250
 10
6.44864
 20
1.53912
 30
0.0
 11
6.44952
 21
1.5378
 31
0.0
  0
LINE
  8
0
  6
CONTINUOUS
 62
   250
 10
6.44952
 20
1.5378
 30
0.0
 11
6.45128
 21
1.53648
 31
0.0
  0
LINE
  8
0
  6
CONTINUOUS
 62
   250
 10
6.45128
 20
1.53648
 30
0.0
 11
6.4526
 21
1.5356
 31
0.0
  0
LINE
  8
0
  6
CONTINUOUS
 62
   250
 10
6.4526
 20
1.5356
 30
0.0
 11
6.45436
 21
1.53472
 31
0.0
  0
LINE
  8
0
  6
CONTINUOUS
 62
   250
 10
6.45436
 20
1.53472
 30
0.0
 11
6.45612
 21
1.53428
 31
0.0
  0
LINE
  8
0
  6
CONTINUOUS
 62
   250
 10
6.45612
 20
1.53428
 30
0.0
 11
6.45788
 21
1.53384
 31
0.0
  0
LINE
  8
0
  6
CONTINUOUS
 62
   250
 10
6.45788
 20
1.53384
 30
0.0
 11
6.46008
 21
1.53384
 31
0.0
  0
LINE
  8
0
  6
CONTINUOUS
 62
   250
 10
6.46008
 20
1.53384
 30
0.0
 11
6.46184
 21
1.53384
 31
0.0
  0
LINE
  8
0
  6
CONTINUOUS
 62
   250
 10
6.46184
 20
1.53384
 30
0.0
 11
6.4636
 21
1.53472
 31
0.0
  0
LINE
  8
0
  6
CONTINUOUS
 62
   250
 10
6.4636
 20
1.53472
 30
0.0
 11
6.46536
 21
1.53516
 31
0.0
  0
LINE
  8
0
  6
CONTINUOUS
 62
   250
 10
6.46536
 20
1.53516
 30
0.0
 11
6.46668
 21
1.53604
 31
0.0
  0
LINE
  8
0
  6
CONTINUOUS
 62
   250
 10
6.46668
 20
1.53604
 30
0.0
 11
6.46844
 21
1.53736
 31
0.0
  0
LINE
  8
0
  6
CONTINUOUS
 62
   250
 10
6.46844
 20
1.53736
 30
0.0
 11
6.46976
 21
1.53868
 31
0.0
  0
LINE
  8
0
  6
CONTINUOUS
 62
   250
 10
6.46976
 20
1.53868
 30
0.0
 11
6.47064
 21
1.54044
 31
0.0
  0
LINE
  8
0
  6
CONTINUOUS
 62
   250
 10
6.47064
 20
1.54044
 30
0.0
 11
6.47152
 21
1.54176
 31
0.0
  0
LINE
  8
0
  6
CONTINUOUS
 62
   250
 10
6.47152
 20
1.54176
 30
0.0
 11
6.47196
 21
1.54396
 31
0.0
  0
LINE
  8
0
  6
CONTINUOUS
 62
   250
 10
6.47196
 20
1.54396
 30
0.0
 11
6.4724
 21
1.54572
 31
0.0
  0
LINE
  8
0
  6
CONTINUOUS
 62
   250
 10
6.4724
 20
1.54572
 30
0.0
 11
6.4724
 21
1.54704
 31
0.0
  0
LINE
  8
0
  6
CONTINUOUS
 62
   250
 10
6.31268
 20
1.84712
 30
0.0
 11
6.32676
 21
1.84712
 31
0.0
  0
LINE
  8
0
  6
CONTINUOUS
 62
   250
 10
6.32676
 20
1.8612
 30
0.0
 11
6.3734
 21
1.8612
 31
0.0
  0
LINE
  8
0
  6
CONTINUOUS
 62
   250
 10
6.3734
 20
1.88276
 30
0.0
 11
7.5636
 21
1.88276
 31
0.0
  0
LINE
  8
0
  6
CONTINUOUS
 62
   250
 10
6.3734
 20
1.34728
 30
0.0
 11
6.3734
 21
1.20912
 31
0.0
  0
LINE
  8
0
  6
CONTINUOUS
 62
   250
 10
6.3734
 20
1.36268
 30
0.0
 11
6.3734
 21
1.88276
 31
0.0
  0
LINE
  8
0
  6
CONTINUOUS
 62
   250
 10
6.32676
 20
1.34728
 30
0.0
 11
6.45612
 21
1.34728
 31
0.0
  0
LINE
  8
0
  6
CONTINUOUS
 62
   250
 10
6.45612
 20
1.34728
 30
0.0
 11
6.45612
 21
1.36268
 31
0.0
  0
LINE
  8
0
  6
CONTINUOUS
 62
   250
 10
6.45612
 20
1.36268
 30
0.0
 11
6.32676
 21
1.36268
 31
0.0
  0
LINE
  8
0
  6
CONTINUOUS
 62
   250
 10
6.32676
 20
1.34728
 30
0.0
 11
6.32676
 21
1.23068
 31
0.0
  0
LINE
  8
0
  6
CONTINUOUS
 62
   250
 10
6.32676
 20
1.36268
 30
0.0
 11
6.32676
 21
1.8612
 31
0.0
  0
LINE
  8
0
  6
CONTINUOUS
 62
   250
 10
6.35756
 20
1.58532
 30
0.0
 11
6.32676
 21
1.58532
 31
0.0
  0
LINE
  8
0
  6
CONTINUOUS
 62
   250
 10
6.35756
 20
1.58532
 30
0.0
 11
6.35756
 21
1.5092
 31
0.0
  0
LINE
  8
0
  6
CONTINUOUS
 62
   250
 10
6.35756
 20
1.5092
 30
0.0
 11
6.32676
 21
1.5092
 31
0.0
  0
LINE
  8
0
  6
CONTINUOUS
 62
   250
 10
6.29376
 20
1.29404
 30
0.0
 11
6.29376
 21
1.3134
 31
0.0
  0
LINE
  8
0
  6
CONTINUOUS
 62
   250
 10
6.31268
 20
1.28304
 30
0.0
 11
6.31268
 21
1.21616
 31
0.0
  0
LINE
  8
0
  6
CONTINUOUS
 62
   250
 10
6.29376
 20
1.29404
 30
0.0
 11
6.32412
 21
1.29404
 31
0.0
  0
LINE
  8
0
  6
CONTINUOUS
 62
   250
 10
6.31268
 20
1.28304
 30
0.0
 11
6.32412
 21
1.28304
 31
0.0
  0
LINE
  8
0
  6
CONTINUOUS
 62
   250
 10
6.32412
 20
1.28304
 30
0.0
 11
6.32412
 21
1.29404
 31
0.0
  0
LINE
  8
0
  6
CONTINUOUS
 62
   250
 10
6.29376
 20
1.3134
 30
0.0
 11
6.32412
 21
1.3134
 31
0.0
  0
LINE
  8
0
  6
CONTINUOUS
 62
   250
 10
6.32412
 20
1.3134
 30
0.0
 11
6.32412
 21
1.32484
 31
0.0
  0
LINE
  8
0
  6
CONTINUOUS
 62
   250
 10
6.32412
 20
1.32484
 30
0.0
 11
6.31268
 21
1.32484
 31
0.0
  0
LINE
  8
0
  6
CONTINUOUS
 62
   250
 10
6.29376
 20
1.7666
 30
0.0
 11
6.29376
 21
1.78552
 31
0.0
  0
LINE
  8
0
  6
CONTINUOUS
 62
   250
 10
6.29376
 20
1.7666
 30
0.0
 11
6.32412
 21
1.7666
 31
0.0
  0
LINE
  8
0
  6
CONTINUOUS
 62
   250
 10
6.31268
 20
1.75516
 30
0.0
 11
6.32412
 21
1.75516
 31
0.0
  0
LINE
  8
0
  6
CONTINUOUS
 62
   250
 10
6.32412
 20
1.75516
 30
0.0
 11
6.32412
 21
1.7666
 31
0.0
  0
LINE
  8
0
  6
CONTINUOUS
 62
   250
 10
6.29376
 20
1.78552
 30
0.0
 11
6.32412
 21
1.78552
 31
0.0
  0
LINE
  8
0
  6
CONTINUOUS
 62
   250
 10
6.32412
 20
1.78552
 30
0.0
 11
6.32412
 21
1.79696
 31
0.0
  0
LINE
  8
0
  6
CONTINUOUS
 62
   250
 10
6.32412
 20
1.79696
 30
0.0
 11
6.31268
 21
1.79696
 31
0.0
  0
LINE
  8
0
  6
CONTINUOUS
 62
   250
 10
6.31268
 20
1.75516
 30
0.0
 11
6.31268
 21
1.32484
 31
0.0
  0
LINE
  8
0
  6
CONTINUOUS
 62
   250
 10
7.59704
 20
1.29404
 30
0.0
 11
7.59704
 21
1.3134
 31
0.0
  0
LINE
  8
0
  6
CONTINUOUS
 62
   250
 10
7.59704
 20
1.29404
 30
0.0
 11
7.56624
 21
1.29404
 31
0.0
  0
LINE
  8
0
  6
CONTINUOUS
 62
   250
 10
7.56624
 20
1.28304
 30
0.0
 11
7.56624
 21
1.29404
 31
0.0
  0
LINE
  8
0
  6
CONTINUOUS
 62
   250
 10
7.59704
 20
1.3134
 30
0.0
 11
7.56624
 21
1.3134
 31
0.0
  0
LINE
  8
0
  6
CONTINUOUS
 62
   250
 10
7.56624
 20
1.3134
 30
0.0
 11
7.56624
 21
1.32484
 31
0.0
  0
LINE
  8
0
  6
CONTINUOUS
 62
   250
 10
7.59704
 20
1.7666
 30
0.0
 11
7.59704
 21
1.78552
 31
0.0
  0
LINE
  8
0
  6
CONTINUOUS
 62
   250
 10
7.59704
 20
1.7666
 30
0.0
 11
7.56624
 21
1.7666
 31
0.0
  0
LINE
  8
0
  6
CONTINUOUS
 62
   250
 10
7.56624
 20
1.75516
 30
0.0
 11
7.56624
 21
1.7666
 31
0.0
  0
LINE
  8
0
  6
CONTINUOUS
 62
   250
 10
7.59704
 20
1.78552
 30
0.0
 11
7.56624
 21
1.78552
 31
0.0
  0
LINE
  8
0
  6
CONTINUOUS
 62
   250
 10
7.56624
 20
1.78552
 30
0.0
 11
7.56624
 21
1.79696
 31
0.0
  0
LINE
  8
0
  6
CONTINUOUS
 62
   250
 10
7.57768
 20
1.89728
 30
0.0
 11
6.35932
 21
1.89728
 31
0.0
  0
LINE
  8
0
  6
CONTINUOUS
 62
   250
 10
6.35932
 20
1.89728
 30
0.0
 11
6.35932
 21
1.87572
 31
0.0
  0
LINE
  8
0
  6
CONTINUOUS
 62
   250
 10
6.35932
 20
1.87572
 30
0.0
 11
6.31268
 21
1.87572
 31
0.0
  0
LINE
  8
0
  6
CONTINUOUS
 62
   250
 10
6.31268
 20
1.87572
 30
0.0
 11
6.31268
 21
1.79696
 31
0.0
  0
LINE
  8
0
  6
CONTINUOUS
 62
   250
 10
7.57768
 20
1.75516
 30
0.0
 11
7.56624
 21
1.75516
 31
0.0
  0
LINE
  8
0
  6
CONTINUOUS
 62
   250
 10
7.56624
 20
1.79696
 30
0.0
 11
7.57768
 21
1.79696
 31
0.0
  0
LINE
  8
0
  6
CONTINUOUS
 62
   250
 10
7.57768
 20
1.79696
 30
0.0
 11
7.57768
 21
1.89728
 31
0.0
  0
LINE
  8
0
  6
CONTINUOUS
 62
   250
 10
7.57768
 20
1.1946
 30
0.0
 11
7.57768
 21
1.28304
 31
0.0
  0
LINE
  8
0
  6
CONTINUOUS
 62
   250
 10
7.57768
 20
1.28304
 30
0.0
 11
7.56624
 21
1.28304
 31
0.0
  0
LINE
  8
0
  6
CONTINUOUS
 62
   250
 10
7.56624
 20
1.32484
 30
0.0
 11
7.57768
 21
1.32484
 31
0.0
  0
LINE
  8
0
  6
CONTINUOUS
 62
   250
 10
7.57768
 20
1.32484
 30
0.0
 11
7.57768
 21
1.75516
 31
0.0
  0
LINE
  8
0
  6
CONTINUOUS
 62
   250
 10
7.535
 20
1.26368
 30
0.0
 11
7.535
 21
1.27116
 31
0.0
  0
LINE
  8
0
  6
CONTINUOUS
 62
   250
 10
7.5636
 20
1.26368
 30
0.0
 11
7.535
 21
1.26368
 31
0.0
  0
LINE
  8
0
  6
CONTINUOUS
 62
   250
 10
7.535
 20
1.27116
 30
0.0
 11
7.5636
 21
1.27116
 31
0.0
  0
LINE
  8
0
  6
CONTINUOUS
 62
   250
 10
7.535
 20
1.75076
 30
0.0
 11
7.535
 21
1.75868
 31
0.0
  0
LINE
  8
0
  6
CONTINUOUS
 62
   250
 10
7.5636
 20
1.75076
 30
0.0
 11
7.535
 21
1.75076
 31
0.0
  0
LINE
  8
0
  6
CONTINUOUS
 62
   250
 10
7.5636
 20
1.75868
 30
0.0
 11
7.535
 21
1.75868
 31
0.0
  0
LINE
  8
0
  6
CONTINUOUS
 62
   250
 10
7.5636
 20
1.26368
 30
0.0
 11
7.5636
 21
1.20912
 31
0.0
  0
LINE
  8
0
  6
CONTINUOUS
 62
   250
 10
7.5636
 20
1.75076
 30
0.0
 11
7.5636
 21
1.27116
 31
0.0
  0
LINE
  8
0
  6
CONTINUOUS
 62
   250
 10
7.5636
 20
1.75868
 30
0.0
 11
7.5636
 21
1.88276
 31
0.0
  0
LINE
  8
0
  6
CONTINUOUS
 62
   250
 10
7.29916
 20
1.54704
 30
0.0
 11
7.29872
 21
1.55056
 31
0.0
  0
LINE
  8
0
  6
CONTINUOUS
 62
   250
 10
7.29872
 20
1.55056
 30
0.0
 11
7.29828
 21
1.5532
 31
0.0
  0
LINE
  8
0
  6
CONTINUOUS
 62
   250
 10
7.29828
 20
1.5532
 30
0.0
 11
7.29784
 21
1.55584
 31
0.0
  0
LINE
  8
0
  6
CONTINUOUS
 62
   250
 10
7.29784
 20
1.55584
 30
0.0
 11
7.2974
 21
1.55848
 31
0.0
  0
LINE
  8
0
  6
CONTINUOUS
 62
   250
 10
7.2974
 20
1.55848
 30
0.0
 11
7.29652
 21
1.56112
 31
0.0
  0
LINE
  8
0
  6
CONTINUOUS
 62
   250
 10
7.29652
 20
1.56112
 30
0.0
 11
7.2952
 21
1.56376
 31
0.0
  0
LINE
  8
0
  6
CONTINUOUS
 62
   250
 10
7.2952
 20
1.56376
 30
0.0
 11
7.29388
 21
1.5664
 31
0.0
  0
LINE
  8
0
  6
CONTINUOUS
 62
   250
 10
7.29388
 20
1.5664
 30
0.0
 11
7.29256
 21
1.5686
 31
0.0
  0
LINE
  8
0
  6
CONTINUOUS
 62
   250
 10
7.29256
 20
1.5686
 30
0.0
 11
7.2908
 21
1.5708
 31
0.0
  0
LINE
  8
0
  6
CONTINUOUS
 62
   250
 10
7.2908
 20
1.5708
 30
0.0
 11
7.28948
 21
1.573
 31
0.0
  0
LINE
  8
0
  6
CONTINUOUS
 62
   250
 10
7.28948
 20
1.573
 30
0.0
 11
7.28728
 21
1.5752
 31
0.0
  0
LINE
  8
0
  6
CONTINUOUS
 62
   250
 10
7.28728
 20
1.5752
 30
0.0
 11
7.28552
 21
1.57696
 31
0.0
  0
LINE
  8
0
  6
CONTINUOUS
 62
   250
 10
7.28552
 20
1.57696
 30
0.0
 11
7.28332
 21
1.57872
 31
0.0
  0
LINE
  8
0
  6
CONTINUOUS
 62
   250
 10
7.28332
 20
1.57872
 30
0.0
 11
7.28068
 21
1.58048
 31
0.0
  0
LINE
  8
0
  6
CONTINUOUS
 62
   250
 10
7.28068
 20
1.58048
 30
0.0
 11
7.27848
 21
1.5818
 31
0.0
  0
LINE
  8
0
  6
CONTINUOUS
 62
   250
 10
7.27848
 20
1.5818
 30
0.0
 11
7.27628
 21
1.58312
 31
0.0
  0
LINE
  8
0
  6
CONTINUOUS
 62
   250
 10
7.27628
 20
1.58312
 30
0.0
 11
7.27364
 21
1.584
 31
0.0
  0
LINE
  8
0
  6
CONTINUOUS
 62
   250
 10
7.27364
 20
1.584
 30
0.0
 11
7.271
 21
1.58488
 31
0.0
  0
LINE
  8
0
  6
CONTINUOUS
 62
   250
 10
7.271
 20
1.58488
 30
0.0
 11
7.26836
 21
1.58576
 31
0.0
  0
LINE
  8
0
  6
CONTINUOUS
 62
   250
 10
7.26836
 20
1.58576
 30
0.0
 11
7.26572
 21
1.5862
 31
0.0
  0
LINE
  8
0
  6
CONTINUOUS
 62
   250
 10
7.26572
 20
1.5862
 30
0.0
 11
7.26264
 21
1.58664
 31
0.0
  0
LINE
  8
0
  6
CONTINUOUS
 62
   250
 10
7.26264
 20
1.58664
 30
0.0
 11
7.26
 21
1.58664
 31
0.0
  0
LINE
  8
0
  6
CONTINUOUS
 62
   250
 10
7.26
 20
1.58664
 30
0.0
 11
7.25736
 21
1.58664
 31
0.0
  0
LINE
  8
0
  6
CONTINUOUS
 62
   250
 10
7.25736
 20
1.58664
 30
0.0
 11
7.25472
 21
1.5862
 31
0.0
  0
LINE
  8
0
  6
CONTINUOUS
 62
   250
 10
7.25472
 20
1.5862
 30
0.0
 11
7.25208
 21
1.58576
 31
0.0
  0
LINE
  8
0
  6
CONTINUOUS
 62
   250
 10
7.25208
 20
1.58576
 30
0.0
 11
7.24944
 21
1.58532
 31
0.0
  0
LINE
  8
0
  6
CONTINUOUS
 62
   250
 10
7.24944
 20
1.58532
 30
0.0
 11
7.2468
 21
1.58444
 31
0.0
  0
LINE
  8
0
  6
CONTINUOUS
 62
   250
 10
7.2468
 20
1.58444
 30
0.0
 11
7.24416
 21
1.58356
 31
0.0
  0
LINE
  8
0
  6
CONTINUOUS
 62
   250
 10
7.24416
 20
1.58356
 30
0.0
 11
7.24152
 21
1.58224
 31
0.0
  0
LINE
  8
0
  6
CONTINUOUS
 62
   250
 10
7.24152
 20
1.58224
 30
0.0
 11
7.23932
 21
1.58092
 31
0.0
  0
LINE
  8
0
  6
CONTINUOUS
 62
   250
 10
7.23932
 20
1.58092
 30
0.0
 11
7.23668
 21
1.5796
 31
0.0
  0
LINE
  8
0
  6
CONTINUOUS
 62
   250
 10
7.23668
 20
1.5796
 30
0.0
 11
7.23448
 21
1.57784
 31
0.0
  0
LINE
  8
0
  6
CONTINUOUS
 62
   250
 10
7.23448
 20
1.57784
 30
0.0
 11
7.23272
 21
1.57608
 31
0.0
  0
LINE
  8
0
  6
CONTINUOUS
 62
   250
 10
7.23272
 20
1.57608
 30
0.0
 11
7.23052
 21
1.57388
 31
0.0
  0
LINE
  8
0
  6
CONTINUOUS
 62
   250
 10
7.23052
 20
1.57388
 30
0.0
 11
7.22876
 21
1.57212
 31
0.0
  0
LINE
  8
0
  6
CONTINUOUS
 62
   250
 10
7.22876
 20
1.57212
 30
0.0
 11
7.22744
 21
1.56992
 31
0.0
  0
LINE
  8
0
  6
CONTINUOUS
 62
   250
 10
7.22744
 20
1.56992
 30
0.0
 11
7.22568
 21
1.56772
 31
0.0
  0
LINE
  8
0
  6
CONTINUOUS
 62
   250
 10
7.22568
 20
1.56772
 30
0.0
 11
7.22436
 21
1.56508
 31
0.0
  0
LINE
  8
0
  6
CONTINUOUS
 62
   250
 10
7.22436
 20
1.56508
 30
0.0
 11
7.22304
 21
1.56244
 31
0.0
  0
LINE
  8
0
  6
CONTINUOUS
 62
   250
 10
7.22304
 20
1.56244
 30
0.0
 11
7.22216
 21
1.56024
 31
0.0
  0
LINE
  8
0
  6
CONTINUOUS
 62
   250
 10
7.22216
 20
1.56024
 30
0.0
 11
7.22128
 21
1.55716
 31
0.0
  0
LINE
  8
0
  6
CONTINUOUS
 62
   250
 10
7.22128
 20
1.55716
 30
0.0
 11
7.22084
 21
1.55452
 31
0.0
  0
LINE
  8
0
  6
CONTINUOUS
 62
   250
 10
7.22084
 20
1.55452
 30
0.0
 11
7.2204
 21
1.55188
 31
0.0
  0
LINE
  8
0
  6
CONTINUOUS
 62
   250
 10
7.2204
 20
1.55188
 30
0.0
 11
7.21996
 21
1.54924
 31
0.0
  0
LINE
  8
0
  6
CONTINUOUS
 62
   250
 10
7.21996
 20
1.54924
 30
0.0
 11
7.21996
 21
1.5466
 31
0.0
  0
LINE
  8
0
  6
CONTINUOUS
 62
   250
 10
7.21996
 20
1.5466
 30
0.0
 11
7.21996
 21
1.54396
 31
0.0
  0
LINE
  8
0
  6
CONTINUOUS
 62
   250
 10
7.21996
 20
1.54396
 30
0.0
 11
7.2204
 21
1.54088
 31
0.0
  0
LINE
  8
0
  6
CONTINUOUS
 62
   250
 10
7.2204
 20
1.54088
 30
0.0
 11
7.22128
 21
1.53824
 31
0.0
  0
LINE
  8
0
  6
CONTINUOUS
 62
   250
 10
7.22128
 20
1.53824
 30
0.0
 11
7.22172
 21
1.5356
 31
0.0
  0
LINE
  8
0
  6
CONTINUOUS
 62
   250
 10
7.22172
 20
1.5356
 30
0.0
 11
7.2226
 21
1.53296
 31
0.0
  0
LINE
  8
0
  6
CONTINUOUS
 62
   250
 10
7.2226
 20
1.53296
 30
0.0
 11
7.22392
 21
1.53032
 31
0.0
  0
LINE
  8
0
  6
CONTINUOUS
 62
   250
 10
7.22392
 20
1.53032
 30
0.0
 11
7.2248
 21
1.52812
 31
0.0
  0
LINE
  8
0
  6
CONTINUOUS
 62
   250
 10
7.2248
 20
1.52812
 30
0.0
 11
7.22656
 21
1.52548
 31
0.0
  0
LINE
  8
0
  6
CONTINUOUS
 62
   250
 10
7.22656
 20
1.52548
 30
0.0
 11
7.22788
 21
1.52328
 31
0.0
  0
LINE
  8
0
  6
CONTINUOUS
 62
   250
 10
7.22788
 20
1.52328
 30
0.0
 11
7.22964
 21
1.52152
 31
0.0
  0
LINE
  8
0
  6
CONTINUOUS
 62
   250
 10
7.22964
 20
1.52152
 30
0.0
 11
7.2314
 21
1.51932
 31
0.0
  0
LINE
  8
0
  6
CONTINUOUS
 62
   250
 10
7.2314
 20
1.51932
 30
0.0
 11
7.2336
 21
1.51712
 31
0.0
  0
LINE
  8
0
  6
CONTINUOUS
 62
   250
 10
7.2336
 20
1.51712
 30
0.0
 11
7.2358
 21
1.5158
 31
0.0
  0
LINE
  8
0
  6
CONTINUOUS
 62
   250
 10
7.2358
 20
1.5158
 30
0.0
 11
7.238
 21
1.51404
 31
0.0
  0
LINE
  8
0
  6
CONTINUOUS
 62
   250
 10
7.238
 20
1.51404
 30
0.0
 11
7.2402
 21
1.51272
 31
0.0
  0
LINE
  8
0
  6
CONTINUOUS
 62
   250
 10
7.2402
 20
1.51272
 30
0.0
 11
7.24284
 21
1.5114
 31
0.0
  0
LINE
  8
0
  6
CONTINUOUS
 62
   250
 10
7.24284
 20
1.5114
 30
0.0
 11
7.24548
 21
1.51008
 31
0.0
  0
LINE
  8
0
  6
CONTINUOUS
 62
   250
 10
7.24548
 20
1.51008
 30
0.0
 11
7.24812
 21
1.50964
 31
0.0
  0
LINE
  8
0
  6
CONTINUOUS
 62
   250
 10
7.24812
 20
1.50964
 30
0.0
 11
7.25076
 21
1.50876
 31
0.0
  0
LINE
  8
0
  6
CONTINUOUS
 62
   250
 10
7.25076
 20
1.50876
 30
0.0
 11
7.2534
 21
1.50832
 31
0.0
  0
LINE
  8
0
  6
CONTINUOUS
 62
   250
 10
7.2534
 20
1.50832
 30
0.0
 11
7.25604
 21
1.50788
 31
0.0
  0
LINE
  8
0
  6
CONTINUOUS
 62
   250
 10
7.25604
 20
1.50788
 30
0.0
 11
7.25868
 21
1.50744
 31
0.0
  0
LINE
  8
0
  6
CONTINUOUS
 62
   250
 10
7.25868
 20
1.50744
 30
0.0
 11
7.26176
 21
1.50788
 31
0.0
  0
LINE
  8
0
  6
CONTINUOUS
 62
   250
 10
7.26176
 20
1.50788
 30
0.0
 11
7.2644
 21
1.50788
 31
0.0
  0
LINE
  8
0
  6
CONTINUOUS
 62
   250
 10
7.2644
 20
1.50788
 30
0.0
 11
7.26704
 21
1.50832
 31
0.0
  0
LINE
  8
0
  6
CONTINUOUS
 62
   250
 10
7.26704
 20
1.50832
 30
0.0
 11
7.26968
 21
1.5092
 31
0.0
  0
LINE
  8
0
  6
CONTINUOUS
 62
   250
 10
7.26968
 20
1.5092
 30
0.0
 11
7.27232
 21
1.51008
 31
0.0
  0
LINE
  8
0
  6
CONTINUOUS
 62
   250
 10
7.27232
 20
1.51008
 30
0.0
 11
7.27496
 21
1.51096
 31
0.0
  0
LINE
  8
0
  6
CONTINUOUS
 62
   250
 10
7.27496
 20
1.51096
 30
0.0
 11
7.27716
 21
1.51184
 31
0.0
  0
LINE
  8
0
  6
CONTINUOUS
 62
   250
 10
7.27716
 20
1.51184
 30
0.0
 11
7.2798
 21
1.51316
 31
0.0
  0
LINE
  8
0
  6
CONTINUOUS
 62
   250
 10
7.2798
 20
1.51316
 30
0.0
 11
7.282
 21
1.51492
 31
0.0
  0
LINE
  8
0
  6
CONTINUOUS
 62
   250
 10
7.282
 20
1.51492
 30
0.0
 11
7.2842
 21
1.51668
 31
0.0
  0
LINE
  8
0
  6
CONTINUOUS
 62
   250
 10
7.2842
 20
1.51668
 30
0.0
 11
7.2864
 21
1.51844
 31
0.0
  0
LINE
  8
0
  6
CONTINUOUS
 62
   250
 10
7.2864
 20
1.51844
 30
0.0
 11
7.2886
 21
1.5202
 31
0.0
  0
LINE
  8
0
  6
CONTINUOUS
 62
   250
 10
7.2886
 20
1.5202
 30
0.0
 11
7.29036
 21
1.5224
 31
0.0
  0
LINE
  8
0
  6
CONTINUOUS
 62
   250
 10
7.29036
 20
1.5224
 30
0.0
 11
7.29168
 21
1.5246
 31
0.0
  0
LINE
  8
0
  6
CONTINUOUS
 62
   250
 10
7.29168
 20
1.5246
 30
0.0
 11
7.29344
 21
1.5268
 31
0.0
  0
LINE
  8
0
  6
CONTINUOUS
 62
   250
 10
7.29344
 20
1.5268
 30
0.0
 11
7.29476
 21
1.529
 31
0.0
  0
LINE
  8
0
  6
CONTINUOUS
 62
   250
 10
7.29476
 20
1.529
 30
0.0
 11
7.29564
 21
1.53164
 31
0.0
  0
LINE
  8
0
  6
CONTINUOUS
 62
   250
 10
7.29564
 20
1.53164
 30
0.0
 11
7.29652
 21
1.53428
 31
0.0
  0
LINE
  8
0
  6
CONTINUOUS
 62
   250
 10
7.29652
 20
1.53428
 30
0.0
 11
7.29784
 21
1.53692
 31
0.0
  0
LINE
  8
0
  6
CONTINUOUS
 62
   250
 10
7.29784
 20
1.53692
 30
0.0
 11
7.29828
 21
1.53956
 31
0.0
  0
LINE
  8
0
  6
CONTINUOUS
 62
   250
 10
7.29828
 20
1.53956
 30
0.0
 11
7.29872
 21
1.5422
 31
0.0
  0
LINE
  8
0
  6
CONTINUOUS
 62
   250
 10
7.29872
 20
1.5422
 30
0.0
 11
7.29872
 21
1.54484
 31
0.0
  0
LINE
  8
0
  6
CONTINUOUS
 62
   250
 10
7.29872
 20
1.54484
 30
0.0
 11
7.29916
 21
1.54704
 31
0.0
  0
LINE
  8
0
  6
CONTINUOUS
 62
   250
 10
6.6704
 20
1.54704
 30
0.0
 11
6.6704
 21
1.55056
 31
0.0
  0
LINE
  8
0
  6
CONTINUOUS
 62
   250
 10
6.6704
 20
1.55056
 30
0.0
 11
6.66996
 21
1.5532
 31
0.0
  0
LINE
  8
0
  6
CONTINUOUS
 62
   250
 10
6.66996
 20
1.5532
 30
0.0
 11
6.66952
 21
1.55584
 31
0.0
  0
LINE
  8
0
  6
CONTINUOUS
 62
   250
 10
6.66952
 20
1.55584
 30
0.0
 11
6.66864
 21
1.55848
 31
0.0
  0
LINE
  8
0
  6
CONTINUOUS
 62
   250
 10
6.66864
 20
1.55848
 30
0.0
 11
6.66776
 21
1.56112
 31
0.0
  0
LINE
  8
0
  6
CONTINUOUS
 62
   250
 10
6.66776
 20
1.56112
 30
0.0
 11
6.66688
 21
1.56376
 31
0.0
  0
LINE
  8
0
  6
CONTINUOUS
 62
   250
 10
6.66688
 20
1.56376
 30
0.0
 11
6.66556
 21
1.5664
 31
0.0
  0
LINE
  8
0
  6
CONTINUOUS
 62
   250
 10
6.66556
 20
1.5664
 30
0.0
 11
6.66424
 21
1.5686
 31
0.0
  0
LINE
  8
0
  6
CONTINUOUS
 62
   250
 10
6.66424
 20
1.5686
 30
0.0
 11
6.66248
 21
1.5708
 31
0.0
  0
LINE
  8
0
  6
CONTINUOUS
 62
   250
 10
6.66248
 20
1.5708
 30
0.0
 11
6.66072
 21
1.573
 31
0.0
  0
LINE
  8
0
  6
CONTINUOUS
 62
   250
 10
6.66072
 20
1.573
 30
0.0
 11
6.65896
 21
1.5752
 31
0.0
  0
LINE
  8
0
  6
CONTINUOUS
 62
   250
 10
6.65896
 20
1.5752
 30
0.0
 11
6.65676
 21
1.57696
 31
0.0
  0
LINE
  8
0
  6
CONTINUOUS
 62
   250
 10
6.65676
 20
1.57696
 30
0.0
 11
6.65456
 21
1.57872
 31
0.0
  0
LINE
  8
0
  6
CONTINUOUS
 62
   250
 10
6.65456
 20
1.57872
 30
0.0
 11
6.65236
 21
1.58048
 31
0.0
  0
LINE
  8
0
  6
CONTINUOUS
 62
   250
 10
6.65236
 20
1.58048
 30
0.0
 11
6.65016
 21
1.5818
 31
0.0
  0
LINE
  8
0
  6
CONTINUOUS
 62
   250
 10
6.65016
 20
1.5818
 30
0.0
 11
6.64752
 21
1.58312
 31
0.0
  0
LINE
  8
0
  6
CONTINUOUS
 62
   250
 10
6.64752
 20
1.58312
 30
0.0
 11
6.64532
 21
1.584
 31
0.0
  0
LINE
  8
0
  6
CONTINUOUS
 62
   250
 10
6.64532
 20
1.584
 30
0.0
 11
6.64268
 21
1.58488
 31
0.0
  0
LINE
  8
0
  6
CONTINUOUS
 62
   250
 10
6.64268
 20
1.58488
 30
0.0
 11
6.6396
 21
1.58576
 31
0.0
  0
LINE
  8
0
  6
CONTINUOUS
 62
   250
 10
6.6396
 20
1.58576
 30
0.0
 11
6.63696
 21
1.5862
 31
0.0
  0
LINE
  8
0
  6
CONTINUOUS
 62
   250
 10
6.63696
 20
1.5862
 30
0.0
 11
6.63432
 21
1.58664
 31
0.0
  0
LINE
  8
0
  6
CONTINUOUS
 62
   250
 10
6.63432
 20
1.58664
 30
0.0
 11
6.63168
 21
1.58664
 31
0.0
  0
LINE
  8
0
  6
CONTINUOUS
 62
   250
 10
6.63168
 20
1.58664
 30
0.0
 11
6.62904
 21
1.58664
 31
0.0
  0
LINE
  8
0
  6
CONTINUOUS
 62
   250
 10
6.62904
 20
1.58664
 30
0.0
 11
6.6264
 21
1.5862
 31
0.0
  0
LINE
  8
0
  6
CONTINUOUS
 62
   250
 10
6.6264
 20
1.5862
 30
0.0
 11
6.62332
 21
1.58576
 31
0.0
  0
LINE
  8
0
  6
CONTINUOUS
 62
   250
 10
6.62332
 20
1.58576
 30
0.0
 11
6.62068
 21
1.58532
 31
0.0
  0
LINE
  8
0
  6
CONTINUOUS
 62
   250
 10
6.62068
 20
1.58532
 30
0.0
 11
6.61804
 21
1.58444
 31
0.0
  0
LINE
  8
0
  6
CONTINUOUS
 62
   250
 10
6.61804
 20
1.58444
 30
0.0
 11
6.6154
 21
1.58356
 31
0.0
  0
LINE
  8
0
  6
CONTINUOUS
 62
   250
 10
6.6154
 20
1.58356
 30
0.0
 11
6.6132
 21
1.58224
 31
0.0
  0
LINE
  8
0
  6
CONTINUOUS
 62
   250
 10
6.6132
 20
1.58224
 30
0.0
 11
6.61056
 21
1.58092
 31
0.0
  0
LINE
  8
0
  6
CONTINUOUS
 62
   250
 10
6.61056
 20
1.58092
 30
0.0
 11
6.60836
 21
1.5796
 31
0.0
  0
LINE
  8
0
  6
CONTINUOUS
 62
   250
 10
6.60836
 20
1.5796
 30
0.0
 11
6.60616
 21
1.57784
 31
0.0
  0
LINE
  8
0
  6
CONTINUOUS
 62
   250
 10
6.60616
 20
1.57784
 30
0.0
 11
6.60396
 21
1.57608
 31
0.0
  0
LINE
  8
0
  6
CONTINUOUS
 62
   250
 10
6.60396
 20
1.57608
 30
0.0
 11
6.6022
 21
1.57388
 31
0.0
  0
LINE
  8
0
  6
CONTINUOUS
 62
   250
 10
6.6022
 20
1.57388
 30
0.0
 11
6.60044
 21
1.57212
 31
0.0
  0
LINE
  8
0
  6
CONTINUOUS
 62
   250
 10
6.60044
 20
1.57212
 30
0.0
 11
6.59868
 21
1.56992
 31
0.0
  0
LINE
  8
0
  6
CONTINUOUS
 62
   250
 10
6.59868
 20
1.56992
 30
0.0
 11
6.59736
 21
1.56772
 31
0.0
  0
LINE
  8
0
  6
CONTINUOUS
 62
   250
 10
6.59736
 20
1.56772
 30
0.0
 11
6.5956
 21
1.56508
 31
0.0
  0
LINE
  8
0
  6
CONTINUOUS
 62
   250
 10
6.5956
 20
1.56508
 30
0.0
 11
6.59472
 21
1.56244
 31
0.0
  0
LINE
  8
0
  6
CONTINUOUS
 62
   250
 10
6.59472
 20
1.56244
 30
0.0
 11
6.59384
 21
1.56024
 31
0.0
  0
LINE
  8
0
  6
CONTINUOUS
 62
   250
 10
6.59384
 20
1.56024
 30
0.0
 11
6.59296
 21
1.55716
 31
0.0
  0
LINE
  8
0
  6
CONTINUOUS
 62
   250
 10
6.59296
 20
1.55716
 30
0.0
 11
6.59208
 21
1.55452
 31
0.0
  0
LINE
  8
0
  6
CONTINUOUS
 62
   250
 10
6.59208
 20
1.55452
 30
0.0
 11
6.59208
 21
1.55188
 31
0.0
  0
LINE
  8
0
  6
CONTINUOUS
 62
   250
 10
6.59208
 20
1.55188
 30
0.0
 11
6.59164
 21
1.54924
 31
0.0
  0
LINE
  8
0
  6
CONTINUOUS
 62
   250
 10
6.59164
 20
1.54924
 30
0.0
 11
6.5912
 21
1.5466
 31
0.0
  0
LINE
  8
0
  6
CONTINUOUS
 62
   250
 10
6.5912
 20
1.5466
 30
0.0
 11
6.59164
 21
1.54396
 31
0.0
  0
LINE
  8
0
  6
CONTINUOUS
 62
   250
 10
6.59164
 20
1.54396
 30
0.0
 11
6.59208
 21
1.54088
 31
0.0
  0
LINE
  8
0
  6
CONTINUOUS
 62
   250
 10
6.59208
 20
1.54088
 30
0.0
 11
6.59252
 21
1.53824
 31
0.0
  0
LINE
  8
0
  6
CONTINUOUS
 62
   250
 10
6.59252
 20
1.53824
 30
0.0
 11
6.5934
 21
1.5356
 31
0.0
  0
LINE
  8
0
  6
CONTINUOUS
 62
   250
 10
6.5934
 20
1.5356
 30
0.0
 11
6.59384
 21
1.53296
 31
0.0
  0
LINE
  8
0
  6
CONTINUOUS
 62
   250
 10
6.59384
 20
1.53296
 30
0.0
 11
6.59516
 21
1.53032
 31
0.0
  0
LINE
  8
0
  6
CONTINUOUS
 62
   250
 10
6.59516
 20
1.53032
 30
0.0
 11
6.59648
 21
1.52812
 31
0.0
  0
LINE
  8
0
  6
CONTINUOUS
 62
   250
 10
6.59648
 20
1.52812
 30
0.0
 11
6.5978
 21
1.52548
 31
0.0
  0
LINE
  8
0
  6
CONTINUOUS
 62
   250
 10
6.5978
 20
1.52548
 30
0.0
 11
6.59956
 21
1.52328
 31
0.0
  0
LINE
  8
0
  6
CONTINUOUS
 62
   250
 10
6.59956
 20
1.52328
 30
0.0
 11
6.60088
 21
1.52152
 31
0.0
  0
LINE
  8
0
  6
CONTINUOUS
 62
   250
 10
6.60088
 20
1.52152
 30
0.0
 11
6.60308
 21
1.51932
 31
0.0
  0
LINE
  8
0
  6
CONTINUOUS
 62
   250
 10
6.60308
 20
1.51932
 30
0.0
 11
6.60484
 21
1.51712
 31
0.0
  0
LINE
  8
0
  6
CONTINUOUS
 62
   250
 10
6.60484
 20
1.51712
 30
0.0
 11
6.60748
 21
1.5158
 31
0.0
  0
LINE
  8
0
  6
CONTINUOUS
 62
   250
 10
6.60748
 20
1.5158
 30
0.0
 11
6.60968
 21
1.51404
 31
0.0
  0
LINE
  8
0
  6
CONTINUOUS
 62
   250
 10
6.60968
 20
1.51404
 30
0.0
 11
6.61188
 21
1.51272
 31
0.0
  0
LINE
  8
0
  6
CONTINUOUS
 62
   250
 10
6.61188
 20
1.51272
 30
0.0
 11
6.61452
 21
1.5114
 31
0.0
  0
LINE
  8
0
  6
CONTINUOUS
 62
   250
 10
6.61452
 20
1.5114
 30
0.0
 11
6.61672
 21
1.51008
 31
0.0
  0
LINE
  8
0
  6
CONTINUOUS
 62
   250
 10
6.61672
 20
1.51008
 30
0.0
 11
6.61936
 21
1.50964
 31
0.0
  0
LINE
  8
0
  6
CONTINUOUS
 62
   250
 10
6.61936
 20
1.50964
 30
0.0
 11
6.622
 21
1.50876
 31
0.0
  0
LINE
  8
0
  6
CONTINUOUS
 62
   250
 10
6.622
 20
1.50876
 30
0.0
 11
6.62464
 21
1.50832
 31
0.0
  0
LINE
  8
0
  6
CONTINUOUS
 62
   250
 10
6.62464
 20
1.50832
 30
0.0
 11
6.62772
 21
1.50788
 31
0.0
  0
LINE
  8
0
  6
CONTINUOUS
 62
   250
 10
6.62772
 20
1.50788
 30
0.0
 11
6.63036
 21
1.50744
 31
0.0
  0
LINE
  8
0
  6
CONTINUOUS
 62
   250
 10
6.63036
 20
1.50744
 30
0.0
 11
6.633
 21
1.50788
 31
0.0
  0
LINE
  8
0
  6
CONTINUOUS
 62
   250
 10
6.633
 20
1.50788
 30
0.0
 11
6.63564
 21
1.50788
 31
0.0
  0
LINE
  8
0
  6
CONTINUOUS
 62
   250
 10
6.63564
 20
1.50788
 30
0.0
 11
6.63828
 21
1.50832
 31
0.0
  0
LINE
  8
0
  6
CONTINUOUS
 62
   250
 10
6.63828
 20
1.50832
 30
0.0
 11
6.64136
 21
1.5092
 31
0.0
  0
LINE
  8
0
  6
CONTINUOUS
 62
   250
 10
6.64136
 20
1.5092
 30
0.0
 11
6.644
 21
1.51008
 31
0.0
  0
LINE
  8
0
  6
CONTINUOUS
 62
   250
 10
6.644
 20
1.51008
 30
0.0
 11
6.6462
 21
1.51096
 31
0.0
  0
LINE
  8
0
  6
CONTINUOUS
 62
   250
 10
6.6462
 20
1.51096
 30
0.0
 11
6.64884
 21
1.51184
 31
0.0
  0
LINE
  8
0
  6
CONTINUOUS
 62
   250
 10
6.64884
 20
1.51184
 30
0.0
 11
6.65148
 21
1.51316
 31
0.0
  0
LINE
  8
0
  6
CONTINUOUS
 62
   250
 10
6.65148
 20
1.51316
 30
0.0
 11
6.65368
 21
1.51492
 31
0.0
  0
LINE
  8
0
  6
CONTINUOUS
 62
   250
 10
6.65368
 20
1.51492
 30
0.0
 11
6.65588
 21
1.51668
 31
0.0
  0
LINE
  8
0
  6
CONTINUOUS
 62
   250
 10
6.65588
 20
1.51668
 30
0.0
 11
6.65764
 21
1.51844
 31
0.0
  0
LINE
  8
0
  6
CONTINUOUS
 62
   250
 10
6.65764
 20
1.51844
 30
0.0
 11
6.65984
 21
1.5202
 31
0.0
  0
LINE
  8
0
  6
CONTINUOUS
 62
   250
 10
6.65984
 20
1.5202
 30
0.0
 11
6.6616
 21
1.5224
 31
0.0
  0
LINE
  8
0
  6
CONTINUOUS
 62
   250
 10
6.6616
 20
1.5224
 30
0.0
 11
6.66336
 21
1.5246
 31
0.0
  0
LINE
  8
0
  6
CONTINUOUS
 62
   250
 10
6.66336
 20
1.5246
 30
0.0
 11
6.66468
 21
1.5268
 31
0.0
  0
LINE
  8
0
  6
CONTINUOUS
 62
   250
 10
6.66468
 20
1.5268
 30
0.0
 11
6.666
 21
1.529
 31
0.0
  0
LINE
  8
0
  6
CONTINUOUS
 62
   250
 10
6.666
 20
1.529
 30
0.0
 11
6.66732
 21
1.53164
 31
0.0
  0
LINE
  8
0
  6
CONTINUOUS
 62
   250
 10
6.66732
 20
1.53164
 30
0.0
 11
6.6682
 21
1.53428
 31
0.0
  0
LINE
  8
0
  6
CONTINUOUS
 62
   250
 10
6.6682
 20
1.53428
 30
0.0
 11
6.66908
 21
1.53692
 31
0.0
  0
LINE
  8
0
  6
CONTINUOUS
 62
   250
 10
6.66908
 20
1.53692
 30
0.0
 11
6.66952
 21
1.53956
 31
0.0
  0
LINE
  8
0
  6
CONTINUOUS
 62
   250
 10
6.66952
 20
1.53956
 30
0.0
 11
6.66996
 21
1.5422
 31
0.0
  0
LINE
  8
0
  6
CONTINUOUS
 62
   250
 10
6.66996
 20
1.5422
 30
0.0
 11
6.6704
 21
1.54484
 31
0.0
  0
LINE
  8
0
  6
CONTINUOUS
 62
   250
 10
6.6704
 20
1.54484
 30
0.0
 11
6.6704
 21
1.54704
 31
0.0
  0
LINE
  8
0
  6
CONTINUOUS
 62
   250
 10
6.68888
 20
1.56992
 30
0.0
 11
6.70824
 21
1.56992
 31
0.0
  0
LINE
  8
0
  6
CONTINUOUS
 62
   250
 10
6.70824
 20
1.56992
 30
0.0
 11
6.70824
 21
1.57168
 31
0.0
  0
LINE
  8
0
  6
CONTINUOUS
 62
   250
 10
6.70824
 20
1.57168
 30
0.0
 11
6.7078
 21
1.57344
 31
0.0
  0
LINE
  8
0
  6
CONTINUOUS
 62
   250
 10
6.7078
 20
1.57344
 30
0.0
 11
6.70692
 21
1.57476
 31
0.0
  0
LINE
  8
0
  6
CONTINUOUS
 62
   250
 10
6.70692
 20
1.57476
 30
0.0
 11
6.70604
 21
1.57608
 31
0.0
  0
LINE
  8
0
  6
CONTINUOUS
 62
   250
 10
6.70604
 20
1.57608
 30
0.0
 11
6.70516
 21
1.57696
 31
0.0
  0
LINE
  8
0
  6
CONTINUOUS
 62
   250
 10
6.70516
 20
1.57696
 30
0.0
 11
6.70428
 21
1.57784
 31
0.0
  0
LINE
  8
0
  6
CONTINUOUS
 62
   250
 10
6.70428
 20
1.57784
 30
0.0
 11
6.70296
 21
1.57872
 31
0.0
  0
LINE
  8
0
  6
CONTINUOUS
 62
   250
 10
6.70296
 20
1.57872
 30
0.0
 11
6.7012
 21
1.5796
 31
0.0
  0
LINE
  8
0
  6
CONTINUOUS
 62
   250
 10
6.7012
 20
1.5796
 30
0.0
 11
6.69988
 21
1.5796
 31
0.0
  0
LINE
  8
0
  6
CONTINUOUS
 62
   250
 10
6.69988
 20
1.5796
 30
0.0
 11
6.69856
 21
1.5796
 31
0.0
  0
LINE
  8
0
  6
CONTINUOUS
 62
   250
 10
6.69856
 20
1.5796
 30
0.0
 11
6.6968
 21
1.5796
 31
0.0
  0
LINE
  8
0
  6
CONTINUOUS
 62
   250
 10
6.6968
 20
1.5796
 30
0.0
 11
6.69548
 21
1.57916
 31
0.0
  0
LINE
  8
0
  6
CONTINUOUS
 62
   250
 10
6.69548
 20
1.57916
 30
0.0
 11
6.69416
 21
1.57872
 31
0.0
  0
LINE
  8
0
  6
CONTINUOUS
 62
   250
 10
6.69416
 20
1.57872
 30
0.0
 11
6.69284
 21
1.57784
 31
0.0
  0
LINE
  8
0
  6
CONTINUOUS
 62
   250
 10
6.69284
 20
1.57784
 30
0.0
 11
6.69152
 21
1.57696
 31
0.0
  0
LINE
  8
0
  6
CONTINUOUS
 62
   250
 10
6.69152
 20
1.57696
 30
0.0
 11
6.69064
 21
1.57564
 31
0.0
  0
LINE
  8
0
  6
CONTINUOUS
 62
   250
 10
6.69064
 20
1.57564
 30
0.0
 11
6.68976
 21
1.57432
 31
0.0
  0
LINE
  8
0
  6
CONTINUOUS
 62
   250
 10
6.68976
 20
1.57432
 30
0.0
 11
6.68932
 21
1.573
 31
0.0
  0
LINE
  8
0
  6
CONTINUOUS
 62
   250
 10
6.68932
 20
1.573
 30
0.0
 11
6.68888
 21
1.57124
 31
0.0
  0
LINE
  8
0
  6
CONTINUOUS
 62
   250
 10
6.68888
 20
1.57124
 30
0.0
 11
6.68888
 21
1.56992
 31
0.0
  0
LINE
  8
0
  6
CONTINUOUS
 62
   250
 10
6.68888
 20
1.56992
 30
0.0
 11
6.68888
 21
1.5686
 31
0.0
  0
LINE
  8
0
  6
CONTINUOUS
 62
   250
 10
6.68888
 20
1.5686
 30
0.0
 11
6.68932
 21
1.56684
 31
0.0
  0
LINE
  8
0
  6
CONTINUOUS
 62
   250
 10
6.68932
 20
1.56684
 30
0.0
 11
6.6902
 21
1.56552
 31
0.0
  0
LINE
  8
0
  6
CONTINUOUS
 62
   250
 10
6.6902
 20
1.56552
 30
0.0
 11
6.69064
 21
1.5642
 31
0.0
  0
LINE
  8
0
  6
CONTINUOUS
 62
   250
 10
6.69064
 20
1.5642
 30
0.0
 11
6.69196
 21
1.56288
 31
0.0
  0
LINE
  8
0
  6
CONTINUOUS
 62
   250
 10
6.69196
 20
1.56288
 30
0.0
 11
6.69284
 21
1.562
 31
0.0
  0
LINE
  8
0
  6
CONTINUOUS
 62
   250
 10
6.69284
 20
1.562
 30
0.0
 11
6.69416
 21
1.56156
 31
0.0
  0
LINE
  8
0
  6
CONTINUOUS
 62
   250
 10
6.69416
 20
1.56156
 30
0.0
 11
6.69548
 21
1.56068
 31
0.0
  0
LINE
  8
0
  6
CONTINUOUS
 62
   250
 10
6.69548
 20
1.56068
 30
0.0
 11
6.69724
 21
1.56068
 31
0.0
  0
LINE
  8
0
  6
CONTINUOUS
 62
   250
 10
6.69724
 20
1.56068
 30
0.0
 11
6.69856
 21
1.56068
 31
0.0
  0
LINE
  8
0
  6
CONTINUOUS
 62
   250
 10
6.69856
 20
1.56068
 30
0.0
 11
6.70032
 21
1.56068
 31
0.0
  0
LINE
  8
0
  6
CONTINUOUS
 62
   250
 10
6.70032
 20
1.56068
 30
0.0
 11
6.70164
 21
1.56112
 31
0.0
  0
LINE
  8
0
  6
CONTINUOUS
 62
   250
 10
6.70164
 20
1.56112
 30
0.0
 11
6.70296
 21
1.56156
 31
0.0
  0
LINE
  8
0
  6
CONTINUOUS
 62
   250
 10
6.70296
 20
1.56156
 30
0.0
 11
6.70428
 21
1.56244
 31
0.0
  0
LINE
  8
0
  6
CONTINUOUS
 62
   250
 10
6.70428
 20
1.56244
 30
0.0
 11
6.7056
 21
1.56332
 31
0.0
  0
LINE
  8
0
  6
CONTINUOUS
 62
   250
 10
6.7056
 20
1.56332
 30
0.0
 11
6.70648
 21
1.56464
 31
0.0
  0
LINE
  8
0
  6
CONTINUOUS
 62
   250
 10
6.70648
 20
1.56464
 30
0.0
 11
6.70736
 21
1.56596
 31
0.0
  0
LINE
  8
0
  6
CONTINUOUS
 62
   250
 10
6.70736
 20
1.56596
 30
0.0
 11
6.7078
 21
1.56728
 31
0.0
  0
LINE
  8
0
  6
CONTINUOUS
 62
   250
 10
6.7078
 20
1.56728
 30
0.0
 11
6.70824
 21
1.5686
 31
0.0
  0
LINE
  8
0
  6
CONTINUOUS
 62
   250
 10
6.70824
 20
1.5686
 30
0.0
 11
6.70824
 21
1.56992
 31
0.0
  0
LINE
  8
0
  6
CONTINUOUS
 62
   250
 10
6.70824
 20
1.53208
 30
0.0
 11
6.70824
 21
1.53384
 31
0.0
  0
LINE
  8
0
  6
CONTINUOUS
 62
   250
 10
6.70824
 20
1.53384
 30
0.0
 11
6.7078
 21
1.53516
 31
0.0
  0
LINE
  8
0
  6
CONTINUOUS
 62
   250
 10
6.7078
 20
1.53516
 30
0.0
 11
6.70692
 21
1.53648
 31
0.0
  0
LINE
  8
0
  6
CONTINUOUS
 62
   250
 10
6.70692
 20
1.53648
 30
0.0
 11
6.70604
 21
1.5378
 31
0.0
  0
LINE
  8
0
  6
CONTINUOUS
 62
   250
 10
6.70604
 20
1.5378
 30
0.0
 11
6.70516
 21
1.53912
 31
0.0
  0
LINE
  8
0
  6
CONTINUOUS
 62
   250
 10
6.70516
 20
1.53912
 30
0.0
 11
6.70428
 21
1.54
 31
0.0
  0
LINE
  8
0
  6
CONTINUOUS
 62
   250
 10
6.70428
 20
1.54
 30
0.0
 11
6.70296
 21
1.54088
 31
0.0
  0
LINE
  8
0
  6
CONTINUOUS
 62
   250
 10
6.70296
 20
1.54088
 30
0.0
 11
6.7012
 21
1.54132
 31
0.0
  0
LINE
  8
0
  6
CONTINUOUS
 62
   250
 10
6.7012
 20
1.54132
 30
0.0
 11
6.69988
 21
1.54176
 31
0.0
  0
LINE
  8
0
  6
CONTINUOUS
 62
   250
 10
6.69988
 20
1.54176
 30
0.0
 11
6.69856
 21
1.54176
 31
0.0
  0
LINE
  8
0
  6
CONTINUOUS
 62
   250
 10
6.69856
 20
1.54176
 30
0.0
 11
6.6968
 21
1.54132
 31
0.0
  0
LINE
  8
0
  6
CONTINUOUS
 62
   250
 10
6.6968
 20
1.54132
 30
0.0
 11
6.69548
 21
1.54132
 31
0.0
  0
LINE
  8
0
  6
CONTINUOUS
 62
   250
 10
6.69548
 20
1.54132
 30
0.0
 11
6.69416
 21
1.54044
 31
0.0
  0
LINE
  8
0
  6
CONTINUOUS
 62
   250
 10
6.69416
 20
1.54044
 30
0.0
 11
6.69284
 21
1.53956
 31
0.0
  0
LINE
  8
0
  6
CONTINUOUS
 62
   250
 10
6.69284
 20
1.53956
 30
0.0
 11
6.69152
 21
1.53868
 31
0.0
  0
LINE
  8
0
  6
CONTINUOUS
 62
   250
 10
6.69152
 20
1.53868
 30
0.0
 11
6.69064
 21
1.53736
 31
0.0
  0
LINE
  8
0
  6
CONTINUOUS
 62
   250
 10
6.69064
 20
1.53736
 30
0.0
 11
6.68976
 21
1.53604
 31
0.0
  0
LINE
  8
0
  6
CONTINUOUS
 62
   250
 10
6.68976
 20
1.53604
 30
0.0
 11
6.68932
 21
1.53472
 31
0.0
  0
LINE
  8
0
  6
CONTINUOUS
 62
   250
 10
6.68932
 20
1.53472
 30
0.0
 11
6.68888
 21
1.5334
 31
0.0
  0
LINE
  8
0
  6
CONTINUOUS
 62
   250
 10
6.68888
 20
1.5334
 30
0.0
 11
6.68888
 21
1.53208
 31
0.0
  0
LINE
  8
0
  6
CONTINUOUS
 62
   250
 10
6.68888
 20
1.53208
 30
0.0
 11
6.68888
 21
1.53032
 31
0.0
  0
LINE
  8
0
  6
CONTINUOUS
 62
   250
 10
6.68888
 20
1.53032
 30
0.0
 11
6.68932
 21
1.529
 31
0.0
  0
LINE
  8
0
  6
CONTINUOUS
 62
   250
 10
6.68932
 20
1.529
 30
0.0
 11
6.6902
 21
1.52768
 31
0.0
  0
LINE
  8
0
  6
CONTINUOUS
 62
   250
 10
6.6902
 20
1.52768
 30
0.0
 11
6.69064
 21
1.52636
 31
0.0
  0
LINE
  8
0
  6
CONTINUOUS
 62
   250
 10
6.69064
 20
1.52636
 30
0.0
 11
6.69196
 21
1.52504
 31
0.0
  0
LINE
  8
0
  6
CONTINUOUS
 62
   250
 10
6.69196
 20
1.52504
 30
0.0
 11
6.69284
 21
1.52416
 31
0.0
  0
LINE
  8
0
  6
CONTINUOUS
 62
   250
 10
6.69284
 20
1.52416
 30
0.0
 11
6.69416
 21
1.52328
 31
0.0
  0
LINE
  8
0
  6
CONTINUOUS
 62
   250
 10
6.69416
 20
1.52328
 30
0.0
 11
6.69548
 21
1.52284
 31
0.0
  0
LINE
  8
0
  6
CONTINUOUS
 62
   250
 10
6.69548
 20
1.52284
 30
0.0
 11
6.69724
 21
1.5224
 31
0.0
  0
LINE
  8
0
  6
CONTINUOUS
 62
   250
 10
6.69724
 20
1.5224
 30
0.0
 11
6.69856
 21
1.5224
 31
0.0
  0
LINE
  8
0
  6
CONTINUOUS
 62
   250
 10
6.69856
 20
1.5224
 30
0.0
 11
6.70032
 21
1.5224
 31
0.0
  0
LINE
  8
0
  6
CONTINUOUS
 62
   250
 10
6.70032
 20
1.5224
 30
0.0
 11
6.70164
 21
1.52284
 31
0.0
  0
LINE
  8
0
  6
CONTINUOUS
 62
   250
 10
6.70164
 20
1.52284
 30
0.0
 11
6.70296
 21
1.52328
 31
0.0
  0
LINE
  8
0
  6
CONTINUOUS
 62
   250
 10
6.70296
 20
1.52328
 30
0.0
 11
6.70428
 21
1.52416
 31
0.0
  0
LINE
  8
0
  6
CONTINUOUS
 62
   250
 10
6.70428
 20
1.52416
 30
0.0
 11
6.7056
 21
1.52548
 31
0.0
  0
LINE
  8
0
  6
CONTINUOUS
 62
   250
 10
6.7056
 20
1.52548
 30
0.0
 11
6.70648
 21
1.52636
 31
0.0
  0
LINE
  8
0
  6
CONTINUOUS
 62
   250
 10
6.70648
 20
1.52636
 30
0.0
 11
6.70736
 21
1.52768
 31
0.0
  0
LINE
  8
0
  6
CONTINUOUS
 62
   250
 10
6.70736
 20
1.52768
 30
0.0
 11
6.7078
 21
1.529
 31
0.0
  0
LINE
  8
0
  6
CONTINUOUS
 62
   250
 10
6.7078
 20
1.529
 30
0.0
 11
6.70824
 21
1.53076
 31
0.0
  0
LINE
  8
0
  6
CONTINUOUS
 62
   250
 10
6.70824
 20
1.53076
 30
0.0
 11
6.70824
 21
1.53208
 31
0.0
  0
LINE
  8
0
  6
CONTINUOUS
 62
   250
 10
6.69856
 20
1.54176
 30
0.0
 11
6.69856
 21
1.5224
 31
0.0
  0
LINE
  8
0
  6
CONTINUOUS
 62
   250
 10
6.79052
 20
1.58928
 30
0.0
 11
6.68404
 21
1.58928
 31
0.0
  0
LINE
  8
0
  6
CONTINUOUS
 62
   250
 10
6.68404
 20
1.58928
 30
0.0
 11
6.68404
 21
1.51272
 31
0.0
  0
LINE
  8
0
  6
CONTINUOUS
 62
   250
 10
6.68404
 20
1.51272
 30
0.0
 11
6.79052
 21
1.51272
 31
0.0
  0
LINE
  8
0
  6
CONTINUOUS
 62
   250
 10
6.79052
 20
1.51272
 30
0.0
 11
6.79052
 21
1.58928
 31
0.0
  0
LINE
  8
0
  6
CONTINUOUS
 62
   250
 10
7.1588
 20
1.69928
 30
0.0
 11
7.1588
 21
1.70104
 31
0.0
  0
LINE
  8
0
  6
CONTINUOUS
 62
   250
 10
7.1588
 20
1.70104
 30
0.0
 11
7.15836
 21
1.70236
 31
0.0
  0
LINE
  8
0
  6
CONTINUOUS
 62
   250
 10
7.15836
 20
1.70236
 30
0.0
 11
7.15792
 21
1.70412
 31
0.0
  0
LINE
  8
0
  6
CONTINUOUS
 62
   250
 10
7.15792
 20
1.70412
 30
0.0
 11
7.15704
 21
1.705
 31
0.0
  0
LINE
  8
0
  6
CONTINUOUS
 62
   250
 10
7.15704
 20
1.705
 30
0.0
 11
7.15616
 21
1.70632
 31
0.0
  0
LINE
  8
0
  6
CONTINUOUS
 62
   250
 10
7.15616
 20
1.70632
 30
0.0
 11
7.15484
 21
1.7072
 31
0.0
  0
LINE
  8
0
  6
CONTINUOUS
 62
   250
 10
7.15484
 20
1.7072
 30
0.0
 11
7.15352
 21
1.70808
 31
0.0
  0
LINE
  8
0
  6
CONTINUOUS
 62
   250
 10
7.15352
 20
1.70808
 30
0.0
 11
7.1522
 21
1.70852
 31
0.0
  0
LINE
  8
0
  6
CONTINUOUS
 62
   250
 10
7.1522
 20
1.70852
 30
0.0
 11
7.15088
 21
1.70896
 31
0.0
  0
LINE
  8
0
  6
CONTINUOUS
 62
   250
 10
7.15088
 20
1.70896
 30
0.0
 11
7.14912
 21
1.70896
 31
0.0
  0
LINE
  8
0
  6
CONTINUOUS
 62
   250
 10
7.14912
 20
1.70896
 30
0.0
 11
7.1478
 21
1.70896
 31
0.0
  0
LINE
  8
0
  6
CONTINUOUS
 62
   250
 10
7.1478
 20
1.70896
 30
0.0
 11
7.14604
 21
1.70852
 31
0.0
  0
LINE
  8
0
  6
CONTINUOUS
 62
   250
 10
7.14604
 20
1.70852
 30
0.0
 11
7.14472
 21
1.70764
 31
0.0
  0
LINE
  8
0
  6
CONTINUOUS
 62
   250
 10
7.14472
 20
1.70764
 30
0.0
 11
7.1434
 21
1.7072
 31
0.0
  0
LINE
  8
0
  6
CONTINUOUS
 62
   250
 10
7.1434
 20
1.7072
 30
0.0
 11
7.14252
 21
1.70588
 31
0.0
  0
LINE
  8
0
  6
CONTINUOUS
 62
   250
 10
7.14252
 20
1.70588
 30
0.0
 11
7.14164
 21
1.705
 31
0.0
  0
LINE
  8
0
  6
CONTINUOUS
 62
   250
 10
7.14164
 20
1.705
 30
0.0
 11
7.14076
 21
1.70368
 31
0.0
  0
LINE
  8
0
  6
CONTINUOUS
 62
   250
 10
7.14076
 20
1.70368
 30
0.0
 11
7.13988
 21
1.70236
 31
0.0
  0
LINE
  8
0
  6
CONTINUOUS
 62
   250
 10
7.13988
 20
1.70236
 30
0.0
 11
7.13988
 21
1.7006
 31
0.0
  0
LINE
  8
0
  6
CONTINUOUS
 62
   250
 10
7.13988
 20
1.7006
 30
0.0
 11
7.13944
 21
1.69928
 31
0.0
  0
LINE
  8
0
  6
CONTINUOUS
 62
   250
 10
7.13944
 20
1.69928
 30
0.0
 11
7.13988
 21
1.69752
 31
0.0
  0
LINE
  8
0
  6
CONTINUOUS
 62
   250
 10
7.13988
 20
1.69752
 30
0.0
 11
7.13988
 21
1.6962
 31
0.0
  0
LINE
  8
0
  6
CONTINUOUS
 62
   250
 10
7.13988
 20
1.6962
 30
0.0
 11
7.14076
 21
1.69488
 31
0.0
  0
LINE
  8
0
  6
CONTINUOUS
 62
   250
 10
7.14076
 20
1.69488
 30
0.0
 11
7.14164
 21
1.69356
 31
0.0
  0
LINE
  8
0
  6
CONTINUOUS
 62
   250
 10
7.14164
 20
1.69356
 30
0.0
 11
7.14252
 21
1.69224
 31
0.0
  0
LINE
  8
0
  6
CONTINUOUS
 62
   250
 10
7.14252
 20
1.69224
 30
0.0
 11
7.14384
 21
1.69136
 31
0.0
  0
LINE
  8
0
  6
CONTINUOUS
 62
   250
 10
7.14384
 20
1.69136
 30
0.0
 11
7.14516
 21
1.69048
 31
0.0
  0
LINE
  8
0
  6
CONTINUOUS
 62
   250
 10
7.14516
 20
1.69048
 30
0.0
 11
7.14648
 21
1.69004
 31
0.0
  0
LINE
  8
0
  6
CONTINUOUS
 62
   250
 10
7.14648
 20
1.69004
 30
0.0
 11
7.1478
 21
1.6896
 31
0.0
  0
LINE
  8
0
  6
CONTINUOUS
 62
   250
 10
7.1478
 20
1.6896
 30
0.0
 11
7.14956
 21
1.6896
 31
0.0
  0
LINE
  8
0
  6
CONTINUOUS
 62
   250
 10
7.14956
 20
1.6896
 30
0.0
 11
7.15088
 21
1.6896
 31
0.0
  0
LINE
  8
0
  6
CONTINUOUS
 62
   250
 10
7.15088
 20
1.6896
 30
0.0
 11
7.15264
 21
1.69048
 31
0.0
  0
LINE
  8
0
  6
CONTINUOUS
 62
   250
 10
7.15264
 20
1.69048
 30
0.0
 11
7.15396
 21
1.69092
 31
0.0
  0
LINE
  8
0
  6
CONTINUOUS
 62
   250
 10
7.15396
 20
1.69092
 30
0.0
 11
7.15528
 21
1.6918
 31
0.0
  0
LINE
  8
0
  6
CONTINUOUS
 62
   250
 10
7.15528
 20
1.6918
 30
0.0
 11
7.15616
 21
1.69268
 31
0.0
  0
LINE
  8
0
  6
CONTINUOUS
 62
   250
 10
7.15616
 20
1.69268
 30
0.0
 11
7.15748
 21
1.694
 31
0.0
  0
LINE
  8
0
  6
CONTINUOUS
 62
   250
 10
7.15748
 20
1.694
 30
0.0
 11
7.15792
 21
1.69532
 31
0.0
  0
LINE
  8
0
  6
CONTINUOUS
 62
   250
 10
7.15792
 20
1.69532
 30
0.0
 11
7.15836
 21
1.69664
 31
0.0
  0
LINE
  8
0
  6
CONTINUOUS
 62
   250
 10
7.15836
 20
1.69664
 30
0.0
 11
7.1588
 21
1.69796
 31
0.0
  0
LINE
  8
0
  6
CONTINUOUS
 62
   250
 10
7.1588
 20
1.69796
 30
0.0
 11
7.1588
 21
1.69928
 31
0.0
  0
LINE
  8
0
  6
CONTINUOUS
 62
   250
 10
7.19752
 20
1.69928
 30
0.0
 11
7.19752
 21
1.70104
 31
0.0
  0
LINE
  8
0
  6
CONTINUOUS
 62
   250
 10
7.19752
 20
1.70104
 30
0.0
 11
7.19708
 21
1.70236
 31
0.0
  0
LINE
  8
0
  6
CONTINUOUS
 62
   250
 10
7.19708
 20
1.70236
 30
0.0
 11
7.19664
 21
1.70412
 31
0.0
  0
LINE
  8
0
  6
CONTINUOUS
 62
   250
 10
7.19664
 20
1.70412
 30
0.0
 11
7.19576
 21
1.705
 31
0.0
  0
LINE
  8
0
  6
CONTINUOUS
 62
   250
 10
7.19576
 20
1.705
 30
0.0
 11
7.19488
 21
1.70632
 31
0.0
  0
LINE
  8
0
  6
CONTINUOUS
 62
   250
 10
7.19488
 20
1.70632
 30
0.0
 11
7.19356
 21
1.7072
 31
0.0
  0
LINE
  8
0
  6
CONTINUOUS
 62
   250
 10
7.19356
 20
1.7072
 30
0.0
 11
7.19224
 21
1.70808
 31
0.0
  0
LINE
  8
0
  6
CONTINUOUS
 62
   250
 10
7.19224
 20
1.70808
 30
0.0
 11
7.19092
 21
1.70852
 31
0.0
  0
LINE
  8
0
  6
CONTINUOUS
 62
   250
 10
7.19092
 20
1.70852
 30
0.0
 11
7.18916
 21
1.70896
 31
0.0
  0
LINE
  8
0
  6
CONTINUOUS
 62
   250
 10
7.18916
 20
1.70896
 30
0.0
 11
7.18784
 21
1.70896
 31
0.0
  0
LINE
  8
0
  6
CONTINUOUS
 62
   250
 10
7.18784
 20
1.70896
 30
0.0
 11
7.18652
 21
1.70896
 31
0.0
  0
LINE
  8
0
  6
CONTINUOUS
 62
   250
 10
7.18652
 20
1.70896
 30
0.0
 11
7.18476
 21
1.70852
 31
0.0
  0
LINE
  8
0
  6
CONTINUOUS
 62
   250
 10
7.18476
 20
1.70852
 30
0.0
 11
7.18344
 21
1.70764
 31
0.0
  0
LINE
  8
0
  6
CONTINUOUS
 62
   250
 10
7.18344
 20
1.70764
 30
0.0
 11
7.18212
 21
1.7072
 31
0.0
  0
LINE
  8
0
  6
CONTINUOUS
 62
   250
 10
7.18212
 20
1.7072
 30
0.0
 11
7.1808
 21
1.70588
 31
0.0
  0
LINE
  8
0
  6
CONTINUOUS
 62
   250
 10
7.1808
 20
1.70588
 30
0.0
 11
7.17992
 21
1.705
 31
0.0
  0
LINE
  8
0
  6
CONTINUOUS
 62
   250
 10
7.17992
 20
1.705
 30
0.0
 11
7.17948
 21
1.70368
 31
0.0
  0
LINE
  8
0
  6
CONTINUOUS
 62
   250
 10
7.17948
 20
1.70368
 30
0.0
 11
7.1786
 21
1.70236
 31
0.0
  0
LINE
  8
0
  6
CONTINUOUS
 62
   250
 10
7.1786
 20
1.70236
 30
0.0
 11
7.1786
 21
1.7006
 31
0.0
  0
LINE
  8
0
  6
CONTINUOUS
 62
   250
 10
7.1786
 20
1.7006
 30
0.0
 11
7.1786
 21
1.69928
 31
0.0
  0
LINE
  8
0
  6
CONTINUOUS
 62
   250
 10
7.1786
 20
1.69928
 30
0.0
 11
7.1786
 21
1.69752
 31
0.0
  0
LINE
  8
0
  6
CONTINUOUS
 62
   250
 10
7.1786
 20
1.69752
 30
0.0
 11
7.17904
 21
1.6962
 31
0.0
  0
LINE
  8
0
  6
CONTINUOUS
 62
   250
 10
7.17904
 20
1.6962
 30
0.0
 11
7.17948
 21
1.69488
 31
0.0
  0
LINE
  8
0
  6
CONTINUOUS
 62
   250
 10
7.17948
 20
1.69488
 30
0.0
 11
7.18036
 21
1.69356
 31
0.0
  0
LINE
  8
0
  6
CONTINUOUS
 62
   250
 10
7.18036
 20
1.69356
 30
0.0
 11
7.18124
 21
1.69224
 31
0.0
  0
LINE
  8
0
  6
CONTINUOUS
 62
   250
 10
7.18124
 20
1.69224
 30
0.0
 11
7.18256
 21
1.69136
 31
0.0
  0
LINE
  8
0
  6
CONTINUOUS
 62
   250
 10
7.18256
 20
1.69136
 30
0.0
 11
7.18388
 21
1.69048
 31
0.0
  0
LINE
  8
0
  6
CONTINUOUS
 62
   250
 10
7.18388
 20
1.69048
 30
0.0
 11
7.1852
 21
1.69004
 31
0.0
  0
LINE
  8
0
  6
CONTINUOUS
 62
   250
 10
7.1852
 20
1.69004
 30
0.0
 11
7.18652
 21
1.6896
 31
0.0
  0
LINE
  8
0
  6
CONTINUOUS
 62
   250
 10
7.18652
 20
1.6896
 30
0.0
 11
7.18828
 21
1.6896
 31
0.0
  0
LINE
  8
0
  6
CONTINUOUS
 62
   250
 10
7.18828
 20
1.6896
 30
0.0
 11
7.1896
 21
1.6896
 31
0.0
  0
LINE
  8
0
  6
CONTINUOUS
 62
   250
 10
7.1896
 20
1.6896
 30
0.0
 11
7.19136
 21
1.69048
 31
0.0
  0
LINE
  8
0
  6
CONTINUOUS
 62
   250
 10
7.19136
 20
1.69048
 30
0.0
 11
7.19268
 21
1.69092
 31
0.0
  0
LINE
  8
0
  6
CONTINUOUS
 62
   250
 10
7.19268
 20
1.69092
 30
0.0
 11
7.194
 21
1.6918
 31
0.0
  0
LINE
  8
0
  6
CONTINUOUS
 62
   250
 10
7.194
 20
1.6918
 30
0.0
 11
7.19488
 21
1.69268
 31
0.0
  0
LINE
  8
0
  6
CONTINUOUS
 62
   250
 10
7.19488
 20
1.69268
 30
0.0
 11
7.19576
 21
1.694
 31
0.0
  0
LINE
  8
0
  6
CONTINUOUS
 62
   250
 10
7.19576
 20
1.694
 30
0.0
 11
7.19664
 21
1.69532
 31
0.0
  0
LINE
  8
0
  6
CONTINUOUS
 62
   250
 10
7.19664
 20
1.69532
 30
0.0
 11
7.19752
 21
1.69664
 31
0.0
  0
LINE
  8
0
  6
CONTINUOUS
 62
   250
 10
7.19752
 20
1.69664
 30
0.0
 11
7.19752
 21
1.69796
 31
0.0
  0
LINE
  8
0
  6
CONTINUOUS
 62
   250
 10
7.19752
 20
1.69796
 30
0.0
 11
7.19752
 21
1.69928
 31
0.0
  0
LINE
  8
0
  6
CONTINUOUS
 62
   250
 10
7.18828
 20
1.70896
 30
0.0
 11
7.18828
 21
1.6896
 31
0.0
  0
LINE
  8
0
  6
CONTINUOUS
 62
   250
 10
7.13944
 20
1.69928
 30
0.0
 11
7.1588
 21
1.69928
 31
0.0
  0
LINE
  8
0
  6
CONTINUOUS
 62
   250
 10
7.2072
 20
1.7138
 30
0.0
 11
7.2072
 21
1.60732
 31
0.0
  0
LINE
  8
0
  6
CONTINUOUS
 62
   250
 10
7.2072
 20
1.60732
 30
0.0
 11
7.12976
 21
1.60732
 31
0.0
  0
LINE
  8
0
  6
CONTINUOUS
 62
   250
 10
7.12976
 20
1.60732
 30
0.0
 11
7.12976
 21
1.7138
 31
0.0
  0
LINE
  8
0
  6
CONTINUOUS
 62
   250
 10
7.12976
 20
1.7138
 30
0.0
 11
7.2072
 21
1.7138
 31
0.0
  0
LINE
  8
0
  6
CONTINUOUS
 62
   250
 10
6.95684
 20
1.35124
 30
0.0
 11
6.95684
 21
1.3706
 31
0.0
  0
LINE
  8
0
  6
CONTINUOUS
 62
   250
 10
6.96652
 20
1.36092
 30
0.0
 11
6.96652
 21
1.36224
 31
0.0
  0
LINE
  8
0
  6
CONTINUOUS
 62
   250
 10
6.96652
 20
1.36224
 30
0.0
 11
6.96608
 21
1.364
 31
0.0
  0
LINE
  8
0
  6
CONTINUOUS
 62
   250
 10
6.96608
 20
1.364
 30
0.0
 11
6.96564
 21
1.36532
 31
0.0
  0
LINE
  8
0
  6
CONTINUOUS
 62
   250
 10
6.96564
 20
1.36532
 30
0.0
 11
6.96476
 21
1.36664
 31
0.0
  0
LINE
  8
0
  6
CONTINUOUS
 62
   250
 10
6.96476
 20
1.36664
 30
0.0
 11
6.96388
 21
1.36752
 31
0.0
  0
LINE
  8
0
  6
CONTINUOUS
 62
   250
 10
6.96388
 20
1.36752
 30
0.0
 11
6.96256
 21
1.36884
 31
0.0
  0
LINE
  8
0
  6
CONTINUOUS
 62
   250
 10
6.96256
 20
1.36884
 30
0.0
 11
6.96124
 21
1.36928
 31
0.0
  0
LINE
  8
0
  6
CONTINUOUS
 62
   250
 10
6.96124
 20
1.36928
 30
0.0
 11
6.95992
 21
1.37016
 31
0.0
  0
LINE
  8
0
  6
CONTINUOUS
 62
   250
 10
6.95992
 20
1.37016
 30
0.0
 11
6.95816
 21
1.37016
 31
0.0
  0
LINE
  8
0
  6
CONTINUOUS
 62
   250
 10
6.95816
 20
1.37016
 30
0.0
 11
6.95684
 21
1.3706
 31
0.0
  0
LINE
  8
0
  6
CONTINUOUS
 62
   250
 10
6.95684
 20
1.3706
 30
0.0
 11
6.95508
 21
1.37016
 31
0.0
  0
LINE
  8
0
  6
CONTINUOUS
 62
   250
 10
6.95508
 20
1.37016
 30
0.0
 11
6.95376
 21
1.37016
 31
0.0
  0
LINE
  8
0
  6
CONTINUOUS
 62
   250
 10
6.95376
 20
1.37016
 30
0.0
 11
6.95244
 21
1.36928
 31
0.0
  0
LINE
  8
0
  6
CONTINUOUS
 62
   250
 10
6.95244
 20
1.36928
 30
0.0
 11
6.95112
 21
1.3684
 31
0.0
  0
LINE
  8
0
  6
CONTINUOUS
 62
   250
 10
6.95112
 20
1.3684
 30
0.0
 11
6.95024
 21
1.36752
 31
0.0
  0
LINE
  8
0
  6
CONTINUOUS
 62
   250
 10
6.95024
 20
1.36752
 30
0.0
 11
6.94892
 21
1.36664
 31
0.0
  0
LINE
  8
0
  6
CONTINUOUS
 62
   250
 10
6.94892
 20
1.36664
 30
0.0
 11
6.94804
 21
1.36532
 31
0.0
  0
LINE
  8
0
  6
CONTINUOUS
 62
   250
 10
6.94804
 20
1.36532
 30
0.0
 11
6.9476
 21
1.36356
 31
0.0
  0
LINE
  8
0
  6
CONTINUOUS
 62
   250
 10
6.9476
 20
1.36356
 30
0.0
 11
6.94716
 21
1.36224
 31
0.0
  0
LINE
  8
0
  6
CONTINUOUS
 62
   250
 10
6.94716
 20
1.36224
 30
0.0
 11
6.94716
 21
1.36048
 31
0.0
  0
LINE
  8
0
  6
CONTINUOUS
 62
   250
 10
6.94716
 20
1.36048
 30
0.0
 11
6.94716
 21
1.35916
 31
0.0
  0
LINE
  8
0
  6
CONTINUOUS
 62
   250
 10
6.94716
 20
1.35916
 30
0.0
 11
6.94804
 21
1.3574
 31
0.0
  0
LINE
  8
0
  6
CONTINUOUS
 62
   250
 10
6.94804
 20
1.3574
 30
0.0
 11
6.94848
 21
1.35608
 31
0.0
  0
LINE
  8
0
  6
CONTINUOUS
 62
   250
 10
6.94848
 20
1.35608
 30
0.0
 11
6.94936
 21
1.35476
 31
0.0
  0
LINE
  8
0
  6
CONTINUOUS
 62
   250
 10
6.94936
 20
1.35476
 30
0.0
 11
6.95024
 21
1.35388
 31
0.0
  0
LINE
  8
0
  6
CONTINUOUS
 62
   250
 10
6.95024
 20
1.35388
 30
0.0
 11
6.95156
 21
1.353
 31
0.0
  0
LINE
  8
0
  6
CONTINUOUS
 62
   250
 10
6.95156
 20
1.353
 30
0.0
 11
6.95288
 21
1.35212
 31
0.0
  0
LINE
  8
0
  6
CONTINUOUS
 62
   250
 10
6.95288
 20
1.35212
 30
0.0
 11
6.9542
 21
1.35168
 31
0.0
  0
LINE
  8
0
  6
CONTINUOUS
 62
   250
 10
6.9542
 20
1.35168
 30
0.0
 11
6.95552
 21
1.35124
 31
0.0
  0
LINE
  8
0
  6
CONTINUOUS
 62
   250
 10
6.95552
 20
1.35124
 30
0.0
 11
6.95728
 21
1.35124
 31
0.0
  0
LINE
  8
0
  6
CONTINUOUS
 62
   250
 10
6.95728
 20
1.35124
 30
0.0
 11
6.9586
 21
1.35124
 31
0.0
  0
LINE
  8
0
  6
CONTINUOUS
 62
   250
 10
6.9586
 20
1.35124
 30
0.0
 11
6.95992
 21
1.35168
 31
0.0
  0
LINE
  8
0
  6
CONTINUOUS
 62
   250
 10
6.95992
 20
1.35168
 30
0.0
 11
6.96168
 21
1.35212
 31
0.0
  0
LINE
  8
0
  6
CONTINUOUS
 62
   250
 10
6.96168
 20
1.35212
 30
0.0
 11
6.96256
 21
1.353
 31
0.0
  0
LINE
  8
0
  6
CONTINUOUS
 62
   250
 10
6.96256
 20
1.353
 30
0.0
 11
6.96388
 21
1.35388
 31
0.0
  0
LINE
  8
0
  6
CONTINUOUS
 62
   250
 10
6.96388
 20
1.35388
 30
0.0
 11
6.96476
 21
1.3552
 31
0.0
  0
LINE
  8
0
  6
CONTINUOUS
 62
   250
 10
6.96476
 20
1.3552
 30
0.0
 11
6.96564
 21
1.35652
 31
0.0
  0
LINE
  8
0
  6
CONTINUOUS
 62
   250
 10
6.96564
 20
1.35652
 30
0.0
 11
6.96608
 21
1.35784
 31
0.0
  0
LINE
  8
0
  6
CONTINUOUS
 62
   250
 10
6.96608
 20
1.35784
 30
0.0
 11
6.96652
 21
1.3596
 31
0.0
  0
LINE
  8
0
  6
CONTINUOUS
 62
   250
 10
6.96652
 20
1.3596
 30
0.0
 11
6.96652
 21
1.36092
 31
0.0
  0
LINE
  8
0
  6
CONTINUOUS
 62
   250
 10
7.0048
 20
1.36092
 30
0.0
 11
7.00436
 21
1.36224
 31
0.0
  0
LINE
  8
0
  6
CONTINUOUS
 62
   250
 10
7.00436
 20
1.36224
 30
0.0
 11
7.00392
 21
1.364
 31
0.0
  0
LINE
  8
0
  6
CONTINUOUS
 62
   250
 10
7.00392
 20
1.364
 30
0.0
 11
7.00348
 21
1.36532
 31
0.0
  0
LINE
  8
0
  6
CONTINUOUS
 62
   250
 10
7.00348
 20
1.36532
 30
0.0
 11
7.0026
 21
1.36664
 31
0.0
  0
LINE
  8
0
  6
CONTINUOUS
 62
   250
 10
7.0026
 20
1.36664
 30
0.0
 11
7.00172
 21
1.36752
 31
0.0
  0
LINE
  8
0
  6
CONTINUOUS
 62
   250
 10
7.00172
 20
1.36752
 30
0.0
 11
7.0004
 21
1.36884
 31
0.0
  0
LINE
  8
0
  6
CONTINUOUS
 62
   250
 10
7.0004
 20
1.36884
 30
0.0
 11
6.99908
 21
1.36928
 31
0.0
  0
LINE
  8
0
  6
CONTINUOUS
 62
   250
 10
6.99908
 20
1.36928
 30
0.0
 11
6.99776
 21
1.37016
 31
0.0
  0
LINE
  8
0
  6
CONTINUOUS
 62
   250
 10
6.99776
 20
1.37016
 30
0.0
 11
6.99644
 21
1.37016
 31
0.0
  0
LINE
  8
0
  6
CONTINUOUS
 62
   250
 10
6.99644
 20
1.37016
 30
0.0
 11
6.99468
 21
1.3706
 31
0.0
  0
LINE
  8
0
  6
CONTINUOUS
 62
   250
 10
6.99468
 20
1.3706
 30
0.0
 11
6.99336
 21
1.37016
 31
0.0
  0
LINE
  8
0
  6
CONTINUOUS
 62
   250
 10
6.99336
 20
1.37016
 30
0.0
 11
6.9916
 21
1.37016
 31
0.0
  0
LINE
  8
0
  6
CONTINUOUS
 62
   250
 10
6.9916
 20
1.37016
 30
0.0
 11
6.99072
 21
1.36928
 31
0.0
  0
LINE
  8
0
  6
CONTINUOUS
 62
   250
 10
6.99072
 20
1.36928
 30
0.0
 11
6.9894
 21
1.3684
 31
0.0
  0
LINE
  8
0
  6
CONTINUOUS
 62
   250
 10
6.9894
 20
1.3684
 30
0.0
 11
6.98808
 21
1.36752
 31
0.0
  0
LINE
  8
0
  6
CONTINUOUS
 62
   250
 10
6.98808
 20
1.36752
 30
0.0
 11
6.9872
 21
1.36664
 31
0.0
  0
LINE
  8
0
  6
CONTINUOUS
 62
   250
 10
6.9872
 20
1.36664
 30
0.0
 11
6.98632
 21
1.36532
 31
0.0
  0
LINE
  8
0
  6
CONTINUOUS
 62
   250
 10
6.98632
 20
1.36532
 30
0.0
 11
6.98588
 21
1.36356
 31
0.0
  0
LINE
  8
0
  6
CONTINUOUS
 62
   250
 10
6.98588
 20
1.36356
 30
0.0
 11
6.98544
 21
1.36224
 31
0.0
  0
LINE
  8
0
  6
CONTINUOUS
 62
   250
 10
6.98544
 20
1.36224
 30
0.0
 11
6.98544
 21
1.36048
 31
0.0
  0
LINE
  8
0
  6
CONTINUOUS
 62
   250
 10
6.98544
 20
1.36048
 30
0.0
 11
6.98544
 21
1.35916
 31
0.0
  0
LINE
  8
0
  6
CONTINUOUS
 62
   250
 10
6.98544
 20
1.35916
 30
0.0
 11
6.98588
 21
1.3574
 31
0.0
  0
LINE
  8
0
  6
CONTINUOUS
 62
   250
 10
6.98588
 20
1.3574
 30
0.0
 11
6.98632
 21
1.35608
 31
0.0
  0
LINE
  8
0
  6
CONTINUOUS
 62
   250
 10
6.98632
 20
1.35608
 30
0.0
 11
6.9872
 21
1.35476
 31
0.0
  0
LINE
  8
0
  6
CONTINUOUS
 62
   250
 10
6.9872
 20
1.35476
 30
0.0
 11
6.98808
 21
1.35388
 31
0.0
  0
LINE
  8
0
  6
CONTINUOUS
 62
   250
 10
6.98808
 20
1.35388
 30
0.0
 11
6.9894
 21
1.353
 31
0.0
  0
LINE
  8
0
  6
CONTINUOUS
 62
   250
 10
6.9894
 20
1.353
 30
0.0
 11
6.99072
 21
1.35212
 31
0.0
  0
LINE
  8
0
  6
CONTINUOUS
 62
   250
 10
6.99072
 20
1.35212
 30
0.0
 11
6.99204
 21
1.35168
 31
0.0
  0
LINE
  8
0
  6
CONTINUOUS
 62
   250
 10
6.99204
 20
1.35168
 30
0.0
 11
6.9938
 21
1.35124
 31
0.0
  0
LINE
  8
0
  6
CONTINUOUS
 62
   250
 10
6.9938
 20
1.35124
 30
0.0
 11
6.99512
 21
1.35124
 31
0.0
  0
LINE
  8
0
  6
CONTINUOUS
 62
   250
 10
6.99512
 20
1.35124
 30
0.0
 11
6.99644
 21
1.35124
 31
0.0
  0
LINE
  8
0
  6
CONTINUOUS
 62
   250
 10
6.99644
 20
1.35124
 30
0.0
 11
6.9982
 21
1.35168
 31
0.0
  0
LINE
  8
0
  6
CONTINUOUS
 62
   250
 10
6.9982
 20
1.35168
 30
0.0
 11
6.99952
 21
1.35212
 31
0.0
  0
LINE
  8
0
  6
CONTINUOUS
 62
   250
 10
6.99952
 20
1.35212
 30
0.0
 11
7.00084
 21
1.353
 31
0.0
  0
LINE
  8
0
  6
CONTINUOUS
 62
   250
 10
7.00084
 20
1.353
 30
0.0
 11
7.00216
 21
1.35388
 31
0.0
  0
LINE
  8
0
  6
CONTINUOUS
 62
   250
 10
7.00216
 20
1.35388
 30
0.0
 11
7.00304
 21
1.3552
 31
0.0
  0
LINE
  8
0
  6
CONTINUOUS
 62
   250
 10
7.00304
 20
1.3552
 30
0.0
 11
7.00348
 21
1.35652
 31
0.0
  0
LINE
  8
0
  6
CONTINUOUS
 62
   250
 10
7.00348
 20
1.35652
 30
0.0
 11
7.00436
 21
1.35784
 31
0.0
  0
LINE
  8
0
  6
CONTINUOUS
 62
   250
 10
7.00436
 20
1.35784
 30
0.0
 11
7.0048
 21
1.3596
 31
0.0
  0
LINE
  8
0
  6
CONTINUOUS
 62
   250
 10
7.0048
 20
1.3596
 30
0.0
 11
7.0048
 21
1.36092
 31
0.0
  0
LINE
  8
0
  6
CONTINUOUS
 62
   250
 10
6.98544
 20
1.36092
 30
0.0
 11
7.0048
 21
1.36092
 31
0.0
  0
LINE
  8
0
  6
CONTINUOUS
 62
   250
 10
7.04352
 20
1.36092
 30
0.0
 11
7.04308
 21
1.36224
 31
0.0
  0
LINE
  8
0
  6
CONTINUOUS
 62
   250
 10
7.04308
 20
1.36224
 30
0.0
 11
7.04264
 21
1.364
 31
0.0
  0
LINE
  8
0
  6
CONTINUOUS
 62
   250
 10
7.04264
 20
1.364
 30
0.0
 11
7.0422
 21
1.36532
 31
0.0
  0
LINE
  8
0
  6
CONTINUOUS
 62
   250
 10
7.0422
 20
1.36532
 30
0.0
 11
7.04132
 21
1.36664
 31
0.0
  0
LINE
  8
0
  6
CONTINUOUS
 62
   250
 10
7.04132
 20
1.36664
 30
0.0
 11
7.04044
 21
1.36752
 31
0.0
  0
LINE
  8
0
  6
CONTINUOUS
 62
   250
 10
7.04044
 20
1.36752
 30
0.0
 11
7.03912
 21
1.36884
 31
0.0
  0
LINE
  8
0
  6
CONTINUOUS
 62
   250
 10
7.03912
 20
1.36884
 30
0.0
 11
7.0378
 21
1.36928
 31
0.0
  0
LINE
  8
0
  6
CONTINUOUS
 62
   250
 10
7.0378
 20
1.36928
 30
0.0
 11
7.03648
 21
1.37016
 31
0.0
  0
LINE
  8
0
  6
CONTINUOUS
 62
   250
 10
7.03648
 20
1.37016
 30
0.0
 11
7.03516
 21
1.37016
 31
0.0
  0
LINE
  8
0
  6
CONTINUOUS
 62
   250
 10
7.03516
 20
1.37016
 30
0.0
 11
7.0334
 21
1.3706
 31
0.0
  0
LINE
  8
0
  6
CONTINUOUS
 62
   250
 10
7.0334
 20
1.3706
 30
0.0
 11
7.03208
 21
1.37016
 31
0.0
  0
LINE
  8
0
  6
CONTINUOUS
 62
   250
 10
7.03208
 20
1.37016
 30
0.0
 11
7.03076
 21
1.37016
 31
0.0
  0
LINE
  8
0
  6
CONTINUOUS
 62
   250
 10
7.03076
 20
1.37016
 30
0.0
 11
7.029
 21
1.36928
 31
0.0
  0
LINE
  8
0
  6
CONTINUOUS
 62
   250
 10
7.029
 20
1.36928
 30
0.0
 11
7.02768
 21
1.3684
 31
0.0
  0
LINE
  8
0
  6
CONTINUOUS
 62
   250
 10
7.02768
 20
1.3684
 30
0.0
 11
7.0268
 21
1.36752
 31
0.0
  0
LINE
  8
0
  6
CONTINUOUS
 62
   250
 10
7.0268
 20
1.36752
 30
0.0
 11
7.02592
 21
1.36664
 31
0.0
  0
LINE
  8
0
  6
CONTINUOUS
 62
   250
 10
7.02592
 20
1.36664
 30
0.0
 11
7.02504
 21
1.36532
 31
0.0
  0
LINE
  8
0
  6
CONTINUOUS
 62
   250
 10
7.02504
 20
1.36532
 30
0.0
 11
7.0246
 21
1.36356
 31
0.0
  0
LINE
  8
0
  6
CONTINUOUS
 62
   250
 10
7.0246
 20
1.36356
 30
0.0
 11
7.02416
 21
1.36224
 31
0.0
  0
LINE
  8
0
  6
CONTINUOUS
 62
   250
 10
7.02416
 20
1.36224
 30
0.0
 11
7.02416
 21
1.36048
 31
0.0
  0
LINE
  8
0
  6
CONTINUOUS
 62
   250
 10
7.02416
 20
1.36048
 30
0.0
 11
7.02416
 21
1.35916
 31
0.0
  0
LINE
  8
0
  6
CONTINUOUS
 62
   250
 10
7.02416
 20
1.35916
 30
0.0
 11
7.0246
 21
1.3574
 31
0.0
  0
LINE
  8
0
  6
CONTINUOUS
 62
   250
 10
7.0246
 20
1.3574
 30
0.0
 11
7.02504
 21
1.35608
 31
0.0
  0
LINE
  8
0
  6
CONTINUOUS
 62
   250
 10
7.02504
 20
1.35608
 30
0.0
 11
7.02592
 21
1.35476
 31
0.0
  0
LINE
  8
0
  6
CONTINUOUS
 62
   250
 10
7.02592
 20
1.35476
 30
0.0
 11
7.0268
 21
1.35388
 31
0.0
  0
LINE
  8
0
  6
CONTINUOUS
 62
   250
 10
7.0268
 20
1.35388
 30
0.0
 11
7.02812
 21
1.353
 31
0.0
  0
LINE
  8
0
  6
CONTINUOUS
 62
   250
 10
7.02812
 20
1.353
 30
0.0
 11
7.02944
 21
1.35212
 31
0.0
  0
LINE
  8
0
  6
CONTINUOUS
 62
   250
 10
7.02944
 20
1.35212
 30
0.0
 11
7.03076
 21
1.35168
 31
0.0
  0
LINE
  8
0
  6
CONTINUOUS
 62
   250
 10
7.03076
 20
1.35168
 30
0.0
 11
7.03252
 21
1.35124
 31
0.0
  0
LINE
  8
0
  6
CONTINUOUS
 62
   250
 10
7.03252
 20
1.35124
 30
0.0
 11
7.03384
 21
1.35124
 31
0.0
  0
LINE
  8
0
  6
CONTINUOUS
 62
   250
 10
7.03384
 20
1.35124
 30
0.0
 11
7.0356
 21
1.35124
 31
0.0
  0
LINE
  8
0
  6
CONTINUOUS
 62
   250
 10
7.0356
 20
1.35124
 30
0.0
 11
7.03692
 21
1.35168
 31
0.0
  0
LINE
  8
0
  6
CONTINUOUS
 62
   250
 10
7.03692
 20
1.35168
 30
0.0
 11
7.03824
 21
1.35212
 31
0.0
  0
LINE
  8
0
  6
CONTINUOUS
 62
   250
 10
7.03824
 20
1.35212
 30
0.0
 11
7.03956
 21
1.353
 31
0.0
  0
LINE
  8
0
  6
CONTINUOUS
 62
   250
 10
7.03956
 20
1.353
 30
0.0
 11
7.04044
 21
1.35388
 31
0.0
  0
LINE
  8
0
  6
CONTINUOUS
 62
   250
 10
7.04044
 20
1.35388
 30
0.0
 11
7.04176
 21
1.3552
 31
0.0
  0
LINE
  8
0
  6
CONTINUOUS
 62
   250
 10
7.04176
 20
1.3552
 30
0.0
 11
7.0422
 21
1.35652
 31
0.0
  0
LINE
  8
0
  6
CONTINUOUS
 62
   250
 10
7.0422
 20
1.35652
 30
0.0
 11
7.04308
 21
1.35784
 31
0.0
  0
LINE
  8
0
  6
CONTINUOUS
 62
   250
 10
7.04308
 20
1.35784
 30
0.0
 11
7.04308
 21
1.3596
 31
0.0
  0
LINE
  8
0
  6
CONTINUOUS
 62
   250
 10
7.04308
 20
1.3596
 30
0.0
 11
7.04352
 21
1.36092
 31
0.0
  0
LINE
  8
0
  6
CONTINUOUS
 62
   250
 10
7.0818
 20
1.36092
 30
0.0
 11
7.0818
 21
1.36224
 31
0.0
  0
LINE
  8
0
  6
CONTINUOUS
 62
   250
 10
7.0818
 20
1.36224
 30
0.0
 11
7.08136
 21
1.364
 31
0.0
  0
LINE
  8
0
  6
CONTINUOUS
 62
   250
 10
7.08136
 20
1.364
 30
0.0
 11
7.08092
 21
1.36532
 31
0.0
  0
LINE
  8
0
  6
CONTINUOUS
 62
   250
 10
7.08092
 20
1.36532
 30
0.0
 11
7.08004
 21
1.36664
 31
0.0
  0
LINE
  8
0
  6
CONTINUOUS
 62
   250
 10
7.08004
 20
1.36664
 30
0.0
 11
7.07916
 21
1.36752
 31
0.0
  0
LINE
  8
0
  6
CONTINUOUS
 62
   250
 10
7.07916
 20
1.36752
 30
0.0
 11
7.07784
 21
1.36884
 31
0.0
  0
LINE
  8
0
  6
CONTINUOUS
 62
   250
 10
7.07784
 20
1.36884
 30
0.0
 11
7.07652
 21
1.36928
 31
0.0
  0
LINE
  8
0
  6
CONTINUOUS
 62
   250
 10
7.07652
 20
1.36928
 30
0.0
 11
7.0752
 21
1.37016
 31
0.0
  0
LINE
  8
0
  6
CONTINUOUS
 62
   250
 10
7.0752
 20
1.37016
 30
0.0
 11
7.07388
 21
1.37016
 31
0.0
  0
LINE
  8
0
  6
CONTINUOUS
 62
   250
 10
7.07388
 20
1.37016
 30
0.0
 11
7.07212
 21
1.3706
 31
0.0
  0
LINE
  8
0
  6
CONTINUOUS
 62
   250
 10
7.07212
 20
1.3706
 30
0.0
 11
7.0708
 21
1.37016
 31
0.0
  0
LINE
  8
0
  6
CONTINUOUS
 62
   250
 10
7.0708
 20
1.37016
 30
0.0
 11
7.06904
 21
1.37016
 31
0.0
  0
LINE
  8
0
  6
CONTINUOUS
 62
   250
 10
7.06904
 20
1.37016
 30
0.0
 11
7.06772
 21
1.36928
 31
0.0
  0
LINE
  8
0
  6
CONTINUOUS
 62
   250
 10
7.06772
 20
1.36928
 30
0.0
 11
7.0664
 21
1.3684
 31
0.0
  0
LINE
  8
0
  6
CONTINUOUS
 62
   250
 10
7.0664
 20
1.3684
 30
0.0
 11
7.06552
 21
1.36752
 31
0.0
  0
LINE
  8
0
  6
CONTINUOUS
 62
   250
 10
7.06552
 20
1.36752
 30
0.0
 11
7.06464
 21
1.36664
 31
0.0
  0
LINE
  8
0
  6
CONTINUOUS
 62
   250
 10
7.06464
 20
1.36664
 30
0.0
 11
7.06376
 21
1.36532
 31
0.0
  0
LINE
  8
0
  6
CONTINUOUS
 62
   250
 10
7.06376
 20
1.36532
 30
0.0
 11
7.06288
 21
1.36356
 31
0.0
  0
LINE
  8
0
  6
CONTINUOUS
 62
   250
 10
7.06288
 20
1.36356
 30
0.0
 11
7.06288
 21
1.36224
 31
0.0
  0
LINE
  8
0
  6
CONTINUOUS
 62
   250
 10
7.06288
 20
1.36224
 30
0.0
 11
7.06288
 21
1.36048
 31
0.0
  0
LINE
  8
0
  6
CONTINUOUS
 62
   250
 10
7.06288
 20
1.36048
 30
0.0
 11
7.06288
 21
1.35916
 31
0.0
  0
LINE
  8
0
  6
CONTINUOUS
 62
   250
 10
7.06288
 20
1.35916
 30
0.0
 11
7.06332
 21
1.3574
 31
0.0
  0
LINE
  8
0
  6
CONTINUOUS
 62
   250
 10
7.06332
 20
1.3574
 30
0.0
 11
7.06376
 21
1.35608
 31
0.0
  0
LINE
  8
0
  6
CONTINUOUS
 62
   250
 10
7.06376
 20
1.35608
 30
0.0
 11
7.06464
 21
1.35476
 31
0.0
  0
LINE
  8
0
  6
CONTINUOUS
 62
   250
 10
7.06464
 20
1.35476
 30
0.0
 11
7.06552
 21
1.35388
 31
0.0
  0
LINE
  8
0
  6
CONTINUOUS
 62
   250
 10
7.06552
 20
1.35388
 30
0.0
 11
7.06684
 21
1.353
 31
0.0
  0
LINE
  8
0
  6
CONTINUOUS
 62
   250
 10
7.06684
 20
1.353
 30
0.0
 11
7.06816
 21
1.35212
 31
0.0
  0
LINE
  8
0
  6
CONTINUOUS
 62
   250
 10
7.06816
 20
1.35212
 30
0.0
 11
7.06948
 21
1.35168
 31
0.0
  0
LINE
  8
0
  6
CONTINUOUS
 62
   250
 10
7.06948
 20
1.35168
 30
0.0
 11
7.07124
 21
1.35124
 31
0.0
  0
LINE
  8
0
  6
CONTINUOUS
 62
   250
 10
7.07124
 20
1.35124
 30
0.0
 11
7.07256
 21
1.35124
 31
0.0
  0
LINE
  8
0
  6
CONTINUOUS
 62
   250
 10
7.07256
 20
1.35124
 30
0.0
 11
7.07388
 21
1.35124
 31
0.0
  0
LINE
  8
0
  6
CONTINUOUS
 62
   250
 10
7.07388
 20
1.35124
 30
0.0
 11
7.07564
 21
1.35168
 31
0.0
  0
LINE
  8
0
  6
CONTINUOUS
 62
   250
 10
7.07564
 20
1.35168
 30
0.0
 11
7.07696
 21
1.35212
 31
0.0
  0
LINE
  8
0
  6
CONTINUOUS
 62
   250
 10
7.07696
 20
1.35212
 30
0.0
 11
7.07828
 21
1.353
 31
0.0
  0
LINE
  8
0
  6
CONTINUOUS
 62
   250
 10
7.07828
 20
1.353
 30
0.0
 11
7.0796
 21
1.35388
 31
0.0
  0
LINE
  8
0
  6
CONTINUOUS
 62
   250
 10
7.0796
 20
1.35388
 30
0.0
 11
7.08048
 21
1.3552
 31
0.0
  0
LINE
  8
0
  6
CONTINUOUS
 62
   250
 10
7.08048
 20
1.3552
 30
0.0
 11
7.08092
 21
1.35652
 31
0.0
  0
LINE
  8
0
  6
CONTINUOUS
 62
   250
 10
7.08092
 20
1.35652
 30
0.0
 11
7.0818
 21
1.35784
 31
0.0
  0
LINE
  8
0
  6
CONTINUOUS
 62
   250
 10
7.0818
 20
1.35784
 30
0.0
 11
7.0818
 21
1.3596
 31
0.0
  0
LINE
  8
0
  6
CONTINUOUS
 62
   250
 10
7.0818
 20
1.3596
 30
0.0
 11
7.0818
 21
1.36092
 31
0.0
  0
LINE
  8
0
  6
CONTINUOUS
 62
   250
 10
7.07256
 20
1.35124
 30
0.0
 11
7.07256
 21
1.3706
 31
0.0
  0
LINE
  8
0
  6
CONTINUOUS
 62
   250
 10
7.02416
 20
1.36092
 30
0.0
 11
7.04352
 21
1.36092
 31
0.0
  0
LINE
  8
0
  6
CONTINUOUS
 62
   250
 10
7.09148
 20
1.3464
 30
0.0
 11
7.09148
 21
1.45288
 31
0.0
  0
LINE
  8
0
  6
CONTINUOUS
 62
   250
 10
7.01448
 20
1.45288
 30
0.0
 11
7.01448
 21
1.3464
 31
0.0
  0
LINE
  8
0
  6
CONTINUOUS
 62
   250
 10
7.09148
 20
1.3464
 30
0.0
 11
6.93748
 21
1.3464
 31
0.0
  0
LINE
  8
0
  6
CONTINUOUS
 62
   250
 10
7.09148
 20
1.45288
 30
0.0
 11
6.93748
 21
1.45288
 31
0.0
  0
LINE
  8
0
  6
CONTINUOUS
 62
   250
 10
6.93748
 20
1.45288
 30
0.0
 11
6.93748
 21
1.3464
 31
0.0
  0
LINE
  8
0
  6
CONTINUOUS
 62
   250
 10
6.78964
 20
1.35124
 30
0.0
 11
6.78964
 21
1.3706
 31
0.0
  0
LINE
  8
0
  6
CONTINUOUS
 62
   250
 10
6.79932
 20
1.36092
 30
0.0
 11
6.79932
 21
1.36224
 31
0.0
  0
LINE
  8
0
  6
CONTINUOUS
 62
   250
 10
6.79932
 20
1.36224
 30
0.0
 11
6.79888
 21
1.364
 31
0.0
  0
LINE
  8
0
  6
CONTINUOUS
 62
   250
 10
6.79888
 20
1.364
 30
0.0
 11
6.79844
 21
1.36532
 31
0.0
  0
LINE
  8
0
  6
CONTINUOUS
 62
   250
 10
6.79844
 20
1.36532
 30
0.0
 11
6.79756
 21
1.36664
 31
0.0
  0
LINE
  8
0
  6
CONTINUOUS
 62
   250
 10
6.79756
 20
1.36664
 30
0.0
 11
6.79668
 21
1.36752
 31
0.0
  0
LINE
  8
0
  6
CONTINUOUS
 62
   250
 10
6.79668
 20
1.36752
 30
0.0
 11
6.79536
 21
1.36884
 31
0.0
  0
LINE
  8
0
  6
CONTINUOUS
 62
   250
 10
6.79536
 20
1.36884
 30
0.0
 11
6.79404
 21
1.36928
 31
0.0
  0
LINE
  8
0
  6
CONTINUOUS
 62
   250
 10
6.79404
 20
1.36928
 30
0.0
 11
6.79272
 21
1.37016
 31
0.0
  0
LINE
  8
0
  6
CONTINUOUS
 62
   250
 10
6.79272
 20
1.37016
 30
0.0
 11
6.79096
 21
1.37016
 31
0.0
  0
LINE
  8
0
  6
CONTINUOUS
 62
   250
 10
6.79096
 20
1.37016
 30
0.0
 11
6.78964
 21
1.3706
 31
0.0
  0
LINE
  8
0
  6
CONTINUOUS
 62
   250
 10
6.78964
 20
1.3706
 30
0.0
 11
6.78832
 21
1.37016
 31
0.0
  0
LINE
  8
0
  6
CONTINUOUS
 62
   250
 10
6.78832
 20
1.37016
 30
0.0
 11
6.78656
 21
1.37016
 31
0.0
  0
LINE
  8
0
  6
CONTINUOUS
 62
   250
 10
6.78656
 20
1.37016
 30
0.0
 11
6.78524
 21
1.36928
 31
0.0
  0
LINE
  8
0
  6
CONTINUOUS
 62
   250
 10
6.78524
 20
1.36928
 30
0.0
 11
6.78392
 21
1.3684
 31
0.0
  0
LINE
  8
0
  6
CONTINUOUS
 62
   250
 10
6.78392
 20
1.3684
 30
0.0
 11
6.78304
 21
1.36752
 31
0.0
  0
LINE
  8
0
  6
CONTINUOUS
 62
   250
 10
6.78304
 20
1.36752
 30
0.0
 11
6.78172
 21
1.36664
 31
0.0
  0
LINE
  8
0
  6
CONTINUOUS
 62
   250
 10
6.78172
 20
1.36664
 30
0.0
 11
6.78128
 21
1.36532
 31
0.0
  0
LINE
  8
0
  6
CONTINUOUS
 62
   250
 10
6.78128
 20
1.36532
 30
0.0
 11
6.7804
 21
1.36356
 31
0.0
  0
LINE
  8
0
  6
CONTINUOUS
 62
   250
 10
6.7804
 20
1.36356
 30
0.0
 11
6.7804
 21
1.36224
 31
0.0
  0
LINE
  8
0
  6
CONTINUOUS
 62
   250
 10
6.7804
 20
1.36224
 30
0.0
 11
6.77996
 21
1.36048
 31
0.0
  0
LINE
  8
0
  6
CONTINUOUS
 62
   250
 10
6.77996
 20
1.36048
 30
0.0
 11
6.7804
 21
1.35916
 31
0.0
  0
LINE
  8
0
  6
CONTINUOUS
 62
   250
 10
6.7804
 20
1.35916
 30
0.0
 11
6.7804
 21
1.3574
 31
0.0
  0
LINE
  8
0
  6
CONTINUOUS
 62
   250
 10
6.7804
 20
1.3574
 30
0.0
 11
6.78128
 21
1.35608
 31
0.0
  0
LINE
  8
0
  6
CONTINUOUS
 62
   250
 10
6.78128
 20
1.35608
 30
0.0
 11
6.78216
 21
1.35476
 31
0.0
  0
LINE
  8
0
  6
CONTINUOUS
 62
   250
 10
6.78216
 20
1.35476
 30
0.0
 11
6.78304
 21
1.35388
 31
0.0
  0
LINE
  8
0
  6
CONTINUOUS
 62
   250
 10
6.78304
 20
1.35388
 30
0.0
 11
6.78436
 21
1.353
 31
0.0
  0
LINE
  8
0
  6
CONTINUOUS
 62
   250
 10
6.78436
 20
1.353
 30
0.0
 11
6.78568
 21
1.35212
 31
0.0
  0
LINE
  8
0
  6
CONTINUOUS
 62
   250
 10
6.78568
 20
1.35212
 30
0.0
 11
6.787
 21
1.35168
 31
0.0
  0
LINE
  8
0
  6
CONTINUOUS
 62
   250
 10
6.787
 20
1.35168
 30
0.0
 11
6.78832
 21
1.35124
 31
0.0
  0
LINE
  8
0
  6
CONTINUOUS
 62
   250
 10
6.78832
 20
1.35124
 30
0.0
 11
6.79008
 21
1.35124
 31
0.0
  0
LINE
  8
0
  6
CONTINUOUS
 62
   250
 10
6.79008
 20
1.35124
 30
0.0
 11
6.7914
 21
1.35124
 31
0.0
  0
LINE
  8
0
  6
CONTINUOUS
 62
   250
 10
6.7914
 20
1.35124
 30
0.0
 11
6.79316
 21
1.35168
 31
0.0
  0
LINE
  8
0
  6
CONTINUOUS
 62
   250
 10
6.79316
 20
1.35168
 30
0.0
 11
6.79448
 21
1.35212
 31
0.0
  0
LINE
  8
0
  6
CONTINUOUS
 62
   250
 10
6.79448
 20
1.35212
 30
0.0
 11
6.7958
 21
1.353
 31
0.0
  0
LINE
  8
0
  6
CONTINUOUS
 62
   250
 10
6.7958
 20
1.353
 30
0.0
 11
6.79668
 21
1.35388
 31
0.0
  0
LINE
  8
0
  6
CONTINUOUS
 62
   250
 10
6.79668
 20
1.35388
 30
0.0
 11
6.79756
 21
1.3552
 31
0.0
  0
LINE
  8
0
  6
CONTINUOUS
 62
   250
 10
6.79756
 20
1.3552
 30
0.0
 11
6.79844
 21
1.35652
 31
0.0
  0
LINE
  8
0
  6
CONTINUOUS
 62
   250
 10
6.79844
 20
1.35652
 30
0.0
 11
6.79888
 21
1.35784
 31
0.0
  0
LINE
  8
0
  6
CONTINUOUS
 62
   250
 10
6.79888
 20
1.35784
 30
0.0
 11
6.79932
 21
1.3596
 31
0.0
  0
LINE
  8
0
  6
CONTINUOUS
 62
   250
 10
6.79932
 20
1.3596
 30
0.0
 11
6.79932
 21
1.36092
 31
0.0
  0
LINE
  8
0
  6
CONTINUOUS
 62
   250
 10
6.8376
 20
1.36092
 30
0.0
 11
6.83716
 21
1.36224
 31
0.0
  0
LINE
  8
0
  6
CONTINUOUS
 62
   250
 10
6.83716
 20
1.36224
 30
0.0
 11
6.83672
 21
1.364
 31
0.0
  0
LINE
  8
0
  6
CONTINUOUS
 62
   250
 10
6.83672
 20
1.364
 30
0.0
 11
6.83628
 21
1.36532
 31
0.0
  0
LINE
  8
0
  6
CONTINUOUS
 62
   250
 10
6.83628
 20
1.36532
 30
0.0
 11
6.83584
 21
1.36664
 31
0.0
  0
LINE
  8
0
  6
CONTINUOUS
 62
   250
 10
6.83584
 20
1.36664
 30
0.0
 11
6.83452
 21
1.36752
 31
0.0
  0
LINE
  8
0
  6
CONTINUOUS
 62
   250
 10
6.83452
 20
1.36752
 30
0.0
 11
6.8332
 21
1.36884
 31
0.0
  0
LINE
  8
0
  6
CONTINUOUS
 62
   250
 10
6.8332
 20
1.36884
 30
0.0
 11
6.83232
 21
1.36928
 31
0.0
  0
LINE
  8
0
  6
CONTINUOUS
 62
   250
 10
6.83232
 20
1.36928
 30
0.0
 11
6.83056
 21
1.37016
 31
0.0
  0
LINE
  8
0
  6
CONTINUOUS
 62
   250
 10
6.83056
 20
1.37016
 30
0.0
 11
6.82924
 21
1.37016
 31
0.0
  0
LINE
  8
0
  6
CONTINUOUS
 62
   250
 10
6.82924
 20
1.37016
 30
0.0
 11
6.82748
 21
1.3706
 31
0.0
  0
LINE
  8
0
  6
CONTINUOUS
 62
   250
 10
6.82748
 20
1.3706
 30
0.0
 11
6.82616
 21
1.37016
 31
0.0
  0
LINE
  8
0
  6
CONTINUOUS
 62
   250
 10
6.82616
 20
1.37016
 30
0.0
 11
6.82484
 21
1.37016
 31
0.0
  0
LINE
  8
0
  6
CONTINUOUS
 62
   250
 10
6.82484
 20
1.37016
 30
0.0
 11
6.82352
 21
1.36928
 31
0.0
  0
LINE
  8
0
  6
CONTINUOUS
 62
   250
 10
6.82352
 20
1.36928
 30
0.0
 11
6.8222
 21
1.3684
 31
0.0
  0
LINE
  8
0
  6
CONTINUOUS
 62
   250
 10
6.8222
 20
1.3684
 30
0.0
 11
6.82088
 21
1.36752
 31
0.0
  0
LINE
  8
0
  6
CONTINUOUS
 62
   250
 10
6.82088
 20
1.36752
 30
0.0
 11
6.82
 21
1.36664
 31
0.0
  0
LINE
  8
0
  6
CONTINUOUS
 62
   250
 10
6.82
 20
1.36664
 30
0.0
 11
6.81912
 21
1.36532
 31
0.0
  0
LINE
  8
0
  6
CONTINUOUS
 62
   250
 10
6.81912
 20
1.36532
 30
0.0
 11
6.81868
 21
1.36356
 31
0.0
  0
LINE
  8
0
  6
CONTINUOUS
 62
   250
 10
6.81868
 20
1.36356
 30
0.0
 11
6.81824
 21
1.36224
 31
0.0
  0
LINE
  8
0
  6
CONTINUOUS
 62
   250
 10
6.81824
 20
1.36224
 30
0.0
 11
6.81824
 21
1.36048
 31
0.0
  0
LINE
  8
0
  6
CONTINUOUS
 62
   250
 10
6.81824
 20
1.36048
 30
0.0
 11
6.81824
 21
1.35916
 31
0.0
  0
LINE
  8
0
  6
CONTINUOUS
 62
   250
 10
6.81824
 20
1.35916
 30
0.0
 11
6.81868
 21
1.3574
 31
0.0
  0
LINE
  8
0
  6
CONTINUOUS
 62
   250
 10
6.81868
 20
1.3574
 30
0.0
 11
6.81912
 21
1.35608
 31
0.0
  0
LINE
  8
0
  6
CONTINUOUS
 62
   250
 10
6.81912
 20
1.35608
 30
0.0
 11
6.82
 21
1.35476
 31
0.0
  0
LINE
  8
0
  6
CONTINUOUS
 62
   250
 10
6.82
 20
1.35476
 30
0.0
 11
6.82132
 21
1.35388
 31
0.0
  0
LINE
  8
0
  6
CONTINUOUS
 62
   250
 10
6.82132
 20
1.35388
 30
0.0
 11
6.8222
 21
1.353
 31
0.0
  0
LINE
  8
0
  6
CONTINUOUS
 62
   250
 10
6.8222
 20
1.353
 30
0.0
 11
6.82352
 21
1.35212
 31
0.0
  0
LINE
  8
0
  6
CONTINUOUS
 62
   250
 10
6.82352
 20
1.35212
 30
0.0
 11
6.82528
 21
1.35168
 31
0.0
  0
LINE
  8
0
  6
CONTINUOUS
 62
   250
 10
6.82528
 20
1.35168
 30
0.0
 11
6.8266
 21
1.35124
 31
0.0
  0
LINE
  8
0
  6
CONTINUOUS
 62
   250
 10
6.8266
 20
1.35124
 30
0.0
 11
6.82792
 21
1.35124
 31
0.0
  0
LINE
  8
0
  6
CONTINUOUS
 62
   250
 10
6.82792
 20
1.35124
 30
0.0
 11
6.82968
 21
1.35124
 31
0.0
  0
LINE
  8
0
  6
CONTINUOUS
 62
   250
 10
6.82968
 20
1.35124
 30
0.0
 11
6.831
 21
1.35168
 31
0.0
  0
LINE
  8
0
  6
CONTINUOUS
 62
   250
 10
6.831
 20
1.35168
 30
0.0
 11
6.83232
 21
1.35212
 31
0.0
  0
LINE
  8
0
  6
CONTINUOUS
 62
   250
 10
6.83232
 20
1.35212
 30
0.0
 11
6.83364
 21
1.353
 31
0.0
  0
LINE
  8
0
  6
CONTINUOUS
 62
   250
 10
6.83364
 20
1.353
 30
0.0
 11
6.83496
 21
1.35388
 31
0.0
  0
LINE
  8
0
  6
CONTINUOUS
 62
   250
 10
6.83496
 20
1.35388
 30
0.0
 11
6.83584
 21
1.3552
 31
0.0
  0
LINE
  8
0
  6
CONTINUOUS
 62
   250
 10
6.83584
 20
1.3552
 30
0.0
 11
6.83672
 21
1.35652
 31
0.0
  0
LINE
  8
0
  6
CONTINUOUS
 62
   250
 10
6.83672
 20
1.35652
 30
0.0
 11
6.83716
 21
1.35784
 31
0.0
  0
LINE
  8
0
  6
CONTINUOUS
 62
   250
 10
6.83716
 20
1.35784
 30
0.0
 11
6.8376
 21
1.3596
 31
0.0
  0
LINE
  8
0
  6
CONTINUOUS
 62
   250
 10
6.8376
 20
1.3596
 30
0.0
 11
6.8376
 21
1.36092
 31
0.0
  0
LINE
  8
0
  6
CONTINUOUS
 62
   250
 10
6.81824
 20
1.36092
 30
0.0
 11
6.8376
 21
1.36092
 31
0.0
  0
LINE
  8
0
  6
CONTINUOUS
 62
   250
 10
6.87632
 20
1.36092
 30
0.0
 11
6.87588
 21
1.36224
 31
0.0
  0
LINE
  8
0
  6
CONTINUOUS
 62
   250
 10
6.87588
 20
1.36224
 30
0.0
 11
6.87588
 21
1.364
 31
0.0
  0
LINE
  8
0
  6
CONTINUOUS
 62
   250
 10
6.87588
 20
1.364
 30
0.0
 11
6.875
 21
1.36532
 31
0.0
  0
LINE
  8
0
  6
CONTINUOUS
 62
   250
 10
6.875
 20
1.36532
 30
0.0
 11
6.87412
 21
1.36664
 31
0.0
  0
LINE
  8
0
  6
CONTINUOUS
 62
   250
 10
6.87412
 20
1.36664
 30
0.0
 11
6.87324
 21
1.36752
 31
0.0
  0
LINE
  8
0
  6
CONTINUOUS
 62
   250
 10
6.87324
 20
1.36752
 30
0.0
 11
6.87192
 21
1.36884
 31
0.0
  0
LINE
  8
0
  6
CONTINUOUS
 62
   250
 10
6.87192
 20
1.36884
 30
0.0
 11
6.8706
 21
1.36928
 31
0.0
  0
LINE
  8
0
  6
CONTINUOUS
 62
   250
 10
6.8706
 20
1.36928
 30
0.0
 11
6.86928
 21
1.37016
 31
0.0
  0
LINE
  8
0
  6
CONTINUOUS
 62
   250
 10
6.86928
 20
1.37016
 30
0.0
 11
6.86796
 21
1.37016
 31
0.0
  0
LINE
  8
0
  6
CONTINUOUS
 62
   250
 10
6.86796
 20
1.37016
 30
0.0
 11
6.86664
 21
1.3706
 31
0.0
  0
LINE
  8
0
  6
CONTINUOUS
 62
   250
 10
6.86664
 20
1.3706
 30
0.0
 11
6.86488
 21
1.37016
 31
0.0
  0
LINE
  8
0
  6
CONTINUOUS
 62
   250
 10
6.86488
 20
1.37016
 30
0.0
 11
6.86356
 21
1.37016
 31
0.0
  0
LINE
  8
0
  6
CONTINUOUS
 62
   250
 10
6.86356
 20
1.37016
 30
0.0
 11
6.8618
 21
1.36928
 31
0.0
  0
LINE
  8
0
  6
CONTINUOUS
 62
   250
 10
6.8618
 20
1.36928
 30
0.0
 11
6.86048
 21
1.3684
 31
0.0
  0
LINE
  8
0
  6
CONTINUOUS
 62
   250
 10
6.86048
 20
1.3684
 30
0.0
 11
6.8596
 21
1.36752
 31
0.0
  0
LINE
  8
0
  6
CONTINUOUS
 62
   250
 10
6.8596
 20
1.36752
 30
0.0
 11
6.85872
 21
1.36664
 31
0.0
  0
LINE
  8
0
  6
CONTINUOUS
 62
   250
 10
6.85872
 20
1.36664
 30
0.0
 11
6.85784
 21
1.36532
 31
0.0
  0
LINE
  8
0
  6
CONTINUOUS
 62
   250
 10
6.85784
 20
1.36532
 30
0.0
 11
6.8574
 21
1.36356
 31
0.0
  0
LINE
  8
0
  6
CONTINUOUS
 62
   250
 10
6.8574
 20
1.36356
 30
0.0
 11
6.85696
 21
1.36224
 31
0.0
  0
LINE
  8
0
  6
CONTINUOUS
 62
   250
 10
6.85696
 20
1.36224
 30
0.0
 11
6.85696
 21
1.36048
 31
0.0
  0
LINE
  8
0
  6
CONTINUOUS
 62
   250
 10
6.85696
 20
1.36048
 30
0.0
 11
6.85696
 21
1.35916
 31
0.0
  0
LINE
  8
0
  6
CONTINUOUS
 62
   250
 10
6.85696
 20
1.35916
 30
0.0
 11
6.8574
 21
1.3574
 31
0.0
  0
LINE
  8
0
  6
CONTINUOUS
 62
   250
 10
6.8574
 20
1.3574
 30
0.0
 11
6.85784
 21
1.35608
 31
0.0
  0
LINE
  8
0
  6
CONTINUOUS
 62
   250
 10
6.85784
 20
1.35608
 30
0.0
 11
6.85872
 21
1.35476
 31
0.0
  0
LINE
  8
0
  6
CONTINUOUS
 62
   250
 10
6.85872
 20
1.35476
 30
0.0
 11
6.8596
 21
1.35388
 31
0.0
  0
LINE
  8
0
  6
CONTINUOUS
 62
   250
 10
6.8596
 20
1.35388
 30
0.0
 11
6.86092
 21
1.353
 31
0.0
  0
LINE
  8
0
  6
CONTINUOUS
 62
   250
 10
6.86092
 20
1.353
 30
0.0
 11
6.86224
 21
1.35212
 31
0.0
  0
LINE
  8
0
  6
CONTINUOUS
 62
   250
 10
6.86224
 20
1.35212
 30
0.0
 11
6.86356
 21
1.35168
 31
0.0
  0
LINE
  8
0
  6
CONTINUOUS
 62
   250
 10
6.86356
 20
1.35168
 30
0.0
 11
6.86532
 21
1.35124
 31
0.0
  0
LINE
  8
0
  6
CONTINUOUS
 62
   250
 10
6.86532
 20
1.35124
 30
0.0
 11
6.86664
 21
1.35124
 31
0.0
  0
LINE
  8
0
  6
CONTINUOUS
 62
   250
 10
6.86664
 20
1.35124
 30
0.0
 11
6.8684
 21
1.35124
 31
0.0
  0
LINE
  8
0
  6
CONTINUOUS
 62
   250
 10
6.8684
 20
1.35124
 30
0.0
 11
6.86972
 21
1.35168
 31
0.0
  0
LINE
  8
0
  6
CONTINUOUS
 62
   250
 10
6.86972
 20
1.35168
 30
0.0
 11
6.87104
 21
1.35212
 31
0.0
  0
LINE
  8
0
  6
CONTINUOUS
 62
   250
 10
6.87104
 20
1.35212
 30
0.0
 11
6.87236
 21
1.353
 31
0.0
  0
LINE
  8
0
  6
CONTINUOUS
 62
   250
 10
6.87236
 20
1.353
 30
0.0
 11
6.87368
 21
1.35388
 31
0.0
  0
LINE
  8
0
  6
CONTINUOUS
 62
   250
 10
6.87368
 20
1.35388
 30
0.0
 11
6.87456
 21
1.3552
 31
0.0
  0
LINE
  8
0
  6
CONTINUOUS
 62
   250
 10
6.87456
 20
1.3552
 30
0.0
 11
6.875
 21
1.35652
 31
0.0
  0
LINE
  8
0
  6
CONTINUOUS
 62
   250
 10
6.875
 20
1.35652
 30
0.0
 11
6.87588
 21
1.35784
 31
0.0
  0
LINE
  8
0
  6
CONTINUOUS
 62
   250
 10
6.87588
 20
1.35784
 30
0.0
 11
6.87588
 21
1.3596
 31
0.0
  0
LINE
  8
0
  6
CONTINUOUS
 62
   250
 10
6.87588
 20
1.3596
 30
0.0
 11
6.87632
 21
1.36092
 31
0.0
  0
LINE
  8
0
  6
CONTINUOUS
 62
   250
 10
6.91504
 20
1.36092
 30
0.0
 11
6.9146
 21
1.36224
 31
0.0
  0
LINE
  8
0
  6
CONTINUOUS
 62
   250
 10
6.9146
 20
1.36224
 30
0.0
 11
6.91416
 21
1.364
 31
0.0
  0
LINE
  8
0
  6
CONTINUOUS
 62
   250
 10
6.91416
 20
1.364
 30
0.0
 11
6.91372
 21
1.36532
 31
0.0
  0
LINE
  8
0
  6
CONTINUOUS
 62
   250
 10
6.91372
 20
1.36532
 30
0.0
 11
6.91284
 21
1.36664
 31
0.0
  0
LINE
  8
0
  6
CONTINUOUS
 62
   250
 10
6.91284
 20
1.36664
 30
0.0
 11
6.91196
 21
1.36752
 31
0.0
  0
LINE
  8
0
  6
CONTINUOUS
 62
   250
 10
6.91196
 20
1.36752
 30
0.0
 11
6.91064
 21
1.36884
 31
0.0
  0
LINE
  8
0
  6
CONTINUOUS
 62
   250
 10
6.91064
 20
1.36884
 30
0.0
 11
6.90932
 21
1.36928
 31
0.0
  0
LINE
  8
0
  6
CONTINUOUS
 62
   250
 10
6.90932
 20
1.36928
 30
0.0
 11
6.908
 21
1.37016
 31
0.0
  0
LINE
  8
0
  6
CONTINUOUS
 62
   250
 10
6.908
 20
1.37016
 30
0.0
 11
6.90668
 21
1.37016
 31
0.0
  0
LINE
  8
0
  6
CONTINUOUS
 62
   250
 10
6.90668
 20
1.37016
 30
0.0
 11
6.90492
 21
1.3706
 31
0.0
  0
LINE
  8
0
  6
CONTINUOUS
 62
   250
 10
6.90492
 20
1.3706
 30
0.0
 11
6.9036
 21
1.37016
 31
0.0
  0
LINE
  8
0
  6
CONTINUOUS
 62
   250
 10
6.9036
 20
1.37016
 30
0.0
 11
6.90228
 21
1.37016
 31
0.0
  0
LINE
  8
0
  6
CONTINUOUS
 62
   250
 10
6.90228
 20
1.37016
 30
0.0
 11
6.90096
 21
1.36928
 31
0.0
  0
LINE
  8
0
  6
CONTINUOUS
 62
   250
 10
6.90096
 20
1.36928
 30
0.0
 11
6.89964
 21
1.3684
 31
0.0
  0
LINE
  8
0
  6
CONTINUOUS
 62
   250
 10
6.89964
 20
1.3684
 30
0.0
 11
6.89832
 21
1.36752
 31
0.0
  0
LINE
  8
0
  6
CONTINUOUS
 62
   250
 10
6.89832
 20
1.36752
 30
0.0
 11
6.89744
 21
1.36664
 31
0.0
  0
LINE
  8
0
  6
CONTINUOUS
 62
   250
 10
6.89744
 20
1.36664
 30
0.0
 11
6.89656
 21
1.36532
 31
0.0
  0
LINE
  8
0
  6
CONTINUOUS
 62
   250
 10
6.89656
 20
1.36532
 30
0.0
 11
6.89612
 21
1.36356
 31
0.0
  0
LINE
  8
0
  6
CONTINUOUS
 62
   250
 10
6.89612
 20
1.36356
 30
0.0
 11
6.89568
 21
1.36224
 31
0.0
  0
LINE
  8
0
  6
CONTINUOUS
 62
   250
 10
6.89568
 20
1.36224
 30
0.0
 11
6.89568
 21
1.36048
 31
0.0
  0
LINE
  8
0
  6
CONTINUOUS
 62
   250
 10
6.89568
 20
1.36048
 30
0.0
 11
6.89568
 21
1.35916
 31
0.0
  0
LINE
  8
0
  6
CONTINUOUS
 62
   250
 10
6.89568
 20
1.35916
 30
0.0
 11
6.89612
 21
1.3574
 31
0.0
  0
LINE
  8
0
  6
CONTINUOUS
 62
   250
 10
6.89612
 20
1.3574
 30
0.0
 11
6.89656
 21
1.35608
 31
0.0
  0
LINE
  8
0
  6
CONTINUOUS
 62
   250
 10
6.89656
 20
1.35608
 30
0.0
 11
6.89744
 21
1.35476
 31
0.0
  0
LINE
  8
0
  6
CONTINUOUS
 62
   250
 10
6.89744
 20
1.35476
 30
0.0
 11
6.89876
 21
1.35388
 31
0.0
  0
LINE
  8
0
  6
CONTINUOUS
 62
   250
 10
6.89876
 20
1.35388
 30
0.0
 11
6.89964
 21
1.353
 31
0.0
  0
LINE
  8
0
  6
CONTINUOUS
 62
   250
 10
6.89964
 20
1.353
 30
0.0
 11
6.90096
 21
1.35212
 31
0.0
  0
LINE
  8
0
  6
CONTINUOUS
 62
   250
 10
6.90096
 20
1.35212
 30
0.0
 11
6.90228
 21
1.35168
 31
0.0
  0
LINE
  8
0
  6
CONTINUOUS
 62
   250
 10
6.90228
 20
1.35168
 30
0.0
 11
6.90404
 21
1.35124
 31
0.0
  0
LINE
  8
0
  6
CONTINUOUS
 62
   250
 10
6.90404
 20
1.35124
 30
0.0
 11
6.90536
 21
1.35124
 31
0.0
  0
LINE
  8
0
  6
CONTINUOUS
 62
   250
 10
6.90536
 20
1.35124
 30
0.0
 11
6.90712
 21
1.35124
 31
0.0
  0
LINE
  8
0
  6
CONTINUOUS
 62
   250
 10
6.90712
 20
1.35124
 30
0.0
 11
6.90844
 21
1.35168
 31
0.0
  0
LINE
  8
0
  6
CONTINUOUS
 62
   250
 10
6.90844
 20
1.35168
 30
0.0
 11
6.90976
 21
1.35212
 31
0.0
  0
LINE
  8
0
  6
CONTINUOUS
 62
   250
 10
6.90976
 20
1.35212
 30
0.0
 11
6.91108
 21
1.353
 31
0.0
  0
LINE
  8
0
  6
CONTINUOUS
 62
   250
 10
6.91108
 20
1.353
 30
0.0
 11
6.9124
 21
1.35388
 31
0.0
  0
LINE
  8
0
  6
CONTINUOUS
 62
   250
 10
6.9124
 20
1.35388
 30
0.0
 11
6.91328
 21
1.3552
 31
0.0
  0
LINE
  8
0
  6
CONTINUOUS
 62
   250
 10
6.91328
 20
1.3552
 30
0.0
 11
6.91416
 21
1.35652
 31
0.0
  0
LINE
  8
0
  6
CONTINUOUS
 62
   250
 10
6.91416
 20
1.35652
 30
0.0
 11
6.9146
 21
1.35784
 31
0.0
  0
LINE
  8
0
  6
CONTINUOUS
 62
   250
 10
6.9146
 20
1.35784
 30
0.0
 11
6.91504
 21
1.3596
 31
0.0
  0
LINE
  8
0
  6
CONTINUOUS
 62
   250
 10
6.91504
 20
1.3596
 30
0.0
 11
6.91504
 21
1.36092
 31
0.0
  0
LINE
  8
0
  6
CONTINUOUS
 62
   250
 10
6.90536
 20
1.35124
 30
0.0
 11
6.90536
 21
1.3706
 31
0.0
  0
LINE
  8
0
  6
CONTINUOUS
 62
   250
 10
6.85696
 20
1.36092
 30
0.0
 11
6.87632
 21
1.36092
 31
0.0
  0
LINE
  8
0
  6
CONTINUOUS
 62
   250
 10
6.92472
 20
1.3464
 30
0.0
 11
6.92472
 21
1.45288
 31
0.0
  0
LINE
  8
0
  6
CONTINUOUS
 62
   250
 10
6.84728
 20
1.45288
 30
0.0
 11
6.84728
 21
1.3464
 31
0.0
  0
LINE
  8
0
  6
CONTINUOUS
 62
   250
 10
6.92472
 20
1.3464
 30
0.0
 11
6.77028
 21
1.3464
 31
0.0
  0
LINE
  8
0
  6
CONTINUOUS
 62
   250
 10
6.92472
 20
1.45288
 30
0.0
 11
6.77028
 21
1.45288
 31
0.0
  0
LINE
  8
0
  6
CONTINUOUS
 62
   250
 10
6.77028
 20
1.45288
 30
0.0
 11
6.77028
 21
1.3464
 31
0.0
  0
LINE
  8
0
  6
CONTINUOUS
 62
   250
 10
7.06904
 20
1.69928
 30
0.0
 11
7.06904
 21
1.70104
 31
0.0
  0
LINE
  8
0
  6
CONTINUOUS
 62
   250
 10
7.06904
 20
1.70104
 30
0.0
 11
7.0686
 21
1.70236
 31
0.0
  0
LINE
  8
0
  6
CONTINUOUS
 62
   250
 10
7.0686
 20
1.70236
 30
0.0
 11
7.06816
 21
1.70412
 31
0.0
  0
LINE
  8
0
  6
CONTINUOUS
 62
   250
 10
7.06816
 20
1.70412
 30
0.0
 11
7.06728
 21
1.705
 31
0.0
  0
LINE
  8
0
  6
CONTINUOUS
 62
   250
 10
7.06728
 20
1.705
 30
0.0
 11
7.0664
 21
1.70632
 31
0.0
  0
LINE
  8
0
  6
CONTINUOUS
 62
   250
 10
7.0664
 20
1.70632
 30
0.0
 11
7.06508
 21
1.7072
 31
0.0
  0
LINE
  8
0
  6
CONTINUOUS
 62
   250
 10
7.06508
 20
1.7072
 30
0.0
 11
7.06376
 21
1.70808
 31
0.0
  0
LINE
  8
0
  6
CONTINUOUS
 62
   250
 10
7.06376
 20
1.70808
 30
0.0
 11
7.06244
 21
1.70852
 31
0.0
  0
LINE
  8
0
  6
CONTINUOUS
 62
   250
 10
7.06244
 20
1.70852
 30
0.0
 11
7.06112
 21
1.70896
 31
0.0
  0
LINE
  8
0
  6
CONTINUOUS
 62
   250
 10
7.06112
 20
1.70896
 30
0.0
 11
7.05936
 21
1.70896
 31
0.0
  0
LINE
  8
0
  6
CONTINUOUS
 62
   250
 10
7.05936
 20
1.70896
 30
0.0
 11
7.05804
 21
1.70896
 31
0.0
  0
LINE
  8
0
  6
CONTINUOUS
 62
   250
 10
7.05804
 20
1.70896
 30
0.0
 11
7.05628
 21
1.70852
 31
0.0
  0
LINE
  8
0
  6
CONTINUOUS
 62
   250
 10
7.05628
 20
1.70852
 30
0.0
 11
7.05496
 21
1.70764
 31
0.0
  0
LINE
  8
0
  6
CONTINUOUS
 62
   250
 10
7.05496
 20
1.70764
 30
0.0
 11
7.05364
 21
1.7072
 31
0.0
  0
LINE
  8
0
  6
CONTINUOUS
 62
   250
 10
7.05364
 20
1.7072
 30
0.0
 11
7.05276
 21
1.70588
 31
0.0
  0
LINE
  8
0
  6
CONTINUOUS
 62
   250
 10
7.05276
 20
1.70588
 30
0.0
 11
7.05188
 21
1.705
 31
0.0
  0
LINE
  8
0
  6
CONTINUOUS
 62
   250
 10
7.05188
 20
1.705
 30
0.0
 11
7.051
 21
1.70368
 31
0.0
  0
LINE
  8
0
  6
CONTINUOUS
 62
   250
 10
7.051
 20
1.70368
 30
0.0
 11
7.05012
 21
1.70236
 31
0.0
  0
LINE
  8
0
  6
CONTINUOUS
 62
   250
 10
7.05012
 20
1.70236
 30
0.0
 11
7.05012
 21
1.7006
 31
0.0
  0
LINE
  8
0
  6
CONTINUOUS
 62
   250
 10
7.05012
 20
1.7006
 30
0.0
 11
7.05012
 21
1.69928
 31
0.0
  0
LINE
  8
0
  6
CONTINUOUS
 62
   250
 10
7.05012
 20
1.69928
 30
0.0
 11
7.05012
 21
1.69752
 31
0.0
  0
LINE
  8
0
  6
CONTINUOUS
 62
   250
 10
7.05012
 20
1.69752
 30
0.0
 11
7.05056
 21
1.6962
 31
0.0
  0
LINE
  8
0
  6
CONTINUOUS
 62
   250
 10
7.05056
 20
1.6962
 30
0.0
 11
7.051
 21
1.69488
 31
0.0
  0
LINE
  8
0
  6
CONTINUOUS
 62
   250
 10
7.051
 20
1.69488
 30
0.0
 11
7.05188
 21
1.69356
 31
0.0
  0
LINE
  8
0
  6
CONTINUOUS
 62
   250
 10
7.05188
 20
1.69356
 30
0.0
 11
7.05276
 21
1.69224
 31
0.0
  0
LINE
  8
0
  6
CONTINUOUS
 62
   250
 10
7.05276
 20
1.69224
 30
0.0
 11
7.05408
 21
1.69136
 31
0.0
  0
LINE
  8
0
  6
CONTINUOUS
 62
   250
 10
7.05408
 20
1.69136
 30
0.0
 11
7.0554
 21
1.69048
 31
0.0
  0
LINE
  8
0
  6
CONTINUOUS
 62
   250
 10
7.0554
 20
1.69048
 30
0.0
 11
7.05672
 21
1.69004
 31
0.0
  0
LINE
  8
0
  6
CONTINUOUS
 62
   250
 10
7.05672
 20
1.69004
 30
0.0
 11
7.05804
 21
1.6896
 31
0.0
  0
LINE
  8
0
  6
CONTINUOUS
 62
   250
 10
7.05804
 20
1.6896
 30
0.0
 11
7.0598
 21
1.6896
 31
0.0
  0
LINE
  8
0
  6
CONTINUOUS
 62
   250
 10
7.0598
 20
1.6896
 30
0.0
 11
7.06112
 21
1.6896
 31
0.0
  0
LINE
  8
0
  6
CONTINUOUS
 62
   250
 10
7.06112
 20
1.6896
 30
0.0
 11
7.06288
 21
1.69048
 31
0.0
  0
LINE
  8
0
  6
CONTINUOUS
 62
   250
 10
7.06288
 20
1.69048
 30
0.0
 11
7.0642
 21
1.69092
 31
0.0
  0
LINE
  8
0
  6
CONTINUOUS
 62
   250
 10
7.0642
 20
1.69092
 30
0.0
 11
7.06552
 21
1.6918
 31
0.0
  0
LINE
  8
0
  6
CONTINUOUS
 62
   250
 10
7.06552
 20
1.6918
 30
0.0
 11
7.0664
 21
1.69268
 31
0.0
  0
LINE
  8
0
  6
CONTINUOUS
 62
   250
 10
7.0664
 20
1.69268
 30
0.0
 11
7.06772
 21
1.694
 31
0.0
  0
LINE
  8
0
  6
CONTINUOUS
 62
   250
 10
7.06772
 20
1.694
 30
0.0
 11
7.06816
 21
1.69532
 31
0.0
  0
LINE
  8
0
  6
CONTINUOUS
 62
   250
 10
7.06816
 20
1.69532
 30
0.0
 11
7.06904
 21
1.69664
 31
0.0
  0
LINE
  8
0
  6
CONTINUOUS
 62
   250
 10
7.06904
 20
1.69664
 30
0.0
 11
7.06904
 21
1.69796
 31
0.0
  0
LINE
  8
0
  6
CONTINUOUS
 62
   250
 10
7.06904
 20
1.69796
 30
0.0
 11
7.06904
 21
1.69928
 31
0.0
  0
LINE
  8
0
  6
CONTINUOUS
 62
   250
 10
7.1082
 20
1.69928
 30
0.0
 11
7.10776
 21
1.70104
 31
0.0
  0
LINE
  8
0
  6
CONTINUOUS
 62
   250
 10
7.10776
 20
1.70104
 30
0.0
 11
7.10732
 21
1.70236
 31
0.0
  0
LINE
  8
0
  6
CONTINUOUS
 62
   250
 10
7.10732
 20
1.70236
 30
0.0
 11
7.10688
 21
1.70412
 31
0.0
  0
LINE
  8
0
  6
CONTINUOUS
 62
   250
 10
7.10688
 20
1.70412
 30
0.0
 11
7.106
 21
1.705
 31
0.0
  0
LINE
  8
0
  6
CONTINUOUS
 62
   250
 10
7.106
 20
1.705
 30
0.0
 11
7.10512
 21
1.70632
 31
0.0
  0
LINE
  8
0
  6
CONTINUOUS
 62
   250
 10
7.10512
 20
1.70632
 30
0.0
 11
7.1038
 21
1.7072
 31
0.0
  0
LINE
  8
0
  6
CONTINUOUS
 62
   250
 10
7.1038
 20
1.7072
 30
0.0
 11
7.10248
 21
1.70808
 31
0.0
  0
LINE
  8
0
  6
CONTINUOUS
 62
   250
 10
7.10248
 20
1.70808
 30
0.0
 11
7.10116
 21
1.70852
 31
0.0
  0
LINE
  8
0
  6
CONTINUOUS
 62
   250
 10
7.10116
 20
1.70852
 30
0.0
 11
7.09984
 21
1.70896
 31
0.0
  0
LINE
  8
0
  6
CONTINUOUS
 62
   250
 10
7.09984
 20
1.70896
 30
0.0
 11
7.09808
 21
1.70896
 31
0.0
  0
LINE
  8
0
  6
CONTINUOUS
 62
   250
 10
7.09808
 20
1.70896
 30
0.0
 11
7.09676
 21
1.70896
 31
0.0
  0
LINE
  8
0
  6
CONTINUOUS
 62
   250
 10
7.09676
 20
1.70896
 30
0.0
 11
7.095
 21
1.70852
 31
0.0
  0
LINE
  8
0
  6
CONTINUOUS
 62
   250
 10
7.095
 20
1.70852
 30
0.0
 11
7.09368
 21
1.70764
 31
0.0
  0
LINE
  8
0
  6
CONTINUOUS
 62
   250
 10
7.09368
 20
1.70764
 30
0.0
 11
7.09236
 21
1.7072
 31
0.0
  0
LINE
  8
0
  6
CONTINUOUS
 62
   250
 10
7.09236
 20
1.7072
 30
0.0
 11
7.09148
 21
1.70588
 31
0.0
  0
LINE
  8
0
  6
CONTINUOUS
 62
   250
 10
7.09148
 20
1.70588
 30
0.0
 11
7.09016
 21
1.705
 31
0.0
  0
LINE
  8
0
  6
CONTINUOUS
 62
   250
 10
7.09016
 20
1.705
 30
0.0
 11
7.08972
 21
1.70368
 31
0.0
  0
LINE
  8
0
  6
CONTINUOUS
 62
   250
 10
7.08972
 20
1.70368
 30
0.0
 11
7.08928
 21
1.70236
 31
0.0
  0
LINE
  8
0
  6
CONTINUOUS
 62
   250
 10
7.08928
 20
1.70236
 30
0.0
 11
7.08884
 21
1.7006
 31
0.0
  0
LINE
  8
0
  6
CONTINUOUS
 62
   250
 10
7.08884
 20
1.7006
 30
0.0
 11
7.08884
 21
1.69928
 31
0.0
  0
LINE
  8
0
  6
CONTINUOUS
 62
   250
 10
7.08884
 20
1.69928
 30
0.0
 11
7.08884
 21
1.69752
 31
0.0
  0
LINE
  8
0
  6
CONTINUOUS
 62
   250
 10
7.08884
 20
1.69752
 30
0.0
 11
7.08928
 21
1.6962
 31
0.0
  0
LINE
  8
0
  6
CONTINUOUS
 62
   250
 10
7.08928
 20
1.6962
 30
0.0
 11
7.08972
 21
1.69488
 31
0.0
  0
LINE
  8
0
  6
CONTINUOUS
 62
   250
 10
7.08972
 20
1.69488
 30
0.0
 11
7.0906
 21
1.69356
 31
0.0
  0
LINE
  8
0
  6
CONTINUOUS
 62
   250
 10
7.0906
 20
1.69356
 30
0.0
 11
7.09148
 21
1.69224
 31
0.0
  0
LINE
  8
0
  6
CONTINUOUS
 62
   250
 10
7.09148
 20
1.69224
 30
0.0
 11
7.0928
 21
1.69136
 31
0.0
  0
LINE
  8
0
  6
CONTINUOUS
 62
   250
 10
7.0928
 20
1.69136
 30
0.0
 11
7.09412
 21
1.69048
 31
0.0
  0
LINE
  8
0
  6
CONTINUOUS
 62
   250
 10
7.09412
 20
1.69048
 30
0.0
 11
7.09544
 21
1.69004
 31
0.0
  0
LINE
  8
0
  6
CONTINUOUS
 62
   250
 10
7.09544
 20
1.69004
 30
0.0
 11
7.09676
 21
1.6896
 31
0.0
  0
LINE
  8
0
  6
CONTINUOUS
 62
   250
 10
7.09676
 20
1.6896
 30
0.0
 11
7.09852
 21
1.6896
 31
0.0
  0
LINE
  8
0
  6
CONTINUOUS
 62
   250
 10
7.09852
 20
1.6896
 30
0.0
 11
7.09984
 21
1.6896
 31
0.0
  0
LINE
  8
0
  6
CONTINUOUS
 62
   250
 10
7.09984
 20
1.6896
 30
0.0
 11
7.1016
 21
1.69048
 31
0.0
  0
LINE
  8
0
  6
CONTINUOUS
 62
   250
 10
7.1016
 20
1.69048
 30
0.0
 11
7.10292
 21
1.69092
 31
0.0
  0
LINE
  8
0
  6
CONTINUOUS
 62
   250
 10
7.10292
 20
1.69092
 30
0.0
 11
7.10424
 21
1.6918
 31
0.0
  0
LINE
  8
0
  6
CONTINUOUS
 62
   250
 10
7.10424
 20
1.6918
 30
0.0
 11
7.10512
 21
1.69268
 31
0.0
  0
LINE
  8
0
  6
CONTINUOUS
 62
   250
 10
7.10512
 20
1.69268
 30
0.0
 11
7.10644
 21
1.694
 31
0.0
  0
LINE
  8
0
  6
CONTINUOUS
 62
   250
 10
7.10644
 20
1.694
 30
0.0
 11
7.10688
 21
1.69532
 31
0.0
  0
LINE
  8
0
  6
CONTINUOUS
 62
   250
 10
7.10688
 20
1.69532
 30
0.0
 11
7.10776
 21
1.69664
 31
0.0
  0
LINE
  8
0
  6
CONTINUOUS
 62
   250
 10
7.10776
 20
1.69664
 30
0.0
 11
7.10776
 21
1.69796
 31
0.0
  0
LINE
  8
0
  6
CONTINUOUS
 62
   250
 10
7.10776
 20
1.69796
 30
0.0
 11
7.1082
 21
1.69928
 31
0.0
  0
LINE
  8
0
  6
CONTINUOUS
 62
   250
 10
7.09852
 20
1.70896
 30
0.0
 11
7.09852
 21
1.6896
 31
0.0
  0
LINE
  8
0
  6
CONTINUOUS
 62
   250
 10
7.05012
 20
1.69928
 30
0.0
 11
7.06904
 21
1.69928
 31
0.0
  0
LINE
  8
0
  6
CONTINUOUS
 62
   250
 10
7.11744
 20
1.7138
 30
0.0
 11
7.11744
 21
1.60732
 31
0.0
  0
LINE
  8
0
  6
CONTINUOUS
 62
   250
 10
7.0312
 20
1.69928
 30
0.0
 11
7.0312
 21
1.70104
 31
0.0
  0
LINE
  8
0
  6
CONTINUOUS
 62
   250
 10
7.0312
 20
1.70104
 30
0.0
 11
7.03076
 21
1.70236
 31
0.0
  0
LINE
  8
0
  6
CONTINUOUS
 62
   250
 10
7.03076
 20
1.70236
 30
0.0
 11
7.02988
 21
1.70412
 31
0.0
  0
LINE
  8
0
  6
CONTINUOUS
 62
   250
 10
7.02988
 20
1.70412
 30
0.0
 11
7.02944
 21
1.705
 31
0.0
  0
LINE
  8
0
  6
CONTINUOUS
 62
   250
 10
7.02944
 20
1.705
 30
0.0
 11
7.02812
 21
1.70632
 31
0.0
  0
LINE
  8
0
  6
CONTINUOUS
 62
   250
 10
7.02812
 20
1.70632
 30
0.0
 11
7.02724
 21
1.7072
 31
0.0
  0
LINE
  8
0
  6
CONTINUOUS
 62
   250
 10
7.02724
 20
1.7072
 30
0.0
 11
7.02592
 21
1.70808
 31
0.0
  0
LINE
  8
0
  6
CONTINUOUS
 62
   250
 10
7.02592
 20
1.70808
 30
0.0
 11
7.0246
 21
1.70852
 31
0.0
  0
LINE
  8
0
  6
CONTINUOUS
 62
   250
 10
7.0246
 20
1.70852
 30
0.0
 11
7.02284
 21
1.70896
 31
0.0
  0
LINE
  8
0
  6
CONTINUOUS
 62
   250
 10
7.02284
 20
1.70896
 30
0.0
 11
7.02152
 21
1.70896
 31
0.0
  0
LINE
  8
0
  6
CONTINUOUS
 62
   250
 10
7.02152
 20
1.70896
 30
0.0
 11
7.01976
 21
1.70896
 31
0.0
  0
LINE
  8
0
  6
CONTINUOUS
 62
   250
 10
7.01976
 20
1.70896
 30
0.0
 11
7.01844
 21
1.70852
 31
0.0
  0
LINE
  8
0
  6
CONTINUOUS
 62
   250
 10
7.01844
 20
1.70852
 30
0.0
 11
7.01712
 21
1.70764
 31
0.0
  0
LINE
  8
0
  6
CONTINUOUS
 62
   250
 10
7.01712
 20
1.70764
 30
0.0
 11
7.0158
 21
1.7072
 31
0.0
  0
LINE
  8
0
  6
CONTINUOUS
 62
   250
 10
7.0158
 20
1.7072
 30
0.0
 11
7.01448
 21
1.70588
 31
0.0
  0
LINE
  8
0
  6
CONTINUOUS
 62
   250
 10
7.01448
 20
1.70588
 30
0.0
 11
7.0136
 21
1.705
 31
0.0
  0
LINE
  8
0
  6
CONTINUOUS
 62
   250
 10
7.0136
 20
1.705
 30
0.0
 11
7.01272
 21
1.70368
 31
0.0
  0
LINE
  8
0
  6
CONTINUOUS
 62
   250
 10
7.01272
 20
1.70368
 30
0.0
 11
7.01228
 21
1.70236
 31
0.0
  0
LINE
  8
0
  6
CONTINUOUS
 62
   250
 10
7.01228
 20
1.70236
 30
0.0
 11
7.01184
 21
1.7006
 31
0.0
  0
LINE
  8
0
  6
CONTINUOUS
 62
   250
 10
7.01184
 20
1.7006
 30
0.0
 11
7.01184
 21
1.69928
 31
0.0
  0
LINE
  8
0
  6
CONTINUOUS
 62
   250
 10
7.01184
 20
1.69928
 30
0.0
 11
7.01184
 21
1.69752
 31
0.0
  0
LINE
  8
0
  6
CONTINUOUS
 62
   250
 10
7.01184
 20
1.69752
 30
0.0
 11
7.01228
 21
1.6962
 31
0.0
  0
LINE
  8
0
  6
CONTINUOUS
 62
   250
 10
7.01228
 20
1.6962
 30
0.0
 11
7.01316
 21
1.69488
 31
0.0
  0
LINE
  8
0
  6
CONTINUOUS
 62
   250
 10
7.01316
 20
1.69488
 30
0.0
 11
7.01404
 21
1.69356
 31
0.0
  0
LINE
  8
0
  6
CONTINUOUS
 62
   250
 10
7.01404
 20
1.69356
 30
0.0
 11
7.01492
 21
1.69224
 31
0.0
  0
LINE
  8
0
  6
CONTINUOUS
 62
   250
 10
7.01492
 20
1.69224
 30
0.0
 11
7.0158
 21
1.69136
 31
0.0
  0
LINE
  8
0
  6
CONTINUOUS
 62
   250
 10
7.0158
 20
1.69136
 30
0.0
 11
7.01712
 21
1.69048
 31
0.0
  0
LINE
  8
0
  6
CONTINUOUS
 62
   250
 10
7.01712
 20
1.69048
 30
0.0
 11
7.01888
 21
1.69004
 31
0.0
  0
LINE
  8
0
  6
CONTINUOUS
 62
   250
 10
7.01888
 20
1.69004
 30
0.0
 11
7.0202
 21
1.6896
 31
0.0
  0
LINE
  8
0
  6
CONTINUOUS
 62
   250
 10
7.0202
 20
1.6896
 30
0.0
 11
7.02152
 21
1.6896
 31
0.0
  0
LINE
  8
0
  6
CONTINUOUS
 62
   250
 10
7.02152
 20
1.6896
 30
0.0
 11
7.02328
 21
1.6896
 31
0.0
  0
LINE
  8
0
  6
CONTINUOUS
 62
   250
 10
7.02328
 20
1.6896
 30
0.0
 11
7.0246
 21
1.69048
 31
0.0
  0
LINE
  8
0
  6
CONTINUOUS
 62
   250
 10
7.0246
 20
1.69048
 30
0.0
 11
7.02636
 21
1.69092
 31
0.0
  0
LINE
  8
0
  6
CONTINUOUS
 62
   250
 10
7.02636
 20
1.69092
 30
0.0
 11
7.02724
 21
1.6918
 31
0.0
  0
LINE
  8
0
  6
CONTINUOUS
 62
   250
 10
7.02724
 20
1.6918
 30
0.0
 11
7.02856
 21
1.69268
 31
0.0
  0
LINE
  8
0
  6
CONTINUOUS
 62
   250
 10
7.02856
 20
1.69268
 30
0.0
 11
7.02944
 21
1.694
 31
0.0
  0
LINE
  8
0
  6
CONTINUOUS
 62
   250
 10
7.02944
 20
1.694
 30
0.0
 11
7.03032
 21
1.69532
 31
0.0
  0
LINE
  8
0
  6
CONTINUOUS
 62
   250
 10
7.03032
 20
1.69532
 30
0.0
 11
7.03076
 21
1.69664
 31
0.0
  0
LINE
  8
0
  6
CONTINUOUS
 62
   250
 10
7.03076
 20
1.69664
 30
0.0
 11
7.0312
 21
1.69796
 31
0.0
  0
LINE
  8
0
  6
CONTINUOUS
 62
   250
 10
7.0312
 20
1.69796
 30
0.0
 11
7.0312
 21
1.69928
 31
0.0
  0
LINE
  8
0
  6
CONTINUOUS
 62
   250
 10
7.01184
 20
1.69928
 30
0.0
 11
7.0312
 21
1.69928
 31
0.0
  0
LINE
  8
0
  6
CONTINUOUS
 62
   250
 10
6.9388
 20
1.69928
 30
0.0
 11
6.9388
 21
1.70104
 31
0.0
  0
LINE
  8
0
  6
CONTINUOUS
 62
   250
 10
6.9388
 20
1.70104
 30
0.0
 11
6.93836
 21
1.70236
 31
0.0
  0
LINE
  8
0
  6
CONTINUOUS
 62
   250
 10
6.93836
 20
1.70236
 30
0.0
 11
6.93792
 21
1.70412
 31
0.0
  0
LINE
  8
0
  6
CONTINUOUS
 62
   250
 10
6.93792
 20
1.70412
 30
0.0
 11
6.93704
 21
1.705
 31
0.0
  0
LINE
  8
0
  6
CONTINUOUS
 62
   250
 10
6.93704
 20
1.705
 30
0.0
 11
6.93616
 21
1.70632
 31
0.0
  0
LINE
  8
0
  6
CONTINUOUS
 62
   250
 10
6.93616
 20
1.70632
 30
0.0
 11
6.93484
 21
1.7072
 31
0.0
  0
LINE
  8
0
  6
CONTINUOUS
 62
   250
 10
6.93484
 20
1.7072
 30
0.0
 11
6.93352
 21
1.70808
 31
0.0
  0
LINE
  8
0
  6
CONTINUOUS
 62
   250
 10
6.93352
 20
1.70808
 30
0.0
 11
6.9322
 21
1.70852
 31
0.0
  0
LINE
  8
0
  6
CONTINUOUS
 62
   250
 10
6.9322
 20
1.70852
 30
0.0
 11
6.93044
 21
1.70896
 31
0.0
  0
LINE
  8
0
  6
CONTINUOUS
 62
   250
 10
6.93044
 20
1.70896
 30
0.0
 11
6.92912
 21
1.70896
 31
0.0
  0
LINE
  8
0
  6
CONTINUOUS
 62
   250
 10
6.92912
 20
1.70896
 30
0.0
 11
6.9278
 21
1.70896
 31
0.0
  0
LINE
  8
0
  6
CONTINUOUS
 62
   250
 10
6.9278
 20
1.70896
 30
0.0
 11
6.92604
 21
1.70852
 31
0.0
  0
LINE
  8
0
  6
CONTINUOUS
 62
   250
 10
6.92604
 20
1.70852
 30
0.0
 11
6.92472
 21
1.70764
 31
0.0
  0
LINE
  8
0
  6
CONTINUOUS
 62
   250
 10
6.92472
 20
1.70764
 30
0.0
 11
6.9234
 21
1.7072
 31
0.0
  0
LINE
  8
0
  6
CONTINUOUS
 62
   250
 10
6.9234
 20
1.7072
 30
0.0
 11
6.92252
 21
1.70588
 31
0.0
  0
LINE
  8
0
  6
CONTINUOUS
 62
   250
 10
6.92252
 20
1.70588
 30
0.0
 11
6.9212
 21
1.705
 31
0.0
  0
LINE
  8
0
  6
CONTINUOUS
 62
   250
 10
6.9212
 20
1.705
 30
0.0
 11
6.92076
 21
1.70368
 31
0.0
  0
LINE
  8
0
  6
CONTINUOUS
 62
   250
 10
6.92076
 20
1.70368
 30
0.0
 11
6.91988
 21
1.70236
 31
0.0
  0
LINE
  8
0
  6
CONTINUOUS
 62
   250
 10
6.91988
 20
1.70236
 30
0.0
 11
6.91988
 21
1.7006
 31
0.0
  0
LINE
  8
0
  6
CONTINUOUS
 62
   250
 10
6.91988
 20
1.7006
 30
0.0
 11
6.91988
 21
1.69928
 31
0.0
  0
LINE
  8
0
  6
CONTINUOUS
 62
   250
 10
6.91988
 20
1.69928
 30
0.0
 11
6.91988
 21
1.69752
 31
0.0
  0
LINE
  8
0
  6
CONTINUOUS
 62
   250
 10
6.91988
 20
1.69752
 30
0.0
 11
6.92032
 21
1.6962
 31
0.0
  0
LINE
  8
0
  6
CONTINUOUS
 62
   250
 10
6.92032
 20
1.6962
 30
0.0
 11
6.92076
 21
1.69488
 31
0.0
  0
LINE
  8
0
  6
CONTINUOUS
 62
   250
 10
6.92076
 20
1.69488
 30
0.0
 11
6.92164
 21
1.69356
 31
0.0
  0
LINE
  8
0
  6
CONTINUOUS
 62
   250
 10
6.92164
 20
1.69356
 30
0.0
 11
6.92252
 21
1.69224
 31
0.0
  0
LINE
  8
0
  6
CONTINUOUS
 62
   250
 10
6.92252
 20
1.69224
 30
0.0
 11
6.92384
 21
1.69136
 31
0.0
  0
LINE
  8
0
  6
CONTINUOUS
 62
   250
 10
6.92384
 20
1.69136
 30
0.0
 11
6.92516
 21
1.69048
 31
0.0
  0
LINE
  8
0
  6
CONTINUOUS
 62
   250
 10
6.92516
 20
1.69048
 30
0.0
 11
6.92648
 21
1.69004
 31
0.0
  0
LINE
  8
0
  6
CONTINUOUS
 62
   250
 10
6.92648
 20
1.69004
 30
0.0
 11
6.92824
 21
1.6896
 31
0.0
  0
LINE
  8
0
  6
CONTINUOUS
 62
   250
 10
6.92824
 20
1.6896
 30
0.0
 11
6.92956
 21
1.6896
 31
0.0
  0
LINE
  8
0
  6
CONTINUOUS
 62
   250
 10
6.92956
 20
1.6896
 30
0.0
 11
6.93132
 21
1.6896
 31
0.0
  0
LINE
  8
0
  6
CONTINUOUS
 62
   250
 10
6.93132
 20
1.6896
 30
0.0
 11
6.93264
 21
1.69048
 31
0.0
  0
LINE
  8
0
  6
CONTINUOUS
 62
   250
 10
6.93264
 20
1.69048
 30
0.0
 11
6.93396
 21
1.69092
 31
0.0
  0
LINE
  8
0
  6
CONTINUOUS
 62
   250
 10
6.93396
 20
1.69092
 30
0.0
 11
6.93528
 21
1.6918
 31
0.0
  0
LINE
  8
0
  6
CONTINUOUS
 62
   250
 10
6.93528
 20
1.6918
 30
0.0
 11
6.93616
 21
1.69268
 31
0.0
  0
LINE
  8
0
  6
CONTINUOUS
 62
   250
 10
6.93616
 20
1.69268
 30
0.0
 11
6.93748
 21
1.694
 31
0.0
  0
LINE
  8
0
  6
CONTINUOUS
 62
   250
 10
6.93748
 20
1.694
 30
0.0
 11
6.93836
 21
1.69532
 31
0.0
  0
LINE
  8
0
  6
CONTINUOUS
 62
   250
 10
6.93836
 20
1.69532
 30
0.0
 11
6.9388
 21
1.69664
 31
0.0
  0
LINE
  8
0
  6
CONTINUOUS
 62
   250
 10
6.9388
 20
1.69664
 30
0.0
 11
6.9388
 21
1.69796
 31
0.0
  0
LINE
  8
0
  6
CONTINUOUS
 62
   250
 10
6.9388
 20
1.69796
 30
0.0
 11
6.9388
 21
1.69928
 31
0.0
  0
LINE
  8
0
  6
CONTINUOUS
 62
   250
 10
6.97796
 20
1.69928
 30
0.0
 11
6.97752
 21
1.70104
 31
0.0
  0
LINE
  8
0
  6
CONTINUOUS
 62
   250
 10
6.97752
 20
1.70104
 30
0.0
 11
6.97752
 21
1.70236
 31
0.0
  0
LINE
  8
0
  6
CONTINUOUS
 62
   250
 10
6.97752
 20
1.70236
 30
0.0
 11
6.97664
 21
1.70412
 31
0.0
  0
LINE
  8
0
  6
CONTINUOUS
 62
   250
 10
6.97664
 20
1.70412
 30
0.0
 11
6.97576
 21
1.705
 31
0.0
  0
LINE
  8
0
  6
CONTINUOUS
 62
   250
 10
6.97576
 20
1.705
 30
0.0
 11
6.97488
 21
1.70632
 31
0.0
  0
LINE
  8
0
  6
CONTINUOUS
 62
   250
 10
6.97488
 20
1.70632
 30
0.0
 11
6.97356
 21
1.7072
 31
0.0
  0
LINE
  8
0
  6
CONTINUOUS
 62
   250
 10
6.97356
 20
1.7072
 30
0.0
 11
6.97224
 21
1.70808
 31
0.0
  0
LINE
  8
0
  6
CONTINUOUS
 62
   250
 10
6.97224
 20
1.70808
 30
0.0
 11
6.97092
 21
1.70852
 31
0.0
  0
LINE
  8
0
  6
CONTINUOUS
 62
   250
 10
6.97092
 20
1.70852
 30
0.0
 11
6.9696
 21
1.70896
 31
0.0
  0
LINE
  8
0
  6
CONTINUOUS
 62
   250
 10
6.9696
 20
1.70896
 30
0.0
 11
6.96784
 21
1.70896
 31
0.0
  0
LINE
  8
0
  6
CONTINUOUS
 62
   250
 10
6.96784
 20
1.70896
 30
0.0
 11
6.96652
 21
1.70896
 31
0.0
  0
LINE
  8
0
  6
CONTINUOUS
 62
   250
 10
6.96652
 20
1.70896
 30
0.0
 11
6.96476
 21
1.70852
 31
0.0
  0
LINE
  8
0
  6
CONTINUOUS
 62
   250
 10
6.96476
 20
1.70852
 30
0.0
 11
6.96344
 21
1.70764
 31
0.0
  0
LINE
  8
0
  6
CONTINUOUS
 62
   250
 10
6.96344
 20
1.70764
 30
0.0
 11
6.96212
 21
1.7072
 31
0.0
  0
LINE
  8
0
  6
CONTINUOUS
 62
   250
 10
6.96212
 20
1.7072
 30
0.0
 11
6.96124
 21
1.70588
 31
0.0
  0
LINE
  8
0
  6
CONTINUOUS
 62
   250
 10
6.96124
 20
1.70588
 30
0.0
 11
6.96036
 21
1.705
 31
0.0
  0
LINE
  8
0
  6
CONTINUOUS
 62
   250
 10
6.96036
 20
1.705
 30
0.0
 11
6.95948
 21
1.70368
 31
0.0
  0
LINE
  8
0
  6
CONTINUOUS
 62
   250
 10
6.95948
 20
1.70368
 30
0.0
 11
6.95904
 21
1.70236
 31
0.0
  0
LINE
  8
0
  6
CONTINUOUS
 62
   250
 10
6.95904
 20
1.70236
 30
0.0
 11
6.9586
 21
1.7006
 31
0.0
  0
LINE
  8
0
  6
CONTINUOUS
 62
   250
 10
6.9586
 20
1.7006
 30
0.0
 11
6.9586
 21
1.69928
 31
0.0
  0
LINE
  8
0
  6
CONTINUOUS
 62
   250
 10
6.9586
 20
1.69928
 30
0.0
 11
6.9586
 21
1.69752
 31
0.0
  0
LINE
  8
0
  6
CONTINUOUS
 62
   250
 10
6.9586
 20
1.69752
 30
0.0
 11
6.95904
 21
1.6962
 31
0.0
  0
LINE
  8
0
  6
CONTINUOUS
 62
   250
 10
6.95904
 20
1.6962
 30
0.0
 11
6.95948
 21
1.69488
 31
0.0
  0
LINE
  8
0
  6
CONTINUOUS
 62
   250
 10
6.95948
 20
1.69488
 30
0.0
 11
6.96036
 21
1.69356
 31
0.0
  0
LINE
  8
0
  6
CONTINUOUS
 62
   250
 10
6.96036
 20
1.69356
 30
0.0
 11
6.96124
 21
1.69224
 31
0.0
  0
LINE
  8
0
  6
CONTINUOUS
 62
   250
 10
6.96124
 20
1.69224
 30
0.0
 11
6.96256
 21
1.69136
 31
0.0
  0
LINE
  8
0
  6
CONTINUOUS
 62
   250
 10
6.96256
 20
1.69136
 30
0.0
 11
6.96388
 21
1.69048
 31
0.0
  0
LINE
  8
0
  6
CONTINUOUS
 62
   250
 10
6.96388
 20
1.69048
 30
0.0
 11
6.9652
 21
1.69004
 31
0.0
  0
LINE
  8
0
  6
CONTINUOUS
 62
   250
 10
6.9652
 20
1.69004
 30
0.0
 11
6.96696
 21
1.6896
 31
0.0
  0
LINE
  8
0
  6
CONTINUOUS
 62
   250
 10
6.96696
 20
1.6896
 30
0.0
 11
6.96828
 21
1.6896
 31
0.0
  0
LINE
  8
0
  6
CONTINUOUS
 62
   250
 10
6.96828
 20
1.6896
 30
0.0
 11
6.9696
 21
1.6896
 31
0.0
  0
LINE
  8
0
  6
CONTINUOUS
 62
   250
 10
6.9696
 20
1.6896
 30
0.0
 11
6.97136
 21
1.69048
 31
0.0
  0
LINE
  8
0
  6
CONTINUOUS
 62
   250
 10
6.97136
 20
1.69048
 30
0.0
 11
6.97268
 21
1.69092
 31
0.0
  0
LINE
  8
0
  6
CONTINUOUS
 62
   250
 10
6.97268
 20
1.69092
 30
0.0
 11
6.974
 21
1.6918
 31
0.0
  0
LINE
  8
0
  6
CONTINUOUS
 62
   250
 10
6.974
 20
1.6918
 30
0.0
 11
6.97532
 21
1.69268
 31
0.0
  0
LINE
  8
0
  6
CONTINUOUS
 62
   250
 10
6.97532
 20
1.69268
 30
0.0
 11
6.9762
 21
1.694
 31
0.0
  0
LINE
  8
0
  6
CONTINUOUS
 62
   250
 10
6.9762
 20
1.694
 30
0.0
 11
6.97664
 21
1.69532
 31
0.0
  0
LINE
  8
0
  6
CONTINUOUS
 62
   250
 10
6.97664
 20
1.69532
 30
0.0
 11
6.97752
 21
1.69664
 31
0.0
  0
LINE
  8
0
  6
CONTINUOUS
 62
   250
 10
6.97752
 20
1.69664
 30
0.0
 11
6.97752
 21
1.69796
 31
0.0
  0
LINE
  8
0
  6
CONTINUOUS
 62
   250
 10
6.97752
 20
1.69796
 30
0.0
 11
6.97796
 21
1.69928
 31
0.0
  0
LINE
  8
0
  6
CONTINUOUS
 62
   250
 10
6.91988
 20
1.69928
 30
0.0
 11
6.9388
 21
1.69928
 31
0.0
  0
LINE
  8
0
  6
CONTINUOUS
 62
   250
 10
6.98764
 20
1.7138
 30
0.0
 11
6.98764
 21
1.60732
 31
0.0
  0
LINE
  8
0
  6
CONTINUOUS
 62
   250
 10
6.98764
 20
1.60732
 30
0.0
 11
6.9102
 21
1.60732
 31
0.0
  0
LINE
  8
0
  6
CONTINUOUS
 62
   250
 10
6.9102
 20
1.60732
 30
0.0
 11
6.9102
 21
1.7138
 31
0.0
  0
LINE
  8
0
  6
CONTINUOUS
 62
   250
 10
6.9102
 20
1.7138
 30
0.0
 11
6.98764
 21
1.7138
 31
0.0
  0
LINE
  8
0
  6
CONTINUOUS
 62
   250
 10
6.9696
 20
1.70896
 30
0.0
 11
6.9696
 21
1.6896
 31
0.0
  0
LINE
  8
0
  6
CONTINUOUS
 62
   250
 10
7.0004
 20
1.7138
 30
0.0
 11
7.11744
 21
1.7138
 31
0.0
  0
LINE
  8
0
  6
CONTINUOUS
 62
   250
 10
7.0004
 20
1.7138
 30
0.0
 11
7.0004
 21
1.60732
 31
0.0
  0
LINE
  8
0
  6
CONTINUOUS
 62
   250
 10
7.0004
 20
1.60732
 30
0.0
 11
7.11744
 21
1.60732
 31
0.0
  0
LINE
  8
0
  6
CONTINUOUS
 62
   250
 10
6.84948
 20
1.69928
 30
0.0
 11
6.84904
 21
1.70104
 31
0.0
  0
LINE
  8
0
  6
CONTINUOUS
 62
   250
 10
6.84904
 20
1.70104
 30
0.0
 11
6.8486
 21
1.70236
 31
0.0
  0
LINE
  8
0
  6
CONTINUOUS
 62
   250
 10
6.8486
 20
1.70236
 30
0.0
 11
6.84816
 21
1.70412
 31
0.0
  0
LINE
  8
0
  6
CONTINUOUS
 62
   250
 10
6.84816
 20
1.70412
 30
0.0
 11
6.84728
 21
1.705
 31
0.0
  0
LINE
  8
0
  6
CONTINUOUS
 62
   250
 10
6.84728
 20
1.705
 30
0.0
 11
6.8464
 21
1.70632
 31
0.0
  0
LINE
  8
0
  6
CONTINUOUS
 62
   250
 10
6.8464
 20
1.70632
 30
0.0
 11
6.84508
 21
1.7072
 31
0.0
  0
LINE
  8
0
  6
CONTINUOUS
 62
   250
 10
6.84508
 20
1.7072
 30
0.0
 11
6.84376
 21
1.70808
 31
0.0
  0
LINE
  8
0
  6
CONTINUOUS
 62
   250
 10
6.84376
 20
1.70808
 30
0.0
 11
6.84244
 21
1.70852
 31
0.0
  0
LINE
  8
0
  6
CONTINUOUS
 62
   250
 10
6.84244
 20
1.70852
 30
0.0
 11
6.84112
 21
1.70896
 31
0.0
  0
LINE
  8
0
  6
CONTINUOUS
 62
   250
 10
6.84112
 20
1.70896
 30
0.0
 11
6.83936
 21
1.70896
 31
0.0
  0
LINE
  8
0
  6
CONTINUOUS
 62
   250
 10
6.83936
 20
1.70896
 30
0.0
 11
6.83804
 21
1.70896
 31
0.0
  0
LINE
  8
0
  6
CONTINUOUS
 62
   250
 10
6.83804
 20
1.70896
 30
0.0
 11
6.83672
 21
1.70852
 31
0.0
  0
LINE
  8
0
  6
CONTINUOUS
 62
   250
 10
6.83672
 20
1.70852
 30
0.0
 11
6.83496
 21
1.70764
 31
0.0
  0
LINE
  8
0
  6
CONTINUOUS
 62
   250
 10
6.83496
 20
1.70764
 30
0.0
 11
6.83364
 21
1.7072
 31
0.0
  0
LINE
  8
0
  6
CONTINUOUS
 62
   250
 10
6.83364
 20
1.7072
 30
0.0
 11
6.83276
 21
1.70588
 31
0.0
  0
LINE
  8
0
  6
CONTINUOUS
 62
   250
 10
6.83276
 20
1.70588
 30
0.0
 11
6.83188
 21
1.705
 31
0.0
  0
LINE
  8
0
  6
CONTINUOUS
 62
   250
 10
6.83188
 20
1.705
 30
0.0
 11
6.831
 21
1.70368
 31
0.0
  0
LINE
  8
0
  6
CONTINUOUS
 62
   250
 10
6.831
 20
1.70368
 30
0.0
 11
6.83056
 21
1.70236
 31
0.0
  0
LINE
  8
0
  6
CONTINUOUS
 62
   250
 10
6.83056
 20
1.70236
 30
0.0
 11
6.83012
 21
1.7006
 31
0.0
  0
LINE
  8
0
  6
CONTINUOUS
 62
   250
 10
6.83012
 20
1.7006
 30
0.0
 11
6.83012
 21
1.69928
 31
0.0
  0
LINE
  8
0
  6
CONTINUOUS
 62
   250
 10
6.83012
 20
1.69928
 30
0.0
 11
6.83012
 21
1.69752
 31
0.0
  0
LINE
  8
0
  6
CONTINUOUS
 62
   250
 10
6.83012
 20
1.69752
 30
0.0
 11
6.83056
 21
1.6962
 31
0.0
  0
LINE
  8
0
  6
CONTINUOUS
 62
   250
 10
6.83056
 20
1.6962
 30
0.0
 11
6.831
 21
1.69488
 31
0.0
  0
LINE
  8
0
  6
CONTINUOUS
 62
   250
 10
6.831
 20
1.69488
 30
0.0
 11
6.83188
 21
1.69356
 31
0.0
  0
LINE
  8
0
  6
CONTINUOUS
 62
   250
 10
6.83188
 20
1.69356
 30
0.0
 11
6.8332
 21
1.69224
 31
0.0
  0
LINE
  8
0
  6
CONTINUOUS
 62
   250
 10
6.8332
 20
1.69224
 30
0.0
 11
6.83408
 21
1.69136
 31
0.0
  0
LINE
  8
0
  6
CONTINUOUS
 62
   250
 10
6.83408
 20
1.69136
 30
0.0
 11
6.8354
 21
1.69048
 31
0.0
  0
LINE
  8
0
  6
CONTINUOUS
 62
   250
 10
6.8354
 20
1.69048
 30
0.0
 11
6.83672
 21
1.69004
 31
0.0
  0
LINE
  8
0
  6
CONTINUOUS
 62
   250
 10
6.83672
 20
1.69004
 30
0.0
 11
6.83848
 21
1.6896
 31
0.0
  0
LINE
  8
0
  6
CONTINUOUS
 62
   250
 10
6.83848
 20
1.6896
 30
0.0
 11
6.8398
 21
1.6896
 31
0.0
  0
LINE
  8
0
  6
CONTINUOUS
 62
   250
 10
6.8398
 20
1.6896
 30
0.0
 11
6.84156
 21
1.6896
 31
0.0
  0
LINE
  8
0
  6
CONTINUOUS
 62
   250
 10
6.84156
 20
1.6896
 30
0.0
 11
6.84288
 21
1.69048
 31
0.0
  0
LINE
  8
0
  6
CONTINUOUS
 62
   250
 10
6.84288
 20
1.69048
 30
0.0
 11
6.8442
 21
1.69092
 31
0.0
  0
LINE
  8
0
  6
CONTINUOUS
 62
   250
 10
6.8442
 20
1.69092
 30
0.0
 11
6.84552
 21
1.6918
 31
0.0
  0
LINE
  8
0
  6
CONTINUOUS
 62
   250
 10
6.84552
 20
1.6918
 30
0.0
 11
6.8464
 21
1.69268
 31
0.0
  0
LINE
  8
0
  6
CONTINUOUS
 62
   250
 10
6.8464
 20
1.69268
 30
0.0
 11
6.84772
 21
1.694
 31
0.0
  0
LINE
  8
0
  6
CONTINUOUS
 62
   250
 10
6.84772
 20
1.694
 30
0.0
 11
6.8486
 21
1.69532
 31
0.0
  0
LINE
  8
0
  6
CONTINUOUS
 62
   250
 10
6.8486
 20
1.69532
 30
0.0
 11
6.84904
 21
1.69664
 31
0.0
  0
LINE
  8
0
  6
CONTINUOUS
 62
   250
 10
6.84904
 20
1.69664
 30
0.0
 11
6.84904
 21
1.69796
 31
0.0
  0
LINE
  8
0
  6
CONTINUOUS
 62
   250
 10
6.84904
 20
1.69796
 30
0.0
 11
6.84948
 21
1.69928
 31
0.0
  0
LINE
  8
0
  6
CONTINUOUS
 62
   250
 10
6.8882
 20
1.69928
 30
0.0
 11
6.88776
 21
1.70104
 31
0.0
  0
LINE
  8
0
  6
CONTINUOUS
 62
   250
 10
6.88776
 20
1.70104
 30
0.0
 11
6.88776
 21
1.70236
 31
0.0
  0
LINE
  8
0
  6
CONTINUOUS
 62
   250
 10
6.88776
 20
1.70236
 30
0.0
 11
6.88688
 21
1.70412
 31
0.0
  0
LINE
  8
0
  6
CONTINUOUS
 62
   250
 10
6.88688
 20
1.70412
 30
0.0
 11
6.886
 21
1.705
 31
0.0
  0
LINE
  8
0
  6
CONTINUOUS
 62
   250
 10
6.886
 20
1.705
 30
0.0
 11
6.88512
 21
1.70632
 31
0.0
  0
LINE
  8
0
  6
CONTINUOUS
 62
   250
 10
6.88512
 20
1.70632
 30
0.0
 11
6.8838
 21
1.7072
 31
0.0
  0
LINE
  8
0
  6
CONTINUOUS
 62
   250
 10
6.8838
 20
1.7072
 30
0.0
 11
6.88248
 21
1.70808
 31
0.0
  0
LINE
  8
0
  6
CONTINUOUS
 62
   250
 10
6.88248
 20
1.70808
 30
0.0
 11
6.88116
 21
1.70852
 31
0.0
  0
LINE
  8
0
  6
CONTINUOUS
 62
   250
 10
6.88116
 20
1.70852
 30
0.0
 11
6.87984
 21
1.70896
 31
0.0
  0
LINE
  8
0
  6
CONTINUOUS
 62
   250
 10
6.87984
 20
1.70896
 30
0.0
 11
6.87808
 21
1.70896
 31
0.0
  0
LINE
  8
0
  6
CONTINUOUS
 62
   250
 10
6.87808
 20
1.70896
 30
0.0
 11
6.87676
 21
1.70896
 31
0.0
  0
LINE
  8
0
  6
CONTINUOUS
 62
   250
 10
6.87676
 20
1.70896
 30
0.0
 11
6.875
 21
1.70852
 31
0.0
  0
LINE
  8
0
  6
CONTINUOUS
 62
   250
 10
6.875
 20
1.70852
 30
0.0
 11
6.87368
 21
1.70764
 31
0.0
  0
LINE
  8
0
  6
CONTINUOUS
 62
   250
 10
6.87368
 20
1.70764
 30
0.0
 11
6.87236
 21
1.7072
 31
0.0
  0
LINE
  8
0
  6
CONTINUOUS
 62
   250
 10
6.87236
 20
1.7072
 30
0.0
 11
6.87148
 21
1.70588
 31
0.0
  0
LINE
  8
0
  6
CONTINUOUS
 62
   250
 10
6.87148
 20
1.70588
 30
0.0
 11
6.8706
 21
1.705
 31
0.0
  0
LINE
  8
0
  6
CONTINUOUS
 62
   250
 10
6.8706
 20
1.705
 30
0.0
 11
6.86972
 21
1.70368
 31
0.0
  0
LINE
  8
0
  6
CONTINUOUS
 62
   250
 10
6.86972
 20
1.70368
 30
0.0
 11
6.86928
 21
1.70236
 31
0.0
  0
LINE
  8
0
  6
CONTINUOUS
 62
   250
 10
6.86928
 20
1.70236
 30
0.0
 11
6.86884
 21
1.7006
 31
0.0
  0
LINE
  8
0
  6
CONTINUOUS
 62
   250
 10
6.86884
 20
1.7006
 30
0.0
 11
6.86884
 21
1.69928
 31
0.0
  0
LINE
  8
0
  6
CONTINUOUS
 62
   250
 10
6.86884
 20
1.69928
 30
0.0
 11
6.86884
 21
1.69752
 31
0.0
  0
LINE
  8
0
  6
CONTINUOUS
 62
   250
 10
6.86884
 20
1.69752
 30
0.0
 11
6.86928
 21
1.6962
 31
0.0
  0
LINE
  8
0
  6
CONTINUOUS
 62
   250
 10
6.86928
 20
1.6962
 30
0.0
 11
6.86972
 21
1.69488
 31
0.0
  0
LINE
  8
0
  6
CONTINUOUS
 62
   250
 10
6.86972
 20
1.69488
 30
0.0
 11
6.8706
 21
1.69356
 31
0.0
  0
LINE
  8
0
  6
CONTINUOUS
 62
   250
 10
6.8706
 20
1.69356
 30
0.0
 11
6.87148
 21
1.69224
 31
0.0
  0
LINE
  8
0
  6
CONTINUOUS
 62
   250
 10
6.87148
 20
1.69224
 30
0.0
 11
6.8728
 21
1.69136
 31
0.0
  0
LINE
  8
0
  6
CONTINUOUS
 62
   250
 10
6.8728
 20
1.69136
 30
0.0
 11
6.87412
 21
1.69048
 31
0.0
  0
LINE
  8
0
  6
CONTINUOUS
 62
   250
 10
6.87412
 20
1.69048
 30
0.0
 11
6.87544
 21
1.69004
 31
0.0
  0
LINE
  8
0
  6
CONTINUOUS
 62
   250
 10
6.87544
 20
1.69004
 30
0.0
 11
6.8772
 21
1.6896
 31
0.0
  0
LINE
  8
0
  6
CONTINUOUS
 62
   250
 10
6.8772
 20
1.6896
 30
0.0
 11
6.87852
 21
1.6896
 31
0.0
  0
LINE
  8
0
  6
CONTINUOUS
 62
   250
 10
6.87852
 20
1.6896
 30
0.0
 11
6.87984
 21
1.6896
 31
0.0
  0
LINE
  8
0
  6
CONTINUOUS
 62
   250
 10
6.87984
 20
1.6896
 30
0.0
 11
6.8816
 21
1.69048
 31
0.0
  0
LINE
  8
0
  6
CONTINUOUS
 62
   250
 10
6.8816
 20
1.69048
 30
0.0
 11
6.88292
 21
1.69092
 31
0.0
  0
LINE
  8
0
  6
CONTINUOUS
 62
   250
 10
6.88292
 20
1.69092
 30
0.0
 11
6.88424
 21
1.6918
 31
0.0
  0
LINE
  8
0
  6
CONTINUOUS
 62
   250
 10
6.88424
 20
1.6918
 30
0.0
 11
6.88556
 21
1.69268
 31
0.0
  0
LINE
  8
0
  6
CONTINUOUS
 62
   250
 10
6.88556
 20
1.69268
 30
0.0
 11
6.88644
 21
1.694
 31
0.0
  0
LINE
  8
0
  6
CONTINUOUS
 62
   250
 10
6.88644
 20
1.694
 30
0.0
 11
6.88688
 21
1.69532
 31
0.0
  0
LINE
  8
0
  6
CONTINUOUS
 62
   250
 10
6.88688
 20
1.69532
 30
0.0
 11
6.88776
 21
1.69664
 31
0.0
  0
LINE
  8
0
  6
CONTINUOUS
 62
   250
 10
6.88776
 20
1.69664
 30
0.0
 11
6.88776
 21
1.69796
 31
0.0
  0
LINE
  8
0
  6
CONTINUOUS
 62
   250
 10
6.88776
 20
1.69796
 30
0.0
 11
6.8882
 21
1.69928
 31
0.0
  0
LINE
  8
0
  6
CONTINUOUS
 62
   250
 10
6.83012
 20
1.69928
 30
0.0
 11
6.84948
 21
1.69928
 31
0.0
  0
LINE
  8
0
  6
CONTINUOUS
 62
   250
 10
6.89788
 20
1.7138
 30
0.0
 11
6.89788
 21
1.60732
 31
0.0
  0
LINE
  8
0
  6
CONTINUOUS
 62
   250
 10
6.89788
 20
1.60732
 30
0.0
 11
6.82044
 21
1.60732
 31
0.0
  0
LINE
  8
0
  6
CONTINUOUS
 62
   250
 10
6.82044
 20
1.60732
 30
0.0
 11
6.82044
 21
1.7138
 31
0.0
  0
LINE
  8
0
  6
CONTINUOUS
 62
   250
 10
6.82044
 20
1.7138
 30
0.0
 11
6.89788
 21
1.7138
 31
0.0
  0
LINE
  8
0
  6
CONTINUOUS
 62
   250
 10
6.88028
 20
1.70896
 30
0.0
 11
6.88028
 21
1.6896
 31
0.0
  0
LINE
  8
0
  6
CONTINUOUS
 62
   250
 10
7.557
 20
1.75076
 30
0.0
 11
7.557
 21
1.27116
 31
0.0
  0
LINE
  8
0
  6
CONTINUOUS
 62
   250
 10
6.4196
 20
1.26324
 30
0.0
 11
6.42092
 21
1.26324
 31
0.0
  0
LINE
  8
0
  6
CONTINUOUS
 62
   250
 10
6.42092
 20
1.26324
 30
0.0
 11
6.42224
 21
1.2628
 31
0.0
  0
LINE
  8
0
  6
CONTINUOUS
 62
   250
 10
6.42224
 20
1.2628
 30
0.0
 11
6.42356
 21
1.26236
 31
0.0
  0
LINE
  8
0
  6
CONTINUOUS
 62
   250
 10
6.42356
 20
1.26236
 30
0.0
 11
6.42444
 21
1.26148
 31
0.0
  0
LINE
  8
0
  6
CONTINUOUS
 62
   250
 10
6.42444
 20
1.26148
 30
0.0
 11
6.42532
 21
1.2606
 31
0.0
  0
LINE
  8
0
  6
CONTINUOUS
 62
   250
 10
6.42532
 20
1.2606
 30
0.0
 11
6.4262
 21
1.25928
 31
0.0
  0
LINE
  8
0
  6
CONTINUOUS
 62
   250
 10
6.4262
 20
1.25928
 30
0.0
 11
6.42664
 21
1.25796
 31
0.0
  0
LINE
  8
0
  6
CONTINUOUS
 62
   250
 10
6.42664
 20
1.25796
 30
0.0
 11
6.42708
 21
1.25664
 31
0.0
  0
LINE
  8
0
  6
CONTINUOUS
 62
   250
 10
6.42708
 20
1.25664
 30
0.0
 11
6.42708
 21
1.25576
 31
0.0
  0
LINE
  8
0
  6
CONTINUOUS
 62
   250
 10
6.4196
 20
1.26324
 30
0.0
 11
6.3734
 21
1.26324
 31
0.0
  0
LINE
  8
0
  6
CONTINUOUS
 62
   250
 10
6.42708
 20
1.25576
 30
0.0
 11
6.42708
 21
1.22188
 31
0.0
  0
LINE
  8
0
  6
CONTINUOUS
 62
   250
 10
6.4196
 20
1.82864
 30
0.0
 11
6.42092
 21
1.82864
 31
0.0
  0
LINE
  8
0
  6
CONTINUOUS
 62
   250
 10
6.42092
 20
1.82864
 30
0.0
 11
6.42224
 21
1.82908
 31
0.0
  0
LINE
  8
0
  6
CONTINUOUS
 62
   250
 10
6.42224
 20
1.82908
 30
0.0
 11
6.42356
 21
1.82952
 31
0.0
  0
LINE
  8
0
  6
CONTINUOUS
 62
   250
 10
6.42356
 20
1.82952
 30
0.0
 11
6.42444
 21
1.8304
 31
0.0
  0
LINE
  8
0
  6
CONTINUOUS
 62
   250
 10
6.42444
 20
1.8304
 30
0.0
 11
6.42532
 21
1.83128
 31
0.0
  0
LINE
  8
0
  6
CONTINUOUS
 62
   250
 10
6.42532
 20
1.83128
 30
0.0
 11
6.4262
 21
1.8326
 31
0.0
  0
LINE
  8
0
  6
CONTINUOUS
 62
   250
 10
6.4262
 20
1.8326
 30
0.0
 11
6.42664
 21
1.83348
 31
0.0
  0
LINE
  8
0
  6
CONTINUOUS
 62
   250
 10
6.42664
 20
1.83348
 30
0.0
 11
6.42708
 21
1.8348
 31
0.0
  0
LINE
  8
0
  6
CONTINUOUS
 62
   250
 10
6.42708
 20
1.8348
 30
0.0
 11
6.42708
 21
1.83612
 31
0.0
  0
LINE
  8
0
  6
CONTINUOUS
 62
   250
 10
6.4196
 20
1.82864
 30
0.0
 11
6.3734
 21
1.82864
 31
0.0
  0
LINE
  8
0
  6
CONTINUOUS
 62
   250
 10
6.42708
 20
1.83612
 30
0.0
 11
6.42708
 21
1.87
 31
0.0
  0
LINE
  8
0
  6
CONTINUOUS
 62
   250
 10
6.46888
 20
1.34772
 30
0.0
 11
6.46888
 21
1.34596
 31
0.0
  0
LINE
  8
0
  6
CONTINUOUS
 62
   250
 10
6.46888
 20
1.34596
 30
0.0
 11
6.46844
 21
1.34464
 31
0.0
  0
LINE
  8
0
  6
CONTINUOUS
 62
   250
 10
6.46844
 20
1.34464
 30
0.0
 11
6.46756
 21
1.34332
 31
0.0
  0
LINE
  8
0
  6
CONTINUOUS
 62
   250
 10
6.46756
 20
1.34332
 30
0.0
 11
6.46668
 21
1.34244
 31
0.0
  0
LINE
  8
0
  6
CONTINUOUS
 62
   250
 10
6.46668
 20
1.34244
 30
0.0
 11
6.4658
 21
1.34156
 31
0.0
  0
LINE
  8
0
  6
CONTINUOUS
 62
   250
 10
6.4658
 20
1.34156
 30
0.0
 11
6.46492
 21
1.34112
 31
0.0
  0
LINE
  8
0
  6
CONTINUOUS
 62
   250
 10
6.46492
 20
1.34112
 30
0.0
 11
6.4636
 21
1.34024
 31
0.0
  0
LINE
  8
0
  6
CONTINUOUS
 62
   250
 10
6.4636
 20
1.34024
 30
0.0
 11
6.46228
 21
1.34024
 31
0.0
  0
LINE
  8
0
  6
CONTINUOUS
 62
   250
 10
6.46228
 20
1.34024
 30
0.0
 11
6.4614
 21
1.3398
 31
0.0
  0
LINE
  8
0
  6
CONTINUOUS
 62
   250
 10
6.46888
 20
1.34772
 30
0.0
 11
6.46888
 21
1.36224
 31
0.0
  0
LINE
  8
0
  6
CONTINUOUS
 62
   250
 10
6.4614
 20
1.36972
 30
0.0
 11
6.46272
 21
1.36972
 31
0.0
  0
LINE
  8
0
  6
CONTINUOUS
 62
   250
 10
6.46272
 20
1.36972
 30
0.0
 11
6.46404
 21
1.36928
 31
0.0
  0
LINE
  8
0
  6
CONTINUOUS
 62
   250
 10
6.46404
 20
1.36928
 30
0.0
 11
6.46536
 21
1.36884
 31
0.0
  0
LINE
  8
0
  6
CONTINUOUS
 62
   250
 10
6.46536
 20
1.36884
 30
0.0
 11
6.46624
 21
1.36796
 31
0.0
  0
LINE
  8
0
  6
CONTINUOUS
 62
   250
 10
6.46624
 20
1.36796
 30
0.0
 11
6.46712
 21
1.36708
 31
0.0
  0
LINE
  8
0
  6
CONTINUOUS
 62
   250
 10
6.46712
 20
1.36708
 30
0.0
 11
6.468
 21
1.36576
 31
0.0
  0
LINE
  8
0
  6
CONTINUOUS
 62
   250
 10
6.468
 20
1.36576
 30
0.0
 11
6.46844
 21
1.36444
 31
0.0
  0
LINE
  8
0
  6
CONTINUOUS
 62
   250
 10
6.46844
 20
1.36444
 30
0.0
 11
6.46888
 21
1.36312
 31
0.0
  0
LINE
  8
0
  6
CONTINUOUS
 62
   250
 10
6.46888
 20
1.36312
 30
0.0
 11
6.46888
 21
1.36224
 31
0.0
  0
LINE
  8
0
  6
CONTINUOUS
 62
   250
 10
6.3734
 20
1.3398
 30
0.0
 11
6.4614
 21
1.3398
 31
0.0
  0
LINE
  8
0
  6
CONTINUOUS
 62
   250
 10
6.4614
 20
1.36972
 30
0.0
 11
6.3734
 21
1.36972
 31
0.0
  0
LINE
  8
0
  6
CONTINUOUS
 62
   250
 10
7.557
 20
1.87
 30
0.0
 11
6.42708
 21
1.87
 31
0.0
  0
LINE
  8
0
  6
CONTINUOUS
 62
   250
 10
7.557
 20
1.22188
 30
0.0
 11
6.42708
 21
1.22188
 31
0.0
  0
LINE
  8
0
  6
CONTINUOUS
 62
   250
 10
7.557
 20
1.22188
 30
0.0
 11
7.557
 21
1.26368
 31
0.0
  0
LINE
  8
0
  6
CONTINUOUS
 62
   250
 10
7.557
 20
1.24828
 30
0.0
 11
7.5636
 21
1.24828
 31
0.0
  0
LINE
  8
0
  6
CONTINUOUS
 62
   250
 10
7.557
 20
1.28656
 30
0.0
 11
7.5636
 21
1.28656
 31
0.0
  0
LINE
  8
0
  6
CONTINUOUS
 62
   250
 10
7.557
 20
1.87
 30
0.0
 11
7.557
 21
1.75868
 31
0.0
  0
LINE
  8
0
  6
CONTINUOUS
 62
   250
 10
7.557
 20
1.77364
 30
0.0
 11
7.5636
 21
1.77364
 31
0.0
  0
LINE
  8
0
  6
CONTINUOUS
 62
   250
 10
7.557
 20
1.7358
 30
0.0
 11
7.5636
 21
1.7358
 31
0.0
  0
LINE
  8
0
  6
CONTINUOUS
 62
   250
 10
6.82572
 20
1.4762
 30
0.0
 11
6.82396
 21
1.4762
 31
0.0
  0
LINE
  8
0
  6
CONTINUOUS
 62
   250
 10
6.82396
 20
1.4762
 30
0.0
 11
6.82264
 21
1.47664
 31
0.0
  0
LINE
  8
0
  6
CONTINUOUS
 62
   250
 10
6.82264
 20
1.47664
 30
0.0
 11
6.82176
 21
1.47752
 31
0.0
  0
LINE
  8
0
  6
CONTINUOUS
 62
   250
 10
6.82176
 20
1.47752
 30
0.0
 11
6.82044
 21
1.47796
 31
0.0
  0
LINE
  8
0
  6
CONTINUOUS
 62
   250
 10
6.82044
 20
1.47796
 30
0.0
 11
6.81956
 21
1.47928
 31
0.0
  0
LINE
  8
0
  6
CONTINUOUS
 62
   250
 10
6.81956
 20
1.47928
 30
0.0
 11
6.81912
 21
1.48016
 31
0.0
  0
LINE
  8
0
  6
CONTINUOUS
 62
   250
 10
6.81912
 20
1.48016
 30
0.0
 11
6.81824
 21
1.48148
 31
0.0
  0
LINE
  8
0
  6
CONTINUOUS
 62
   250
 10
6.81824
 20
1.48148
 30
0.0
 11
6.81824
 21
1.4828
 31
0.0
  0
LINE
  8
0
  6
CONTINUOUS
 62
   250
 10
6.81824
 20
1.4828
 30
0.0
 11
6.81824
 21
1.48368
 31
0.0
  0
LINE
  8
0
  6
CONTINUOUS
 62
   250
 10
6.81824
 20
1.48368
 30
0.0
 11
6.81824
 21
1.57652
 31
0.0
  0
LINE
  8
0
  6
CONTINUOUS
 62
   250
 10
6.82572
 20
1.584
 30
0.0
 11
6.8244
 21
1.584
 31
0.0
  0
LINE
  8
0
  6
CONTINUOUS
 62
   250
 10
6.8244
 20
1.584
 30
0.0
 11
6.82308
 21
1.58356
 31
0.0
  0
LINE
  8
0
  6
CONTINUOUS
 62
   250
 10
6.82308
 20
1.58356
 30
0.0
 11
6.82176
 21
1.58312
 31
0.0
  0
LINE
  8
0
  6
CONTINUOUS
 62
   250
 10
6.82176
 20
1.58312
 30
0.0
 11
6.82088
 21
1.58224
 31
0.0
  0
LINE
  8
0
  6
CONTINUOUS
 62
   250
 10
6.82088
 20
1.58224
 30
0.0
 11
6.82
 21
1.58136
 31
0.0
  0
LINE
  8
0
  6
CONTINUOUS
 62
   250
 10
6.82
 20
1.58136
 30
0.0
 11
6.81912
 21
1.58004
 31
0.0
  0
LINE
  8
0
  6
CONTINUOUS
 62
   250
 10
6.81912
 20
1.58004
 30
0.0
 11
6.81868
 21
1.57916
 31
0.0
  0
LINE
  8
0
  6
CONTINUOUS
 62
   250
 10
6.81868
 20
1.57916
 30
0.0
 11
6.81824
 21
1.57784
 31
0.0
  0
LINE
  8
0
  6
CONTINUOUS
 62
   250
 10
6.81824
 20
1.57784
 30
0.0
 11
6.81824
 21
1.57652
 31
0.0
  0
LINE
  8
0
  6
CONTINUOUS
 62
   250
 10
6.82572
 20
1.584
 30
0.0
 11
7.19972
 21
1.584
 31
0.0
  0
LINE
  8
0
  6
CONTINUOUS
 62
   250
 10
7.19972
 20
1.584
 30
0.0
 11
7.20104
 21
1.584
 31
0.0
  0
LINE
  8
0
  6
CONTINUOUS
 62
   250
 10
7.20104
 20
1.584
 30
0.0
 11
7.20236
 21
1.58356
 31
0.0
  0
LINE
  8
0
  6
CONTINUOUS
 62
   250
 10
7.20236
 20
1.58356
 30
0.0
 11
7.20368
 21
1.58312
 31
0.0
  0
LINE
  8
0
  6
CONTINUOUS
 62
   250
 10
7.20368
 20
1.58312
 30
0.0
 11
7.20456
 21
1.58224
 31
0.0
  0
LINE
  8
0
  6
CONTINUOUS
 62
   250
 10
7.20456
 20
1.58224
 30
0.0
 11
7.20588
 21
1.58136
 31
0.0
  0
LINE
  8
0
  6
CONTINUOUS
 62
   250
 10
7.20588
 20
1.58136
 30
0.0
 11
7.20632
 21
1.58004
 31
0.0
  0
LINE
  8
0
  6
CONTINUOUS
 62
   250
 10
7.20632
 20
1.58004
 30
0.0
 11
7.20676
 21
1.57872
 31
0.0
  0
LINE
  8
0
  6
CONTINUOUS
 62
   250
 10
7.20676
 20
1.57872
 30
0.0
 11
7.2072
 21
1.5774
 31
0.0
  0
LINE
  8
0
  6
CONTINUOUS
 62
   250
 10
7.2072
 20
1.5774
 30
0.0
 11
7.2072
 21
1.57652
 31
0.0
  0
LINE
  8
0
  6
CONTINUOUS
 62
   250
 10
7.2072
 20
1.57652
 30
0.0
 11
7.2072
 21
1.48368
 31
0.0
  0
LINE
  8
0
  6
CONTINUOUS
 62
   250
 10
7.2072
 20
1.48368
 30
0.0
 11
7.2072
 21
1.48236
 31
0.0
  0
LINE
  8
0
  6
CONTINUOUS
 62
   250
 10
7.2072
 20
1.48236
 30
0.0
 11
7.20676
 21
1.48104
 31
0.0
  0
LINE
  8
0
  6
CONTINUOUS
 62
   250
 10
7.20676
 20
1.48104
 30
0.0
 11
7.20588
 21
1.47972
 31
0.0
  0
LINE
  8
0
  6
CONTINUOUS
 62
   250
 10
7.20588
 20
1.47972
 30
0.0
 11
7.20544
 21
1.47884
 31
0.0
  0
LINE
  8
0
  6
CONTINUOUS
 62
   250
 10
7.20544
 20
1.47884
 30
0.0
 11
7.20456
 21
1.47796
 31
0.0
  0
LINE
  8
0
  6
CONTINUOUS
 62
   250
 10
7.20456
 20
1.47796
 30
0.0
 11
7.20324
 21
1.47708
 31
0.0
  0
LINE
  8
0
  6
CONTINUOUS
 62
   250
 10
7.20324
 20
1.47708
 30
0.0
 11
7.20192
 21
1.47664
 31
0.0
  0
LINE
  8
0
  6
CONTINUOUS
 62
   250
 10
7.20192
 20
1.47664
 30
0.0
 11
7.2006
 21
1.4762
 31
0.0
  0
LINE
  8
0
  6
CONTINUOUS
 62
   250
 10
7.2006
 20
1.4762
 30
0.0
 11
7.19972
 21
1.4762
 31
0.0
  0
LINE
  8
0
  6
CONTINUOUS
 62
   250
 10
7.19972
 20
1.4762
 30
0.0
 11
6.82572
 21
1.4762
 31
0.0
  0
LINE
  8
0
  6
CONTINUOUS
 62
   250
 10
6.85476
 20
1.47224
 30
0.0
 11
6.85476
 21
1.45904
 31
0.0
  0
LINE
  8
0
  6
CONTINUOUS
 62
   250
 10
6.85476
 20
1.45904
 30
0.0
 11
6.8596
 21
1.45904
 31
0.0
  0
LINE
  8
0
  6
CONTINUOUS
 62
   250
 10
6.86356
 20
1.46124
 30
0.0
 11
6.86312
 21
1.4608
 31
0.0
  0
LINE
  8
0
  6
CONTINUOUS
 62
   250
 10
6.86312
 20
1.4608
 30
0.0
 11
6.86224
 21
1.45992
 31
0.0
  0
LINE
  8
0
  6
CONTINUOUS
 62
   250
 10
6.86224
 20
1.45992
 30
0.0
 11
6.86048
 21
1.45904
 31
0.0
  0
LINE
  8
0
  6
CONTINUOUS
 62
   250
 10
6.86048
 20
1.45904
 30
0.0
 11
6.8596
 21
1.45904
 31
0.0
  0
LINE
  8
0
  6
CONTINUOUS
 62
   250
 10
6.86488
 20
1.46564
 30
0.0
 11
6.86488
 21
1.46432
 31
0.0
  0
LINE
  8
0
  6
CONTINUOUS
 62
   250
 10
6.86488
 20
1.46432
 30
0.0
 11
6.86444
 21
1.463
 31
0.0
  0
LINE
  8
0
  6
CONTINUOUS
 62
   250
 10
6.86444
 20
1.463
 30
0.0
 11
6.864
 21
1.46168
 31
0.0
  0
LINE
  8
0
  6
CONTINUOUS
 62
   250
 10
6.864
 20
1.46168
 30
0.0
 11
6.86356
 21
1.46124
 31
0.0
  0
LINE
  8
0
  6
CONTINUOUS
 62
   250
 10
6.86356
 20
1.4696
 30
0.0
 11
6.864
 21
1.46872
 31
0.0
  0
LINE
  8
0
  6
CONTINUOUS
 62
   250
 10
6.864
 20
1.46872
 30
0.0
 11
6.86488
 21
1.4674
 31
0.0
  0
LINE
  8
0
  6
CONTINUOUS
 62
   250
 10
6.86488
 20
1.4674
 30
0.0
 11
6.86532
 21
1.46608
 31
0.0
  0
LINE
  8
0
  6
CONTINUOUS
 62
   250
 10
6.86532
 20
1.46608
 30
0.0
 11
6.86488
 21
1.46564
 31
0.0
  0
LINE
  8
0
  6
CONTINUOUS
 62
   250
 10
6.8596
 20
1.47224
 30
0.0
 11
6.85476
 21
1.47224
 31
0.0
  0
LINE
  8
0
  6
CONTINUOUS
 62
   250
 10
6.8596
 20
1.47224
 30
0.0
 11
6.8618
 21
1.4718
 31
0.0
  0
LINE
  8
0
  6
CONTINUOUS
 62
   250
 10
6.8618
 20
1.4718
 30
0.0
 11
6.86268
 21
1.47092
 31
0.0
  0
LINE
  8
0
  6
CONTINUOUS
 62
   250
 10
6.86268
 20
1.47092
 30
0.0
 11
6.86312
 21
1.47004
 31
0.0
  0
LINE
  8
0
  6
CONTINUOUS
 62
   250
 10
6.86312
 20
1.47004
 30
0.0
 11
6.86356
 21
1.4696
 31
0.0
  0
LINE
  8
0
  6
CONTINUOUS
 62
   250
 10
6.86796
 20
1.47224
 30
0.0
 11
6.86796
 21
1.45904
 31
0.0
  0
LINE
  8
0
  6
CONTINUOUS
 62
   250
 10
6.87104
 20
1.46872
 30
0.0
 11
6.87236
 21
1.47048
 31
0.0
  0
LINE
  8
0
  6
CONTINUOUS
 62
   250
 10
6.87236
 20
1.47048
 30
0.0
 11
6.87236
 21
1.45904
 31
0.0
  0
LINE
  8
0
  6
CONTINUOUS
 62
   250
 10
6.89348
 20
1.47224
 30
0.0
 11
6.89348
 21
1.45904
 31
0.0
  0
LINE
  8
0
  6
CONTINUOUS
 62
   250
 10
6.89348
 20
1.45904
 30
0.0
 11
6.89832
 21
1.45904
 31
0.0
  0
LINE
  8
0
  6
CONTINUOUS
 62
   250
 10
6.90228
 20
1.46124
 30
0.0
 11
6.90184
 21
1.4608
 31
0.0
  0
LINE
  8
0
  6
CONTINUOUS
 62
   250
 10
6.90184
 20
1.4608
 30
0.0
 11
6.90096
 21
1.45992
 31
0.0
  0
LINE
  8
0
  6
CONTINUOUS
 62
   250
 10
6.90096
 20
1.45992
 30
0.0
 11
6.8992
 21
1.45904
 31
0.0
  0
LINE
  8
0
  6
CONTINUOUS
 62
   250
 10
6.8992
 20
1.45904
 30
0.0
 11
6.89832
 21
1.45904
 31
0.0
  0
LINE
  8
0
  6
CONTINUOUS
 62
   250
 10
6.9036
 20
1.46564
 30
0.0
 11
6.9036
 21
1.46432
 31
0.0
  0
LINE
  8
0
  6
CONTINUOUS
 62
   250
 10
6.9036
 20
1.46432
 30
0.0
 11
6.90316
 21
1.463
 31
0.0
  0
LINE
  8
0
  6
CONTINUOUS
 62
   250
 10
6.90316
 20
1.463
 30
0.0
 11
6.90228
 21
1.46168
 31
0.0
  0
LINE
  8
0
  6
CONTINUOUS
 62
   250
 10
6.90228
 20
1.46168
 30
0.0
 11
6.90228
 21
1.46124
 31
0.0
  0
LINE
  8
0
  6
CONTINUOUS
 62
   250
 10
6.90228
 20
1.4696
 30
0.0
 11
6.90272
 21
1.46872
 31
0.0
  0
LINE
  8
0
  6
CONTINUOUS
 62
   250
 10
6.90272
 20
1.46872
 30
0.0
 11
6.9036
 21
1.4674
 31
0.0
  0
LINE
  8
0
  6
CONTINUOUS
 62
   250
 10
6.9036
 20
1.4674
 30
0.0
 11
6.9036
 21
1.46608
 31
0.0
  0
LINE
  8
0
  6
CONTINUOUS
 62
   250
 10
6.9036
 20
1.46608
 30
0.0
 11
6.9036
 21
1.46564
 31
0.0
  0
LINE
  8
0
  6
CONTINUOUS
 62
   250
 10
6.89832
 20
1.47224
 30
0.0
 11
6.89348
 21
1.47224
 31
0.0
  0
LINE
  8
0
  6
CONTINUOUS
 62
   250
 10
6.89832
 20
1.47224
 30
0.0
 11
6.90052
 21
1.4718
 31
0.0
  0
LINE
  8
0
  6
CONTINUOUS
 62
   250
 10
6.90052
 20
1.4718
 30
0.0
 11
6.9014
 21
1.47092
 31
0.0
  0
LINE
  8
0
  6
CONTINUOUS
 62
   250
 10
6.9014
 20
1.47092
 30
0.0
 11
6.90184
 21
1.47004
 31
0.0
  0
LINE
  8
0
  6
CONTINUOUS
 62
   250
 10
6.90184
 20
1.47004
 30
0.0
 11
6.90228
 21
1.4696
 31
0.0
  0
LINE
  8
0
  6
CONTINUOUS
 62
   250
 10
6.90668
 20
1.47224
 30
0.0
 11
6.90668
 21
1.45904
 31
0.0
  0
LINE
  8
0
  6
CONTINUOUS
 62
   250
 10
6.90976
 20
1.46872
 30
0.0
 11
6.91064
 21
1.4696
 31
0.0
  0
LINE
  8
0
  6
CONTINUOUS
 62
   250
 10
6.91064
 20
1.4696
 30
0.0
 11
6.91108
 21
1.47048
 31
0.0
  0
LINE
  8
0
  6
CONTINUOUS
 62
   250
 10
6.91108
 20
1.47048
 30
0.0
 11
6.91196
 21
1.47092
 31
0.0
  0
LINE
  8
0
  6
CONTINUOUS
 62
   250
 10
6.91196
 20
1.47092
 30
0.0
 11
6.91284
 21
1.47092
 31
0.0
  0
LINE
  8
0
  6
CONTINUOUS
 62
   250
 10
6.91284
 20
1.47092
 30
0.0
 11
6.91416
 21
1.47092
 31
0.0
  0
LINE
  8
0
  6
CONTINUOUS
 62
   250
 10
6.91416
 20
1.47092
 30
0.0
 11
6.91504
 21
1.47048
 31
0.0
  0
LINE
  8
0
  6
CONTINUOUS
 62
   250
 10
6.91504
 20
1.47048
 30
0.0
 11
6.91592
 21
1.47004
 31
0.0
  0
LINE
  8
0
  6
CONTINUOUS
 62
   250
 10
6.91592
 20
1.47004
 30
0.0
 11
6.91636
 21
1.46916
 31
0.0
  0
LINE
  8
0
  6
CONTINUOUS
 62
   250
 10
6.91636
 20
1.46916
 30
0.0
 11
6.91636
 21
1.46872
 31
0.0
  0
LINE
  8
0
  6
CONTINUOUS
 62
   250
 10
6.91636
 20
1.46872
 30
0.0
 11
6.91724
 21
1.46784
 31
0.0
  0
LINE
  8
0
  6
CONTINUOUS
 62
   250
 10
6.91724
 20
1.46784
 30
0.0
 11
6.91724
 21
1.46696
 31
0.0
  0
LINE
  8
0
  6
CONTINUOUS
 62
   250
 10
6.91724
 20
1.46696
 30
0.0
 11
6.9168
 21
1.46564
 31
0.0
  0
LINE
  8
0
  6
CONTINUOUS
 62
   250
 10
6.9168
 20
1.46564
 30
0.0
 11
6.91636
 21
1.46564
 31
0.0
  0
LINE
  8
0
  6
CONTINUOUS
 62
   250
 10
6.91636
 20
1.46564
 30
0.0
 11
6.91504
 21
1.46344
 31
0.0
  0
LINE
  8
0
  6
CONTINUOUS
 62
   250
 10
6.91504
 20
1.46344
 30
0.0
 11
6.91328
 21
1.46168
 31
0.0
  0
LINE
  8
0
  6
CONTINUOUS
 62
   250
 10
6.91328
 20
1.46168
 30
0.0
 11
6.91152
 21
1.45992
 31
0.0
  0
LINE
  8
0
  6
CONTINUOUS
 62
   250
 10
6.91152
 20
1.45992
 30
0.0
 11
6.90976
 21
1.45904
 31
0.0
  0
LINE
  8
0
  6
CONTINUOUS
 62
   250
 10
6.90976
 20
1.45904
 30
0.0
 11
6.91724
 21
1.45904
 31
0.0
  0
LINE
  8
0
  6
CONTINUOUS
 62
   250
 10
6.8002
 20
1.46828
 30
0.0
 11
6.80064
 21
1.4696
 31
0.0
  0
LINE
  8
0
  6
CONTINUOUS
 62
   250
 10
6.80064
 20
1.4696
 30
0.0
 11
6.80152
 21
1.47004
 31
0.0
  0
LINE
  8
0
  6
CONTINUOUS
 62
   250
 10
6.80152
 20
1.47004
 30
0.0
 11
6.8024
 21
1.47048
 31
0.0
  0
LINE
  8
0
  6
CONTINUOUS
 62
   250
 10
6.8024
 20
1.47048
 30
0.0
 11
6.80328
 21
1.47048
 31
0.0
  0
LINE
  8
0
  6
CONTINUOUS
 62
   250
 10
6.80328
 20
1.47048
 30
0.0
 11
6.8046
 21
1.47048
 31
0.0
  0
LINE
  8
0
  6
CONTINUOUS
 62
   250
 10
6.8046
 20
1.47048
 30
0.0
 11
6.80548
 21
1.47004
 31
0.0
  0
LINE
  8
0
  6
CONTINUOUS
 62
   250
 10
6.80548
 20
1.47004
 30
0.0
 11
6.80636
 21
1.4696
 31
0.0
  0
LINE
  8
0
  6
CONTINUOUS
 62
   250
 10
6.80636
 20
1.4696
 30
0.0
 11
6.8068
 21
1.46872
 31
0.0
  0
LINE
  8
0
  6
CONTINUOUS
 62
   250
 10
6.8068
 20
1.46872
 30
0.0
 11
6.8068
 21
1.46828
 31
0.0
  0
LINE
  8
0
  6
CONTINUOUS
 62
   250
 10
6.8068
 20
1.46828
 30
0.0
 11
6.80724
 21
1.4674
 31
0.0
  0
LINE
  8
0
  6
CONTINUOUS
 62
   250
 10
6.80724
 20
1.4674
 30
0.0
 11
6.80724
 21
1.46652
 31
0.0
  0
LINE
  8
0
  6
CONTINUOUS
 62
   250
 10
6.80724
 20
1.46652
 30
0.0
 11
6.80724
 21
1.4652
 31
0.0
  0
LINE
  8
0
  6
CONTINUOUS
 62
   250
 10
6.80724
 20
1.4652
 30
0.0
 11
6.8068
 21
1.4652
 31
0.0
  0
LINE
  8
0
  6
CONTINUOUS
 62
   250
 10
6.8068
 20
1.4652
 30
0.0
 11
6.80504
 21
1.46256
 31
0.0
  0
LINE
  8
0
  6
CONTINUOUS
 62
   250
 10
6.80504
 20
1.46256
 30
0.0
 11
6.80372
 21
1.46124
 31
0.0
  0
LINE
  8
0
  6
CONTINUOUS
 62
   250
 10
6.80372
 20
1.46124
 30
0.0
 11
6.80196
 21
1.45948
 31
0.0
  0
LINE
  8
0
  6
CONTINUOUS
 62
   250
 10
6.80196
 20
1.45948
 30
0.0
 11
6.8002
 21
1.45816
 31
0.0
  0
LINE
  8
0
  6
CONTINUOUS
 62
   250
 10
6.8002
 20
1.45816
 30
0.0
 11
6.80768
 21
1.45816
 31
0.0
  0
LINE
  8
0
  6
CONTINUOUS
 62
   250
 10
6.81736
 20
1.45816
 30
0.0
 11
6.81736
 21
1.47048
 31
0.0
  0
LINE
  8
0
  6
CONTINUOUS
 62
   250
 10
6.81736
 20
1.47048
 30
0.0
 11
6.81076
 21
1.46256
 31
0.0
  0
LINE
  8
0
  6
CONTINUOUS
 62
   250
 10
6.81076
 20
1.46256
 30
0.0
 11
6.81912
 21
1.46256
 31
0.0
  0
LINE
  8
0
  6
CONTINUOUS
 62
   250
 10
6.7848
 20
1.46476
 30
0.0
 11
6.7958
 21
1.46476
 31
0.0
  0
LINE
  8
0
  6
CONTINUOUS
 62
   250
 10
6.79008
 20
1.4696
 30
0.0
 11
6.79008
 21
1.45948
 31
0.0
  0
LINE
  8
0
  6
CONTINUOUS
 62
   250
 10
6.82704
 20
1.46476
 30
0.0
 11
6.83848
 21
1.46476
 31
0.0
  0
LINE
  8
0
  6
CONTINUOUS
 62
   250
 10
6.9432
 20
1.4718
 30
0.0
 11
6.9432
 21
1.45816
 31
0.0
  0
LINE
  8
0
  6
CONTINUOUS
 62
   250
 10
6.9432
 20
1.45816
 30
0.0
 11
6.94804
 21
1.45816
 31
0.0
  0
LINE
  8
0
  6
CONTINUOUS
 62
   250
 10
6.952
 20
1.4608
 30
0.0
 11
6.95156
 21
1.46036
 31
0.0
  0
LINE
  8
0
  6
CONTINUOUS
 62
   250
 10
6.95156
 20
1.46036
 30
0.0
 11
6.95024
 21
1.45948
 31
0.0
  0
LINE
  8
0
  6
CONTINUOUS
 62
   250
 10
6.95024
 20
1.45948
 30
0.0
 11
6.94892
 21
1.4586
 31
0.0
  0
LINE
  8
0
  6
CONTINUOUS
 62
   250
 10
6.94892
 20
1.4586
 30
0.0
 11
6.94804
 21
1.45816
 31
0.0
  0
LINE
  8
0
  6
CONTINUOUS
 62
   250
 10
6.95332
 20
1.4652
 30
0.0
 11
6.95332
 21
1.46388
 31
0.0
  0
LINE
  8
0
  6
CONTINUOUS
 62
   250
 10
6.95332
 20
1.46388
 30
0.0
 11
6.95288
 21
1.46256
 31
0.0
  0
LINE
  8
0
  6
CONTINUOUS
 62
   250
 10
6.95288
 20
1.46256
 30
0.0
 11
6.952
 21
1.46124
 31
0.0
  0
LINE
  8
0
  6
CONTINUOUS
 62
   250
 10
6.952
 20
1.46124
 30
0.0
 11
6.952
 21
1.4608
 31
0.0
  0
LINE
  8
0
  6
CONTINUOUS
 62
   250
 10
6.952
 20
1.46916
 30
0.0
 11
6.95244
 21
1.46828
 31
0.0
  0
LINE
  8
0
  6
CONTINUOUS
 62
   250
 10
6.95244
 20
1.46828
 30
0.0
 11
6.95332
 21
1.46696
 31
0.0
  0
LINE
  8
0
  6
CONTINUOUS
 62
   250
 10
6.95332
 20
1.46696
 30
0.0
 11
6.95332
 21
1.46564
 31
0.0
  0
LINE
  8
0
  6
CONTINUOUS
 62
   250
 10
6.95332
 20
1.46564
 30
0.0
 11
6.95332
 21
1.4652
 31
0.0
  0
LINE
  8
0
  6
CONTINUOUS
 62
   250
 10
6.94804
 20
1.4718
 30
0.0
 11
6.9432
 21
1.4718
 31
0.0
  0
LINE
  8
0
  6
CONTINUOUS
 62
   250
 10
6.94804
 20
1.4718
 30
0.0
 11
6.9498
 21
1.47136
 31
0.0
  0
LINE
  8
0
  6
CONTINUOUS
 62
   250
 10
6.9498
 20
1.47136
 30
0.0
 11
6.95068
 21
1.47048
 31
0.0
  0
LINE
  8
0
  6
CONTINUOUS
 62
   250
 10
6.95068
 20
1.47048
 30
0.0
 11
6.95156
 21
1.4696
 31
0.0
  0
LINE
  8
0
  6
CONTINUOUS
 62
   250
 10
6.95156
 20
1.4696
 30
0.0
 11
6.952
 21
1.46916
 31
0.0
  0
LINE
  8
0
  6
CONTINUOUS
 62
   250
 10
6.9564
 20
1.4718
 30
0.0
 11
6.9564
 21
1.45816
 31
0.0
  0
LINE
  8
0
  6
CONTINUOUS
 62
   250
 10
6.95948
 20
1.47048
 30
0.0
 11
6.96784
 21
1.47048
 31
0.0
  0
LINE
  8
0
  6
CONTINUOUS
 62
   250
 10
6.96784
 20
1.47048
 30
0.0
 11
6.96388
 21
1.46652
 31
0.0
  0
LINE
  8
0
  6
CONTINUOUS
 62
   250
 10
6.96388
 20
1.46652
 30
0.0
 11
6.9652
 21
1.46608
 31
0.0
  0
LINE
  8
0
  6
CONTINUOUS
 62
   250
 10
6.9652
 20
1.46608
 30
0.0
 11
6.96608
 21
1.46564
 31
0.0
  0
LINE
  8
0
  6
CONTINUOUS
 62
   250
 10
6.96608
 20
1.46564
 30
0.0
 11
6.96696
 21
1.4652
 31
0.0
  0
LINE
  8
0
  6
CONTINUOUS
 62
   250
 10
6.96696
 20
1.4652
 30
0.0
 11
6.9674
 21
1.46432
 31
0.0
  0
LINE
  8
0
  6
CONTINUOUS
 62
   250
 10
6.9674
 20
1.46432
 30
0.0
 11
6.96784
 21
1.46344
 31
0.0
  0
LINE
  8
0
  6
CONTINUOUS
 62
   250
 10
6.96784
 20
1.46344
 30
0.0
 11
6.96784
 21
1.46256
 31
0.0
  0
LINE
  8
0
  6
CONTINUOUS
 62
   250
 10
6.96784
 20
1.46256
 30
0.0
 11
6.96784
 21
1.46168
 31
0.0
  0
LINE
  8
0
  6
CONTINUOUS
 62
   250
 10
6.96784
 20
1.46168
 30
0.0
 11
6.9674
 21
1.4608
 31
0.0
  0
LINE
  8
0
  6
CONTINUOUS
 62
   250
 10
6.9674
 20
1.4608
 30
0.0
 11
6.96696
 21
1.45992
 31
0.0
  0
LINE
  8
0
  6
CONTINUOUS
 62
   250
 10
6.96696
 20
1.45992
 30
0.0
 11
6.96608
 21
1.45948
 31
0.0
  0
LINE
  8
0
  6
CONTINUOUS
 62
   250
 10
6.96608
 20
1.45948
 30
0.0
 11
6.9652
 21
1.4586
 31
0.0
  0
LINE
  8
0
  6
CONTINUOUS
 62
   250
 10
6.9652
 20
1.4586
 30
0.0
 11
6.96388
 21
1.4586
 31
0.0
  0
LINE
  8
0
  6
CONTINUOUS
 62
   250
 10
6.96388
 20
1.4586
 30
0.0
 11
6.963
 21
1.45816
 31
0.0
  0
LINE
  8
0
  6
CONTINUOUS
 62
   250
 10
6.963
 20
1.45816
 30
0.0
 11
6.96168
 21
1.4586
 31
0.0
  0
LINE
  8
0
  6
CONTINUOUS
 62
   250
 10
6.96168
 20
1.4586
 30
0.0
 11
6.9608
 21
1.4586
 31
0.0
  0
LINE
  8
0
  6
CONTINUOUS
 62
   250
 10
6.9608
 20
1.4586
 30
0.0
 11
6.95992
 21
1.45948
 31
0.0
  0
LINE
  8
0
  6
CONTINUOUS
 62
   250
 10
6.95992
 20
1.45948
 30
0.0
 11
6.95948
 21
1.45948
 31
0.0
  0
LINE
  8
0
  6
CONTINUOUS
 62
   250
 10
7.02196
 20
1.47224
 30
0.0
 11
7.0334
 21
1.47224
 31
0.0
  0
LINE
  8
0
  6
CONTINUOUS
 62
   250
 10
7.02768
 20
1.47224
 30
0.0
 11
7.02768
 21
1.45904
 31
0.0
  0
LINE
  8
0
  6
CONTINUOUS
 62
   250
 10
7.03648
 20
1.46872
 30
0.0
 11
7.0378
 21
1.47048
 31
0.0
  0
LINE
  8
0
  6
CONTINUOUS
 62
   250
 10
7.0378
 20
1.47048
 30
0.0
 11
7.0378
 21
1.45904
 31
0.0
  0
LINE
  8
0
  6
CONTINUOUS
 62
   250
 10
7.06068
 20
1.47224
 30
0.0
 11
7.07212
 21
1.47224
 31
0.0
  0
LINE
  8
0
  6
CONTINUOUS
 62
   250
 10
7.0664
 20
1.47224
 30
0.0
 11
7.0664
 21
1.45904
 31
0.0
  0
LINE
  8
0
  6
CONTINUOUS
 62
   250
 10
7.07476
 20
1.46872
 30
0.0
 11
7.07652
 21
1.47048
 31
0.0
  0
LINE
  8
0
  6
CONTINUOUS
 62
   250
 10
7.07652
 20
1.47048
 30
0.0
 11
7.07652
 21
1.45904
 31
0.0
  0
LINE
  8
0
  6
CONTINUOUS
 62
   250
 10
7.14912
 20
1.4718
 30
0.0
 11
7.16056
 21
1.4718
 31
0.0
  0
LINE
  8
0
  6
CONTINUOUS
 62
   250
 10
7.15484
 20
1.4718
 30
0.0
 11
7.15484
 21
1.45816
 31
0.0
  0
LINE
  8
0
  6
CONTINUOUS
 62
   250
 10
7.1632
 20
1.46828
 30
0.0
 11
7.16408
 21
1.4696
 31
0.0
  0
LINE
  8
0
  6
CONTINUOUS
 62
   250
 10
7.16408
 20
1.4696
 30
0.0
 11
7.16452
 21
1.47004
 31
0.0
  0
LINE
  8
0
  6
CONTINUOUS
 62
   250
 10
7.16452
 20
1.47004
 30
0.0
 11
7.16584
 21
1.47048
 31
0.0
  0
LINE
  8
0
  6
CONTINUOUS
 62
   250
 10
7.16584
 20
1.47048
 30
0.0
 11
7.16672
 21
1.47048
 31
0.0
  0
LINE
  8
0
  6
CONTINUOUS
 62
   250
 10
7.16672
 20
1.47048
 30
0.0
 11
7.1676
 21
1.47048
 31
0.0
  0
LINE
  8
0
  6
CONTINUOUS
 62
   250
 10
7.1676
 20
1.47048
 30
0.0
 11
7.16848
 21
1.47004
 31
0.0
  0
LINE
  8
0
  6
CONTINUOUS
 62
   250
 10
7.16848
 20
1.47004
 30
0.0
 11
7.16936
 21
1.4696
 31
0.0
  0
LINE
  8
0
  6
CONTINUOUS
 62
   250
 10
7.16936
 20
1.4696
 30
0.0
 11
7.17024
 21
1.46872
 31
0.0
  0
LINE
  8
0
  6
CONTINUOUS
 62
   250
 10
7.17024
 20
1.46872
 30
0.0
 11
7.17024
 21
1.46828
 31
0.0
  0
LINE
  8
0
  6
CONTINUOUS
 62
   250
 10
7.17024
 20
1.46828
 30
0.0
 11
7.17068
 21
1.4674
 31
0.0
  0
LINE
  8
0
  6
CONTINUOUS
 62
   250
 10
7.17068
 20
1.4674
 30
0.0
 11
7.17068
 21
1.46652
 31
0.0
  0
LINE
  8
0
  6
CONTINUOUS
 62
   250
 10
7.17068
 20
1.46652
 30
0.0
 11
7.17024
 21
1.4652
 31
0.0
  0
LINE
  8
0
  6
CONTINUOUS
 62
   250
 10
7.17024
 20
1.4652
 30
0.0
 11
7.16848
 21
1.46256
 31
0.0
  0
LINE
  8
0
  6
CONTINUOUS
 62
   250
 10
7.16848
 20
1.46256
 30
0.0
 11
7.16672
 21
1.46124
 31
0.0
  0
LINE
  8
0
  6
CONTINUOUS
 62
   250
 10
7.16672
 20
1.46124
 30
0.0
 11
7.1654
 21
1.45948
 31
0.0
  0
LINE
  8
0
  6
CONTINUOUS
 62
   250
 10
7.1654
 20
1.45948
 30
0.0
 11
7.1632
 21
1.45816
 31
0.0
  0
LINE
  8
0
  6
CONTINUOUS
 62
   250
 10
7.1632
 20
1.45816
 30
0.0
 11
7.17112
 21
1.45816
 31
0.0
  0
LINE
  8
0
  6
CONTINUOUS
 62
   250
 10
7.22788
 20
1.47224
 30
0.0
 11
7.23932
 21
1.47224
 31
0.0
  0
LINE
  8
0
  6
CONTINUOUS
 62
   250
 10
7.2336
 20
1.47224
 30
0.0
 11
7.2336
 21
1.45904
 31
0.0
  0
LINE
  8
0
  6
CONTINUOUS
 62
   250
 10
7.24196
 20
1.47092
 30
0.0
 11
7.25032
 21
1.47092
 31
0.0
  0
LINE
  8
0
  6
CONTINUOUS
 62
   250
 10
7.25032
 20
1.47092
 30
0.0
 11
7.2468
 21
1.46696
 31
0.0
  0
LINE
  8
0
  6
CONTINUOUS
 62
   250
 10
7.2468
 20
1.46696
 30
0.0
 11
7.24768
 21
1.46652
 31
0.0
  0
LINE
  8
0
  6
CONTINUOUS
 62
   250
 10
7.24768
 20
1.46652
 30
0.0
 11
7.24856
 21
1.46608
 31
0.0
  0
LINE
  8
0
  6
CONTINUOUS
 62
   250
 10
7.24856
 20
1.46608
 30
0.0
 11
7.24944
 21
1.46564
 31
0.0
  0
LINE
  8
0
  6
CONTINUOUS
 62
   250
 10
7.24944
 20
1.46564
 30
0.0
 11
7.25032
 21
1.46476
 31
0.0
  0
LINE
  8
0
  6
CONTINUOUS
 62
   250
 10
7.25032
 20
1.46476
 30
0.0
 11
7.25032
 21
1.46388
 31
0.0
  0
LINE
  8
0
  6
CONTINUOUS
 62
   250
 10
7.25032
 20
1.46388
 30
0.0
 11
7.25076
 21
1.463
 31
0.0
  0
LINE
  8
0
  6
CONTINUOUS
 62
   250
 10
7.25076
 20
1.463
 30
0.0
 11
7.25032
 21
1.46212
 31
0.0
  0
LINE
  8
0
  6
CONTINUOUS
 62
   250
 10
7.25032
 20
1.46212
 30
0.0
 11
7.24988
 21
1.46124
 31
0.0
  0
LINE
  8
0
  6
CONTINUOUS
 62
   250
 10
7.24988
 20
1.46124
 30
0.0
 11
7.24944
 21
1.46036
 31
0.0
  0
LINE
  8
0
  6
CONTINUOUS
 62
   250
 10
7.24944
 20
1.46036
 30
0.0
 11
7.249
 21
1.45992
 31
0.0
  0
LINE
  8
0
  6
CONTINUOUS
 62
   250
 10
7.249
 20
1.45992
 30
0.0
 11
7.24768
 21
1.45904
 31
0.0
  0
LINE
  8
0
  6
CONTINUOUS
 62
   250
 10
7.24768
 20
1.45904
 30
0.0
 11
7.2468
 21
1.45904
 31
0.0
  0
LINE
  8
0
  6
CONTINUOUS
 62
   250
 10
7.2468
 20
1.45904
 30
0.0
 11
7.24548
 21
1.4586
 31
0.0
  0
LINE
  8
0
  6
CONTINUOUS
 62
   250
 10
7.24548
 20
1.4586
 30
0.0
 11
7.2446
 21
1.45904
 31
0.0
  0
LINE
  8
0
  6
CONTINUOUS
 62
   250
 10
7.2446
 20
1.45904
 30
0.0
 11
7.24372
 21
1.45904
 31
0.0
  0
LINE
  8
0
  6
CONTINUOUS
 62
   250
 10
7.24372
 20
1.45904
 30
0.0
 11
7.2424
 21
1.45992
 31
0.0
  0
LINE
  8
0
  6
CONTINUOUS
 62
   250
 10
7.2424
 20
1.45992
 30
0.0
 11
7.24196
 21
1.45992
 31
0.0
  0
LINE
  8
0
  6
CONTINUOUS
 62
   250
 10
7.18608
 20
1.47224
 30
0.0
 11
7.19752
 21
1.47224
 31
0.0
  0
LINE
  8
0
  6
CONTINUOUS
 62
   250
 10
7.1918
 20
1.47224
 30
0.0
 11
7.1918
 21
1.45904
 31
0.0
  0
LINE
  8
0
  6
CONTINUOUS
 62
   250
 10
7.20016
 20
1.47092
 30
0.0
 11
7.20852
 21
1.47092
 31
0.0
  0
LINE
  8
0
  6
CONTINUOUS
 62
   250
 10
7.20852
 20
1.47092
 30
0.0
 11
7.205
 21
1.46696
 31
0.0
  0
LINE
  8
0
  6
CONTINUOUS
 62
   250
 10
7.205
 20
1.46696
 30
0.0
 11
7.20588
 21
1.46652
 31
0.0
  0
LINE
  8
0
  6
CONTINUOUS
 62
   250
 10
7.20588
 20
1.46652
 30
0.0
 11
7.2072
 21
1.46608
 31
0.0
  0
LINE
  8
0
  6
CONTINUOUS
 62
   250
 10
7.2072
 20
1.46608
 30
0.0
 11
7.20764
 21
1.46564
 31
0.0
  0
LINE
  8
0
  6
CONTINUOUS
 62
   250
 10
7.20764
 20
1.46564
 30
0.0
 11
7.20808
 21
1.46476
 31
0.0
  0
LINE
  8
0
  6
CONTINUOUS
 62
   250
 10
7.20808
 20
1.46476
 30
0.0
 11
7.20852
 21
1.46388
 31
0.0
  0
LINE
  8
0
  6
CONTINUOUS
 62
   250
 10
7.20852
 20
1.46388
 30
0.0
 11
7.20896
 21
1.463
 31
0.0
  0
LINE
  8
0
  6
CONTINUOUS
 62
   250
 10
7.20896
 20
1.463
 30
0.0
 11
7.20852
 21
1.46212
 31
0.0
  0
LINE
  8
0
  6
CONTINUOUS
 62
   250
 10
7.20852
 20
1.46212
 30
0.0
 11
7.20808
 21
1.46124
 31
0.0
  0
LINE
  8
0
  6
CONTINUOUS
 62
   250
 10
7.20808
 20
1.46124
 30
0.0
 11
7.20764
 21
1.46036
 31
0.0
  0
LINE
  8
0
  6
CONTINUOUS
 62
   250
 10
7.20764
 20
1.46036
 30
0.0
 11
7.2072
 21
1.45992
 31
0.0
  0
LINE
  8
0
  6
CONTINUOUS
 62
   250
 10
7.2072
 20
1.45992
 30
0.0
 11
7.20588
 21
1.45904
 31
0.0
  0
LINE
  8
0
  6
CONTINUOUS
 62
   250
 10
7.20588
 20
1.45904
 30
0.0
 11
7.205
 21
1.45904
 31
0.0
  0
LINE
  8
0
  6
CONTINUOUS
 62
   250
 10
7.205
 20
1.45904
 30
0.0
 11
7.20368
 21
1.4586
 31
0.0
  0
LINE
  8
0
  6
CONTINUOUS
 62
   250
 10
7.20368
 20
1.4586
 30
0.0
 11
7.2028
 21
1.45904
 31
0.0
  0
LINE
  8
0
  6
CONTINUOUS
 62
   250
 10
7.2028
 20
1.45904
 30
0.0
 11
7.20148
 21
1.45904
 31
0.0
  0
LINE
  8
0
  6
CONTINUOUS
 62
   250
 10
7.20148
 20
1.45904
 30
0.0
 11
7.2006
 21
1.45992
 31
0.0
  0
LINE
  8
0
  6
CONTINUOUS
 62
   250
 10
7.2006
 20
1.45992
 30
0.0
 11
7.20016
 21
1.45992
 31
0.0
  0
LINE
  8
0
  6
CONTINUOUS
 62
   250
 10
6.985
 20
1.46828
 30
0.0
 11
6.98412
 21
1.46872
 31
0.0
  0
LINE
  8
0
  6
CONTINUOUS
 62
   250
 10
6.98412
 20
1.46872
 30
0.0
 11
6.98324
 21
1.46916
 31
0.0
  0
LINE
  8
0
  6
CONTINUOUS
 62
   250
 10
6.98324
 20
1.46916
 30
0.0
 11
6.98236
 21
1.46916
 31
0.0
  0
LINE
  8
0
  6
CONTINUOUS
 62
   250
 10
6.98236
 20
1.46916
 30
0.0
 11
6.98148
 21
1.46872
 31
0.0
  0
LINE
  8
0
  6
CONTINUOUS
 62
   250
 10
6.98148
 20
1.46872
 30
0.0
 11
6.98104
 21
1.46828
 31
0.0
  0
LINE
  8
0
  6
CONTINUOUS
 62
   250
 10
6.98104
 20
1.46828
 30
0.0
 11
6.97972
 21
1.4674
 31
0.0
  0
LINE
  8
0
  6
CONTINUOUS
 62
   250
 10
6.97972
 20
1.4674
 30
0.0
 11
6.97928
 21
1.46652
 31
0.0
  0
LINE
  8
0
  6
CONTINUOUS
 62
   250
 10
6.97928
 20
1.46652
 30
0.0
 11
6.97884
 21
1.4652
 31
0.0
  0
LINE
  8
0
  6
CONTINUOUS
 62
   250
 10
6.97884
 20
1.4652
 30
0.0
 11
6.9784
 21
1.46388
 31
0.0
  0
LINE
  8
0
  6
CONTINUOUS
 62
   250
 10
6.9784
 20
1.46388
 30
0.0
 11
6.9784
 21
1.463
 31
0.0
  0
LINE
  8
0
  6
CONTINUOUS
 62
   250
 10
6.9784
 20
1.463
 30
0.0
 11
6.97884
 21
1.46168
 31
0.0
  0
LINE
  8
0
  6
CONTINUOUS
 62
   250
 10
6.97884
 20
1.46168
 30
0.0
 11
6.97928
 21
1.4608
 31
0.0
  0
LINE
  8
0
  6
CONTINUOUS
 62
   250
 10
6.97928
 20
1.4608
 30
0.0
 11
6.98016
 21
1.45948
 31
0.0
  0
LINE
  8
0
  6
CONTINUOUS
 62
   250
 10
6.98016
 20
1.45948
 30
0.0
 11
6.98104
 21
1.45904
 31
0.0
  0
LINE
  8
0
  6
CONTINUOUS
 62
   250
 10
6.98104
 20
1.45904
 30
0.0
 11
6.98192
 21
1.4586
 31
0.0
  0
LINE
  8
0
  6
CONTINUOUS
 62
   250
 10
6.98192
 20
1.4586
 30
0.0
 11
6.9828
 21
1.45816
 31
0.0
  0
LINE
  8
0
  6
CONTINUOUS
 62
   250
 10
6.9828
 20
1.45816
 30
0.0
 11
6.98368
 21
1.45816
 31
0.0
  0
LINE
  8
0
  6
CONTINUOUS
 62
   250
 10
6.98368
 20
1.45816
 30
0.0
 11
6.98456
 21
1.4586
 31
0.0
  0
LINE
  8
0
  6
CONTINUOUS
 62
   250
 10
6.98456
 20
1.4586
 30
0.0
 11
6.985
 21
1.45904
 31
0.0
  0
LINE
  8
0
  6
CONTINUOUS
 62
   250
 10
6.985
 20
1.45904
 30
0.0
 11
6.98588
 21
1.45992
 31
0.0
  0
LINE
  8
0
  6
CONTINUOUS
 62
   250
 10
6.98588
 20
1.45992
 30
0.0
 11
6.98676
 21
1.4608
 31
0.0
  0
LINE
  8
0
  6
CONTINUOUS
 62
   250
 10
6.98676
 20
1.4608
 30
0.0
 11
6.9872
 21
1.46212
 31
0.0
  0
LINE
  8
0
  6
CONTINUOUS
 62
   250
 10
6.9872
 20
1.46212
 30
0.0
 11
6.98764
 21
1.463
 31
0.0
  0
LINE
  8
0
  6
CONTINUOUS
 62
   250
 10
6.98764
 20
1.463
 30
0.0
 11
6.98764
 21
1.46432
 31
0.0
  0
LINE
  8
0
  6
CONTINUOUS
 62
   250
 10
6.98764
 20
1.46432
 30
0.0
 11
6.9872
 21
1.46564
 31
0.0
  0
LINE
  8
0
  6
CONTINUOUS
 62
   250
 10
6.9872
 20
1.46564
 30
0.0
 11
6.98676
 21
1.46652
 31
0.0
  0
LINE
  8
0
  6
CONTINUOUS
 62
   250
 10
6.98676
 20
1.46652
 30
0.0
 11
6.98588
 21
1.4674
 31
0.0
  0
LINE
  8
0
  6
CONTINUOUS
 62
   250
 10
6.98588
 20
1.4674
 30
0.0
 11
6.985
 21
1.46828
 31
0.0
  0
LINE
  8
0
  6
CONTINUOUS
 62
   250
 10
6.98984
 20
1.46916
 30
0.0
 11
6.99424
 21
1.45816
 31
0.0
  0
LINE
  8
0
  6
CONTINUOUS
 62
   250
 10
6.99424
 20
1.45816
 30
0.0
 11
6.99908
 21
1.46916
 31
0.0
  0
LINE
  8
0
  6
CONTINUOUS
 62
   250
 10
7.00128
 20
1.45816
 30
0.0
 11
7.00128
 21
1.46916
 31
0.0
  0
LINE
  8
0
  6
CONTINUOUS
 62
   250
 10
7.00128
 20
1.46916
 30
0.0
 11
7.00612
 21
1.46916
 31
0.0
  0
LINE
  8
0
  6
CONTINUOUS
 62
   250
 10
7.00612
 20
1.46916
 30
0.0
 11
7.007
 21
1.46872
 31
0.0
  0
LINE
  8
0
  6
CONTINUOUS
 62
   250
 10
7.007
 20
1.46872
 30
0.0
 11
7.00788
 21
1.46828
 31
0.0
  0
LINE
  8
0
  6
CONTINUOUS
 62
   250
 10
7.00788
 20
1.46828
 30
0.0
 11
7.00832
 21
1.46784
 31
0.0
  0
LINE
  8
0
  6
CONTINUOUS
 62
   250
 10
7.00832
 20
1.46784
 30
0.0
 11
7.00876
 21
1.46696
 31
0.0
  0
LINE
  8
0
  6
CONTINUOUS
 62
   250
 10
7.00876
 20
1.46696
 30
0.0
 11
7.00876
 21
1.46608
 31
0.0
  0
LINE
  8
0
  6
CONTINUOUS
 62
   250
 10
7.00876
 20
1.46608
 30
0.0
 11
7.00876
 21
1.4652
 31
0.0
  0
LINE
  8
0
  6
CONTINUOUS
 62
   250
 10
7.00876
 20
1.4652
 30
0.0
 11
7.00832
 21
1.46432
 31
0.0
  0
LINE
  8
0
  6
CONTINUOUS
 62
   250
 10
7.00832
 20
1.46432
 30
0.0
 11
7.00788
 21
1.46388
 31
0.0
  0
LINE
  8
0
  6
CONTINUOUS
 62
   250
 10
7.00788
 20
1.46388
 30
0.0
 11
7.007
 21
1.46344
 31
0.0
  0
LINE
  8
0
  6
CONTINUOUS
 62
   250
 10
7.007
 20
1.46344
 30
0.0
 11
7.00612
 21
1.463
 31
0.0
  0
LINE
  8
0
  6
CONTINUOUS
 62
   250
 10
7.00612
 20
1.463
 30
0.0
 11
7.00128
 21
1.463
 31
0.0
  0
LINE
  8
0
  6
CONTINUOUS
 62
   250
 10
7.00524
 20
1.463
 30
0.0
 11
7.00876
 21
1.45816
 31
0.0
  0
LINE
  8
0
  6
CONTINUOUS
 62
   250
 10
6.79844
 20
1.562
 30
0.0
 11
6.81208
 21
1.562
 31
0.0
  0
LINE
  8
0
  6
CONTINUOUS
 62
   250
 10
6.81208
 20
1.562
 30
0.0
 11
6.81208
 21
1.5686
 31
0.0
  0
LINE
  8
0
  6
CONTINUOUS
 62
   250
 10
6.81208
 20
1.5686
 30
0.0
 11
6.81164
 21
1.56948
 31
0.0
  0
LINE
  8
0
  6
CONTINUOUS
 62
   250
 10
6.81164
 20
1.56948
 30
0.0
 11
6.81076
 21
1.57036
 31
0.0
  0
LINE
  8
0
  6
CONTINUOUS
 62
   250
 10
6.81076
 20
1.57036
 30
0.0
 11
6.81032
 21
1.57124
 31
0.0
  0
LINE
  8
0
  6
CONTINUOUS
 62
   250
 10
6.81032
 20
1.57124
 30
0.0
 11
6.80944
 21
1.57168
 31
0.0
  0
LINE
  8
0
  6
CONTINUOUS
 62
   250
 10
6.80944
 20
1.57168
 30
0.0
 11
6.80856
 21
1.57168
 31
0.0
  0
LINE
  8
0
  6
CONTINUOUS
 62
   250
 10
6.80856
 20
1.57168
 30
0.0
 11
6.80768
 21
1.57168
 31
0.0
  0
LINE
  8
0
  6
CONTINUOUS
 62
   250
 10
6.80768
 20
1.57168
 30
0.0
 11
6.8068
 21
1.57168
 31
0.0
  0
LINE
  8
0
  6
CONTINUOUS
 62
   250
 10
6.8068
 20
1.57168
 30
0.0
 11
6.80592
 21
1.57124
 31
0.0
  0
LINE
  8
0
  6
CONTINUOUS
 62
   250
 10
6.80592
 20
1.57124
 30
0.0
 11
6.80504
 21
1.57036
 31
0.0
  0
LINE
  8
0
  6
CONTINUOUS
 62
   250
 10
6.80504
 20
1.57036
 30
0.0
 11
6.8046
 21
1.56948
 31
0.0
  0
LINE
  8
0
  6
CONTINUOUS
 62
   250
 10
6.8046
 20
1.56948
 30
0.0
 11
6.8046
 21
1.5686
 31
0.0
  0
LINE
  8
0
  6
CONTINUOUS
 62
   250
 10
6.8046
 20
1.5686
 30
0.0
 11
6.8046
 21
1.562
 31
0.0
  0
LINE
  8
0
  6
CONTINUOUS
 62
   250
 10
6.8046
 20
1.5686
 30
0.0
 11
6.80416
 21
1.56992
 31
0.0
  0
LINE
  8
0
  6
CONTINUOUS
 62
   250
 10
6.80416
 20
1.56992
 30
0.0
 11
6.80372
 21
1.57036
 31
0.0
  0
LINE
  8
0
  6
CONTINUOUS
 62
   250
 10
6.80372
 20
1.57036
 30
0.0
 11
6.80284
 21
1.57124
 31
0.0
  0
LINE
  8
0
  6
CONTINUOUS
 62
   250
 10
6.80284
 20
1.57124
 30
0.0
 11
6.8024
 21
1.57168
 31
0.0
  0
LINE
  8
0
  6
CONTINUOUS
 62
   250
 10
6.8024
 20
1.57168
 30
0.0
 11
6.80152
 21
1.57168
 31
0.0
  0
LINE
  8
0
  6
CONTINUOUS
 62
   250
 10
6.80152
 20
1.57168
 30
0.0
 11
6.80064
 21
1.57168
 31
0.0
  0
LINE
  8
0
  6
CONTINUOUS
 62
   250
 10
6.80064
 20
1.57168
 30
0.0
 11
6.79976
 21
1.57124
 31
0.0
  0
LINE
  8
0
  6
CONTINUOUS
 62
   250
 10
6.79976
 20
1.57124
 30
0.0
 11
6.79888
 21
1.5708
 31
0.0
  0
LINE
  8
0
  6
CONTINUOUS
 62
   250
 10
6.79888
 20
1.5708
 30
0.0
 11
6.79844
 21
1.56992
 31
0.0
  0
LINE
  8
0
  6
CONTINUOUS
 62
   250
 10
6.79844
 20
1.56992
 30
0.0
 11
6.79844
 21
1.56904
 31
0.0
  0
LINE
  8
0
  6
CONTINUOUS
 62
   250
 10
6.79844
 20
1.56904
 30
0.0
 11
6.79844
 21
1.56816
 31
0.0
  0
LINE
  8
0
  6
CONTINUOUS
 62
   250
 10
6.79844
 20
1.56816
 30
0.0
 11
6.79844
 21
1.562
 31
0.0
  0
LINE
  8
0
  6
CONTINUOUS
 62
   250
 10
6.79844
 20
1.52856
 30
0.0
 11
6.81208
 21
1.52328
 31
0.0
  0
LINE
  8
0
  6
CONTINUOUS
 62
   250
 10
6.80504
 20
1.52592
 30
0.0
 11
6.80504
 21
1.53164
 31
0.0
  0
LINE
  8
0
  6
CONTINUOUS
 62
   250
 10
6.79844
 20
1.52856
 30
0.0
 11
6.81208
 21
1.53472
 31
0.0
  0
LINE
  8
0
  6
CONTINUOUS
 62
   250
 10
6.83584
 20
1.5906
 30
0.0
 11
6.83584
 21
1.60424
 31
0.0
  0
LINE
  8
0
  6
CONTINUOUS
 62
   250
 10
6.83584
 20
1.60424
 30
0.0
 11
6.84156
 21
1.60424
 31
0.0
  0
LINE
  8
0
  6
CONTINUOUS
 62
   250
 10
6.84156
 20
1.60424
 30
0.0
 11
6.84288
 21
1.6038
 31
0.0
  0
LINE
  8
0
  6
CONTINUOUS
 62
   250
 10
6.84288
 20
1.6038
 30
0.0
 11
6.84376
 21
1.60336
 31
0.0
  0
LINE
  8
0
  6
CONTINUOUS
 62
   250
 10
6.84376
 20
1.60336
 30
0.0
 11
6.8442
 21
1.60248
 31
0.0
  0
LINE
  8
0
  6
CONTINUOUS
 62
   250
 10
6.8442
 20
1.60248
 30
0.0
 11
6.84508
 21
1.60204
 31
0.0
  0
LINE
  8
0
  6
CONTINUOUS
 62
   250
 10
6.84508
 20
1.60204
 30
0.0
 11
6.84508
 21
1.60072
 31
0.0
  0
LINE
  8
0
  6
CONTINUOUS
 62
   250
 10
6.84508
 20
1.60072
 30
0.0
 11
6.84508
 21
1.59984
 31
0.0
  0
LINE
  8
0
  6
CONTINUOUS
 62
   250
 10
6.84508
 20
1.59984
 30
0.0
 11
6.84508
 21
1.59896
 31
0.0
  0
LINE
  8
0
  6
CONTINUOUS
 62
   250
 10
6.84508
 20
1.59896
 30
0.0
 11
6.84464
 21
1.59852
 31
0.0
  0
LINE
  8
0
  6
CONTINUOUS
 62
   250
 10
6.84464
 20
1.59852
 30
0.0
 11
6.8442
 21
1.59764
 31
0.0
  0
LINE
  8
0
  6
CONTINUOUS
 62
   250
 10
6.8442
 20
1.59764
 30
0.0
 11
6.84332
 21
1.5972
 31
0.0
  0
LINE
  8
0
  6
CONTINUOUS
 62
   250
 10
6.84332
 20
1.5972
 30
0.0
 11
6.84244
 21
1.59676
 31
0.0
  0
LINE
  8
0
  6
CONTINUOUS
 62
   250
 10
6.84244
 20
1.59676
 30
0.0
 11
6.84156
 21
1.59632
 31
0.0
  0
LINE
  8
0
  6
CONTINUOUS
 62
   250
 10
6.84156
 20
1.59632
 30
0.0
 11
6.83584
 21
1.59632
 31
0.0
  0
LINE
  8
0
  6
CONTINUOUS
 62
   250
 10
6.84068
 20
1.59632
 30
0.0
 11
6.84508
 21
1.5906
 31
0.0
  0
LINE
  8
0
  6
CONTINUOUS
 62
   250
 10
6.87368
 20
1.60424
 30
0.0
 11
6.87676
 21
1.5906
 31
0.0
  0
LINE
  8
0
  6
CONTINUOUS
 62
   250
 10
6.87676
 20
1.5906
 30
0.0
 11
6.8794
 21
1.5972
 31
0.0
  0
LINE
  8
0
  6
CONTINUOUS
 62
   250
 10
6.8794
 20
1.5972
 30
0.0
 11
6.88204
 21
1.5906
 31
0.0
  0
LINE
  8
0
  6
CONTINUOUS
 62
   250
 10
6.88204
 20
1.5906
 30
0.0
 11
6.88512
 21
1.60424
 31
0.0
  0
LINE
  8
0
  6
CONTINUOUS
 62
   250
 10
6.8882
 20
1.60072
 30
0.0
 11
6.88952
 21
1.60248
 31
0.0
  0
LINE
  8
0
  6
CONTINUOUS
 62
   250
 10
6.88952
 20
1.60248
 30
0.0
 11
6.88952
 21
1.5906
 31
0.0
  0
LINE
  8
0
  6
CONTINUOUS
 62
   250
 10
6.919
 20
1.60424
 30
0.0
 11
6.92208
 21
1.5906
 31
0.0
  0
LINE
  8
0
  6
CONTINUOUS
 62
   250
 10
6.92208
 20
1.5906
 30
0.0
 11
6.92472
 21
1.5972
 31
0.0
  0
LINE
  8
0
  6
CONTINUOUS
 62
   250
 10
6.92472
 20
1.5972
 30
0.0
 11
6.92736
 21
1.5906
 31
0.0
  0
LINE
  8
0
  6
CONTINUOUS
 62
   250
 10
6.92736
 20
1.5906
 30
0.0
 11
6.93044
 21
1.60424
 31
0.0
  0
LINE
  8
0
  6
CONTINUOUS
 62
   250
 10
6.93352
 20
1.60072
 30
0.0
 11
6.93396
 21
1.6016
 31
0.0
  0
LINE
  8
0
  6
CONTINUOUS
 62
   250
 10
6.93396
 20
1.6016
 30
0.0
 11
6.93484
 21
1.60204
 31
0.0
  0
LINE
  8
0
  6
CONTINUOUS
 62
   250
 10
6.93484
 20
1.60204
 30
0.0
 11
6.93572
 21
1.60248
 31
0.0
  0
LINE
  8
0
  6
CONTINUOUS
 62
   250
 10
6.93572
 20
1.60248
 30
0.0
 11
6.9366
 21
1.60292
 31
0.0
  0
LINE
  8
0
  6
CONTINUOUS
 62
   250
 10
6.9366
 20
1.60292
 30
0.0
 11
6.93792
 21
1.60248
 31
0.0
  0
LINE
  8
0
  6
CONTINUOUS
 62
   250
 10
6.93792
 20
1.60248
 30
0.0
 11
6.9388
 21
1.60204
 31
0.0
  0
LINE
  8
0
  6
CONTINUOUS
 62
   250
 10
6.9388
 20
1.60204
 30
0.0
 11
6.93968
 21
1.6016
 31
0.0
  0
LINE
  8
0
  6
CONTINUOUS
 62
   250
 10
6.93968
 20
1.6016
 30
0.0
 11
6.94012
 21
1.60072
 31
0.0
  0
LINE
  8
0
  6
CONTINUOUS
 62
   250
 10
6.94012
 20
1.60072
 30
0.0
 11
6.94056
 21
1.5994
 31
0.0
  0
LINE
  8
0
  6
CONTINUOUS
 62
   250
 10
6.94056
 20
1.5994
 30
0.0
 11
6.94056
 21
1.59852
 31
0.0
  0
LINE
  8
0
  6
CONTINUOUS
 62
   250
 10
6.94056
 20
1.59852
 30
0.0
 11
6.94012
 21
1.59764
 31
0.0
  0
LINE
  8
0
  6
CONTINUOUS
 62
   250
 10
6.94012
 20
1.59764
 30
0.0
 11
6.94012
 21
1.5972
 31
0.0
  0
LINE
  8
0
  6
CONTINUOUS
 62
   250
 10
6.94012
 20
1.5972
 30
0.0
 11
6.93836
 21
1.595
 31
0.0
  0
LINE
  8
0
  6
CONTINUOUS
 62
   250
 10
6.93836
 20
1.595
 30
0.0
 11
6.93704
 21
1.59324
 31
0.0
  0
LINE
  8
0
  6
CONTINUOUS
 62
   250
 10
6.93704
 20
1.59324
 30
0.0
 11
6.93528
 21
1.59192
 31
0.0
  0
LINE
  8
0
  6
CONTINUOUS
 62
   250
 10
6.93528
 20
1.59192
 30
0.0
 11
6.93352
 21
1.5906
 31
0.0
  0
LINE
  8
0
  6
CONTINUOUS
 62
   250
 10
6.93352
 20
1.5906
 30
0.0
 11
6.941
 21
1.5906
 31
0.0
  0
LINE
  8
0
  6
CONTINUOUS
 62
   250
 10
6.96212
 20
1.60424
 30
0.0
 11
6.96784
 21
1.59852
 31
0.0
  0
LINE
  8
0
  6
CONTINUOUS
 62
   250
 10
6.96784
 20
1.59852
 30
0.0
 11
6.97356
 21
1.60424
 31
0.0
  0
LINE
  8
0
  6
CONTINUOUS
 62
   250
 10
6.96784
 20
1.59852
 30
0.0
 11
6.96784
 21
1.5906
 31
0.0
  0
LINE
  8
0
  6
CONTINUOUS
 62
   250
 10
6.9762
 20
1.60072
 30
0.0
 11
6.97796
 21
1.60248
 31
0.0
  0
LINE
  8
0
  6
CONTINUOUS
 62
   250
 10
6.97796
 20
1.60248
 30
0.0
 11
6.97796
 21
1.5906
 31
0.0
  0
LINE
  8
0
  6
CONTINUOUS
 62
   250
 10
7.11304
 20
1.4718
 30
0.0
 11
7.12448
 21
1.4718
 31
0.0
  0
LINE
  8
0
  6
CONTINUOUS
 62
   250
 10
7.11876
 20
1.4718
 30
0.0
 11
7.11876
 21
1.45816
 31
0.0
  0
LINE
  8
0
  6
CONTINUOUS
 62
   250
 10
7.12756
 20
1.46828
 30
0.0
 11
7.128
 21
1.4696
 31
0.0
  0
LINE
  8
0
  6
CONTINUOUS
 62
   250
 10
7.128
 20
1.4696
 30
0.0
 11
7.12888
 21
1.47004
 31
0.0
  0
LINE
  8
0
  6
CONTINUOUS
 62
   250
 10
7.12888
 20
1.47004
 30
0.0
 11
7.12976
 21
1.47048
 31
0.0
  0
LINE
  8
0
  6
CONTINUOUS
 62
   250
 10
7.12976
 20
1.47048
 30
0.0
 11
7.13064
 21
1.47048
 31
0.0
  0
LINE
  8
0
  6
CONTINUOUS
 62
   250
 10
7.13064
 20
1.47048
 30
0.0
 11
7.13152
 21
1.47048
 31
0.0
  0
LINE
  8
0
  6
CONTINUOUS
 62
   250
 10
7.13152
 20
1.47048
 30
0.0
 11
7.1324
 21
1.47004
 31
0.0
  0
LINE
  8
0
  6
CONTINUOUS
 62
   250
 10
7.1324
 20
1.47004
 30
0.0
 11
7.13328
 21
1.4696
 31
0.0
  0
LINE
  8
0
  6
CONTINUOUS
 62
   250
 10
7.13328
 20
1.4696
 30
0.0
 11
7.13416
 21
1.46872
 31
0.0
  0
LINE
  8
0
  6
CONTINUOUS
 62
   250
 10
7.13416
 20
1.46872
 30
0.0
 11
7.13416
 21
1.46828
 31
0.0
  0
LINE
  8
0
  6
CONTINUOUS
 62
   250
 10
7.13416
 20
1.46828
 30
0.0
 11
7.1346
 21
1.4674
 31
0.0
  0
LINE
  8
0
  6
CONTINUOUS
 62
   250
 10
7.1346
 20
1.4674
 30
0.0
 11
7.1346
 21
1.46652
 31
0.0
  0
LINE
  8
0
  6
CONTINUOUS
 62
   250
 10
7.1346
 20
1.46652
 30
0.0
 11
7.13416
 21
1.4652
 31
0.0
  0
LINE
  8
0
  6
CONTINUOUS
 62
   250
 10
7.13416
 20
1.4652
 30
0.0
 11
7.1324
 21
1.46256
 31
0.0
  0
LINE
  8
0
  6
CONTINUOUS
 62
   250
 10
7.1324
 20
1.46256
 30
0.0
 11
7.13108
 21
1.46124
 31
0.0
  0
LINE
  8
0
  6
CONTINUOUS
 62
   250
 10
7.13108
 20
1.46124
 30
0.0
 11
7.12932
 21
1.45948
 31
0.0
  0
LINE
  8
0
  6
CONTINUOUS
 62
   250
 10
7.12932
 20
1.45948
 30
0.0
 11
7.12756
 21
1.45816
 31
0.0
  0
LINE
  8
0
  6
CONTINUOUS
 62
   250
 10
7.12756
 20
1.45816
 30
0.0
 11
7.13504
 21
1.45816
 31
0.0
  0
LINE
  8
0
  6
CONTINUOUS
 62
   250
 10
7.00964
 20
1.60424
 30
0.0
 11
7.01536
 21
1.59852
 31
0.0
  0
LINE
  8
0
  6
CONTINUOUS
 62
   250
 10
7.01536
 20
1.59852
 30
0.0
 11
7.02108
 21
1.60424
 31
0.0
  0
LINE
  8
0
  6
CONTINUOUS
 62
   250
 10
7.01536
 20
1.59852
 30
0.0
 11
7.01536
 21
1.5906
 31
0.0
  0
LINE
  8
0
  6
CONTINUOUS
 62
   250
 10
7.02416
 20
1.60072
 30
0.0
 11
7.0246
 21
1.6016
 31
0.0
  0
LINE
  8
0
  6
CONTINUOUS
 62
   250
 10
7.0246
 20
1.6016
 30
0.0
 11
7.02548
 21
1.60204
 31
0.0
  0
LINE
  8
0
  6
CONTINUOUS
 62
   250
 10
7.02548
 20
1.60204
 30
0.0
 11
7.02636
 21
1.60248
 31
0.0
  0
LINE
  8
0
  6
CONTINUOUS
 62
   250
 10
7.02636
 20
1.60248
 30
0.0
 11
7.02724
 21
1.60292
 31
0.0
  0
LINE
  8
0
  6
CONTINUOUS
 62
   250
 10
7.02724
 20
1.60292
 30
0.0
 11
7.02856
 21
1.60248
 31
0.0
  0
LINE
  8
0
  6
CONTINUOUS
 62
   250
 10
7.02856
 20
1.60248
 30
0.0
 11
7.02944
 21
1.60204
 31
0.0
  0
LINE
  8
0
  6
CONTINUOUS
 62
   250
 10
7.02944
 20
1.60204
 30
0.0
 11
7.03032
 21
1.6016
 31
0.0
  0
LINE
  8
0
  6
CONTINUOUS
 62
   250
 10
7.03032
 20
1.6016
 30
0.0
 11
7.03076
 21
1.60072
 31
0.0
  0
LINE
  8
0
  6
CONTINUOUS
 62
   250
 10
7.03076
 20
1.60072
 30
0.0
 11
7.0312
 21
1.5994
 31
0.0
  0
LINE
  8
0
  6
CONTINUOUS
 62
   250
 10
7.0312
 20
1.5994
 30
0.0
 11
7.0312
 21
1.59852
 31
0.0
  0
LINE
  8
0
  6
CONTINUOUS
 62
   250
 10
7.0312
 20
1.59852
 30
0.0
 11
7.0312
 21
1.59764
 31
0.0
  0
LINE
  8
0
  6
CONTINUOUS
 62
   250
 10
7.0312
 20
1.59764
 30
0.0
 11
7.03076
 21
1.5972
 31
0.0
  0
LINE
  8
0
  6
CONTINUOUS
 62
   250
 10
7.03076
 20
1.5972
 30
0.0
 11
7.02944
 21
1.595
 31
0.0
  0
LINE
  8
0
  6
CONTINUOUS
 62
   250
 10
7.02944
 20
1.595
 30
0.0
 11
7.02768
 21
1.59324
 31
0.0
  0
LINE
  8
0
  6
CONTINUOUS
 62
   250
 10
7.02768
 20
1.59324
 30
0.0
 11
7.02592
 21
1.59192
 31
0.0
  0
LINE
  8
0
  6
CONTINUOUS
 62
   250
 10
7.02592
 20
1.59192
 30
0.0
 11
7.02416
 21
1.5906
 31
0.0
  0
LINE
  8
0
  6
CONTINUOUS
 62
   250
 10
7.02416
 20
1.5906
 30
0.0
 11
7.03164
 21
1.5906
 31
0.0
  0
LINE
  8
0
  6
CONTINUOUS
 62
   250
 10
7.06596
 20
1.5994
 30
0.0
 11
7.06552
 21
1.60072
 31
0.0
  0
LINE
  8
0
  6
CONTINUOUS
 62
   250
 10
7.06552
 20
1.60072
 30
0.0
 11
7.06508
 21
1.6016
 31
0.0
  0
LINE
  8
0
  6
CONTINUOUS
 62
   250
 10
7.06508
 20
1.6016
 30
0.0
 11
7.06464
 21
1.60248
 31
0.0
  0
LINE
  8
0
  6
CONTINUOUS
 62
   250
 10
7.06464
 20
1.60248
 30
0.0
 11
7.06376
 21
1.60336
 31
0.0
  0
LINE
  8
0
  6
CONTINUOUS
 62
   250
 10
7.06376
 20
1.60336
 30
0.0
 11
7.06244
 21
1.6038
 31
0.0
  0
LINE
  8
0
  6
CONTINUOUS
 62
   250
 10
7.06244
 20
1.6038
 30
0.0
 11
7.06112
 21
1.60424
 31
0.0
  0
LINE
  8
0
  6
CONTINUOUS
 62
   250
 10
7.06112
 20
1.60424
 30
0.0
 11
7.0598
 21
1.60424
 31
0.0
  0
LINE
  8
0
  6
CONTINUOUS
 62
   250
 10
7.0598
 20
1.60424
 30
0.0
 11
7.05892
 21
1.6038
 31
0.0
  0
LINE
  8
0
  6
CONTINUOUS
 62
   250
 10
7.05892
 20
1.6038
 30
0.0
 11
7.05848
 21
1.6038
 31
0.0
  0
LINE
  8
0
  6
CONTINUOUS
 62
   250
 10
7.05848
 20
1.6038
 30
0.0
 11
7.05716
 21
1.60292
 31
0.0
  0
LINE
  8
0
  6
CONTINUOUS
 62
   250
 10
7.05716
 20
1.60292
 30
0.0
 11
7.05628
 21
1.60204
 31
0.0
  0
LINE
  8
0
  6
CONTINUOUS
 62
   250
 10
7.05628
 20
1.60204
 30
0.0
 11
7.05584
 21
1.60116
 31
0.0
  0
LINE
  8
0
  6
CONTINUOUS
 62
   250
 10
7.05584
 20
1.60116
 30
0.0
 11
7.0554
 21
1.60072
 31
0.0
  0
LINE
  8
0
  6
CONTINUOUS
 62
   250
 10
7.0554
 20
1.60072
 30
0.0
 11
7.05496
 21
1.59808
 31
0.0
  0
LINE
  8
0
  6
CONTINUOUS
 62
   250
 10
7.05496
 20
1.59808
 30
0.0
 11
7.05496
 21
1.59588
 31
0.0
  0
LINE
  8
0
  6
CONTINUOUS
 62
   250
 10
7.05496
 20
1.59588
 30
0.0
 11
7.05496
 21
1.595
 31
0.0
  0
LINE
  8
0
  6
CONTINUOUS
 62
   250
 10
7.05496
 20
1.595
 30
0.0
 11
7.0554
 21
1.59368
 31
0.0
  0
LINE
  8
0
  6
CONTINUOUS
 62
   250
 10
7.0554
 20
1.59368
 30
0.0
 11
7.05584
 21
1.5928
 31
0.0
  0
LINE
  8
0
  6
CONTINUOUS
 62
   250
 10
7.05584
 20
1.5928
 30
0.0
 11
7.05672
 21
1.59192
 31
0.0
  0
LINE
  8
0
  6
CONTINUOUS
 62
   250
 10
7.05672
 20
1.59192
 30
0.0
 11
7.0576
 21
1.59104
 31
0.0
  0
LINE
  8
0
  6
CONTINUOUS
 62
   250
 10
7.0576
 20
1.59104
 30
0.0
 11
7.05892
 21
1.5906
 31
0.0
  0
LINE
  8
0
  6
CONTINUOUS
 62
   250
 10
7.05892
 20
1.5906
 30
0.0
 11
7.06024
 21
1.5906
 31
0.0
  0
LINE
  8
0
  6
CONTINUOUS
 62
   250
 10
7.06024
 20
1.5906
 30
0.0
 11
7.06112
 21
1.5906
 31
0.0
  0
LINE
  8
0
  6
CONTINUOUS
 62
   250
 10
7.06112
 20
1.5906
 30
0.0
 11
7.06244
 21
1.59104
 31
0.0
  0
LINE
  8
0
  6
CONTINUOUS
 62
   250
 10
7.06244
 20
1.59104
 30
0.0
 11
7.06376
 21
1.59148
 31
0.0
  0
LINE
  8
0
  6
CONTINUOUS
 62
   250
 10
7.06376
 20
1.59148
 30
0.0
 11
7.06464
 21
1.59192
 31
0.0
  0
LINE
  8
0
  6
CONTINUOUS
 62
   250
 10
7.06464
 20
1.59192
 30
0.0
 11
7.06552
 21
1.5928
 31
0.0
  0
LINE
  8
0
  6
CONTINUOUS
 62
   250
 10
7.06552
 20
1.5928
 30
0.0
 11
7.06596
 21
1.59412
 31
0.0
  0
LINE
  8
0
  6
CONTINUOUS
 62
   250
 10
7.06596
 20
1.59412
 30
0.0
 11
7.06596
 21
1.595
 31
0.0
  0
LINE
  8
0
  6
CONTINUOUS
 62
   250
 10
7.06596
 20
1.595
 30
0.0
 11
7.06596
 21
1.59544
 31
0.0
  0
LINE
  8
0
  6
CONTINUOUS
 62
   250
 10
7.06596
 20
1.59544
 30
0.0
 11
7.06596
 21
1.59632
 31
0.0
  0
LINE
  8
0
  6
CONTINUOUS
 62
   250
 10
7.06596
 20
1.59632
 30
0.0
 11
7.06156
 21
1.59632
 31
0.0
  0
LINE
  8
0
  6
CONTINUOUS
 62
   250
 10
7.08312
 20
1.60424
 30
0.0
 11
7.08312
 21
1.5906
 31
0.0
  0
LINE
  8
0
  6
CONTINUOUS
 62
   250
 10
7.08312
 20
1.5906
 30
0.0
 11
7.08928
 21
1.5906
 31
0.0
  0
LINE
  8
0
  6
CONTINUOUS
 62
   250
 10
7.08928
 20
1.5906
 30
0.0
 11
7.0906
 21
1.59104
 31
0.0
  0
LINE
  8
0
  6
CONTINUOUS
 62
   250
 10
7.0906
 20
1.59104
 30
0.0
 11
7.09148
 21
1.59148
 31
0.0
  0
LINE
  8
0
  6
CONTINUOUS
 62
   250
 10
7.09148
 20
1.59148
 30
0.0
 11
7.09192
 21
1.59192
 31
0.0
  0
LINE
  8
0
  6
CONTINUOUS
 62
   250
 10
7.09192
 20
1.59192
 30
0.0
 11
7.0928
 21
1.5928
 31
0.0
  0
LINE
  8
0
  6
CONTINUOUS
 62
   250
 10
7.0928
 20
1.5928
 30
0.0
 11
7.0928
 21
1.59368
 31
0.0
  0
LINE
  8
0
  6
CONTINUOUS
 62
   250
 10
7.0928
 20
1.59368
 30
0.0
 11
7.0928
 21
1.595
 31
0.0
  0
LINE
  8
0
  6
CONTINUOUS
 62
   250
 10
7.0928
 20
1.595
 30
0.0
 11
7.0928
 21
1.59588
 31
0.0
  0
LINE
  8
0
  6
CONTINUOUS
 62
   250
 10
7.0928
 20
1.59588
 30
0.0
 11
7.09192
 21
1.59632
 31
0.0
  0
LINE
  8
0
  6
CONTINUOUS
 62
   250
 10
7.09192
 20
1.59632
 30
0.0
 11
7.09148
 21
1.5972
 31
0.0
  0
LINE
  8
0
  6
CONTINUOUS
 62
   250
 10
7.09148
 20
1.5972
 30
0.0
 11
7.0906
 21
1.59764
 31
0.0
  0
LINE
  8
0
  6
CONTINUOUS
 62
   250
 10
7.0906
 20
1.59764
 30
0.0
 11
7.08972
 21
1.59808
 31
0.0
  0
LINE
  8
0
  6
CONTINUOUS
 62
   250
 10
7.08972
 20
1.59808
 30
0.0
 11
7.08312
 21
1.59808
 31
0.0
  0
LINE
  8
0
  6
CONTINUOUS
 62
   250
 10
7.08972
 20
1.59808
 30
0.0
 11
7.09104
 21
1.59808
 31
0.0
  0
LINE
  8
0
  6
CONTINUOUS
 62
   250
 10
7.09104
 20
1.59808
 30
0.0
 11
7.09148
 21
1.59852
 31
0.0
  0
LINE
  8
0
  6
CONTINUOUS
 62
   250
 10
7.09148
 20
1.59852
 30
0.0
 11
7.09236
 21
1.5994
 31
0.0
  0
LINE
  8
0
  6
CONTINUOUS
 62
   250
 10
7.09236
 20
1.5994
 30
0.0
 11
7.0928
 21
1.59984
 31
0.0
  0
LINE
  8
0
  6
CONTINUOUS
 62
   250
 10
7.0928
 20
1.59984
 30
0.0
 11
7.0928
 21
1.60072
 31
0.0
  0
LINE
  8
0
  6
CONTINUOUS
 62
   250
 10
7.0928
 20
1.60072
 30
0.0
 11
7.0928
 21
1.6016
 31
0.0
  0
LINE
  8
0
  6
CONTINUOUS
 62
   250
 10
7.0928
 20
1.6016
 30
0.0
 11
7.09236
 21
1.60248
 31
0.0
  0
LINE
  8
0
  6
CONTINUOUS
 62
   250
 10
7.09236
 20
1.60248
 30
0.0
 11
7.09192
 21
1.60336
 31
0.0
  0
LINE
  8
0
  6
CONTINUOUS
 62
   250
 10
7.09192
 20
1.60336
 30
0.0
 11
7.09104
 21
1.6038
 31
0.0
  0
LINE
  8
0
  6
CONTINUOUS
 62
   250
 10
7.09104
 20
1.6038
 30
0.0
 11
7.09016
 21
1.60424
 31
0.0
  0
LINE
  8
0
  6
CONTINUOUS
 62
   250
 10
7.09016
 20
1.60424
 30
0.0
 11
7.08928
 21
1.60424
 31
0.0
  0
LINE
  8
0
  6
CONTINUOUS
 62
   250
 10
7.08928
 20
1.60424
 30
0.0
 11
7.08312
 21
1.60424
 31
0.0
  0
LINE
  8
0
  6
CONTINUOUS
 62
   250
 10
7.10336
 20
1.60248
 30
0.0
 11
7.09588
 21
1.59236
 31
0.0
  0
LINE
  8
0
  6
CONTINUOUS
 62
   250
 10
7.1148
 20
1.60336
 30
0.0
 11
7.11392
 21
1.6038
 31
0.0
  0
LINE
  8
0
  6
CONTINUOUS
 62
   250
 10
7.11392
 20
1.6038
 30
0.0
 11
7.1126
 21
1.60424
 31
0.0
  0
LINE
  8
0
  6
CONTINUOUS
 62
   250
 10
7.1126
 20
1.60424
 30
0.0
 11
7.11172
 21
1.60424
 31
0.0
  0
LINE
  8
0
  6
CONTINUOUS
 62
   250
 10
7.11172
 20
1.60424
 30
0.0
 11
7.1104
 21
1.6038
 31
0.0
  0
LINE
  8
0
  6
CONTINUOUS
 62
   250
 10
7.1104
 20
1.6038
 30
0.0
 11
7.10996
 21
1.60336
 31
0.0
  0
LINE
  8
0
  6
CONTINUOUS
 62
   250
 10
7.10996
 20
1.60336
 30
0.0
 11
7.10908
 21
1.60336
 31
0.0
  0
LINE
  8
0
  6
CONTINUOUS
 62
   250
 10
7.10908
 20
1.60336
 30
0.0
 11
7.1082
 21
1.60204
 31
0.0
  0
LINE
  8
0
  6
CONTINUOUS
 62
   250
 10
7.1082
 20
1.60204
 30
0.0
 11
7.10732
 21
1.60072
 31
0.0
  0
LINE
  8
0
  6
CONTINUOUS
 62
   250
 10
7.10732
 20
1.60072
 30
0.0
 11
7.10688
 21
1.59984
 31
0.0
  0
LINE
  8
0
  6
CONTINUOUS
 62
   250
 10
7.10688
 20
1.59984
 30
0.0
 11
7.10644
 21
1.59852
 31
0.0
  0
LINE
  8
0
  6
CONTINUOUS
 62
   250
 10
7.10644
 20
1.59852
 30
0.0
 11
7.10644
 21
1.5972
 31
0.0
  0
LINE
  8
0
  6
CONTINUOUS
 62
   250
 10
7.10644
 20
1.5972
 30
0.0
 11
7.10644
 21
1.59588
 31
0.0
  0
LINE
  8
0
  6
CONTINUOUS
 62
   250
 10
7.10644
 20
1.59588
 30
0.0
 11
7.10688
 21
1.59456
 31
0.0
  0
LINE
  8
0
  6
CONTINUOUS
 62
   250
 10
7.10688
 20
1.59456
 30
0.0
 11
7.10776
 21
1.59324
 31
0.0
  0
LINE
  8
0
  6
CONTINUOUS
 62
   250
 10
7.10776
 20
1.59324
 30
0.0
 11
7.10864
 21
1.59192
 31
0.0
  0
LINE
  8
0
  6
CONTINUOUS
 62
   250
 10
7.10864
 20
1.59192
 30
0.0
 11
7.10908
 21
1.59148
 31
0.0
  0
LINE
  8
0
  6
CONTINUOUS
 62
   250
 10
7.10908
 20
1.59148
 30
0.0
 11
7.1104
 21
1.59104
 31
0.0
  0
LINE
  8
0
  6
CONTINUOUS
 62
   250
 10
7.1104
 20
1.59104
 30
0.0
 11
7.11128
 21
1.5906
 31
0.0
  0
LINE
  8
0
  6
CONTINUOUS
 62
   250
 10
7.11128
 20
1.5906
 30
0.0
 11
7.11216
 21
1.5906
 31
0.0
  0
LINE
  8
0
  6
CONTINUOUS
 62
   250
 10
7.11216
 20
1.5906
 30
0.0
 11
7.11348
 21
1.5906
 31
0.0
  0
LINE
  8
0
  6
CONTINUOUS
 62
   250
 10
7.11348
 20
1.5906
 30
0.0
 11
7.11436
 21
1.59104
 31
0.0
  0
LINE
  8
0
  6
CONTINUOUS
 62
   250
 10
7.11436
 20
1.59104
 30
0.0
 11
7.1148
 21
1.59148
 31
0.0
  0
LINE
  8
0
  6
CONTINUOUS
 62
   250
 10
7.1148
 20
1.59148
 30
0.0
 11
7.11568
 21
1.59236
 31
0.0
  0
LINE
  8
0
  6
CONTINUOUS
 62
   250
 10
7.11568
 20
1.59236
 30
0.0
 11
7.11656
 21
1.59368
 31
0.0
  0
LINE
  8
0
  6
CONTINUOUS
 62
   250
 10
7.11656
 20
1.59368
 30
0.0
 11
7.11744
 21
1.595
 31
0.0
  0
LINE
  8
0
  6
CONTINUOUS
 62
   250
 10
7.11744
 20
1.595
 30
0.0
 11
7.11744
 21
1.59632
 31
0.0
  0
LINE
  8
0
  6
CONTINUOUS
 62
   250
 10
7.11744
 20
1.59632
 30
0.0
 11
7.11744
 21
1.59764
 31
0.0
  0
LINE
  8
0
  6
CONTINUOUS
 62
   250
 10
7.11744
 20
1.59764
 30
0.0
 11
7.11744
 21
1.59896
 31
0.0
  0
LINE
  8
0
  6
CONTINUOUS
 62
   250
 10
7.11744
 20
1.59896
 30
0.0
 11
7.117
 21
1.60028
 31
0.0
  0
LINE
  8
0
  6
CONTINUOUS
 62
   250
 10
7.117
 20
1.60028
 30
0.0
 11
7.11656
 21
1.6016
 31
0.0
  0
LINE
  8
0
  6
CONTINUOUS
 62
   250
 10
7.11656
 20
1.6016
 30
0.0
 11
7.11568
 21
1.60248
 31
0.0
  0
LINE
  8
0
  6
CONTINUOUS
 62
   250
 10
7.11568
 20
1.60248
 30
0.0
 11
7.1148
 21
1.60336
 31
0.0
  0
LINE
  8
0
  6
CONTINUOUS
 62
   250
 10
7.14296
 20
1.60424
 30
0.0
 11
7.13768
 21
1.5906
 31
0.0
  0
LINE
  8
0
  6
CONTINUOUS
 62
   250
 10
7.14032
 20
1.5972
 30
0.0
 11
7.14604
 21
1.5972
 31
0.0
  0
LINE
  8
0
  6
CONTINUOUS
 62
   250
 10
7.14296
 20
1.60424
 30
0.0
 11
7.14912
 21
1.5906
 31
0.0
  0
LINE
  8
0
  6
CONTINUOUS
 62
   250
 10
7.15176
 20
1.60072
 30
0.0
 11
7.15264
 21
1.6016
 31
0.0
  0
LINE
  8
0
  6
CONTINUOUS
 62
   250
 10
7.15264
 20
1.6016
 30
0.0
 11
7.15308
 21
1.60204
 31
0.0
  0
LINE
  8
0
  6
CONTINUOUS
 62
   250
 10
7.15308
 20
1.60204
 30
0.0
 11
7.15396
 21
1.60248
 31
0.0
  0
LINE
  8
0
  6
CONTINUOUS
 62
   250
 10
7.15396
 20
1.60248
 30
0.0
 11
7.15528
 21
1.60292
 31
0.0
  0
LINE
  8
0
  6
CONTINUOUS
 62
   250
 10
7.15528
 20
1.60292
 30
0.0
 11
7.15616
 21
1.60248
 31
0.0
  0
LINE
  8
0
  6
CONTINUOUS
 62
   250
 10
7.15616
 20
1.60248
 30
0.0
 11
7.15704
 21
1.60204
 31
0.0
  0
LINE
  8
0
  6
CONTINUOUS
 62
   250
 10
7.15704
 20
1.60204
 30
0.0
 11
7.15792
 21
1.6016
 31
0.0
  0
LINE
  8
0
  6
CONTINUOUS
 62
   250
 10
7.15792
 20
1.6016
 30
0.0
 11
7.15836
 21
1.60072
 31
0.0
  0
LINE
  8
0
  6
CONTINUOUS
 62
   250
 10
7.15836
 20
1.60072
 30
0.0
 11
7.1588
 21
1.60072
 31
0.0
  0
LINE
  8
0
  6
CONTINUOUS
 62
   250
 10
7.1588
 20
1.60072
 30
0.0
 11
7.15924
 21
1.5994
 31
0.0
  0
LINE
  8
0
  6
CONTINUOUS
 62
   250
 10
7.15924
 20
1.5994
 30
0.0
 11
7.15924
 21
1.59852
 31
0.0
  0
LINE
  8
0
  6
CONTINUOUS
 62
   250
 10
7.15924
 20
1.59852
 30
0.0
 11
7.1588
 21
1.59764
 31
0.0
  0
LINE
  8
0
  6
CONTINUOUS
 62
   250
 10
7.1588
 20
1.59764
 30
0.0
 11
7.1588
 21
1.5972
 31
0.0
  0
LINE
  8
0
  6
CONTINUOUS
 62
   250
 10
7.1588
 20
1.5972
 30
0.0
 11
7.15704
 21
1.595
 31
0.0
  0
LINE
  8
0
  6
CONTINUOUS
 62
   250
 10
7.15704
 20
1.595
 30
0.0
 11
7.15528
 21
1.59324
 31
0.0
  0
LINE
  8
0
  6
CONTINUOUS
 62
   250
 10
7.15528
 20
1.59324
 30
0.0
 11
7.15352
 21
1.59192
 31
0.0
  0
LINE
  8
0
  6
CONTINUOUS
 62
   250
 10
7.15352
 20
1.59192
 30
0.0
 11
7.15176
 21
1.5906
 31
0.0
  0
LINE
  8
0
  6
CONTINUOUS
 62
   250
 10
7.15176
 20
1.5906
 30
0.0
 11
7.15968
 21
1.5906
 31
0.0
  0
LINE
  8
0
  6
CONTINUOUS
 62
   250
 10
7.1852
 20
1.60424
 30
0.0
 11
7.17992
 21
1.5906
 31
0.0
  0
LINE
  8
0
  6
CONTINUOUS
 62
   250
 10
7.18256
 20
1.5972
 30
0.0
 11
7.18828
 21
1.5972
 31
0.0
  0
LINE
  8
0
  6
CONTINUOUS
 62
   250
 10
7.1852
 20
1.60424
 30
0.0
 11
7.19136
 21
1.5906
 31
0.0
  0
LINE
  8
0
  6
CONTINUOUS
 62
   250
 10
7.194
 20
1.60072
 30
0.0
 11
7.19576
 21
1.60248
 31
0.0
  0
LINE
  8
0
  6
CONTINUOUS
 62
   250
 10
7.19576
 20
1.60248
 30
0.0
 11
7.19576
 21
1.5906
 31
0.0
  0
LINE
  8
0
  6
CONTINUOUS
 62
   250
 10
6.64576
 20
1.22188
 30
0.0
 11
6.64576
 21
1.31692
 31
0.0
  0
LINE
  8
0
  6
CONTINUOUS
 62
   250
 10
6.73552
 20
1.22188
 30
0.0
 11
6.73552
 21
1.31692
 31
0.0
  0
LINE
  8
0
  6
CONTINUOUS
 62
   250
 10
6.73552
 20
1.31692
 30
0.0
 11
6.64576
 21
1.31692
 31
0.0
  0
LINE
  8
0
  6
CONTINUOUS
 62
   250
 10
6.73552
 20
1.25224
 30
0.0
 11
6.73684
 21
1.25268
 31
0.0
  0
LINE
  8
0
  6
CONTINUOUS
 62
   250
 10
6.73684
 20
1.25268
 30
0.0
 11
6.73816
 21
1.25312
 31
0.0
  0
LINE
  8
0
  6
CONTINUOUS
 62
   250
 10
6.73816
 20
1.25312
 30
0.0
 11
6.73948
 21
1.25356
 31
0.0
  0
LINE
  8
0
  6
CONTINUOUS
 62
   250
 10
6.73948
 20
1.25356
 30
0.0
 11
6.74036
 21
1.25444
 31
0.0
  0
LINE
  8
0
  6
CONTINUOUS
 62
   250
 10
6.74036
 20
1.25444
 30
0.0
 11
6.74124
 21
1.25532
 31
0.0
  0
LINE
  8
0
  6
CONTINUOUS
 62
   250
 10
6.74124
 20
1.25532
 30
0.0
 11
6.74212
 21
1.2562
 31
0.0
  0
LINE
  8
0
  6
CONTINUOUS
 62
   250
 10
6.74212
 20
1.2562
 30
0.0
 11
6.74256
 21
1.25752
 31
0.0
  0
LINE
  8
0
  6
CONTINUOUS
 62
   250
 10
6.74256
 20
1.25752
 30
0.0
 11
6.743
 21
1.25884
 31
0.0
  0
LINE
  8
0
  6
CONTINUOUS
 62
   250
 10
6.743
 20
1.25884
 30
0.0
 11
6.743
 21
1.26016
 31
0.0
  0
LINE
  8
0
  6
CONTINUOUS
 62
   250
 10
6.743
 20
1.26016
 30
0.0
 11
6.743
 21
1.26148
 31
0.0
  0
LINE
  8
0
  6
CONTINUOUS
 62
   250
 10
6.743
 20
1.26148
 30
0.0
 11
6.74256
 21
1.2628
 31
0.0
  0
LINE
  8
0
  6
CONTINUOUS
 62
   250
 10
6.74256
 20
1.2628
 30
0.0
 11
6.74212
 21
1.26412
 31
0.0
  0
LINE
  8
0
  6
CONTINUOUS
 62
   250
 10
6.74212
 20
1.26412
 30
0.0
 11
6.74124
 21
1.265
 31
0.0
  0
LINE
  8
0
  6
CONTINUOUS
 62
   250
 10
6.74124
 20
1.265
 30
0.0
 11
6.74036
 21
1.26632
 31
0.0
  0
LINE
  8
0
  6
CONTINUOUS
 62
   250
 10
6.74036
 20
1.26632
 30
0.0
 11
6.73904
 21
1.26676
 31
0.0
  0
LINE
  8
0
  6
CONTINUOUS
 62
   250
 10
6.73904
 20
1.26676
 30
0.0
 11
6.73772
 21
1.2672
 31
0.0
  0
LINE
  8
0
  6
CONTINUOUS
 62
   250
 10
6.73772
 20
1.2672
 30
0.0
 11
6.73684
 21
1.26764
 31
0.0
  0
LINE
  8
0
  6
CONTINUOUS
 62
   250
 10
6.73684
 20
1.26764
 30
0.0
 11
6.73552
 21
1.26764
 31
0.0
  0
LINE
  8
0
  6
CONTINUOUS
 62
   250
 10
6.64576
 20
1.26764
 30
0.0
 11
6.64444
 21
1.26764
 31
0.0
  0
LINE
  8
0
  6
CONTINUOUS
 62
   250
 10
6.64444
 20
1.26764
 30
0.0
 11
6.64312
 21
1.2672
 31
0.0
  0
LINE
  8
0
  6
CONTINUOUS
 62
   250
 10
6.64312
 20
1.2672
 30
0.0
 11
6.6418
 21
1.26676
 31
0.0
  0
LINE
  8
0
  6
CONTINUOUS
 62
   250
 10
6.6418
 20
1.26676
 30
0.0
 11
6.64092
 21
1.26588
 31
0.0
  0
LINE
  8
0
  6
CONTINUOUS
 62
   250
 10
6.64092
 20
1.26588
 30
0.0
 11
6.64004
 21
1.265
 31
0.0
  0
LINE
  8
0
  6
CONTINUOUS
 62
   250
 10
6.64004
 20
1.265
 30
0.0
 11
6.63916
 21
1.26368
 31
0.0
  0
LINE
  8
0
  6
CONTINUOUS
 62
   250
 10
6.63916
 20
1.26368
 30
0.0
 11
6.63872
 21
1.2628
 31
0.0
  0
LINE
  8
0
  6
CONTINUOUS
 62
   250
 10
6.63872
 20
1.2628
 30
0.0
 11
6.63828
 21
1.26148
 31
0.0
  0
LINE
  8
0
  6
CONTINUOUS
 62
   250
 10
6.63828
 20
1.26148
 30
0.0
 11
6.63828
 21
1.26016
 31
0.0
  0
LINE
  8
0
  6
CONTINUOUS
 62
   250
 10
6.63828
 20
1.26016
 30
0.0
 11
6.63828
 21
1.2584
 31
0.0
  0
LINE
  8
0
  6
CONTINUOUS
 62
   250
 10
6.63828
 20
1.2584
 30
0.0
 11
6.63872
 21
1.25752
 31
0.0
  0
LINE
  8
0
  6
CONTINUOUS
 62
   250
 10
6.63872
 20
1.25752
 30
0.0
 11
6.6396
 21
1.2562
 31
0.0
  0
LINE
  8
0
  6
CONTINUOUS
 62
   250
 10
6.6396
 20
1.2562
 30
0.0
 11
6.64004
 21
1.25488
 31
0.0
  0
LINE
  8
0
  6
CONTINUOUS
 62
   250
 10
6.64004
 20
1.25488
 30
0.0
 11
6.64092
 21
1.254
 31
0.0
  0
LINE
  8
0
  6
CONTINUOUS
 62
   250
 10
6.64092
 20
1.254
 30
0.0
 11
6.64224
 21
1.25312
 31
0.0
  0
LINE
  8
0
  6
CONTINUOUS
 62
   250
 10
6.64224
 20
1.25312
 30
0.0
 11
6.64356
 21
1.25268
 31
0.0
  0
LINE
  8
0
  6
CONTINUOUS
 62
   250
 10
6.64356
 20
1.25268
 30
0.0
 11
6.64488
 21
1.25224
 31
0.0
  0
LINE
  8
0
  6
CONTINUOUS
 62
   250
 10
6.64488
 20
1.25224
 30
0.0
 11
6.64576
 21
1.25224
 31
0.0
  0
LINE
  8
0
  6
CONTINUOUS
 62
   250
 10
6.65588
 20
1.57784
 30
0.0
 11
6.65588
 21
1.51624
 31
0.0
  0
LINE
  8
0
  6
CONTINUOUS
 62
   250
 10
7.23448
 20
1.51624
 30
0.0
 11
7.23448
 21
1.57784
 31
0.0
  0
LINE
  8
0
  6
CONTINUOUS
 62
   250
 10
6.87632
 20
1.23288
 30
0.0
 11
7.16188
 21
1.23288
 31
0.0
  0
LINE
  8
0
  6
CONTINUOUS
 62
   250
 10
6.87632
 20
1.23288
 30
0.0
 11
6.87632
 21
1.27468
 31
0.0
  0
LINE
  8
0
  6
CONTINUOUS
 62
   250
 10
6.87632
 20
1.27468
 30
0.0
 11
7.16188
 21
1.27468
 31
0.0
  0
LINE
  8
0
  6
CONTINUOUS
 62
   250
 10
7.16188
 20
1.27468
 30
0.0
 11
7.16188
 21
1.23288
 31
0.0
  0
LINE
  8
0
  6
CONTINUOUS
 62
   250
 10
6.44908
 20
1.6588
 30
0.0
 11
6.44864
 21
1.66056
 31
0.0
  0
LINE
  8
0
  6
CONTINUOUS
 62
   250
 10
6.44864
 20
1.66056
 30
0.0
 11
6.4482
 21
1.66188
 31
0.0
  0
LINE
  8
0
  6
CONTINUOUS
 62
   250
 10
6.4482
 20
1.66188
 30
0.0
 11
6.44776
 21
1.66364
 31
0.0
  0
LINE
  8
0
  6
CONTINUOUS
 62
   250
 10
6.44776
 20
1.66364
 30
0.0
 11
6.44732
 21
1.66496
 31
0.0
  0
LINE
  8
0
  6
CONTINUOUS
 62
   250
 10
6.44732
 20
1.66496
 30
0.0
 11
6.446
 21
1.66584
 31
0.0
  0
LINE
  8
0
  6
CONTINUOUS
 62
   250
 10
6.446
 20
1.66584
 30
0.0
 11
6.44512
 21
1.66716
 31
0.0
  0
LINE
  8
0
  6
CONTINUOUS
 62
   250
 10
6.44512
 20
1.66716
 30
0.0
 11
6.44424
 21
1.66804
 31
0.0
  0
LINE
  8
0
  6
CONTINUOUS
 62
   250
 10
6.44424
 20
1.66804
 30
0.0
 11
6.44248
 21
1.66848
 31
0.0
  0
LINE
  8
0
  6
CONTINUOUS
 62
   250
 10
6.44248
 20
1.66848
 30
0.0
 11
6.44116
 21
1.66892
 31
0.0
  0
LINE
  8
0
  6
CONTINUOUS
 62
   250
 10
6.44116
 20
1.66892
 30
0.0
 11
6.43984
 21
1.66936
 31
0.0
  0
LINE
  8
0
  6
CONTINUOUS
 62
   250
 10
6.43984
 20
1.66936
 30
0.0
 11
6.43852
 21
1.6698
 31
0.0
  0
LINE
  8
0
  6
CONTINUOUS
 62
   250
 10
6.43852
 20
1.6698
 30
0.0
 11
6.4372
 21
1.66936
 31
0.0
  0
LINE
  8
0
  6
CONTINUOUS
 62
   250
 10
6.4372
 20
1.66936
 30
0.0
 11
6.43544
 21
1.66936
 31
0.0
  0
LINE
  8
0
  6
CONTINUOUS
 62
   250
 10
6.43544
 20
1.66936
 30
0.0
 11
6.43412
 21
1.66892
 31
0.0
  0
LINE
  8
0
  6
CONTINUOUS
 62
   250
 10
6.43412
 20
1.66892
 30
0.0
 11
6.4328
 21
1.66804
 31
0.0
  0
LINE
  8
0
  6
CONTINUOUS
 62
   250
 10
6.4328
 20
1.66804
 30
0.0
 11
6.43148
 21
1.66716
 31
0.0
  0
LINE
  8
0
  6
CONTINUOUS
 62
   250
 10
6.43148
 20
1.66716
 30
0.0
 11
6.4306
 21
1.66628
 31
0.0
  0
LINE
  8
0
  6
CONTINUOUS
 62
   250
 10
6.4306
 20
1.66628
 30
0.0
 11
6.42928
 21
1.66496
 31
0.0
  0
LINE
  8
0
  6
CONTINUOUS
 62
   250
 10
6.42928
 20
1.66496
 30
0.0
 11
6.42884
 21
1.66364
 31
0.0
  0
LINE
  8
0
  6
CONTINUOUS
 62
   250
 10
6.42884
 20
1.66364
 30
0.0
 11
6.42796
 21
1.66232
 31
0.0
  0
LINE
  8
0
  6
CONTINUOUS
 62
   250
 10
6.42796
 20
1.66232
 30
0.0
 11
6.42752
 21
1.661
 31
0.0
  0
LINE
  8
0
  6
CONTINUOUS
 62
   250
 10
6.42752
 20
1.661
 30
0.0
 11
6.42752
 21
1.65968
 31
0.0
  0
LINE
  8
0
  6
CONTINUOUS
 62
   250
 10
6.42752
 20
1.65968
 30
0.0
 11
6.42752
 21
1.65792
 31
0.0
  0
LINE
  8
0
  6
CONTINUOUS
 62
   250
 10
6.42752
 20
1.65792
 30
0.0
 11
6.42796
 21
1.6566
 31
0.0
  0
LINE
  8
0
  6
CONTINUOUS
 62
   250
 10
6.42796
 20
1.6566
 30
0.0
 11
6.4284
 21
1.65528
 31
0.0
  0
LINE
  8
0
  6
CONTINUOUS
 62
   250
 10
6.4284
 20
1.65528
 30
0.0
 11
6.42884
 21
1.65396
 31
0.0
  0
LINE
  8
0
  6
CONTINUOUS
 62
   250
 10
6.42884
 20
1.65396
 30
0.0
 11
6.42972
 21
1.65264
 31
0.0
  0
LINE
  8
0
  6
CONTINUOUS
 62
   250
 10
6.42972
 20
1.65264
 30
0.0
 11
6.4306
 21
1.65132
 31
0.0
  0
LINE
  8
0
  6
CONTINUOUS
 62
   250
 10
6.4306
 20
1.65132
 30
0.0
 11
6.43192
 21
1.65044
 31
0.0
  0
LINE
  8
0
  6
CONTINUOUS
 62
   250
 10
6.43192
 20
1.65044
 30
0.0
 11
6.4328
 21
1.64956
 31
0.0
  0
LINE
  8
0
  6
CONTINUOUS
 62
   250
 10
6.4328
 20
1.64956
 30
0.0
 11
6.43412
 21
1.64912
 31
0.0
  0
LINE
  8
0
  6
CONTINUOUS
 62
   250
 10
6.43412
 20
1.64912
 30
0.0
 11
6.43588
 21
1.64868
 31
0.0
  0
LINE
  8
0
  6
CONTINUOUS
 62
   250
 10
6.43588
 20
1.64868
 30
0.0
 11
6.4372
 21
1.64824
 31
0.0
  0
LINE
  8
0
  6
CONTINUOUS
 62
   250
 10
6.4372
 20
1.64824
 30
0.0
 11
6.43896
 21
1.64824
 31
0.0
  0
LINE
  8
0
  6
CONTINUOUS
 62
   250
 10
6.43896
 20
1.64824
 30
0.0
 11
6.44028
 21
1.64824
 31
0.0
  0
LINE
  8
0
  6
CONTINUOUS
 62
   250
 10
6.44028
 20
1.64824
 30
0.0
 11
6.4416
 21
1.64868
 31
0.0
  0
LINE
  8
0
  6
CONTINUOUS
 62
   250
 10
6.4416
 20
1.64868
 30
0.0
 11
6.44292
 21
1.64956
 31
0.0
  0
LINE
  8
0
  6
CONTINUOUS
 62
   250
 10
6.44292
 20
1.64956
 30
0.0
 11
6.44424
 21
1.65
 31
0.0
  0
LINE
  8
0
  6
CONTINUOUS
 62
   250
 10
6.44424
 20
1.65
 30
0.0
 11
6.44556
 21
1.65132
 31
0.0
  0
LINE
  8
0
  6
CONTINUOUS
 62
   250
 10
6.44556
 20
1.65132
 30
0.0
 11
6.44644
 21
1.6522
 31
0.0
  0
LINE
  8
0
  6
CONTINUOUS
 62
   250
 10
6.44644
 20
1.6522
 30
0.0
 11
6.44732
 21
1.65352
 31
0.0
  0
LINE
  8
0
  6
CONTINUOUS
 62
   250
 10
6.44732
 20
1.65352
 30
0.0
 11
6.4482
 21
1.65484
 31
0.0
  0
LINE
  8
0
  6
CONTINUOUS
 62
   250
 10
6.4482
 20
1.65484
 30
0.0
 11
6.4482
 21
1.65616
 31
0.0
  0
LINE
  8
0
  6
CONTINUOUS
 62
   250
 10
6.4482
 20
1.65616
 30
0.0
 11
6.44908
 21
1.65748
 31
0.0
  0
LINE
  8
0
  6
CONTINUOUS
 62
   250
 10
6.44908
 20
1.65748
 30
0.0
 11
6.44908
 21
1.6588
 31
0.0
  0
LINE
  8
0
  6
CONTINUOUS
 62
   250
 10
6.4196
 20
1.67772
 30
0.0
 11
6.45656
 21
1.67772
 31
0.0
  0
LINE
  8
0
  6
CONTINUOUS
 62
   250
 10
6.4196
 20
1.6412
 30
0.0
 11
6.4196
 21
1.67772
 31
0.0
  0
LINE
  8
0
  6
CONTINUOUS
 62
   250
 10
6.45656
 20
1.6412
 30
0.0
 11
6.4196
 21
1.6412
 31
0.0
  0
LINE
  8
0
  6
CONTINUOUS
 62
   250
 10
6.45656
 20
1.67772
 30
0.0
 11
6.45656
 21
1.6412
 31
0.0
  0
LINE
  8
0
  6
CONTINUOUS
 62
   250
 10
6.44556
 20
1.6588
 30
0.0
 11
6.43104
 21
1.6588
 31
0.0
  0
LINE
  8
0
  6
CONTINUOUS
 62
   250
 10
6.43808
 20
1.66628
 30
0.0
 11
6.43808
 21
1.65176
 31
0.0
  0
LINE
  8
0
  6
CONTINUOUS
 62
   250
 10
6.6176
 20
1.53956
 30
0.0
 11
6.6176
 21
1.5378
 31
0.0
  0
LINE
  8
0
  6
CONTINUOUS
 62
   250
 10
6.6176
 20
1.5378
 30
0.0
 11
6.61804
 21
1.53604
 31
0.0
  0
LINE
  8
0
  6
CONTINUOUS
 62
   250
 10
6.61804
 20
1.53604
 30
0.0
 11
6.61848
 21
1.53384
 31
0.0
  0
LINE
  8
0
  6
CONTINUOUS
 62
   250
 10
6.61848
 20
1.53384
 30
0.0
 11
6.6198
 21
1.53252
 31
0.0
  0
LINE
  8
0
  6
CONTINUOUS
 62
   250
 10
6.6198
 20
1.53252
 30
0.0
 11
6.62068
 21
1.53076
 31
0.0
  0
LINE
  8
0
  6
CONTINUOUS
 62
   250
 10
6.62068
 20
1.53076
 30
0.0
 11
6.622
 21
1.52944
 31
0.0
  0
LINE
  8
0
  6
CONTINUOUS
 62
   250
 10
6.622
 20
1.52944
 30
0.0
 11
6.62332
 21
1.52856
 31
0.0
  0
LINE
  8
0
  6
CONTINUOUS
 62
   250
 10
6.62332
 20
1.52856
 30
0.0
 11
6.62508
 21
1.52768
 31
0.0
  0
LINE
  8
0
  6
CONTINUOUS
 62
   250
 10
6.62508
 20
1.52768
 30
0.0
 11
6.62684
 21
1.5268
 31
0.0
  0
LINE
  8
0
  6
CONTINUOUS
 62
   250
 10
6.62684
 20
1.5268
 30
0.0
 11
6.6286
 21
1.52636
 31
0.0
  0
LINE
  8
0
  6
CONTINUOUS
 62
   250
 10
6.6286
 20
1.52636
 30
0.0
 11
6.63036
 21
1.52636
 31
0.0
  0
LINE
  8
0
  6
CONTINUOUS
 62
   250
 10
6.63036
 20
1.52636
 30
0.0
 11
6.63212
 21
1.52636
 31
0.0
  0
LINE
  8
0
  6
CONTINUOUS
 62
   250
 10
6.63212
 20
1.52636
 30
0.0
 11
6.63388
 21
1.5268
 31
0.0
  0
LINE
  8
0
  6
CONTINUOUS
 62
   250
 10
6.63388
 20
1.5268
 30
0.0
 11
6.63608
 21
1.52724
 31
0.0
  0
LINE
  8
0
  6
CONTINUOUS
 62
   250
 10
6.63608
 20
1.52724
 30
0.0
 11
6.6374
 21
1.52812
 31
0.0
  0
LINE
  8
0
  6
CONTINUOUS
 62
   250
 10
6.6374
 20
1.52812
 30
0.0
 11
6.63916
 21
1.529
 31
0.0
  0
LINE
  8
0
  6
CONTINUOUS
 62
   250
 10
6.63916
 20
1.529
 30
0.0
 11
6.64048
 21
1.53032
 31
0.0
  0
LINE
  8
0
  6
CONTINUOUS
 62
   250
 10
6.64048
 20
1.53032
 30
0.0
 11
6.6418
 21
1.53164
 31
0.0
  0
LINE
  8
0
  6
CONTINUOUS
 62
   250
 10
6.6418
 20
1.53164
 30
0.0
 11
6.64268
 21
1.5334
 31
0.0
  0
LINE
  8
0
  6
CONTINUOUS
 62
   250
 10
6.64268
 20
1.5334
 30
0.0
 11
6.64356
 21
1.53472
 31
0.0
  0
LINE
  8
0
  6
CONTINUOUS
 62
   250
 10
6.64356
 20
1.53472
 30
0.0
 11
6.644
 21
1.53692
 31
0.0
  0
LINE
  8
0
  6
CONTINUOUS
 62
   250
 10
6.644
 20
1.53692
 30
0.0
 11
6.644
 21
1.53868
 31
0.0
  0
LINE
  8
0
  6
CONTINUOUS
 62
   250
 10
6.644
 20
1.53868
 30
0.0
 11
6.644
 21
1.53956
 31
0.0
  0
LINE
  8
0
  6
CONTINUOUS
 62
   250
 10
6.6176
 20
1.53956
 30
0.0
 11
6.6176
 21
1.55496
 31
0.0
  0
LINE
  8
0
  6
CONTINUOUS
 62
   250
 10
6.644
 20
1.53956
 30
0.0
 11
6.644
 21
1.55496
 31
0.0
  0
LINE
  8
0
  6
CONTINUOUS
 62
   250
 10
6.644
 20
1.55496
 30
0.0
 11
6.644
 21
1.55672
 31
0.0
  0
LINE
  8
0
  6
CONTINUOUS
 62
   250
 10
6.644
 20
1.55672
 30
0.0
 11
6.64356
 21
1.55848
 31
0.0
  0
LINE
  8
0
  6
CONTINUOUS
 62
   250
 10
6.64356
 20
1.55848
 30
0.0
 11
6.64312
 21
1.56024
 31
0.0
  0
LINE
  8
0
  6
CONTINUOUS
 62
   250
 10
6.64312
 20
1.56024
 30
0.0
 11
6.64224
 21
1.562
 31
0.0
  0
LINE
  8
0
  6
CONTINUOUS
 62
   250
 10
6.64224
 20
1.562
 30
0.0
 11
6.64136
 21
1.56332
 31
0.0
  0
LINE
  8
0
  6
CONTINUOUS
 62
   250
 10
6.64136
 20
1.56332
 30
0.0
 11
6.64004
 21
1.56464
 31
0.0
  0
LINE
  8
0
  6
CONTINUOUS
 62
   250
 10
6.64004
 20
1.56464
 30
0.0
 11
6.63828
 21
1.56596
 31
0.0
  0
LINE
  8
0
  6
CONTINUOUS
 62
   250
 10
6.63828
 20
1.56596
 30
0.0
 11
6.63696
 21
1.56684
 31
0.0
  0
LINE
  8
0
  6
CONTINUOUS
 62
   250
 10
6.63696
 20
1.56684
 30
0.0
 11
6.6352
 21
1.56772
 31
0.0
  0
LINE
  8
0
  6
CONTINUOUS
 62
   250
 10
6.6352
 20
1.56772
 30
0.0
 11
6.63344
 21
1.56772
 31
0.0
  0
LINE
  8
0
  6
CONTINUOUS
 62
   250
 10
6.63344
 20
1.56772
 30
0.0
 11
6.63124
 21
1.56816
 31
0.0
  0
LINE
  8
0
  6
CONTINUOUS
 62
   250
 10
6.63124
 20
1.56816
 30
0.0
 11
6.62948
 21
1.56816
 31
0.0
  0
LINE
  8
0
  6
CONTINUOUS
 62
   250
 10
6.62948
 20
1.56816
 30
0.0
 11
6.62772
 21
1.56772
 31
0.0
  0
LINE
  8
0
  6
CONTINUOUS
 62
   250
 10
6.62772
 20
1.56772
 30
0.0
 11
6.62596
 21
1.56684
 31
0.0
  0
LINE
  8
0
  6
CONTINUOUS
 62
   250
 10
6.62596
 20
1.56684
 30
0.0
 11
6.6242
 21
1.5664
 31
0.0
  0
LINE
  8
0
  6
CONTINUOUS
 62
   250
 10
6.6242
 20
1.5664
 30
0.0
 11
6.62288
 21
1.56508
 31
0.0
  0
LINE
  8
0
  6
CONTINUOUS
 62
   250
 10
6.62288
 20
1.56508
 30
0.0
 11
6.62156
 21
1.5642
 31
0.0
  0
LINE
  8
0
  6
CONTINUOUS
 62
   250
 10
6.62156
 20
1.5642
 30
0.0
 11
6.62024
 21
1.56288
 31
0.0
  0
LINE
  8
0
  6
CONTINUOUS
 62
   250
 10
6.62024
 20
1.56288
 30
0.0
 11
6.61936
 21
1.56112
 31
0.0
  0
LINE
  8
0
  6
CONTINUOUS
 62
   250
 10
6.61936
 20
1.56112
 30
0.0
 11
6.61848
 21
1.55936
 31
0.0
  0
LINE
  8
0
  6
CONTINUOUS
 62
   250
 10
6.61848
 20
1.55936
 30
0.0
 11
6.61804
 21
1.5576
 31
0.0
  0
LINE
  8
0
  6
CONTINUOUS
 62
   250
 10
6.61804
 20
1.5576
 30
0.0
 11
6.6176
 21
1.55584
 31
0.0
  0
LINE
  8
0
  6
CONTINUOUS
 62
   250
 10
6.6176
 20
1.55584
 30
0.0
 11
6.6176
 21
1.55496
 31
0.0
  0
LINE
  8
0
  6
CONTINUOUS
 62
   250
 10
7.24636
 20
1.53956
 30
0.0
 11
7.24636
 21
1.5378
 31
0.0
  0
LINE
  8
0
  6
CONTINUOUS
 62
   250
 10
7.24636
 20
1.5378
 30
0.0
 11
7.2468
 21
1.53604
 31
0.0
  0
LINE
  8
0
  6
CONTINUOUS
 62
   250
 10
7.2468
 20
1.53604
 30
0.0
 11
7.24724
 21
1.53384
 31
0.0
  0
LINE
  8
0
  6
CONTINUOUS
 62
   250
 10
7.24724
 20
1.53384
 30
0.0
 11
7.24812
 21
1.53252
 31
0.0
  0
LINE
  8
0
  6
CONTINUOUS
 62
   250
 10
7.24812
 20
1.53252
 30
0.0
 11
7.24944
 21
1.53076
 31
0.0
  0
LINE
  8
0
  6
CONTINUOUS
 62
   250
 10
7.24944
 20
1.53076
 30
0.0
 11
7.25076
 21
1.52944
 31
0.0
  0
LINE
  8
0
  6
CONTINUOUS
 62
   250
 10
7.25076
 20
1.52944
 30
0.0
 11
7.25208
 21
1.52856
 31
0.0
  0
LINE
  8
0
  6
CONTINUOUS
 62
   250
 10
7.25208
 20
1.52856
 30
0.0
 11
7.2534
 21
1.52768
 31
0.0
  0
LINE
  8
0
  6
CONTINUOUS
 62
   250
 10
7.2534
 20
1.52768
 30
0.0
 11
7.25516
 21
1.5268
 31
0.0
  0
LINE
  8
0
  6
CONTINUOUS
 62
   250
 10
7.25516
 20
1.5268
 30
0.0
 11
7.25692
 21
1.52636
 31
0.0
  0
LINE
  8
0
  6
CONTINUOUS
 62
   250
 10
7.25692
 20
1.52636
 30
0.0
 11
7.25912
 21
1.52636
 31
0.0
  0
LINE
  8
0
  6
CONTINUOUS
 62
   250
 10
7.25912
 20
1.52636
 30
0.0
 11
7.26088
 21
1.52636
 31
0.0
  0
LINE
  8
0
  6
CONTINUOUS
 62
   250
 10
7.26088
 20
1.52636
 30
0.0
 11
7.26264
 21
1.5268
 31
0.0
  0
LINE
  8
0
  6
CONTINUOUS
 62
   250
 10
7.26264
 20
1.5268
 30
0.0
 11
7.2644
 21
1.52724
 31
0.0
  0
LINE
  8
0
  6
CONTINUOUS
 62
   250
 10
7.2644
 20
1.52724
 30
0.0
 11
7.26616
 21
1.52812
 31
0.0
  0
LINE
  8
0
  6
CONTINUOUS
 62
   250
 10
7.26616
 20
1.52812
 30
0.0
 11
7.26748
 21
1.529
 31
0.0
  0
LINE
  8
0
  6
CONTINUOUS
 62
   250
 10
7.26748
 20
1.529
 30
0.0
 11
7.2688
 21
1.53032
 31
0.0
  0
LINE
  8
0
  6
CONTINUOUS
 62
   250
 10
7.2688
 20
1.53032
 30
0.0
 11
7.27012
 21
1.53164
 31
0.0
  0
LINE
  8
0
  6
CONTINUOUS
 62
   250
 10
7.27012
 20
1.53164
 30
0.0
 11
7.271
 21
1.5334
 31
0.0
  0
LINE
  8
0
  6
CONTINUOUS
 62
   250
 10
7.271
 20
1.5334
 30
0.0
 11
7.27188
 21
1.53472
 31
0.0
  0
LINE
  8
0
  6
CONTINUOUS
 62
   250
 10
7.27188
 20
1.53472
 30
0.0
 11
7.27232
 21
1.53692
 31
0.0
  0
LINE
  8
0
  6
CONTINUOUS
 62
   250
 10
7.27232
 20
1.53692
 30
0.0
 11
7.27276
 21
1.53868
 31
0.0
  0
LINE
  8
0
  6
CONTINUOUS
 62
   250
 10
7.27276
 20
1.53868
 30
0.0
 11
7.27276
 21
1.53956
 31
0.0
  0
LINE
  8
0
  6
CONTINUOUS
 62
   250
 10
7.24636
 20
1.53956
 30
0.0
 11
7.24636
 21
1.55496
 31
0.0
  0
LINE
  8
0
  6
CONTINUOUS
 62
   250
 10
7.27276
 20
1.53956
 30
0.0
 11
7.27276
 21
1.55496
 31
0.0
  0
LINE
  8
0
  6
CONTINUOUS
 62
   250
 10
7.27276
 20
1.55496
 30
0.0
 11
7.27276
 21
1.55672
 31
0.0
  0
LINE
  8
0
  6
CONTINUOUS
 62
   250
 10
7.27276
 20
1.55672
 30
0.0
 11
7.27232
 21
1.55848
 31
0.0
  0
LINE
  8
0
  6
CONTINUOUS
 62
   250
 10
7.27232
 20
1.55848
 30
0.0
 11
7.27188
 21
1.56024
 31
0.0
  0
LINE
  8
0
  6
CONTINUOUS
 62
   250
 10
7.27188
 20
1.56024
 30
0.0
 11
7.27056
 21
1.562
 31
0.0
  0
LINE
  8
0
  6
CONTINUOUS
 62
   250
 10
7.27056
 20
1.562
 30
0.0
 11
7.26968
 21
1.56332
 31
0.0
  0
LINE
  8
0
  6
CONTINUOUS
 62
   250
 10
7.26968
 20
1.56332
 30
0.0
 11
7.26836
 21
1.56464
 31
0.0
  0
LINE
  8
0
  6
CONTINUOUS
 62
   250
 10
7.26836
 20
1.56464
 30
0.0
 11
7.26704
 21
1.56596
 31
0.0
  0
LINE
  8
0
  6
CONTINUOUS
 62
   250
 10
7.26704
 20
1.56596
 30
0.0
 11
7.26528
 21
1.56684
 31
0.0
  0
LINE
  8
0
  6
CONTINUOUS
 62
   250
 10
7.26528
 20
1.56684
 30
0.0
 11
7.26352
 21
1.56772
 31
0.0
  0
LINE
  8
0
  6
CONTINUOUS
 62
   250
 10
7.26352
 20
1.56772
 30
0.0
 11
7.26176
 21
1.56772
 31
0.0
  0
LINE
  8
0
  6
CONTINUOUS
 62
   250
 10
7.26176
 20
1.56772
 30
0.0
 11
7.26
 21
1.56816
 31
0.0
  0
LINE
  8
0
  6
CONTINUOUS
 62
   250
 10
7.26
 20
1.56816
 30
0.0
 11
7.25824
 21
1.56816
 31
0.0
  0
LINE
  8
0
  6
CONTINUOUS
 62
   250
 10
7.25824
 20
1.56816
 30
0.0
 11
7.25648
 21
1.56772
 31
0.0
  0
LINE
  8
0
  6
CONTINUOUS
 62
   250
 10
7.25648
 20
1.56772
 30
0.0
 11
7.25472
 21
1.56684
 31
0.0
  0
LINE
  8
0
  6
CONTINUOUS
 62
   250
 10
7.25472
 20
1.56684
 30
0.0
 11
7.25296
 21
1.5664
 31
0.0
  0
LINE
  8
0
  6
CONTINUOUS
 62
   250
 10
7.25296
 20
1.5664
 30
0.0
 11
7.2512
 21
1.56508
 31
0.0
  0
LINE
  8
0
  6
CONTINUOUS
 62
   250
 10
7.2512
 20
1.56508
 30
0.0
 11
7.24988
 21
1.5642
 31
0.0
  0
LINE
  8
0
  6
CONTINUOUS
 62
   250
 10
7.24988
 20
1.5642
 30
0.0
 11
7.24856
 21
1.56288
 31
0.0
  0
LINE
  8
0
  6
CONTINUOUS
 62
   250
 10
7.24856
 20
1.56288
 30
0.0
 11
7.24768
 21
1.56112
 31
0.0
  0
LINE
  8
0
  6
CONTINUOUS
 62
   250
 10
7.24768
 20
1.56112
 30
0.0
 11
7.2468
 21
1.55936
 31
0.0
  0
LINE
  8
0
  6
CONTINUOUS
 62
   250
 10
7.2468
 20
1.55936
 30
0.0
 11
7.24636
 21
1.5576
 31
0.0
  0
LINE
  8
0
  6
CONTINUOUS
 62
   250
 10
7.24636
 20
1.5576
 30
0.0
 11
7.24636
 21
1.55584
 31
0.0
  0
LINE
  8
0
  6
CONTINUOUS
 62
   250
 10
7.24636
 20
1.55584
 30
0.0
 11
7.24636
 21
1.55496
 31
0.0
  0
LINE
  8
0
  6
CONTINUOUS
 62
   250
 10
6.5296
 20
1.4102
 30
0.0
 11
6.5296
 21
1.41372
 31
0.0
  0
LINE
  8
0
  6
CONTINUOUS
 62
   250
 10
6.5296
 20
1.41372
 30
0.0
 11
6.52916
 21
1.41636
 31
0.0
  0
LINE
  8
0
  6
CONTINUOUS
 62
   250
 10
6.52916
 20
1.41636
 30
0.0
 11
6.52872
 21
1.41944
 31
0.0
  0
LINE
  8
0
  6
CONTINUOUS
 62
   250
 10
6.52872
 20
1.41944
 30
0.0
 11
6.52784
 21
1.42208
 31
0.0
  0
LINE
  8
0
  6
CONTINUOUS
 62
   250
 10
6.52784
 20
1.42208
 30
0.0
 11
6.52696
 21
1.42472
 31
0.0
  0
LINE
  8
0
  6
CONTINUOUS
 62
   250
 10
6.52696
 20
1.42472
 30
0.0
 11
6.52608
 21
1.42692
 31
0.0
  0
LINE
  8
0
  6
CONTINUOUS
 62
   250
 10
6.52608
 20
1.42692
 30
0.0
 11
6.52476
 21
1.42956
 31
0.0
  0
LINE
  8
0
  6
CONTINUOUS
 62
   250
 10
6.52476
 20
1.42956
 30
0.0
 11
6.52344
 21
1.43176
 31
0.0
  0
LINE
  8
0
  6
CONTINUOUS
 62
   250
 10
6.52344
 20
1.43176
 30
0.0
 11
6.52168
 21
1.43396
 31
0.0
  0
LINE
  8
0
  6
CONTINUOUS
 62
   250
 10
6.52168
 20
1.43396
 30
0.0
 11
6.51992
 21
1.43616
 31
0.0
  0
LINE
  8
0
  6
CONTINUOUS
 62
   250
 10
6.51992
 20
1.43616
 30
0.0
 11
6.51816
 21
1.43836
 31
0.0
  0
LINE
  8
0
  6
CONTINUOUS
 62
   250
 10
6.51816
 20
1.43836
 30
0.0
 11
6.51596
 21
1.44012
 31
0.0
  0
LINE
  8
0
  6
CONTINUOUS
 62
   250
 10
6.51596
 20
1.44012
 30
0.0
 11
6.51376
 21
1.44188
 31
0.0
  0
LINE
  8
0
  6
CONTINUOUS
 62
   250
 10
6.51376
 20
1.44188
 30
0.0
 11
6.51156
 21
1.44364
 31
0.0
  0
LINE
  8
0
  6
CONTINUOUS
 62
   250
 10
6.51156
 20
1.44364
 30
0.0
 11
6.50936
 21
1.44496
 31
0.0
  0
LINE
  8
0
  6
CONTINUOUS
 62
   250
 10
6.50936
 20
1.44496
 30
0.0
 11
6.50672
 21
1.44628
 31
0.0
  0
LINE
  8
0
  6
CONTINUOUS
 62
   250
 10
6.50672
 20
1.44628
 30
0.0
 11
6.50452
 21
1.44716
 31
0.0
  0
LINE
  8
0
  6
CONTINUOUS
 62
   250
 10
6.50452
 20
1.44716
 30
0.0
 11
6.50188
 21
1.44804
 31
0.0
  0
LINE
  8
0
  6
CONTINUOUS
 62
   250
 10
6.50188
 20
1.44804
 30
0.0
 11
6.4988
 21
1.44892
 31
0.0
  0
LINE
  8
0
  6
CONTINUOUS
 62
   250
 10
6.4988
 20
1.44892
 30
0.0
 11
6.4966
 21
1.44936
 31
0.0
  0
LINE
  8
0
  6
CONTINUOUS
 62
   250
 10
6.4966
 20
1.44936
 30
0.0
 11
6.49352
 21
1.4498
 31
0.0
  0
LINE
  8
0
  6
CONTINUOUS
 62
   250
 10
6.49352
 20
1.4498
 30
0.0
 11
6.49088
 21
1.4498
 31
0.0
  0
LINE
  8
0
  6
CONTINUOUS
 62
   250
 10
6.49088
 20
1.4498
 30
0.0
 11
6.48824
 21
1.4498
 31
0.0
  0
LINE
  8
0
  6
CONTINUOUS
 62
   250
 10
6.48824
 20
1.4498
 30
0.0
 11
6.4856
 21
1.44936
 31
0.0
  0
LINE
  8
0
  6
CONTINUOUS
 62
   250
 10
6.4856
 20
1.44936
 30
0.0
 11
6.48252
 21
1.44936
 31
0.0
  0
LINE
  8
0
  6
CONTINUOUS
 62
   250
 10
6.48252
 20
1.44936
 30
0.0
 11
6.47988
 21
1.44848
 31
0.0
  0
LINE
  8
0
  6
CONTINUOUS
 62
   250
 10
6.47988
 20
1.44848
 30
0.0
 11
6.47724
 21
1.4476
 31
0.0
  0
LINE
  8
0
  6
CONTINUOUS
 62
   250
 10
6.47724
 20
1.4476
 30
0.0
 11
6.47504
 21
1.44672
 31
0.0
  0
LINE
  8
0
  6
CONTINUOUS
 62
   250
 10
6.47504
 20
1.44672
 30
0.0
 11
6.4724
 21
1.4454
 31
0.0
  0
LINE
  8
0
  6
CONTINUOUS
 62
   250
 10
6.4724
 20
1.4454
 30
0.0
 11
6.46976
 21
1.44408
 31
0.0
  0
LINE
  8
0
  6
CONTINUOUS
 62
   250
 10
6.46976
 20
1.44408
 30
0.0
 11
6.46756
 21
1.44276
 31
0.0
  0
LINE
  8
0
  6
CONTINUOUS
 62
   250
 10
6.46756
 20
1.44276
 30
0.0
 11
6.46536
 21
1.441
 31
0.0
  0
LINE
  8
0
  6
CONTINUOUS
 62
   250
 10
6.46536
 20
1.441
 30
0.0
 11
6.46316
 21
1.43924
 31
0.0
  0
LINE
  8
0
  6
CONTINUOUS
 62
   250
 10
6.46316
 20
1.43924
 30
0.0
 11
6.4614
 21
1.43748
 31
0.0
  0
LINE
  8
0
  6
CONTINUOUS
 62
   250
 10
6.4614
 20
1.43748
 30
0.0
 11
6.45964
 21
1.43528
 31
0.0
  0
LINE
  8
0
  6
CONTINUOUS
 62
   250
 10
6.45964
 20
1.43528
 30
0.0
 11
6.45788
 21
1.43308
 31
0.0
  0
LINE
  8
0
  6
CONTINUOUS
 62
   250
 10
6.45788
 20
1.43308
 30
0.0
 11
6.45656
 21
1.43088
 31
0.0
  0
LINE
  8
0
  6
CONTINUOUS
 62
   250
 10
6.45656
 20
1.43088
 30
0.0
 11
6.4548
 21
1.42824
 31
0.0
  0
LINE
  8
0
  6
CONTINUOUS
 62
   250
 10
6.4548
 20
1.42824
 30
0.0
 11
6.45392
 21
1.4256
 31
0.0
  0
LINE
  8
0
  6
CONTINUOUS
 62
   250
 10
6.45392
 20
1.4256
 30
0.0
 11
6.45304
 21
1.4234
 31
0.0
  0
LINE
  8
0
  6
CONTINUOUS
 62
   250
 10
6.45304
 20
1.4234
 30
0.0
 11
6.45216
 21
1.42076
 31
0.0
  0
LINE
  8
0
  6
CONTINUOUS
 62
   250
 10
6.45216
 20
1.42076
 30
0.0
 11
6.45128
 21
1.41812
 31
0.0
  0
LINE
  8
0
  6
CONTINUOUS
 62
   250
 10
6.45128
 20
1.41812
 30
0.0
 11
6.45128
 21
1.41504
 31
0.0
  0
LINE
  8
0
  6
CONTINUOUS
 62
   250
 10
6.45128
 20
1.41504
 30
0.0
 11
6.45084
 21
1.4124
 31
0.0
  0
LINE
  8
0
  6
CONTINUOUS
 62
   250
 10
6.45084
 20
1.4124
 30
0.0
 11
6.45084
 21
1.40976
 31
0.0
  0
LINE
  8
0
  6
CONTINUOUS
 62
   250
 10
6.45084
 20
1.40976
 30
0.0
 11
6.45084
 21
1.40712
 31
0.0
  0
LINE
  8
0
  6
CONTINUOUS
 62
   250
 10
6.45084
 20
1.40712
 30
0.0
 11
6.45128
 21
1.40448
 31
0.0
  0
LINE
  8
0
  6
CONTINUOUS
 62
   250
 10
6.45128
 20
1.40448
 30
0.0
 11
6.45172
 21
1.4014
 31
0.0
  0
LINE
  8
0
  6
CONTINUOUS
 62
   250
 10
6.45172
 20
1.4014
 30
0.0
 11
6.4526
 21
1.39876
 31
0.0
  0
LINE
  8
0
  6
CONTINUOUS
 62
   250
 10
6.4526
 20
1.39876
 30
0.0
 11
6.45348
 21
1.39612
 31
0.0
  0
LINE
  8
0
  6
CONTINUOUS
 62
   250
 10
6.45348
 20
1.39612
 30
0.0
 11
6.45436
 21
1.39392
 31
0.0
  0
LINE
  8
0
  6
CONTINUOUS
 62
   250
 10
6.45436
 20
1.39392
 30
0.0
 11
6.45568
 21
1.39128
 31
0.0
  0
LINE
  8
0
  6
CONTINUOUS
 62
   250
 10
6.45568
 20
1.39128
 30
0.0
 11
6.457
 21
1.38908
 31
0.0
  0
LINE
  8
0
  6
CONTINUOUS
 62
   250
 10
6.457
 20
1.38908
 30
0.0
 11
6.45876
 21
1.38688
 31
0.0
  0
LINE
  8
0
  6
CONTINUOUS
 62
   250
 10
6.45876
 20
1.38688
 30
0.0
 11
6.46052
 21
1.38468
 31
0.0
  0
LINE
  8
0
  6
CONTINUOUS
 62
   250
 10
6.46052
 20
1.38468
 30
0.0
 11
6.46228
 21
1.38248
 31
0.0
  0
LINE
  8
0
  6
CONTINUOUS
 62
   250
 10
6.46228
 20
1.38248
 30
0.0
 11
6.46448
 21
1.38072
 31
0.0
  0
LINE
  8
0
  6
CONTINUOUS
 62
   250
 10
6.46448
 20
1.38072
 30
0.0
 11
6.46668
 21
1.37896
 31
0.0
  0
LINE
  8
0
  6
CONTINUOUS
 62
   250
 10
6.46668
 20
1.37896
 30
0.0
 11
6.46888
 21
1.3772
 31
0.0
  0
LINE
  8
0
  6
CONTINUOUS
 62
   250
 10
6.46888
 20
1.3772
 30
0.0
 11
6.47108
 21
1.37588
 31
0.0
  0
LINE
  8
0
  6
CONTINUOUS
 62
   250
 10
6.47108
 20
1.37588
 30
0.0
 11
6.47372
 21
1.37456
 31
0.0
  0
LINE
  8
0
  6
CONTINUOUS
 62
   250
 10
6.47372
 20
1.37456
 30
0.0
 11
6.47592
 21
1.37368
 31
0.0
  0
LINE
  8
0
  6
CONTINUOUS
 62
   250
 10
6.47592
 20
1.37368
 30
0.0
 11
6.47856
 21
1.3728
 31
0.0
  0
LINE
  8
0
  6
CONTINUOUS
 62
   250
 10
6.47856
 20
1.3728
 30
0.0
 11
6.4812
 21
1.37192
 31
0.0
  0
LINE
  8
0
  6
CONTINUOUS
 62
   250
 10
6.4812
 20
1.37192
 30
0.0
 11
6.48384
 21
1.37148
 31
0.0
  0
LINE
  8
0
  6
CONTINUOUS
 62
   250
 10
6.48384
 20
1.37148
 30
0.0
 11
6.48692
 21
1.37104
 31
0.0
  0
LINE
  8
0
  6
CONTINUOUS
 62
   250
 10
6.48692
 20
1.37104
 30
0.0
 11
6.48956
 21
1.37104
 31
0.0
  0
LINE
  8
0
  6
CONTINUOUS
 62
   250
 10
6.48956
 20
1.37104
 30
0.0
 11
6.4922
 21
1.37104
 31
0.0
  0
LINE
  8
0
  6
CONTINUOUS
 62
   250
 10
6.4922
 20
1.37104
 30
0.0
 11
6.49484
 21
1.37148
 31
0.0
  0
LINE
  8
0
  6
CONTINUOUS
 62
   250
 10
6.49484
 20
1.37148
 30
0.0
 11
6.49748
 21
1.37192
 31
0.0
  0
LINE
  8
0
  6
CONTINUOUS
 62
   250
 10
6.49748
 20
1.37192
 30
0.0
 11
6.50056
 21
1.37236
 31
0.0
  0
LINE
  8
0
  6
CONTINUOUS
 62
   250
 10
6.50056
 20
1.37236
 30
0.0
 11
6.5032
 21
1.37324
 31
0.0
  0
LINE
  8
0
  6
CONTINUOUS
 62
   250
 10
6.5032
 20
1.37324
 30
0.0
 11
6.50584
 21
1.37412
 31
0.0
  0
LINE
  8
0
  6
CONTINUOUS
 62
   250
 10
6.50584
 20
1.37412
 30
0.0
 11
6.50804
 21
1.37544
 31
0.0
  0
LINE
  8
0
  6
CONTINUOUS
 62
   250
 10
6.50804
 20
1.37544
 30
0.0
 11
6.51068
 21
1.37676
 31
0.0
  0
LINE
  8
0
  6
CONTINUOUS
 62
   250
 10
6.51068
 20
1.37676
 30
0.0
 11
6.51288
 21
1.37808
 31
0.0
  0
LINE
  8
0
  6
CONTINUOUS
 62
   250
 10
6.51288
 20
1.37808
 30
0.0
 11
6.51508
 21
1.37984
 31
0.0
  0
LINE
  8
0
  6
CONTINUOUS
 62
   250
 10
6.51508
 20
1.37984
 30
0.0
 11
6.51684
 21
1.3816
 31
0.0
  0
LINE
  8
0
  6
CONTINUOUS
 62
   250
 10
6.51684
 20
1.3816
 30
0.0
 11
6.51904
 21
1.38336
 31
0.0
  0
LINE
  8
0
  6
CONTINUOUS
 62
   250
 10
6.51904
 20
1.38336
 30
0.0
 11
6.5208
 21
1.38556
 31
0.0
  0
LINE
  8
0
  6
CONTINUOUS
 62
   250
 10
6.5208
 20
1.38556
 30
0.0
 11
6.52256
 21
1.38776
 31
0.0
  0
LINE
  8
0
  6
CONTINUOUS
 62
   250
 10
6.52256
 20
1.38776
 30
0.0
 11
6.52388
 21
1.3904
 31
0.0
  0
LINE
  8
0
  6
CONTINUOUS
 62
   250
 10
6.52388
 20
1.3904
 30
0.0
 11
6.5252
 21
1.3926
 31
0.0
  0
LINE
  8
0
  6
CONTINUOUS
 62
   250
 10
6.5252
 20
1.3926
 30
0.0
 11
6.52652
 21
1.3948
 31
0.0
  0
LINE
  8
0
  6
CONTINUOUS
 62
   250
 10
6.52652
 20
1.3948
 30
0.0
 11
6.5274
 21
1.39744
 31
0.0
  0
LINE
  8
0
  6
CONTINUOUS
 62
   250
 10
6.5274
 20
1.39744
 30
0.0
 11
6.52828
 21
1.40008
 31
0.0
  0
LINE
  8
0
  6
CONTINUOUS
 62
   250
 10
6.52828
 20
1.40008
 30
0.0
 11
6.52872
 21
1.40316
 31
0.0
  0
LINE
  8
0
  6
CONTINUOUS
 62
   250
 10
6.52872
 20
1.40316
 30
0.0
 11
6.52916
 21
1.4058
 31
0.0
  0
LINE
  8
0
  6
CONTINUOUS
 62
   250
 10
6.52916
 20
1.4058
 30
0.0
 11
6.5296
 21
1.40844
 31
0.0
  0
LINE
  8
0
  6
CONTINUOUS
 62
   250
 10
6.5296
 20
1.40844
 30
0.0
 11
6.5296
 21
1.4102
 31
0.0
  0
LINE
  8
0
  6
CONTINUOUS
 62
   250
 10
7.43952
 20
1.4102
 30
0.0
 11
7.43952
 21
1.41372
 31
0.0
  0
LINE
  8
0
  6
CONTINUOUS
 62
   250
 10
7.43952
 20
1.41372
 30
0.0
 11
7.43908
 21
1.41636
 31
0.0
  0
LINE
  8
0
  6
CONTINUOUS
 62
   250
 10
7.43908
 20
1.41636
 30
0.0
 11
7.43864
 21
1.41944
 31
0.0
  0
LINE
  8
0
  6
CONTINUOUS
 62
   250
 10
7.43864
 20
1.41944
 30
0.0
 11
7.43776
 21
1.42208
 31
0.0
  0
LINE
  8
0
  6
CONTINUOUS
 62
   250
 10
7.43776
 20
1.42208
 30
0.0
 11
7.43732
 21
1.42472
 31
0.0
  0
LINE
  8
0
  6
CONTINUOUS
 62
   250
 10
7.43732
 20
1.42472
 30
0.0
 11
7.436
 21
1.42692
 31
0.0
  0
LINE
  8
0
  6
CONTINUOUS
 62
   250
 10
7.436
 20
1.42692
 30
0.0
 11
7.43468
 21
1.42956
 31
0.0
  0
LINE
  8
0
  6
CONTINUOUS
 62
   250
 10
7.43468
 20
1.42956
 30
0.0
 11
7.43336
 21
1.43176
 31
0.0
  0
LINE
  8
0
  6
CONTINUOUS
 62
   250
 10
7.43336
 20
1.43176
 30
0.0
 11
7.4316
 21
1.43396
 31
0.0
  0
LINE
  8
0
  6
CONTINUOUS
 62
   250
 10
7.4316
 20
1.43396
 30
0.0
 11
7.43028
 21
1.43616
 31
0.0
  0
LINE
  8
0
  6
CONTINUOUS
 62
   250
 10
7.43028
 20
1.43616
 30
0.0
 11
7.42808
 21
1.43836
 31
0.0
  0
LINE
  8
0
  6
CONTINUOUS
 62
   250
 10
7.42808
 20
1.43836
 30
0.0
 11
7.42588
 21
1.44012
 31
0.0
  0
LINE
  8
0
  6
CONTINUOUS
 62
   250
 10
7.42588
 20
1.44012
 30
0.0
 11
7.42412
 21
1.44188
 31
0.0
  0
LINE
  8
0
  6
CONTINUOUS
 62
   250
 10
7.42412
 20
1.44188
 30
0.0
 11
7.42192
 21
1.44364
 31
0.0
  0
LINE
  8
0
  6
CONTINUOUS
 62
   250
 10
7.42192
 20
1.44364
 30
0.0
 11
7.41928
 21
1.44496
 31
0.0
  0
LINE
  8
0
  6
CONTINUOUS
 62
   250
 10
7.41928
 20
1.44496
 30
0.0
 11
7.41708
 21
1.44628
 31
0.0
  0
LINE
  8
0
  6
CONTINUOUS
 62
   250
 10
7.41708
 20
1.44628
 30
0.0
 11
7.41444
 21
1.44716
 31
0.0
  0
LINE
  8
0
  6
CONTINUOUS
 62
   250
 10
7.41444
 20
1.44716
 30
0.0
 11
7.4118
 21
1.44804
 31
0.0
  0
LINE
  8
0
  6
CONTINUOUS
 62
   250
 10
7.4118
 20
1.44804
 30
0.0
 11
7.40916
 21
1.44892
 31
0.0
  0
LINE
  8
0
  6
CONTINUOUS
 62
   250
 10
7.40916
 20
1.44892
 30
0.0
 11
7.40652
 21
1.44936
 31
0.0
  0
LINE
  8
0
  6
CONTINUOUS
 62
   250
 10
7.40652
 20
1.44936
 30
0.0
 11
7.40388
 21
1.4498
 31
0.0
  0
LINE
  8
0
  6
CONTINUOUS
 62
   250
 10
7.40388
 20
1.4498
 30
0.0
 11
7.40124
 21
1.4498
 31
0.0
  0
LINE
  8
0
  6
CONTINUOUS
 62
   250
 10
7.40124
 20
1.4498
 30
0.0
 11
7.39816
 21
1.4498
 31
0.0
  0
LINE
  8
0
  6
CONTINUOUS
 62
   250
 10
7.39816
 20
1.4498
 30
0.0
 11
7.39552
 21
1.44936
 31
0.0
  0
LINE
  8
0
  6
CONTINUOUS
 62
   250
 10
7.39552
 20
1.44936
 30
0.0
 11
7.39288
 21
1.44936
 31
0.0
  0
LINE
  8
0
  6
CONTINUOUS
 62
   250
 10
7.39288
 20
1.44936
 30
0.0
 11
7.39024
 21
1.44848
 31
0.0
  0
LINE
  8
0
  6
CONTINUOUS
 62
   250
 10
7.39024
 20
1.44848
 30
0.0
 11
7.3876
 21
1.4476
 31
0.0
  0
LINE
  8
0
  6
CONTINUOUS
 62
   250
 10
7.3876
 20
1.4476
 30
0.0
 11
7.38496
 21
1.44672
 31
0.0
  0
LINE
  8
0
  6
CONTINUOUS
 62
   250
 10
7.38496
 20
1.44672
 30
0.0
 11
7.38232
 21
1.4454
 31
0.0
  0
LINE
  8
0
  6
CONTINUOUS
 62
   250
 10
7.38232
 20
1.4454
 30
0.0
 11
7.38012
 21
1.44408
 31
0.0
  0
LINE
  8
0
  6
CONTINUOUS
 62
   250
 10
7.38012
 20
1.44408
 30
0.0
 11
7.37748
 21
1.44276
 31
0.0
  0
LINE
  8
0
  6
CONTINUOUS
 62
   250
 10
7.37748
 20
1.44276
 30
0.0
 11
7.37528
 21
1.441
 31
0.0
  0
LINE
  8
0
  6
CONTINUOUS
 62
   250
 10
7.37528
 20
1.441
 30
0.0
 11
7.37352
 21
1.43924
 31
0.0
  0
LINE
  8
0
  6
CONTINUOUS
 62
   250
 10
7.37352
 20
1.43924
 30
0.0
 11
7.37132
 21
1.43748
 31
0.0
  0
LINE
  8
0
  6
CONTINUOUS
 62
   250
 10
7.37132
 20
1.43748
 30
0.0
 11
7.36956
 21
1.43528
 31
0.0
  0
LINE
  8
0
  6
CONTINUOUS
 62
   250
 10
7.36956
 20
1.43528
 30
0.0
 11
7.3678
 21
1.43308
 31
0.0
  0
LINE
  8
0
  6
CONTINUOUS
 62
   250
 10
7.3678
 20
1.43308
 30
0.0
 11
7.36648
 21
1.43088
 31
0.0
  0
LINE
  8
0
  6
CONTINUOUS
 62
   250
 10
7.36648
 20
1.43088
 30
0.0
 11
7.36516
 21
1.42824
 31
0.0
  0
LINE
  8
0
  6
CONTINUOUS
 62
   250
 10
7.36516
 20
1.42824
 30
0.0
 11
7.36384
 21
1.4256
 31
0.0
  0
LINE
  8
0
  6
CONTINUOUS
 62
   250
 10
7.36384
 20
1.4256
 30
0.0
 11
7.36296
 21
1.4234
 31
0.0
  0
LINE
  8
0
  6
CONTINUOUS
 62
   250
 10
7.36296
 20
1.4234
 30
0.0
 11
7.36208
 21
1.42076
 31
0.0
  0
LINE
  8
0
  6
CONTINUOUS
 62
   250
 10
7.36208
 20
1.42076
 30
0.0
 11
7.36164
 21
1.41812
 31
0.0
  0
LINE
  8
0
  6
CONTINUOUS
 62
   250
 10
7.36164
 20
1.41812
 30
0.0
 11
7.3612
 21
1.41504
 31
0.0
  0
LINE
  8
0
  6
CONTINUOUS
 62
   250
 10
7.3612
 20
1.41504
 30
0.0
 11
7.36076
 21
1.4124
 31
0.0
  0
LINE
  8
0
  6
CONTINUOUS
 62
   250
 10
7.36076
 20
1.4124
 30
0.0
 11
7.36076
 21
1.40976
 31
0.0
  0
LINE
  8
0
  6
CONTINUOUS
 62
   250
 10
7.36076
 20
1.40976
 30
0.0
 11
7.36076
 21
1.40712
 31
0.0
  0
LINE
  8
0
  6
CONTINUOUS
 62
   250
 10
7.36076
 20
1.40712
 30
0.0
 11
7.3612
 21
1.40448
 31
0.0
  0
LINE
  8
0
  6
CONTINUOUS
 62
   250
 10
7.3612
 20
1.40448
 30
0.0
 11
7.36208
 21
1.4014
 31
0.0
  0
LINE
  8
0
  6
CONTINUOUS
 62
   250
 10
7.36208
 20
1.4014
 30
0.0
 11
7.36252
 21
1.39876
 31
0.0
  0
LINE
  8
0
  6
CONTINUOUS
 62
   250
 10
7.36252
 20
1.39876
 30
0.0
 11
7.3634
 21
1.39612
 31
0.0
  0
LINE
  8
0
  6
CONTINUOUS
 62
   250
 10
7.3634
 20
1.39612
 30
0.0
 11
7.36472
 21
1.39392
 31
0.0
  0
LINE
  8
0
  6
CONTINUOUS
 62
   250
 10
7.36472
 20
1.39392
 30
0.0
 11
7.3656
 21
1.39128
 31
0.0
  0
LINE
  8
0
  6
CONTINUOUS
 62
   250
 10
7.3656
 20
1.39128
 30
0.0
 11
7.36736
 21
1.38908
 31
0.0
  0
LINE
  8
0
  6
CONTINUOUS
 62
   250
 10
7.36736
 20
1.38908
 30
0.0
 11
7.36868
 21
1.38688
 31
0.0
  0
LINE
  8
0
  6
CONTINUOUS
 62
   250
 10
7.36868
 20
1.38688
 30
0.0
 11
7.37044
 21
1.38468
 31
0.0
  0
LINE
  8
0
  6
CONTINUOUS
 62
   250
 10
7.37044
 20
1.38468
 30
0.0
 11
7.37264
 21
1.38248
 31
0.0
  0
LINE
  8
0
  6
CONTINUOUS
 62
   250
 10
7.37264
 20
1.38248
 30
0.0
 11
7.3744
 21
1.38072
 31
0.0
  0
LINE
  8
0
  6
CONTINUOUS
 62
   250
 10
7.3744
 20
1.38072
 30
0.0
 11
7.3766
 21
1.37896
 31
0.0
  0
LINE
  8
0
  6
CONTINUOUS
 62
   250
 10
7.3766
 20
1.37896
 30
0.0
 11
7.3788
 21
1.3772
 31
0.0
  0
LINE
  8
0
  6
CONTINUOUS
 62
   250
 10
7.3788
 20
1.3772
 30
0.0
 11
7.381
 21
1.37588
 31
0.0
  0
LINE
  8
0
  6
CONTINUOUS
 62
   250
 10
7.381
 20
1.37588
 30
0.0
 11
7.38364
 21
1.37456
 31
0.0
  0
LINE
  8
0
  6
CONTINUOUS
 62
   250
 10
7.38364
 20
1.37456
 30
0.0
 11
7.38628
 21
1.37368
 31
0.0
  0
LINE
  8
0
  6
CONTINUOUS
 62
   250
 10
7.38628
 20
1.37368
 30
0.0
 11
7.38892
 21
1.3728
 31
0.0
  0
LINE
  8
0
  6
CONTINUOUS
 62
   250
 10
7.38892
 20
1.3728
 30
0.0
 11
7.39156
 21
1.37192
 31
0.0
  0
LINE
  8
0
  6
CONTINUOUS
 62
   250
 10
7.39156
 20
1.37192
 30
0.0
 11
7.3942
 21
1.37148
 31
0.0
  0
LINE
  8
0
  6
CONTINUOUS
 62
   250
 10
7.3942
 20
1.37148
 30
0.0
 11
7.39684
 21
1.37104
 31
0.0
  0
LINE
  8
0
  6
CONTINUOUS
 62
   250
 10
7.39684
 20
1.37104
 30
0.0
 11
7.39948
 21
1.37104
 31
0.0
  0
LINE
  8
0
  6
CONTINUOUS
 62
   250
 10
7.39948
 20
1.37104
 30
0.0
 11
7.40212
 21
1.37104
 31
0.0
  0
LINE
  8
0
  6
CONTINUOUS
 62
   250
 10
7.40212
 20
1.37104
 30
0.0
 11
7.4052
 21
1.37148
 31
0.0
  0
LINE
  8
0
  6
CONTINUOUS
 62
   250
 10
7.4052
 20
1.37148
 30
0.0
 11
7.40784
 21
1.37192
 31
0.0
  0
LINE
  8
0
  6
CONTINUOUS
 62
   250
 10
7.40784
 20
1.37192
 30
0.0
 11
7.41048
 21
1.37236
 31
0.0
  0
LINE
  8
0
  6
CONTINUOUS
 62
   250
 10
7.41048
 20
1.37236
 30
0.0
 11
7.41312
 21
1.37324
 31
0.0
  0
LINE
  8
0
  6
CONTINUOUS
 62
   250
 10
7.41312
 20
1.37324
 30
0.0
 11
7.41576
 21
1.37412
 31
0.0
  0
LINE
  8
0
  6
CONTINUOUS
 62
   250
 10
7.41576
 20
1.37412
 30
0.0
 11
7.41796
 21
1.37544
 31
0.0
  0
LINE
  8
0
  6
CONTINUOUS
 62
   250
 10
7.41796
 20
1.37544
 30
0.0
 11
7.4206
 21
1.37676
 31
0.0
  0
LINE
  8
0
  6
CONTINUOUS
 62
   250
 10
7.4206
 20
1.37676
 30
0.0
 11
7.42324
 21
1.37808
 31
0.0
  0
LINE
  8
0
  6
CONTINUOUS
 62
   250
 10
7.42324
 20
1.37808
 30
0.0
 11
7.425
 21
1.37984
 31
0.0
  0
LINE
  8
0
  6
CONTINUOUS
 62
   250
 10
7.425
 20
1.37984
 30
0.0
 11
7.4272
 21
1.3816
 31
0.0
  0
LINE
  8
0
  6
CONTINUOUS
 62
   250
 10
7.4272
 20
1.3816
 30
0.0
 11
7.42896
 21
1.38336
 31
0.0
  0
LINE
  8
0
  6
CONTINUOUS
 62
   250
 10
7.42896
 20
1.38336
 30
0.0
 11
7.43072
 21
1.38556
 31
0.0
  0
LINE
  8
0
  6
CONTINUOUS
 62
   250
 10
7.43072
 20
1.38556
 30
0.0
 11
7.43248
 21
1.38776
 31
0.0
  0
LINE
  8
0
  6
CONTINUOUS
 62
   250
 10
7.43248
 20
1.38776
 30
0.0
 11
7.43424
 21
1.3904
 31
0.0
  0
LINE
  8
0
  6
CONTINUOUS
 62
   250
 10
7.43424
 20
1.3904
 30
0.0
 11
7.43556
 21
1.3926
 31
0.0
  0
LINE
  8
0
  6
CONTINUOUS
 62
   250
 10
7.43556
 20
1.3926
 30
0.0
 11
7.43644
 21
1.3948
 31
0.0
  0
LINE
  8
0
  6
CONTINUOUS
 62
   250
 10
7.43644
 20
1.3948
 30
0.0
 11
7.43776
 21
1.39744
 31
0.0
  0
LINE
  8
0
  6
CONTINUOUS
 62
   250
 10
7.43776
 20
1.39744
 30
0.0
 11
7.43864
 21
1.40008
 31
0.0
  0
LINE
  8
0
  6
CONTINUOUS
 62
   250
 10
7.43864
 20
1.40008
 30
0.0
 11
7.43908
 21
1.40316
 31
0.0
  0
LINE
  8
0
  6
CONTINUOUS
 62
   250
 10
7.43908
 20
1.40316
 30
0.0
 11
7.43952
 21
1.4058
 31
0.0
  0
LINE
  8
0
  6
CONTINUOUS
 62
   250
 10
7.43952
 20
1.4058
 30
0.0
 11
7.43952
 21
1.40844
 31
0.0
  0
LINE
  8
0
  6
CONTINUOUS
 62
   250
 10
7.43952
 20
1.40844
 30
0.0
 11
7.43952
 21
1.4102
 31
0.0
  0
LINE
  8
0
  6
CONTINUOUS
 62
   250
 10
6.48208
 20
1.37192
 30
0.0
 11
6.45172
 21
1.40228
 31
0.0
  0
LINE
  8
0
  6
CONTINUOUS
 62
   250
 10
6.52872
 20
1.41812
 30
0.0
 11
6.49792
 21
1.44892
 31
0.0
  0
LINE
  8
0
  6
CONTINUOUS
 62
   250
 10
6.45304
 20
1.4234
 30
0.0
 11
6.45392
 21
1.4212
 31
0.0
  0
LINE
  8
0
  6
CONTINUOUS
 62
   250
 10
6.45392
 20
1.4212
 30
0.0
 11
6.4548
 21
1.41988
 31
0.0
  0
LINE
  8
0
  6
CONTINUOUS
 62
   250
 10
6.4548
 20
1.41988
 30
0.0
 11
6.45612
 21
1.41812
 31
0.0
  0
LINE
  8
0
  6
CONTINUOUS
 62
   250
 10
6.45612
 20
1.41812
 30
0.0
 11
6.457
 21
1.41636
 31
0.0
  0
LINE
  8
0
  6
CONTINUOUS
 62
   250
 10
6.457
 20
1.41636
 30
0.0
 11
6.45788
 21
1.41548
 31
0.0
  0
LINE
  8
0
  6
CONTINUOUS
 62
   250
 10
6.48472
 20
1.44276
 30
0.0
 11
6.48296
 21
1.44408
 31
0.0
  0
LINE
  8
0
  6
CONTINUOUS
 62
   250
 10
6.48296
 20
1.44408
 30
0.0
 11
6.4812
 21
1.4454
 31
0.0
  0
LINE
  8
0
  6
CONTINUOUS
 62
   250
 10
6.4812
 20
1.4454
 30
0.0
 11
6.47988
 21
1.44628
 31
0.0
  0
LINE
  8
0
  6
CONTINUOUS
 62
   250
 10
6.47988
 20
1.44628
 30
0.0
 11
6.47768
 21
1.44716
 31
0.0
  0
LINE
  8
0
  6
CONTINUOUS
 62
   250
 10
6.47768
 20
1.44716
 30
0.0
 11
6.4768
 21
1.4476
 31
0.0
  0
LINE
  8
0
  6
CONTINUOUS
 62
   250
 10
6.5274
 20
1.397
 30
0.0
 11
6.52652
 21
1.3992
 31
0.0
  0
LINE
  8
0
  6
CONTINUOUS
 62
   250
 10
6.52652
 20
1.3992
 30
0.0
 11
6.52564
 21
1.40096
 31
0.0
  0
LINE
  8
0
  6
CONTINUOUS
 62
   250
 10
6.52564
 20
1.40096
 30
0.0
 11
6.52476
 21
1.40228
 31
0.0
  0
LINE
  8
0
  6
CONTINUOUS
 62
   250
 10
6.52476
 20
1.40228
 30
0.0
 11
6.52344
 21
1.40404
 31
0.0
  0
LINE
  8
0
  6
CONTINUOUS
 62
   250
 10
6.52344
 20
1.40404
 30
0.0
 11
6.52212
 21
1.40536
 31
0.0
  0
LINE
  8
0
  6
CONTINUOUS
 62
   250
 10
6.49528
 20
1.37808
 30
0.0
 11
6.49704
 21
1.37632
 31
0.0
  0
LINE
  8
0
  6
CONTINUOUS
 62
   250
 10
6.49704
 20
1.37632
 30
0.0
 11
6.4988
 21
1.37544
 31
0.0
  0
LINE
  8
0
  6
CONTINUOUS
 62
   250
 10
6.4988
 20
1.37544
 30
0.0
 11
6.50056
 21
1.37412
 31
0.0
  0
LINE
  8
0
  6
CONTINUOUS
 62
   250
 10
6.50056
 20
1.37412
 30
0.0
 11
6.50232
 21
1.37368
 31
0.0
  0
LINE
  8
0
  6
CONTINUOUS
 62
   250
 10
6.50232
 20
1.37368
 30
0.0
 11
6.50364
 21
1.37324
 31
0.0
  0
LINE
  8
0
  6
CONTINUOUS
 62
   250
 10
7.43248
 20
1.41548
 30
0.0
 11
7.43424
 21
1.41768
 31
0.0
  0
LINE
  8
0
  6
CONTINUOUS
 62
   250
 10
7.43424
 20
1.41768
 30
0.0
 11
7.43556
 21
1.419
 31
0.0
  0
LINE
  8
0
  6
CONTINUOUS
 62
   250
 10
7.43556
 20
1.419
 30
0.0
 11
7.43644
 21
1.42076
 31
0.0
  0
LINE
  8
0
  6
CONTINUOUS
 62
   250
 10
7.43644
 20
1.42076
 30
0.0
 11
7.43732
 21
1.42252
 31
0.0
  0
LINE
  8
0
  6
CONTINUOUS
 62
   250
 10
7.43732
 20
1.42252
 30
0.0
 11
7.43732
 21
1.4234
 31
0.0
  0
LINE
  8
0
  6
CONTINUOUS
 62
   250
 10
7.414
 20
1.4476
 30
0.0
 11
7.4118
 21
1.44672
 31
0.0
  0
LINE
  8
0
  6
CONTINUOUS
 62
   250
 10
7.4118
 20
1.44672
 30
0.0
 11
7.41004
 21
1.44584
 31
0.0
  0
LINE
  8
0
  6
CONTINUOUS
 62
   250
 10
7.41004
 20
1.44584
 30
0.0
 11
7.40828
 21
1.44496
 31
0.0
  0
LINE
  8
0
  6
CONTINUOUS
 62
   250
 10
7.40828
 20
1.44496
 30
0.0
 11
7.40652
 21
1.44364
 31
0.0
  0
LINE
  8
0
  6
CONTINUOUS
 62
   250
 10
7.40652
 20
1.44364
 30
0.0
 11
7.40564
 21
1.44276
 31
0.0
  0
LINE
  8
0
  6
CONTINUOUS
 62
   250
 10
7.36164
 20
1.41812
 30
0.0
 11
7.39244
 21
1.44892
 31
0.0
  0
LINE
  8
0
  6
CONTINUOUS
 62
   250
 10
7.36824
 20
1.40536
 30
0.0
 11
7.36648
 21
1.4036
 31
0.0
  0
LINE
  8
0
  6
CONTINUOUS
 62
   250
 10
7.36648
 20
1.4036
 30
0.0
 11
7.3656
 21
1.40184
 31
0.0
  0
LINE
  8
0
  6
CONTINUOUS
 62
   250
 10
7.3656
 20
1.40184
 30
0.0
 11
7.36472
 21
1.40008
 31
0.0
  0
LINE
  8
0
  6
CONTINUOUS
 62
   250
 10
7.36472
 20
1.40008
 30
0.0
 11
7.36384
 21
1.39832
 31
0.0
  0
LINE
  8
0
  6
CONTINUOUS
 62
   250
 10
7.36384
 20
1.39832
 30
0.0
 11
7.3634
 21
1.397
 31
0.0
  0
LINE
  8
0
  6
CONTINUOUS
 62
   250
 10
7.38716
 20
1.37324
 30
0.0
 11
7.38936
 21
1.37412
 31
0.0
  0
LINE
  8
0
  6
CONTINUOUS
 62
   250
 10
7.38936
 20
1.37412
 30
0.0
 11
7.39112
 21
1.375
 31
0.0
  0
LINE
  8
0
  6
CONTINUOUS
 62
   250
 10
7.39112
 20
1.375
 30
0.0
 11
7.39288
 21
1.37588
 31
0.0
  0
LINE
  8
0
  6
CONTINUOUS
 62
   250
 10
7.39288
 20
1.37588
 30
0.0
 11
7.3942
 21
1.3772
 31
0.0
  0
LINE
  8
0
  6
CONTINUOUS
 62
   250
 10
7.3942
 20
1.3772
 30
0.0
 11
7.39508
 21
1.37808
 31
0.0
  0
LINE
  8
0
  6
CONTINUOUS
 62
   250
 10
7.40828
 20
1.37192
 30
0.0
 11
7.43908
 21
1.40228
 31
0.0
  0
ENDSEC
  0
EOF
