  0
SECTION
  2
HEADER
  9
$ACADVER
  1
AC1009
  9
$INSBASE
 10
0.0
 20
0.0
 30
0.0
  9
$EXTMIN
 10
-0.668686
 20
0.0
 30
0.0
  9
$EXTMAX
 10
0.632213
 20
0.693003
 30
0.0
  9
$LIMMIN
 10
2.18333
 20
0.0
  9
$LIMMAX
 10
8.65625
 20
3.45208
  9
$ORTHOMODE
 70
     1
  9
$REGENMODE
 70
     1
  9
$FILLMODE
 70
     1
  9
$QTEXTMODE
 70
     0
  9
$MIRRTEXT
 70
     1
  9
$DRAGMODE
 70
     2
  9
$LTSCALE
 40
1.0
  9
$OSMODE
 70
     0
  9
$ATTMODE
 70
     1
  9
$TEXTSIZE
 40
0.2
  9
$TRACEWID
 40
0.05
  9
$TEXTSTYLE
  7
STANDARD
  9
$CLAYER
  8
0
  9
$CELTYPE
  6
BYLAYER
  9
$CECOLOR
 62
   256
  9
$DIMSCALE
 40
1.0
  9
$DIMASZ
 40
0.18
  9
$DIMEXO
 40
0.0625
  9
$DIMDLI
 40
0.38
  9
$DIMRND
 40
0.0
  9
$DIMDLE
 40
0.0
  9
$DIMEXE
 40
0.18
  9
$DIMTP
 40
0.0
  9
$DIMTM
 40
0.0
  9
$DIMTXT
 40
0.18
  9
$DIMCEN
 40
0.09
  9
$DIMTSZ
 40
0.0
  9
$DIMTOL
 70
     0
  9
$DIMLIM
 70
     0
  9
$DIMTIH
 70
     1
  9
$DIMTOH
 70
     1
  9
$DIMSE1
 70
     0
  9
$DIMSE2
 70
     0
  9
$DIMTAD
 70
     0
  9
$DIMZIN
 70
     0
  9
$DIMBLK
  1

  9
$DIMASO
 70
     1
  9
$DIMSHO
 70
     1
  9
$DIMPOST
  1

  9
$DIMAPOST
  1

  9
$DIMALT
 70
     0
  9
$DIMALTD
 70
     2
  9
$DIMALTF
 40
25.4
  9
$DIMLFAC
 40
1.0
  9
$DIMTOFL
 70
     0
  9
$DIMTVP
 40
0.0
  9
$DIMTIX
 70
     0
  9
$DIMSOXD
 70
     0
  9
$DIMSAH
 70
     0
  9
$DIMBLK1
  1

  9
$DIMBLK2
  1

  9
$DIMSTYLE
  2
*UNNAMED
  9
$DIMCLRD
 70
     0
  9
$DIMCLRE
 70
     0
  9
$DIMCLRT
 70
     0
  9
$DIMTFAC
 40
1.0
  9
$DIMGAP
 40
0.09
  9
$LUNITS
 70
     2
  9
$LUPREC
 70
     4
  9
$SKETCHINC
 40
0.1
  9
$FILLETRAD
 40
0.0
  9
$AUNITS
 70
     0
  9
$AUPREC
 70
     0
  9
$MENU
  1
acad
  9
$ELEVATION
 40
0.0
  9
$PELEVATION
 40
0.0
  9
$THICKNESS
 40
0.0
  9
$LIMCHECK
 70
     0
  9
$BLIPMODE
 70
     0
  9
$CHAMFERA
 40
0.0
  9
$CHAMFERB
 40
0.0
  9
$SKPOLY
 70
     0
  9
$TDCREATE
 40
2450619.648691666
  9
$TDUPDATE
 40
2450619.648691666
  9
$TDINDWG
 40
0.0000000000
  9
$TDUSRTIMER
 40
0.0000000000
  9
$USRTIMER
 70
     1
  9
$ANGBASE
 50
0.0
  9
$ANGDIR
 70
     0
  9
$PDMODE
 70
     0
  9
$PDSIZE
 40
0.0
  9
$PLINEWID
 40
0.0
  9
$COORDS
 70
     1
  9
$SPLFRAME
 70
     0
  9
$SPLINETYPE
 70
     6
  9
$SPLINESEGS
 70
     8
  9
$ATTDIA
 70
     0
  9
$ATTREQ
 70
     1
  9
$HANDLING
 70
     0
  9
$HANDSEED
  5
0
  9
$SURFTAB1
 70
     6
  9
$SURFTAB2
 70
     6
  9
$SURFTYPE
 70
     6
  9
$SURFU
 70
     6
  9
$SURFV
 70
     6
  9
$UCSNAME
  2

  9
$UCSORG
 10
0.0
 20
0.0
 30
0.0
  9
$UCSXDIR
 10
1.0
 20
0.0
 30
0.0
  9
$UCSYDIR
 10
0.0
 20
1.0
 30
0.0
  9
$PUCSNAME
  2

  9
$PUCSORG
 10
0.0
 20
0.0
 30
0.0
  9
$PUCSXDIR
 10
1.0
 20
0.0
 30
0.0
  9
$PUCSYDIR
 10
0.0
 20
1.0
 30
0.0
  9
$USERI1
 70
     0
  9
$USERI2
 70
     0
  9
$USERI3
 70
     0
  9
$USERI4
 70
     0
  9
$USERI5
 70
     0
  9
$USERR1
 40
0.0
  9
$USERR2
 40
0.0
  9
$USERR3
 40
0.0
  9
$USERR4
 40
0.0
  9
$USERR5
 40
0.0
  9
$WORLDVIEW
 70
     1
  9
$SHADEDGE
 70
     3
  9
$SHADEDIF
 70
    70
  9
$TILEMODE
 70
     1
  9
$MAXACTVP
 70
    16
  9
$PINSBASE
 10
-0.334888
 20
50.0
 30
-0.899789
  9
$PLIMCHECK
 70
     0
  9
$PEXTMIN
 10
1.000000E+20
 20
1.000000E+20
 30
1.000000E+20
  9
$PEXTMAX
 10
-1.000000E+20
 20
-1.000000E+20
 30
-1.000000E+20
  9
$PLIMMIN
 10
0.0
 20
0.0
  9
$PLIMMAX
 10
12.0
 20
9.0
  9
$UNITMODE
 70
     0
  9
$VISRETAIN
 70
     0
  9
$PLINEGEN
 70
     0
  9
$PSLTSCALE
 70
     1
  9
$TREEDEPTH
 70
  3020
  9
$DWGCODEPAGE
  3
ascii
  0
ENDSEC
  0
SECTION
  2
TABLES
  0
TABLE
  2
VPORT
 70
     2
  0
VPORT
  2
*ACTIVE
 70
     0
 10
0.0
 20
0.0
 11
1.0
 21
1.0
 12
3.993782
 22
3.360557
 13
0.0
 23
0.0
 14
1.0
 24
1.0
 15
0.0
 25
0.0
 16
0.0
 26
0.0
 36
1.0
 17
0.0
 27
0.0
 37
0.0
 40
6.721115
 41
1.387409
 42
50.0
 43
0.0
 44
0.0
 50
0.0
 51
0.0
 71
     0
 72
   100
 73
     1
 74
     1
 75
     0
 76
     0
 77
     0
 78
     0
  0
ENDTAB
  0
TABLE
  2
LTYPE
 70
     1
  0
LTYPE
  2
CONTINUOUS
 70
    64
  3
Solid line
 72
    65
 73
     0
 40
0.0
  0
ENDTAB
  0
TABLE
  2
LAYER
 70
     2
  0
LAYER
  2
0
 70
    64
 62
     4
  6
CONTINUOUS
  0
LAYER
  2
1
 70
    64
 62
     7
  6
CONTINUOUS
  0
ENDTAB
  0
TABLE
  2
STYLE
 70
     2
  0
STYLE
  2
STANDARD
 70
     0
 40
0.0
 41
1.0
 50
0.0
 71
     0
 42
0.2
  3
txt
  4

  0
STYLE
  2
SIMPLEX
 70
    64
 40
0.0
 41
1.0
 50
0.0
 71
     0
 42
1.0
  3
ROMANS.SHX
  4

  0
ENDTAB
  0
TABLE
  2
VIEW
 70
     0
  0
ENDTAB
  0
TABLE
  2
UCS
 70
     0
  0
ENDTAB
  0
TABLE
  2
APPID
 70
     1
  0
APPID
  2
ACAD
 70
    64
  0
ENDTAB
  0
TABLE
  2
DIMSTYLE
 70
     0
  0
ENDTAB
  0
ENDSEC
  0
SECTION
  2
BLOCKS
  0
ENDSEC
  0
SECTION
  2
ENTITIES
  0
LINE
  8
0
  6
CONTINUOUS
 62
   250
 10
0.239028
 20
0.662607
 30
0.0
 11
0.589661
 21
0.662607
 31
0.0
  0
LINE
  8
0
  6
CONTINUOUS
 62
   250
 10
0.595738
 20
0.674767
 30
0.0
 11
0.239028
 21
0.674767
 31
0.0
  0
LINE
  8
0
  6
CONTINUOUS
 62
   250
 10
0.397213
 20
0.018238
 30
0.0
 11
0.595738
 21
0.018238
 31
0.0
  0
LINE
  8
0
  6
CONTINUOUS
 62
   250
 10
0.589661
 20
0.030396
 30
0.0
 11
0.397213
 21
0.030396
 31
0.0
  0
LINE
  8
0
  6
CONTINUOUS
 62
   250
 10
-0.613976
 20
0.693003
 30
0.0
 11
0.613976
 21
0.693003
 31
0.0
  0
LINE
  8
0
  6
CONTINUOUS
 62
   250
 10
0.613976
 20
0.0
 30
0.0
 11
-0.613976
 21
0.0
 31
0.0
  0
LINE
  8
0
  6
CONTINUOUS
 62
   250
 10
0.254116
 20
0.674767
 30
0.0
 11
-0.601819
 21
0.674767
 31
0.0
  0
LINE
  8
0
  6
CONTINUOUS
 62
   250
 10
-0.601819
 20
0.018238
 30
0.0
 11
0.303337
 21
0.018238
 31
0.0
  0
LINE
  8
0
  6
CONTINUOUS
 62
   250
 10
-0.632213
 20
0.376896
 30
0.0
 11
-0.632213
 21
0.559265
 31
0.0
  0
LINE
  8
0
  6
CONTINUOUS
 62
   250
 10
-0.601819
 20
0.674767
 30
0.0
 11
-0.601819
 21
0.018238
 31
0.0
  0
LINE
  8
0
  6
CONTINUOUS
 62
   250
 10
-0.632213
 20
0.316071
 30
0.0
 11
-0.632213
 21
0.133736
 31
0.0
  0
LINE
  8
0
  6
CONTINUOUS
 62
   250
 10
-0.632213
 20
0.012157
 30
0.0
 11
-0.632213
 21
0.072948
 31
0.0
  0
LINE
  8
0
  6
CONTINUOUS
 62
   250
 10
-0.613976
 20
0.012157
 30
0.0
 11
-0.632213
 21
0.012157
 31
0.0
  0
LINE
  8
0
  6
CONTINUOUS
 62
   250
 10
-0.613976
 20
0.0
 30
0.0
 11
-0.613976
 21
0.012157
 31
0.0
  0
LINE
  8
0
  6
CONTINUOUS
 62
   250
 10
-0.668686
 20
0.091185
 30
0.0
 11
-0.668686
 21
0.115501
 31
0.0
  0
LINE
  8
0
  6
CONTINUOUS
 62
   250
 10
-0.626134
 20
0.091185
 30
0.0
 11
-0.668686
 21
0.091185
 31
0.0
  0
LINE
  8
0
  6
CONTINUOUS
 62
   250
 10
-0.626134
 20
0.072948
 30
0.0
 11
-0.626134
 21
0.091185
 31
0.0
  0
LINE
  8
0
  6
CONTINUOUS
 62
   250
 10
-0.626134
 20
0.072948
 30
0.0
 11
-0.632213
 21
0.072948
 31
0.0
  0
LINE
  8
0
  6
CONTINUOUS
 62
   250
 10
-0.626134
 20
0.115501
 30
0.0
 11
-0.668686
 21
0.115501
 31
0.0
  0
LINE
  8
0
  6
CONTINUOUS
 62
   250
 10
-0.626134
 20
0.115501
 30
0.0
 11
-0.626134
 21
0.133736
 31
0.0
  0
LINE
  8
0
  6
CONTINUOUS
 62
   250
 10
-0.626134
 20
0.133736
 30
0.0
 11
-0.632213
 21
0.133736
 31
0.0
  0
LINE
  8
0
  6
CONTINUOUS
 62
   250
 10
-0.626134
 20
0.35866
 30
0.0
 11
-0.626134
 21
0.376896
 31
0.0
  0
LINE
  8
0
  6
CONTINUOUS
 62
   250
 10
-0.626134
 20
0.35866
 30
0.0
 11
-0.668686
 21
0.35866
 31
0.0
  0
LINE
  8
0
  6
CONTINUOUS
 62
   250
 10
-0.626134
 20
0.334343
 30
0.0
 11
-0.668686
 21
0.334343
 31
0.0
  0
LINE
  8
0
  6
CONTINUOUS
 62
   250
 10
-0.668686
 20
0.334343
 30
0.0
 11
-0.668686
 21
0.35866
 31
0.0
  0
LINE
  8
0
  6
CONTINUOUS
 62
   250
 10
-0.626134
 20
0.334343
 30
0.0
 11
-0.626134
 21
0.316071
 31
0.0
  0
LINE
  8
0
  6
CONTINUOUS
 62
   250
 10
-0.626134
 20
0.316071
 30
0.0
 11
-0.632213
 21
0.316071
 31
0.0
  0
LINE
  8
0
  6
CONTINUOUS
 62
   250
 10
-0.626134
 20
0.376896
 30
0.0
 11
-0.632213
 21
0.376896
 31
0.0
  0
LINE
  8
0
  6
CONTINUOUS
 62
   250
 10
-0.632213
 20
0.620056
 30
0.0
 11
-0.632213
 21
0.680843
 31
0.0
  0
LINE
  8
0
  6
CONTINUOUS
 62
   250
 10
-0.626134
 20
0.577501
 30
0.0
 11
-0.668686
 21
0.577501
 31
0.0
  0
LINE
  8
0
  6
CONTINUOUS
 62
   250
 10
-0.626134
 20
0.601818
 30
0.0
 11
-0.668686
 21
0.601818
 31
0.0
  0
LINE
  8
0
  6
CONTINUOUS
 62
   250
 10
-0.668686
 20
0.577501
 30
0.0
 11
-0.668686
 21
0.601818
 31
0.0
  0
LINE
  8
0
  6
CONTINUOUS
 62
   250
 10
-0.626134
 20
0.620056
 30
0.0
 11
-0.632213
 21
0.620056
 31
0.0
  0
LINE
  8
0
  6
CONTINUOUS
 62
   250
 10
-0.626134
 20
0.559265
 30
0.0
 11
-0.632213
 21
0.559265
 31
0.0
  0
LINE
  8
0
  6
CONTINUOUS
 62
   250
 10
-0.626134
 20
0.559265
 30
0.0
 11
-0.626134
 21
0.577501
 31
0.0
  0
LINE
  8
0
  6
CONTINUOUS
 62
   250
 10
-0.626134
 20
0.601818
 30
0.0
 11
-0.626134
 21
0.620056
 31
0.0
  0
LINE
  8
0
  6
CONTINUOUS
 62
   250
 10
-0.613976
 20
0.680843
 30
0.0
 11
-0.632213
 21
0.680843
 31
0.0
  0
LINE
  8
0
  6
CONTINUOUS
 62
   250
 10
-0.613976
 20
0.693003
 30
0.0
 11
-0.613976
 21
0.680843
 31
0.0
  0
LINE
  8
1
  6
CONTINUOUS
 62
   250
 10
-0.525922
 20
0.541699
 30
0.0
 11
-0.525922
 21
0.560448
 31
0.0
  0
LINE
  8
1
  6
CONTINUOUS
 62
   250
 10
-0.563422
 20
0.560448
 30
0.0
 11
-0.563422
 21
0.541699
 31
0.0
  0
CIRCLE
  8
1
  6
CONTINUOUS
 62
   250
 10
-0.554047
 20
0.551073
 30
0.0
 40
0.001875
  0
CIRCLE
  8
1
  6
CONTINUOUS
 62
   250
 10
-0.535296
 20
0.551073
 30
0.0
 40
0.001875
  0
LINE
  8
0
 62
   250
 10
-0.523303
 20
0.518716
 30
0.0
 11
-0.523303
 21
0.601128
 31
0.0
  0
LINE
  8
0
 62
   250
 10
-0.566578
 20
0.601128
 30
0.0
 11
-0.566578
 21
0.518716
 31
0.0
  0
LINE
  8
0
  6
CONTINUOUS
 62
   250
 10
-0.577503
 20
0.117931
 30
0.0
 11
-0.577503
 21
0.662607
 31
0.0
  0
LINE
  8
0
  6
CONTINUOUS
 62
   250
 10
0.090012
 20
0.251942
 30
0.0
 11
-0.219169
 21
0.251942
 31
0.0
  0
LINE
  8
0
  6
CONTINUOUS
 62
   250
 10
0.090012
 20
0.144953
 30
0.0
 11
-0.219169
 21
0.144953
 31
0.0
  0
TEXT
  8
0
  6
CONTINUOUS
 62
   250
 10
-0.09593
 20
0.355961
 30
0.0
 40
0.013617
  1
W1
 41
1.011111
  7
SIMPLEX
  0
LINE
  8
0
  6
CONTINUOUS
 62
   250
 10
0.01289
 20
0.37603
 30
0.0
 11
-0.103141
 21
0.37603
 31
0.0
  0
LINE
  8
0
  6
CONTINUOUS
 62
   250
 10
0.01289
 20
0.483021
 30
0.0
 11
-0.103141
 21
0.483021
 31
0.0
  0
LINE
  8
0
  6
CONTINUOUS
 62
   250
 10
0.233559
 20
0.281353
 30
0.0
 11
-0.206245
 21
0.281353
 31
0.0
  0
LINE
  8
0
  6
CONTINUOUS
 62
   250
 10
-0.206245
 20
0.347538
 30
0.0
 11
0.233559
 21
0.347538
 31
0.0
  0
LINE
  8
0
  6
CONTINUOUS
 62
   250
 10
0.303337
 20
0.030396
 30
0.0
 11
-0.509418
 21
0.030396
 31
0.0
  0
LINE
  8
0
  6
CONTINUOUS
 62
   250
 10
-0.142047
 20
0.251942
 30
0.0
 11
-0.142047
 21
0.144953
 31
0.0
  0
TEXT
  8
0
  6
CONTINUOUS
 62
   250
 10
-0.114278
 20
0.173174
 30
0.0
 40
0.013617
  1
RTD
 50
90.0
 41
1.011111
  7
SIMPLEX
  0
TEXT
  8
0
  6
CONTINUOUS
 62
   250
 10
-0.192696
 20
0.173174
 30
0.0
 40
0.013617
  1
+24V
 50
90.0
 41
1.011111
  7
SIMPLEX
  0
TEXT
  8
0
  6
CONTINUOUS
 62
   250
 10
-0.153485
 20
0.173174
 30
0.0
 40
0.013617
  1
GND
 50
90.0
 41
1.011111
  7
SIMPLEX
  0
LINE
  8
0
  6
CONTINUOUS
 62
   250
 10
-0.219169
 20
0.251942
 30
0.0
 11
-0.219169
 21
0.144953
 31
0.0
  0
LINE
  8
0
  6
CONTINUOUS
 62
   250
 10
-0.103141
 20
0.251942
 30
0.0
 11
-0.103141
 21
0.144953
 31
0.0
  0
ARC
  8
0
  6
CONTINUOUS
 62
   250
 10
-0.511372
 20
0.189543
 30
0.0
 40
0.027356
 50
44.997219
 51
224.997131
  0
LINE
  8
0
  6
CONTINUOUS
 62
   250
 10
-0.45549
 20
0.185244
 30
0.0
 11
-0.489879
 21
0.219631
 31
0.0
  0
LINE
  8
0
  6
CONTINUOUS
 62
   250
 10
-0.466239
 20
0.183094
 30
0.0
 11
-0.492027
 21
0.208885
 31
0.0
  0
CIRCLE
  8
0
  6
CONTINUOUS
 62
   250
 10
-0.499692
 20
0.174215
 30
0.0
 40
0.04863
  0
LINE
  8
0
  6
CONTINUOUS
 62
   250
 10
-0.247794
 20
0.121138
 30
0.0
 11
-0.247794
 21
0.504556
 31
0.0
  0
LINE
  8
0
  6
CONTINUOUS
 62
   250
 10
-0.301328
 20
0.504556
 30
0.0
 11
-0.301328
 21
0.121138
 31
0.0
  0
ARC
  8
0
  6
CONTINUOUS
 62
   250
 10
-0.485582
 20
0.163753
 30
0.0
 40
0.027356
 50
224.999954
 51
45.000046
  0
LINE
  8
0
  6
CONTINUOUS
 62
   250
 10
-0.509418
 20
0.030396
 30
0.0
 11
-0.509418
 21
0.108206
 31
0.0
  0
LINE
  8
0
  6
CONTINUOUS
 62
   250
 10
-0.519146
 20
0.117931
 30
0.0
 11
-0.577503
 21
0.117931
 31
0.0
  0
LINE
  8
0
  6
CONTINUOUS
 62
   250
 10
-0.541462
 20
0.168051
 30
0.0
 11
-0.507072
 21
0.133663
 31
0.0
  0
ARC
  8
0
  6
CONTINUOUS
 62
   250
 10
-0.515726
 20
0.193799
 30
0.0
 40
0.036404
 50
206.80246
 51
225.01384
  0
ARC
  8
0
  6
CONTINUOUS
 62
   250
 10
-0.481278
 20
0.159454
 30
0.0
 40
0.036476
 50
224.995193
 51
247.384995
  0
ARC
  8
0
  6
CONTINUOUS
 62
   250
 10
-0.519144
 20
0.108206
 30
0.0
 40
0.009726
 50
0.001448
 51
90.009834
  0
LINE
  8
0
  6
CONTINUOUS
 62
   250
 10
-0.530716
 20
0.1702
 30
0.0
 11
-0.504925
 21
0.144409
 31
0.0
  0
ARC
  8
0
  6
CONTINUOUS
 62
   250
 10
-0.15532
 20
0.0
 30
0.0
 40
0.346791
 50
148.31987
 51
148.643982
  0
CIRCLE
  8
0
  6
CONTINUOUS
 62
   250
 10
-0.28527
 20
0.169767
 30
0.0
 40
0.001944
  0
CIRCLE
  8
0
  6
CONTINUOUS
 62
   250
 10
-0.28527
 20
0.140589
 30
0.0
 40
0.001944
  0
LINE
  8
0
  6
CONTINUOUS
 62
   250
 10
-0.301328
 20
0.121138
 30
0.0
 11
-0.260954
 21
0.121138
 31
0.0
  0
LINE
  8
0
  6
CONTINUOUS
 62
   250
 10
-0.285329
 20
0.121138
 30
0.0
 11
-0.247794
 21
0.121138
 31
0.0
  0
CIRCLE
  8
0
  6
CONTINUOUS
 62
   250
 10
-0.261013
 20
0.169767
 30
0.0
 40
0.001945
  0
CIRCLE
  8
0
  6
CONTINUOUS
 62
   250
 10
-0.261013
 20
0.140589
 30
0.0
 40
0.001945
  0
LINE
  8
0
  6
CONTINUOUS
 62
   250
 10
-0.171207
 20
0.159542
 30
0.0
 11
-0.151755
 21
0.159542
 31
0.0
  0
CIRCLE
  8
0
  6
CONTINUOUS
 62
   250
 10
-0.16148
 20
0.159542
 30
0.0
 40
0.009726
  0
LINE
  8
0
  6
CONTINUOUS
 62
   250
 10
-0.210114
 20
0.159542
 30
0.0
 11
-0.190661
 21
0.159542
 31
0.0
  0
CIRCLE
  8
0
  6
CONTINUOUS
 62
   250
 10
-0.200386
 20
0.159542
 30
0.0
 40
0.009726
  0
LINE
  8
0
  6
CONTINUOUS
 62
   250
 10
-0.122577
 20
0.149817
 30
0.0
 11
-0.122577
 21
0.16927
 31
0.0
  0
CIRCLE
  8
0
  6
CONTINUOUS
 62
   250
 10
-0.122577
 20
0.159542
 30
0.0
 40
0.009726
  0
TEXT
  8
0
  6
CONTINUOUS
 62
   250
 10
-0.374471
 20
0.290017
 30
0.0
 40
0.013617
  1
SPAN
 41
1.011111
  7
SIMPLEX
  0
LINE
  8
0
  6
CONTINUOUS
 62
   250
 10
-0.329694
 20
0.24535
 30
0.0
 11
-0.364879
 21
0.24535
 31
0.0
  0
CIRCLE
  8
0
  6
CONTINUOUS
 62
   250
 10
-0.347116
 20
0.262451
 30
0.0
 40
0.010178
  0
LINE
  8
0
  6
CONTINUOUS
 62
   250
 10
-0.364879
 20
0.280594
 30
0.0
 11
-0.329694
 21
0.280594
 31
0.0
  0
TEXT
  8
0
  6
CONTINUOUS
 62
   250
 10
-0.564021
 20
0.290424
 30
0.0
 40
0.012255
  1
RTD SELECT
 41
1.011111
  7
SIMPLEX
  0
TEXT
  8
0
  6
CONTINUOUS
 62
   250
 10
-0.519065
 20
0.246689
 30
0.0
 40
0.013617
  1
1000
 41
1.011111
  7
SIMPLEX
  0
LINE
  8
0
 62
   250
 10
-0.523081
 20
0.284515
 30
0.0
 11
-0.566549
 21
0.284515
 31
0.0
  0
LINE
  8
1
  6
CONTINUOUS
 62
   250
 10
-0.525922
 20
0.281566
 30
0.0
 11
-0.563422
 21
0.281566
 31
0.0
  0
LINE
  8
1
  6
CONTINUOUS
 62
   250
 10
-0.525922
 20
0.262712
 30
0.0
 11
-0.563422
 21
0.262712
 31
0.0
  0
CIRCLE
  8
1
  6
CONTINUOUS
 62
   250
 10
-0.535296
 20
0.253337
 30
0.0
 40
0.001875
  0
CIRCLE
  8
1
  6
CONTINUOUS
 62
   250
 10
-0.535296
 20
0.272191
 30
0.0
 40
0.001875
  0
LINE
  8
0
 62
   250
 10
-0.566549
 20
0.239913
 30
0.0
 11
-0.523081
 21
0.239913
 31
0.0
  0
LINE
  8
1
  6
CONTINUOUS
 62
   250
 10
-0.563422
 20
0.243926
 30
0.0
 11
-0.525922
 21
0.243926
 31
0.0
  0
CIRCLE
  8
1
  6
CONTINUOUS
 62
   250
 10
-0.554047
 20
0.253337
 30
0.0
 40
0.001875
  0
LINE
  8
1
  6
CONTINUOUS
 62
   250
 10
-0.563422
 20
0.281566
 30
0.0
 11
-0.563422
 21
0.262817
 31
0.0
  0
CIRCLE
  8
1
  6
CONTINUOUS
 62
   250
 10
-0.554047
 20
0.272191
 30
0.0
 40
0.001875
  0
LINE
  8
0
 62
   250
 10
-0.566549
 20
0.284515
 30
0.0
 11
-0.566549
 21
0.239913
 31
0.0
  0
LINE
  8
1
  6
CONTINUOUS
 62
   250
 10
-0.563422
 20
0.243926
 30
0.0
 11
-0.563422
 21
0.262712
 31
0.0
  0
TEXT
  8
0
  6
CONTINUOUS
 62
   250
 10
-0.519645
 20
0.266212
 30
0.0
 40
0.013617
  1
100
 41
1.011111
  7
SIMPLEX
  0
LINE
  8
1
  6
CONTINUOUS
 62
   250
 10
-0.525922
 20
0.262817
 30
0.0
 11
-0.525922
 21
0.281566
 31
0.0
  0
LINE
  8
0
 62
   250
 10
-0.523081
 20
0.239913
 30
0.0
 11
-0.523081
 21
0.284515
 31
0.0
  0
LINE
  8
1
  6
CONTINUOUS
 62
   250
 10
-0.525922
 20
0.243926
 30
0.0
 11
-0.525922
 21
0.262712
 31
0.0
  0
CIRCLE
  8
0
  6
CONTINUOUS
 62
   250
 10
-0.499654
 20
0.331913
 30
0.0
 40
0.018238
  0
LINE
  8
0
  6
CONTINUOUS
 62
   250
 10
-0.40298
 20
0.24535
 30
0.0
 11
-0.438163
 21
0.24535
 31
0.0
  0
LINE
  8
0
  6
CONTINUOUS
 62
   250
 10
-0.438163
 20
0.280594
 30
0.0
 11
-0.40298
 21
0.280594
 31
0.0
  0
CIRCLE
  8
0
  6
CONTINUOUS
 62
   250
 10
-0.4204
 20
0.262451
 30
0.0
 40
0.01018
  0
LINE
  8
0
  6
CONTINUOUS
 62
   250
 10
-0.438163
 20
0.24535
 30
0.0
 11
-0.438163
 21
0.280594
 31
0.0
  0
LINE
  8
0
  6
CONTINUOUS
 62
   250
 10
-0.364879
 20
0.24535
 30
0.0
 11
-0.364879
 21
0.280594
 31
0.0
  0
LINE
  8
0
  6
CONTINUOUS
 62
   250
 10
-0.40298
 20
0.280594
 30
0.0
 11
-0.40298
 21
0.24535
 31
0.0
  0
TEXT
  8
0
  6
CONTINUOUS
 62
   250
 10
-0.439655
 20
0.290017
 30
0.0
 40
0.013617
  1
ZERO
 41
1.011111
  7
SIMPLEX
  0
CIRCLE
  8
1
  6
CONTINUOUS
 62
   250
 10
-0.535296
 20
0.532219
 30
0.0
 40
0.001875
  0
LINE
  8
1
  6
CONTINUOUS
 62
   250
 10
-0.525922
 20
0.541594
 30
0.0
 11
-0.563422
 21
0.541594
 31
0.0
  0
LINE
  8
1
  6
CONTINUOUS
 62
   250
 10
-0.563422
 20
0.522808
 30
0.0
 11
-0.525922
 21
0.522808
 31
0.0
  0
LINE
  8
0
 62
   250
 10
-0.566578
 20
0.518716
 30
0.0
 11
-0.523303
 21
0.518716
 31
0.0
  0
CIRCLE
  8
1
  6
CONTINUOUS
 62
   250
 10
-0.554047
 20
0.532219
 30
0.0
 40
0.001875
  0
LINE
  8
1
  6
CONTINUOUS
 62
   250
 10
-0.563422
 20
0.522808
 30
0.0
 11
-0.563422
 21
0.541594
 31
0.0
  0
TEXT
  8
0
  6
CONTINUOUS
 62
   250
 10
-0.519065
 20
0.535673
 30
0.0
 40
0.013617
  1
SA
 41
1.011111
  7
SIMPLEX
  0
LINE
  8
1
  6
CONTINUOUS
 62
   250
 10
-0.525922
 20
0.522808
 30
0.0
 11
-0.525922
 21
0.541594
 31
0.0
  0
CIRCLE
  8
0
  6
CONTINUOUS
 62
   250
 10
-0.261013
 20
0.374182
 30
0.0
 40
0.001945
  0
CIRCLE
  8
0
  6
CONTINUOUS
 62
   250
 10
-0.28527
 20
0.374182
 30
0.0
 40
0.001944
  0
ARC
  8
0
  6
CONTINUOUS
 62
   250
 10
-0.20625
 20
0.294273
 30
0.0
 40
0.01292
 50
179.981491
 51
270.018585
  0
ARC
  8
0
  6
CONTINUOUS
 62
   250
 10
-0.20625
 20
0.334618
 30
0.0
 40
0.01292
 50
89.981415
 51
180.018509
  0
CIRCLE
  8
0
  6
CONTINUOUS
 62
   250
 10
-0.261013
 20
0.286486
 30
0.0
 40
0.001945
  0
CIRCLE
  8
0
  6
CONTINUOUS
 62
   250
 10
-0.28527
 20
0.286486
 30
0.0
 40
0.001944
  0
CIRCLE
  8
0
  6
CONTINUOUS
 62
   250
 10
-0.28527
 20
0.257305
 30
0.0
 40
0.001944
  0
CIRCLE
  8
0
  6
CONTINUOUS
 62
   250
 10
-0.28527
 20
0.228127
 30
0.0
 40
0.001944
  0
CIRCLE
  8
0
  6
CONTINUOUS
 62
   250
 10
-0.28527
 20
0.198946
 30
0.0
 40
0.001944
  0
LINE
  8
0
  6
CONTINUOUS
 62
   250
 10
-0.329694
 20
0.280594
 30
0.0
 11
-0.329694
 21
0.24535
 31
0.0
  0
CIRCLE
  8
0
  6
CONTINUOUS
 62
   250
 10
-0.261013
 20
0.257305
 30
0.0
 40
0.001945
  0
CIRCLE
  8
0
  6
CONTINUOUS
 62
   250
 10
-0.261013
 20
0.228127
 30
0.0
 40
0.001945
  0
CIRCLE
  8
0
  6
CONTINUOUS
 62
   250
 10
-0.261013
 20
0.198946
 30
0.0
 40
0.001945
  0
CIRCLE
  8
0
  6
CONTINUOUS
 62
   250
 10
-0.28527
 20
0.344843
 30
0.0
 40
0.001944
  0
CIRCLE
  8
0
  6
CONTINUOUS
 62
   250
 10
-0.28527
 20
0.315664
 30
0.0
 40
0.001944
  0
CIRCLE
  8
0
  6
CONTINUOUS
 62
   250
 10
-0.261013
 20
0.344843
 30
0.0
 40
0.001945
  0
CIRCLE
  8
0
  6
CONTINUOUS
 62
   250
 10
-0.261013
 20
0.315664
 30
0.0
 40
0.001945
  0
TEXT
  8
0
  6
CONTINUOUS
 62
   250
 10
-0.169083
 20
0.257278
 30
0.0
 40
0.013617
  1
-
 41
1.011111
  7
SIMPLEX
  0
TEXT
  8
0
  6
CONTINUOUS
 62
   250
 10
-0.207997
 20
0.257278
 30
0.0
 40
0.013617
  1
+
 41
1.011111
  7
SIMPLEX
  0
TEXT
  8
0
  6
CONTINUOUS
 62
   250
 10
-0.128158
 20
0.257278
 30
0.0
 40
0.013617
  1
T
 41
1.011111
  7
SIMPLEX
  0
TEXT
  8
0
  6
CONTINUOUS
 62
   250
 10
-0.167064
 20
0.355665
 30
0.0
 40
0.013617
  1
B
 41
1.011111
  7
SIMPLEX
  0
TEXT
  8
0
  6
CONTINUOUS
 62
   250
 10
-0.20799
 20
0.355665
 30
0.0
 40
0.013617
  1
A
 41
1.011111
  7
SIMPLEX
  0
LINE
  8
0
  6
CONTINUOUS
 62
   250
 10
-0.219168
 20
0.294277
 30
0.0
 11
-0.219168
 21
0.33165
 31
0.0
  0
LINE
  8
0
  6
CONTINUOUS
 62
   250
 10
-0.219168
 20
0.297241
 30
0.0
 11
-0.219168
 21
0.334614
 31
0.0
  0
TEXT
  8
0
  6
CONTINUOUS
 62
   250
 10
-0.127083
 20
0.355665
 30
0.0
 40
0.013617
  1
R
 41
1.011111
  7
SIMPLEX
  0
CIRCLE
  8
0
  6
CONTINUOUS
 62
   250
 10
-0.261013
 20
0.461877
 30
0.0
 40
0.001945
  0
CIRCLE
  8
0
  6
CONTINUOUS
 62
   250
 10
-0.28527
 20
0.461877
 30
0.0
 40
0.001944
  0
CIRCLE
  8
0
  6
CONTINUOUS
 62
   250
 10
-0.28527
 20
0.40336
 30
0.0
 40
0.001944
  0
CIRCLE
  8
0
  6
CONTINUOUS
 62
   250
 10
-0.28527
 20
0.432539
 30
0.0
 40
0.001944
  0
CIRCLE
  8
0
  6
CONTINUOUS
 62
   250
 10
-0.261013
 20
0.40336
 30
0.0
 40
0.001945
  0
CIRCLE
  8
0
  6
CONTINUOUS
 62
   250
 10
-0.261013
 20
0.432539
 30
0.0
 40
0.001945
  0
CIRCLE
  8
0
  6
CONTINUOUS
 62
   250
 10
-0.28527
 20
0.491056
 30
0.0
 40
0.001944
  0
LINE
  8
0
  6
CONTINUOUS
 62
   250
 10
-0.285329
 20
0.504556
 30
0.0
 11
-0.247794
 21
0.504556
 31
0.0
  0
LINE
  8
0
  6
CONTINUOUS
 62
   250
 10
-0.301328
 20
0.504556
 30
0.0
 11
-0.247794
 21
0.504556
 31
0.0
  0
CIRCLE
  8
0
  6
CONTINUOUS
 62
   250
 10
-0.261013
 20
0.491056
 30
0.0
 40
0.001945
  0
CIRCLE
  8
0
  6
CONTINUOUS
 62
   250
 10
-0.122577
 20
0.468431
 30
0.0
 40
0.009726
  0
LINE
  8
0
  6
CONTINUOUS
 62
   250
 10
-0.122577
 20
0.478157
 30
0.0
 11
-0.122577
 21
0.458704
 31
0.0
  0
CIRCLE
  8
0
  6
CONTINUOUS
 62
   250
 10
-0.200386
 20
0.468431
 30
0.0
 40
0.009726
  0
CIRCLE
  8
0
  6
CONTINUOUS
 62
   250
 10
-0.16148
 20
0.468431
 30
0.0
 40
0.009726
  0
LINE
  8
0
  6
CONTINUOUS
 62
   250
 10
-0.141589
 20
0.37603
 30
0.0
 11
-0.141589
 21
0.483021
 31
0.0
  0
LINE
  8
0
  6
CONTINUOUS
 62
   250
 10
-0.219169
 20
0.37603
 30
0.0
 11
-0.219169
 21
0.483021
 31
0.0
  0
TEXT
  8
0
  6
CONTINUOUS
 62
   250
 10
-0.153485
 20
0.392372
 30
0.0
 40
0.013617
  1
B
 50
90.0
 41
1.011111
  7
SIMPLEX
  0
LINE
  8
0
  6
CONTINUOUS
 62
   250
 10
-0.103141
 20
0.37603
 30
0.0
 11
-0.219169
 21
0.37603
 31
0.0
  0
TEXT
  8
0
  6
CONTINUOUS
 62
   250
 10
-0.192696
 20
0.392372
 30
0.0
 40
0.013617
  1
A
 50
90.0
 41
1.011111
  7
SIMPLEX
  0
TEXT
  8
0
  6
CONTINUOUS
 62
   250
 10
-0.114278
 20
0.392372
 30
0.0
 40
0.013617
  1
COM
 50
90.0
 41
1.011111
  7
SIMPLEX
  0
LINE
  8
0
  6
CONTINUOUS
 62
   250
 10
-0.103141
 20
0.483021
 30
0.0
 11
-0.219169
 21
0.483021
 31
0.0
  0
LINE
  8
0
  6
CONTINUOUS
 62
   250
 10
-0.171207
 20
0.468431
 30
0.0
 11
-0.151755
 21
0.468431
 31
0.0
  0
LINE
  8
0
  6
CONTINUOUS
 62
   250
 10
-0.210114
 20
0.468431
 30
0.0
 11
-0.190661
 21
0.468431
 31
0.0
  0
LINE
  8
0
  6
CONTINUOUS
 62
   250
 10
0.090012
 20
0.251942
 30
0.0
 11
0.090012
 21
0.144953
 31
0.0
  0
LINE
  8
0
  6
CONTINUOUS
 62
   250
 10
-0.064922
 20
0.251942
 30
0.0
 11
-0.064922
 21
0.144953
 31
0.0
  0
TEXT
  8
0
  6
CONTINUOUS
 62
   250
 10
-0.075068
 20
0.174179
 30
0.0
 40
0.013617
  1
RTD
 50
90.0
 41
1.011111
  7
SIMPLEX
  0
LINE
  8
0
  6
CONTINUOUS
 62
   250
 10
0.01289
 20
0.251942
 30
0.0
 11
0.01289
 21
0.144953
 31
0.0
  0
LINE
  8
0
  6
CONTINUOUS
 62
   250
 10
0.01289
 20
0.251942
 30
0.0
 11
0.01289
 21
0.144953
 31
0.0
  0
LINE
  8
0
  6
CONTINUOUS
 62
   250
 10
0.021946
 20
0.159542
 30
0.0
 11
0.041397
 21
0.159542
 31
0.0
  0
CIRCLE
  8
0
  6
CONTINUOUS
 62
   250
 10
0.03167
 20
0.159542
 30
0.0
 40
0.009727
  0
LINE
  8
0
  6
CONTINUOUS
 62
   250
 10
-0.094085
 20
0.159542
 30
0.0
 11
-0.074631
 21
0.159542
 31
0.0
  0
LINE
  8
0
  6
CONTINUOUS
 62
   250
 10
-0.055179
 20
0.159542
 30
0.0
 11
-0.035724
 21
0.159542
 31
0.0
  0
CIRCLE
  8
0
  6
CONTINUOUS
 62
   250
 10
-0.084358
 20
0.159542
 30
0.0
 40
0.009727
  0
CIRCLE
  8
0
  6
CONTINUOUS
 62
   250
 10
-0.045452
 20
0.159542
 30
0.0
 40
0.009727
  0
LINE
  8
0
  6
CONTINUOUS
 62
   250
 10
-0.006546
 20
0.149817
 30
0.0
 11
-0.006546
 21
0.16927
 31
0.0
  0
CIRCLE
  8
0
  6
CONTINUOUS
 62
   250
 10
-0.006546
 20
0.159542
 30
0.0
 40
0.009726
  0
LINE
  8
0
  6
CONTINUOUS
 62
   250
 10
0.060849
 20
0.159542
 30
0.0
 11
0.080303
 21
0.159542
 31
0.0
  0
CIRCLE
  8
0
  6
CONTINUOUS
 62
   250
 10
0.070576
 20
0.159542
 30
0.0
 40
0.009727
  0
LINE
  8
0
  6
CONTINUOUS
 62
   250
 10
0.303337
 20
0.018238
 30
0.0
 11
0.397213
 21
0.018238
 31
0.0
  0
LINE
  8
0
  6
CONTINUOUS
 62
   250
 10
0.303337
 20
0.030396
 30
0.0
 11
0.397213
 21
0.030396
 31
0.0
  0
TEXT
  8
0
  6
CONTINUOUS
 62
   250
 10
0.136394
 20
0.356407
 30
0.0
 40
0.013617
  1
A2
 41
1.011111
  7
SIMPLEX
  0
LINE
  8
0
  6
CONTINUOUS
 62
   250
 10
0.283852
 20
0.483021
 30
0.0
 11
0.128918
 21
0.483021
 31
0.0
  0
LINE
  8
0
  6
CONTINUOUS
 62
   250
 10
0.283852
 20
0.37603
 30
0.0
 11
0.128918
 21
0.37603
 31
0.0
  0
TEXT
  8
0
  6
CONTINUOUS
 62
   250
 10
0.018796
 20
0.257572
 30
0.0
 40
0.013617
  1
DI1
 41
1.011111
  7
SIMPLEX
  0
TEXT
  8
0
  6
CONTINUOUS
 62
   250
 10
0.041743
 20
0.208481
 30
0.0
 40
0.013617
  1
DI1
 50
90.0
 41
1.011111
  7
SIMPLEX
  0
TEXT
  8
0
  6
CONTINUOUS
 62
   250
 10
0.019915
 20
0.355961
 30
0.0
 40
0.013617
  1
Y2
 41
1.011111
  7
SIMPLEX
  0
TEXT
  8
0
  6
CONTINUOUS
 62
   250
 10
-0.093444
 20
0.257278
 30
0.0
 40
0.013617
  1
Tg
 41
1.011111
  7
SIMPLEX
  0
TEXT
  8
0
  6
CONTINUOUS
 62
   250
 10
-0.059926
 20
0.355961
 30
0.0
 40
0.013617
  1
W2
 41
1.011111
  7
SIMPLEX
  0
TEXT
  8
0
  6
CONTINUOUS
 62
   250
 10
-0.018948
 20
0.355961
 30
0.0
 40
0.013617
  1
Y1
 41
1.011111
  7
SIMPLEX
  0
TEXT
  8
0
  6
CONTINUOUS
 62
   250
 10
0.058578
 20
0.257572
 30
0.0
 40
0.013617
  1
DI2
 41
1.011111
  7
SIMPLEX
  0
TEXT
  8
0
  6
CONTINUOUS
 62
   250
 10
0.079235
 20
0.208481
 30
0.0
 40
0.013617
  1
DI2
 50
90.0
 41
1.011111
  7
SIMPLEX
  0
TEXT
  8
0
  6
CONTINUOUS
 62
   250
 10
0.089765
 20
0.355961
 30
0.0
 40
0.010894
  1
B/O
 41
1.011111
  7
SIMPLEX
  0
TEXT
  8
0
  6
CONTINUOUS
 62
   250
 10
0.059977
 20
0.355961
 30
0.0
 40
0.013617
  1
G
 41
1.011111
  7
SIMPLEX
  0
CIRCLE
  8
0
  6
CONTINUOUS
 62
   250
 10
0.03167
 20
0.468431
 30
0.0
 40
0.009727
  0
LINE
  8
0
  6
CONTINUOUS
 62
   250
 10
0.021946
 20
0.468431
 30
0.0
 11
0.041397
 21
0.468431
 31
0.0
  0
LINE
  8
0
  6
CONTINUOUS
 62
   250
 10
0.128918
 20
0.483021
 30
0.0
 11
0.01289
 21
0.483021
 31
0.0
  0
TEXT
  8
0
  6
CONTINUOUS
 62
   250
 10
0.041743
 20
0.392372
 30
0.0
 40
0.013617
  1
N.O.
 50
90.0
 41
1.011111
  7
SIMPLEX
  0
LINE
  8
0
  6
CONTINUOUS
 62
   250
 10
0.128918
 20
0.37603
 30
0.0
 11
0.01289
 21
0.37603
 31
0.0
  0
CIRCLE
  8
0
  6
CONTINUOUS
 62
   250
 10
-0.006546
 20
0.468431
 30
0.0
 40
0.009726
  0
LINE
  8
0
  6
CONTINUOUS
 62
   250
 10
-0.006546
 20
0.478157
 30
0.0
 11
-0.006546
 21
0.458704
 31
0.0
  0
CIRCLE
  8
0
  6
CONTINUOUS
 62
   250
 10
-0.084358
 20
0.468431
 30
0.0
 40
0.009727
  0
CIRCLE
  8
0
  6
CONTINUOUS
 62
   250
 10
-0.045452
 20
0.468431
 30
0.0
 40
0.009727
  0
LINE
  8
0
  6
CONTINUOUS
 62
   250
 10
-0.065723
 20
0.37603
 30
0.0
 11
-0.065723
 21
0.483021
 31
0.0
  0
TEXT
  8
0
  6
CONTINUOUS
 62
   250
 10
-0.03622
 20
0.392372
 30
0.0
 40
0.013617
  1
N.O.
 50
90.0
 41
1.011111
  7
SIMPLEX
  0
TEXT
  8
0
  6
CONTINUOUS
 62
   250
 10
-0.075068
 20
0.392372
 30
0.0
 40
0.013617
  1
N.O.
 50
90.0
 41
1.011111
  7
SIMPLEX
  0
TEXT
  8
0
  6
CONTINUOUS
 62
   250
 10
0.002693
 20
0.392372
 30
0.0
 40
0.013617
  1
N.O.
 50
90.0
 41
1.011111
  7
SIMPLEX
  0
LINE
  8
0
  6
CONTINUOUS
 62
   250
 10
-0.094085
 20
0.468431
 30
0.0
 11
-0.074631
 21
0.468431
 31
0.0
  0
LINE
  8
0
  6
CONTINUOUS
 62
   250
 10
-0.055179
 20
0.468431
 30
0.0
 11
-0.035724
 21
0.468431
 31
0.0
  0
CIRCLE
  8
0
  6
CONTINUOUS
 62
   250
 10
0.147701
 20
0.468431
 30
0.0
 40
0.009724
  0
CIRCLE
  8
0
  6
CONTINUOUS
 62
   250
 10
0.109482
 20
0.468431
 30
0.0
 40
0.009727
  0
LINE
  8
0
  6
CONTINUOUS
 62
   250
 10
0.109482
 20
0.478157
 30
0.0
 11
0.109482
 21
0.458704
 31
0.0
  0
CIRCLE
  8
0
  6
CONTINUOUS
 62
   250
 10
0.070576
 20
0.468431
 30
0.0
 40
0.009727
  0
LINE
  8
0
  6
CONTINUOUS
 62
   250
 10
0.050048
 20
0.37603
 30
0.0
 11
0.050048
 21
0.483021
 31
0.0
  0
TEXT
  8
0
  6
CONTINUOUS
 62
   250
 10
0.079235
 20
0.392372
 30
0.0
 40
0.013617
  1
N.O.
 50
90.0
 41
1.011111
  7
SIMPLEX
  0
TEXT
  8
0
  6
CONTINUOUS
 62
   250
 10
0.118141
 20
0.392372
 30
0.0
 40
0.013617
  1
N.O.
 50
90.0
 41
1.011111
  7
SIMPLEX
  0
TEXT
  8
0
  6
CONTINUOUS
 62
   250
 10
0.157164
 20
0.392372
 30
0.0
 40
0.013617
  1
COM
 50
90.0
 41
1.011111
  7
SIMPLEX
  0
LINE
  8
0
  6
CONTINUOUS
 62
   250
 10
0.060849
 20
0.468431
 30
0.0
 11
0.080303
 21
0.468431
 31
0.0
  0
LINE
  8
0
  6
CONTINUOUS
 62
   250
 10
0.137974
 20
0.468431
 30
0.0
 11
0.157425
 21
0.468431
 31
0.0
  0
ARC
  8
0
  6
CONTINUOUS
 62
   250
 10
0.233562
 20
0.294273
 30
0.0
 40
0.01292
 50
269.981506
 51
0.018503
  0
TEXT
  8
0
  6
CONTINUOUS
 62
   250
 10
0.209542
 20
0.356407
 30
0.0
 40
0.013617
  1
AO1
 41
1.011111
  7
SIMPLEX
  0
TEXT
  8
0
  6
CONTINUOUS
 62
   250
 10
0.174843
 20
0.356407
 30
0.0
 40
0.013617
  1
A1
 41
1.011111
  7
SIMPLEX
  0
LINE
  8
0
  6
CONTINUOUS
 62
   250
 10
0.246483
 20
0.33165
 30
0.0
 11
0.246483
 21
0.294277
 31
0.0
  0
LINE
  8
0
  6
CONTINUOUS
 62
   250
 10
0.246483
 20
0.334614
 30
0.0
 11
0.246483
 21
0.297241
 31
0.0
  0
ARC
  8
0
  6
CONTINUOUS
 62
   250
 10
0.233562
 20
0.334618
 30
0.0
 40
0.01292
 50
359.981506
 51
90.018639
  0
CIRCLE
  8
0
  6
CONTINUOUS
 62
   250
 10
0.264416
 20
0.468431
 30
0.0
 40
0.009727
  0
LINE
  8
0
  6
CONTINUOUS
 62
   250
 10
0.264416
 20
0.478157
 30
0.0
 11
0.264416
 21
0.458704
 31
0.0
  0
LINE
  8
0
  6
CONTINUOUS
 62
   250
 10
0.225511
 20
0.478157
 30
0.0
 11
0.225511
 21
0.458704
 31
0.0
  0
CIRCLE
  8
0
  6
CONTINUOUS
 62
   250
 10
0.186605
 20
0.468431
 30
0.0
 40
0.009726
  0
CIRCLE
  8
0
  6
CONTINUOUS
 62
   250
 10
0.225511
 20
0.468431
 30
0.0
 40
0.009726
  0
LINE
  8
0
  6
CONTINUOUS
 62
   250
 10
0.167107
 20
0.37603
 30
0.0
 11
0.167107
 21
0.483021
 31
0.0
  0
LINE
  8
0
  6
CONTINUOUS
 62
   250
 10
0.283852
 20
0.37603
 30
0.0
 11
0.283852
 21
0.483021
 31
0.0
  0
TEXT
  8
0
  6
CONTINUOUS
 62
   250
 10
0.232359
 20
0.392372
 30
0.0
 40
0.013617
  1
AO1
 50
90.0
 41
1.011111
  7
SIMPLEX
  0
TEXT
  8
0
  6
CONTINUOUS
 62
   250
 10
0.195663
 20
0.392372
 30
0.0
 40
0.013617
  1
N.O.
 50
90.0
 41
1.011111
  7
SIMPLEX
  0
TEXT
  8
0
  6
CONTINUOUS
 62
   250
 10
0.271262
 20
0.392372
 30
0.0
 40
0.013617
  1
OVRD
 50
90.0
 41
1.011111
  7
SIMPLEX
  0
LINE
  8
0
  6
CONTINUOUS
 62
   250
 10
0.17688
 20
0.468431
 30
0.0
 11
0.196331
 21
0.468431
 31
0.0
  0
LINE
  8
0
  6
CONTINUOUS
 62
   250
 10
-0.577503
 20
0.662607
 30
0.0
 11
0.254116
 21
0.662607
 31
0.0
  0
LINE
  8
1
  6
CONTINUOUS
 62
   250
 10
-0.525922
 20
0.598088
 30
0.0
 11
-0.563422
 21
0.598088
 31
0.0
  0
LINE
  8
0
 62
   250
 10
-0.523303
 20
0.601128
 30
0.0
 11
-0.566578
 21
0.601128
 31
0.0
  0
CIRCLE
  8
1
  6
CONTINUOUS
 62
   250
 10
-0.535296
 20
0.569859
 30
0.0
 40
0.001875
  0
LINE
  8
1
  6
CONTINUOUS
 62
   250
 10
-0.525922
 20
0.579234
 30
0.0
 11
-0.563422
 21
0.579234
 31
0.0
  0
LINE
  8
1
  6
CONTINUOUS
 62
   250
 10
-0.563422
 20
0.560448
 30
0.0
 11
-0.525922
 21
0.560448
 31
0.0
  0
CIRCLE
  8
1
  6
CONTINUOUS
 62
   250
 10
-0.535296
 20
0.588713
 30
0.0
 40
0.001875
  0
LINE
  8
0
 62
   250
 10
-0.563422
 20
0.560448
 30
0.0
 11
-0.568733
 21
0.560448
 31
0.0
  0
LINE
  8
1
  6
CONTINUOUS
 62
   250
 10
-0.563422
 20
0.560448
 30
0.0
 11
-0.563422
 21
0.579234
 31
0.0
  0
CIRCLE
  8
1
  6
CONTINUOUS
 62
   250
 10
-0.554047
 20
0.569859
 30
0.0
 40
0.001875
  0
LINE
  8
1
  6
CONTINUOUS
 62
   250
 10
-0.563422
 20
0.598088
 30
0.0
 11
-0.563422
 21
0.579339
 31
0.0
  0
CIRCLE
  8
1
  6
CONTINUOUS
 62
   250
 10
-0.554047
 20
0.588713
 30
0.0
 40
0.001875
  0
LINE
  8
0
 62
   250
 10
-0.525922
 20
0.560448
 30
0.0
 11
-0.519593
 21
0.560448
 31
0.0
  0
TEXT
  8
0
  6
CONTINUOUS
 62
   250
 10
-0.519645
 20
0.573813
 30
0.0
 40
0.013617
  1
NW
 41
1.011111
  7
SIMPLEX
  0
LINE
  8
1
  6
CONTINUOUS
 62
   250
 10
-0.525922
 20
0.560448
 30
0.0
 11
-0.525922
 21
0.579234
 31
0.0
  0
LINE
  8
1
  6
CONTINUOUS
 62
   250
 10
-0.525922
 20
0.579339
 30
0.0
 11
-0.525922
 21
0.598088
 31
0.0
  0
CIRCLE
  8
0
  6
CONTINUOUS
 62
   250
 10
0.026318
 20
0.596035
 30
0.0
 40
0.028126
  0
LINE
  8
0
  6
CONTINUOUS
 62
   250
 10
0.613976
 20
0.376896
 30
0.0
 11
0.613976
 21
0.559265
 31
0.0
  0
LINE
  8
0
  6
CONTINUOUS
 62
   250
 10
0.589661
 20
0.662607
 30
0.0
 11
0.589661
 21
0.093616
 31
0.0
  0
LINE
  8
0
  6
CONTINUOUS
 62
   250
 10
0.595738
 20
0.674767
 30
0.0
 11
0.595738
 21
0.018238
 31
0.0
  0
ARC
  8
0
  6
CONTINUOUS
 62
   250
 10
0.499212
 20
0.189543
 30
0.0
 40
0.027354
 50
315.0
 51
135.0
  0
LINE
  8
0
  6
CONTINUOUS
 62
   250
 10
0.454078
 20
0.183094
 30
0.0
 11
0.47987
 21
0.208885
 31
0.0
  0
LINE
  8
0
  6
CONTINUOUS
 62
   250
 10
0.443333
 20
0.185244
 30
0.0
 11
0.47772
 21
0.219631
 31
0.0
  0
CIRCLE
  8
0
  6
CONTINUOUS
 62
   250
 10
0.487533
 20
0.174215
 30
0.0
 40
0.048632
  0
LINE
  8
0
  6
CONTINUOUS
 62
   250
 10
0.613976
 20
0.133736
 30
0.0
 11
0.613976
 21
0.316105
 31
0.0
  0
LINE
  8
0
  6
CONTINUOUS
 62
   250
 10
0.613976
 20
0.0
 30
0.0
 11
0.613976
 21
0.072948
 31
0.0
  0
ARC
  8
0
  6
CONTINUOUS
 62
   250
 10
0.47342
 20
0.163753
 30
0.0
 40
0.027355
 50
134.998581
 51
314.998596
  0
ARC
  8
0
  6
CONTINUOUS
 62
   250
 10
-0.155319
 20
0.0
 30
0.0
 40
0.626657
 50
16.881811
 51
17.194046
  0
ARC
  8
0
  6
CONTINUOUS
 62
   250
 10
0.503562
 20
0.193815
 30
0.0
 40
0.036418
 50
314.972504
 51
333.180481
  0
ARC
  8
0
  6
CONTINUOUS
 62
   250
 10
0.469082
 20
0.159516
 30
0.0
 40
0.036547
 50
292.625916
 51
314.976807
  0
LINE
  8
0
  6
CONTINUOUS
 62
   250
 10
0.5293
 20
0.168051
 30
0.0
 11
0.494915
 21
0.133663
 31
0.0
  0
LINE
  8
0
  6
CONTINUOUS
 62
   250
 10
0.518555
 20
0.1702
 30
0.0
 11
0.492763
 21
0.144409
 31
0.0
  0
LINE
  8
0
  6
CONTINUOUS
 62
   250
 10
0.632213
 20
0.091185
 30
0.0
 11
0.632213
 21
0.115501
 31
0.0
  0
LINE
  8
0
  6
CONTINUOUS
 62
   250
 10
0.575069
 20
0.074163
 30
0.0
 11
0.575069
 21
0.093616
 31
0.0
  0
LINE
  8
0
  6
CONTINUOUS
 62
   250
 10
0.575069
 20
0.074163
 30
0.0
 11
0.589661
 21
0.074163
 31
0.0
  0
LINE
  8
0
  6
CONTINUOUS
 62
   250
 10
0.575069
 20
0.093616
 30
0.0
 11
0.589661
 21
0.093616
 31
0.0
  0
LINE
  8
0
  6
CONTINUOUS
 62
   250
 10
0.589661
 20
0.074163
 30
0.0
 11
0.589661
 21
0.030396
 31
0.0
  0
LINE
  8
0
  6
CONTINUOUS
 62
   250
 10
0.607895
 20
0.072948
 30
0.0
 11
0.613976
 21
0.072948
 31
0.0
  0
LINE
  8
0
  6
CONTINUOUS
 62
   250
 10
0.607895
 20
0.091185
 30
0.0
 11
0.632213
 21
0.091185
 31
0.0
  0
LINE
  8
0
  6
CONTINUOUS
 62
   250
 10
0.607895
 20
0.072948
 30
0.0
 11
0.607895
 21
0.091185
 31
0.0
  0
LINE
  8
0
  6
CONTINUOUS
 62
   250
 10
0.607895
 20
0.115501
 30
0.0
 11
0.632213
 21
0.115501
 31
0.0
  0
LINE
  8
0
  6
CONTINUOUS
 62
   250
 10
0.607895
 20
0.133736
 30
0.0
 11
0.613976
 21
0.133736
 31
0.0
  0
LINE
  8
0
  6
CONTINUOUS
 62
   250
 10
0.607895
 20
0.115501
 30
0.0
 11
0.607895
 21
0.133736
 31
0.0
  0
LINE
  8
0
  6
CONTINUOUS
 62
   250
 10
0.607895
 20
0.35866
 30
0.0
 11
0.607895
 21
0.376896
 31
0.0
  0
ARC
  8
0
  6
CONTINUOUS
 62
   250
 10
-0.15532
 20
0.0
 30
0.0
 40
0.673866
 50
19.134069
 51
19.268953
  0
LINE
  8
0
  6
CONTINUOUS
 62
   250
 10
0.607895
 20
0.35866
 30
0.0
 11
0.632213
 21
0.35866
 31
0.0
  0
LINE
  8
0
  6
CONTINUOUS
 62
   250
 10
0.607895
 20
0.334343
 30
0.0
 11
0.632213
 21
0.334343
 31
0.0
  0
LINE
  8
0
  6
CONTINUOUS
 62
   250
 10
0.607895
 20
0.316105
 30
0.0
 11
0.613976
 21
0.316105
 31
0.0
  0
LINE
  8
0
  6
CONTINUOUS
 62
   250
 10
0.607895
 20
0.316105
 30
0.0
 11
0.607895
 21
0.334343
 31
0.0
  0
LINE
  8
0
  6
CONTINUOUS
 62
   250
 10
0.632213
 20
0.334343
 30
0.0
 11
0.632213
 21
0.35866
 31
0.0
  0
LINE
  8
0
  6
CONTINUOUS
 62
   250
 10
0.607895
 20
0.376896
 30
0.0
 11
0.613976
 21
0.376896
 31
0.0
  0
LINE
  8
0
  6
CONTINUOUS
 62
   250
 10
0.613976
 20
0.620056
 30
0.0
 11
0.613976
 21
0.693003
 31
0.0
  0
LINE
  8
0
  6
CONTINUOUS
 62
   250
 10
0.607895
 20
0.620056
 30
0.0
 11
0.613976
 21
0.620056
 31
0.0
  0
LINE
  8
0
  6
CONTINUOUS
 62
   250
 10
0.632213
 20
0.577501
 30
0.0
 11
0.632213
 21
0.601818
 31
0.0
  0
LINE
  8
0
  6
CONTINUOUS
 62
   250
 10
0.607895
 20
0.601818
 30
0.0
 11
0.632213
 21
0.601818
 31
0.0
  0
LINE
  8
0
  6
CONTINUOUS
 62
   250
 10
0.607895
 20
0.577501
 30
0.0
 11
0.632213
 21
0.577501
 31
0.0
  0
LINE
  8
0
  6
CONTINUOUS
 62
   250
 10
0.607895
 20
0.559265
 30
0.0
 11
0.613976
 21
0.559265
 31
0.0
  0
LINE
  8
0
  6
CONTINUOUS
 62
   250
 10
0.607895
 20
0.559265
 30
0.0
 11
0.607895
 21
0.577501
 31
0.0
  0
LINE
  8
0
  6
CONTINUOUS
 62
   250
 10
0.607895
 20
0.601818
 30
0.0
 11
0.607895
 21
0.620056
 31
0.0
  0
ENDSEC
  0
EOF
