  0
SECTION
  2
HEADER
  9
$ACADVER
  1
AC1009
  9
$INSBASE
 10
0.0
 20
0.0
 30
0.0
  9
$EXTMIN
 10
-0.631581
 20
0.0
 30
0.0
  9
$EXTMAX
 10
8.5
 20
11.0
 30
0.0
  9
$LIMMIN
 10
-0.289294
 20
0.342409
  9
$LIMMAX
 10
8.5
 20
11.0
  9
$ORTHOMODE
 70
     1
  9
$REGENMODE
 70
     1
  9
$FILLMODE
 70
     1
  9
$QTEXTMODE
 70
     0
  9
$MIRRTEXT
 70
     1
  9
$DRAGMODE
 70
     1
  9
$LTSCALE
 40
1.0
  9
$OSMODE
 70
     0
  9
$ATTMODE
 70
     2
  9
$TEXTSIZE
 40
1.0
  9
$TRACEWID
 40
0.05
  9
$TEXTSTYLE
  7
STANDARD
  9
$CLAYER
  8
0
  9
$CELTYPE
  6
BYLAYER
  9
$CECOLOR
 62
   256
  9
$DIMSCALE
 40
1.0
  9
$DIMASZ
 40
0.18
  9
$DIMEXO
 40
0.0625
  9
$DIMDLI
 40
0.38
  9
$DIMRND
 40
0.0
  9
$DIMDLE
 40
0.0
  9
$DIMEXE
 40
0.18
  9
$DIMTP
 40
0.0
  9
$DIMTM
 40
0.0
  9
$DIMTXT
 40
0.18
  9
$DIMCEN
 40
0.09
  9
$DIMTSZ
 40
0.0
  9
$DIMTOL
 70
     0
  9
$DIMLIM
 70
     0
  9
$DIMTIH
 70
     1
  9
$DIMTOH
 70
     1
  9
$DIMSE1
 70
     0
  9
$DIMSE2
 70
     0
  9
$DIMTAD
 70
     0
  9
$DIMZIN
 70
     0
  9
$DIMBLK
  1

  9
$DIMASO
 70
     1
  9
$DIMSHO
 70
     1
  9
$DIMPOST
  1
"
  9
$DIMAPOST
  1

  9
$DIMALT
 70
     0
  9
$DIMALTD
 70
     2
  9
$DIMALTF
 40
25.4
  9
$DIMLFAC
 40
1.0
  9
$DIMTOFL
 70
     0
  9
$DIMTVP
 40
0.0
  9
$DIMTIX
 70
     0
  9
$DIMSOXD
 70
     0
  9
$DIMSAH
 70
     0
  9
$DIMBLK1
  1

  9
$DIMBLK2
  1

  9
$DIMSTYLE
  2
*UNNAMED
  9
$DIMCLRD
 70
     0
  9
$DIMCLRE
 70
     0
  9
$DIMCLRT
 70
     0
  9
$DIMTFAC
 40
1.0
  9
$DIMGAP
 40
0.09
  9
$LUNITS
 70
     2
  9
$LUPREC
 70
     4
  9
$SKETCHINC
 40
0.1
  9
$FILLETRAD
 40
0.0
  9
$AUNITS
 70
     0
  9
$AUPREC
 70
     4
  9
$MENU
  1
acad
  9
$ELEVATION
 40
0.0
  9
$PELEVATION
 40
0.0
  9
$THICKNESS
 40
0.0
  9
$LIMCHECK
 70
     0
  9
$BLIPMODE
 70
     0
  9
$CHAMFERA
 40
0.0
  9
$CHAMFERB
 40
0.0
  9
$SKPOLY
 70
     0
  9
$TDCREATE
 40
2450386.421130324
  9
$TDUPDATE
 40
2450386.421130324
  9
$TDINDWG
 40
0.0000000000
  9
$TDUSRTIMER
 40
0.0000000000
  9
$USRTIMER
 70
     1
  9
$ANGBASE
 50
0.0
  9
$ANGDIR
 70
     0
  9
$PDMODE
 70
     2
  9
$PDSIZE
 40
0.0
  9
$PLINEWID
 40
0.0
  9
$COORDS
 70
     1
  9
$SPLFRAME
 70
     0
  9
$SPLINETYPE
 70
     6
  9
$SPLINESEGS
 70
     8
  9
$ATTDIA
 70
     0
  9
$ATTREQ
 70
     1
  9
$HANDLING
 70
     0
  9
$HANDSEED
  5
0
  9
$SURFTAB1
 70
     6
  9
$SURFTAB2
 70
     6
  9
$SURFTYPE
 70
     6
  9
$SURFU
 70
     6
  9
$SURFV
 70
     6
  9
$UCSNAME
  2

  9
$UCSORG
 10
0.0
 20
0.0
 30
0.0
  9
$UCSXDIR
 10
1.0
 20
0.0
 30
0.0
  9
$UCSYDIR
 10
0.0
 20
1.0
 30
0.0
  9
$PUCSNAME
  2

  9
$PUCSORG
 10
0.0
 20
0.0
 30
0.0
  9
$PUCSXDIR
 10
1.0
 20
0.0
 30
0.0
  9
$PUCSYDIR
 10
0.0
 20
1.0
 30
0.0
  9
$USERI1
 70
     0
  9
$USERI2
 70
     0
  9
$USERI3
 70
     0
  9
$USERI4
 70
     0
  9
$USERI5
 70
     0
  9
$USERR1
 40
0.0
  9
$USERR2
 40
0.0
  9
$USERR3
 40
0.0
  9
$USERR4
 40
0.0
  9
$USERR5
 40
0.0
  9
$WORLDVIEW
 70
     1
  9
$SHADEDGE
 70
     3
  9
$SHADEDIF
 70
    70
  9
$TILEMODE
 70
     1
  9
$MAXACTVP
 70
    16
  9
$PINSBASE
 10
0.0
 20
0.0
 30
0.0
  9
$PLIMCHECK
 70
     0
  9
$PEXTMIN
 10
1.000000E+20
 20
1.000000E+20
 30
1.000000E+20
  9
$PEXTMAX
 10
-1.000000E+20
 20
-1.000000E+20
 30
-1.000000E+20
  9
$PLIMMIN
 10
0.0
 20
0.0
  9
$PLIMMAX
 10
12.0
 20
9.0
  9
$UNITMODE
 70
     0
  9
$VISRETAIN
 70
     0
  9
$PLINEGEN
 70
     0
  9
$PSLTSCALE
 70
     1
  9
$TREEDEPTH
 70
  3020
  9
$DWGCODEPAGE
  3
ascii
  0
ENDSEC
  0
SECTION
  2
TABLES
  0
TABLE
  2
VPORT
 70
     3
  0
VPORT
  2
*ACTIVE
 70
     0
 10
0.0
 20
0.0
 11
1.0
 21
1.0
 12
6.99917
 22
5.5
 13
0.0
 23
0.0
 14
0.03125
 24
0.03125
 15
0.03125
 25
0.03125
 16
0.0
 26
0.0
 36
1.0
 17
0.0
 27
0.0
 37
0.0
 40
11.0
 41
1.387409
 42
50.0
 43
0.0
 44
0.0
 50
0.0
 51
0.0
 71
     0
 72
   100
 73
     1
 74
     1
 75
     0
 76
     1
 77
     0
 78
     0
  0
ENDTAB
  0
TABLE
  2
LTYPE
 70
     3
  0
LTYPE
  2
CONTINUOUS
 70
    64
  3
SOLID LINE
 72
    65
 73
     0
 40
0.0
  0
LTYPE
  2
PHANTOM
 70
    64
  3
_____ _ _ _____ _ _ _____ _ _ _____ _ _ ____
 72
    65
 73
     6
 40
2.5
 49
1.25
 49
-0.25
 49
0.25
 49
-0.25
 49
0.25
 49
-0.25
  0
LTYPE
  2
CENTER
 70
    64
  3
____ _ ____ _ ____ _ ____ _ ____ _ ____ _ ____
 72
    65
 73
     4
 40
2.0
 49
1.25
 49
-0.25
 49
0.25
 49
-0.25
  0
ENDTAB
  0
TABLE
  2
LAYER
 70
     2
  0
LAYER
  2
0
 70
    64
 62
     2
  6
CONTINUOUS
  0
LAYER
  2
1
 70
    64
 62
     4
  6
CONTINUOUS
  0
ENDTAB
  0
TABLE
  2
STYLE
 70
     3
  0
STYLE
  2
STANDARD
 70
     0
 40
0.0
 41
1.0
 50
0.0
 71
     0
 42
0.2
  3
txt
  4

  0
STYLE
  2
SIMPLEX
 70
    64
 40
0.0
 41
1.0
 50
0.0
 71
     0
 42
1.0
  3
ROMANS.SHX
  4

  0
STYLE
  2
ROMANS
 70
     0
 40
0.0
 41
1.0
 50
0.0
 71
     0
 42
1.0
  3
TXT
  4

  0
ENDTAB
  0
TABLE
  2
VIEW
 70
     0
  0
ENDTAB
  0
TABLE
  2
UCS
 70
     0
  0
ENDTAB
  0
TABLE
  2
APPID
 70
     1
  0
APPID
  2
ACAD
 70
    64
  0
ENDTAB
  0
TABLE
  2
DIMSTYLE
 70
     0
  0
ENDTAB
  0
ENDSEC
  0
SECTION
  2
BLOCKS
  0
BLOCK
  8
0
  2
DONUT
 70
    64
 10
0.0
 20
0.0
 30
0.0
  0
CIRCLE
  8
0
  6
CONTINUOUS
 62
     4
 10
0.0
 20
0.0
 30
0.0
 40
0.03125
  0
CIRCLE
  8
0
  6
CONTINUOUS
 62
     4
 10
0.0
 20
0.0
 30
0.0
 40
0.02997
  0
CIRCLE
  8
0
  6
CONTINUOUS
 62
     4
 10
0.0
 20
0.0
 30
0.0
 40
0.028765
  0
CIRCLE
  8
0
  6
CONTINUOUS
 62
     4
 10
0.0
 20
0.0
 30
0.0
 40
0.027259
  0
CIRCLE
  8
0
  6
CONTINUOUS
 62
     4
 10
0.0
 20
0.0
 30
0.0
 40
0.026054
  0
CIRCLE
  8
0
  6
CONTINUOUS
 62
     4
 10
0.0
 20
0.0
 30
0.0
 40
0.024548
  0
CIRCLE
  8
0
  6
CONTINUOUS
 62
     4
 10
0.0
 20
0.0
 30
0.0
 40
0.022741
  0
CIRCLE
  8
0
  6
CONTINUOUS
 62
     4
 10
0.0
 20
0.0
 30
0.0
 40
0.020934
  0
CIRCLE
  8
0
  6
CONTINUOUS
 62
     4
 10
0.0
 20
0.0
 30
0.0
 40
0.019126
  0
CIRCLE
  8
0
  6
CONTINUOUS
 62
     4
 10
0.0
 20
0.0
 30
0.0
 40
0.017018
  0
CIRCLE
  8
0
  6
CONTINUOUS
 62
     4
 10
0.0
 20
0.0
 30
0.0
 40
0.015512
  0
CIRCLE
  8
0
  6
CONTINUOUS
 62
     4
 10
0.0
 20
0.0
 30
0.0
 40
0.014006
  0
ENDBLK
  8
0
  0
ENDSEC
  0
SECTION
  2
ENTITIES
  0
LINE
  8
0
  6
CONTINUOUS
 62
     4
 10
8.5
 20
11.0
 30
0.0
 11
8.5
 21
11.0
 31
0.0
  0
LINE
  8
0
  6
CONTINUOUS
 62
   250
 10
0.225764
 20
0.625839
 30
0.0
 11
0.556941
 21
0.625839
 31
0.0
  0
LINE
  8
0
  6
CONTINUOUS
 62
   250
 10
0.56268
 20
0.637324
 30
0.0
 11
0.225764
 21
0.637324
 31
0.0
  0
LINE
  8
0
  6
CONTINUOUS
 62
   250
 10
0.375172
 20
0.017226
 30
0.0
 11
0.56268
 21
0.017226
 31
0.0
  0
LINE
  8
0
  6
CONTINUOUS
 62
   250
 10
0.556941
 20
0.028709
 30
0.0
 11
0.375172
 21
0.028709
 31
0.0
  0
LINE
  8
0
  6
CONTINUOUS
 62
   250
 10
-0.579906
 20
0.654548
 30
0.0
 11
0.579906
 21
0.654548
 31
0.0
  0
LINE
  8
0
  6
CONTINUOUS
 62
   250
 10
0.579906
 20
0.0
 30
0.0
 11
-0.579906
 21
0.0
 31
0.0
  0
LINE
  8
0
  6
CONTINUOUS
 62
   250
 10
0.240015
 20
0.637324
 30
0.0
 11
-0.568424
 21
0.637324
 31
0.0
  0
LINE
  8
0
  6
CONTINUOUS
 62
   250
 10
-0.568424
 20
0.017226
 30
0.0
 11
0.286505
 21
0.017226
 31
0.0
  0
LINE
  8
0
  6
CONTINUOUS
 62
   250
 10
-0.597132
 20
0.355982
 30
0.0
 11
-0.597132
 21
0.528231
 31
0.0
  0
LINE
  8
0
  6
CONTINUOUS
 62
   250
 10
-0.568424
 20
0.637324
 30
0.0
 11
-0.568424
 21
0.017226
 31
0.0
  0
LINE
  8
0
  6
CONTINUOUS
 62
   250
 10
-0.597132
 20
0.298532
 30
0.0
 11
-0.597132
 21
0.126315
 31
0.0
  0
LINE
  8
0
  6
CONTINUOUS
 62
   250
 10
-0.597132
 20
0.011482
 30
0.0
 11
-0.597132
 21
0.0689
 31
0.0
  0
LINE
  8
0
  6
CONTINUOUS
 62
   250
 10
-0.579906
 20
0.011482
 30
0.0
 11
-0.597132
 21
0.011482
 31
0.0
  0
LINE
  8
0
  6
CONTINUOUS
 62
   250
 10
-0.579906
 20
0.0
 30
0.0
 11
-0.579906
 21
0.011482
 31
0.0
  0
LINE
  8
0
  6
CONTINUOUS
 62
   250
 10
-0.631581
 20
0.086125
 30
0.0
 11
-0.631581
 21
0.109092
 31
0.0
  0
LINE
  8
0
  6
CONTINUOUS
 62
   250
 10
-0.59139
 20
0.086125
 30
0.0
 11
-0.631581
 21
0.086125
 31
0.0
  0
LINE
  8
0
  6
CONTINUOUS
 62
   250
 10
-0.59139
 20
0.0689
 30
0.0
 11
-0.59139
 21
0.086125
 31
0.0
  0
LINE
  8
0
  6
CONTINUOUS
 62
   250
 10
-0.59139
 20
0.0689
 30
0.0
 11
-0.597132
 21
0.0689
 31
0.0
  0
LINE
  8
0
  6
CONTINUOUS
 62
   250
 10
-0.59139
 20
0.109092
 30
0.0
 11
-0.631581
 21
0.109092
 31
0.0
  0
LINE
  8
0
  6
CONTINUOUS
 62
   250
 10
-0.59139
 20
0.109092
 30
0.0
 11
-0.59139
 21
0.126315
 31
0.0
  0
LINE
  8
0
  6
CONTINUOUS
 62
   250
 10
-0.59139
 20
0.126315
 30
0.0
 11
-0.597132
 21
0.126315
 31
0.0
  0
LINE
  8
0
  6
CONTINUOUS
 62
   250
 10
-0.59139
 20
0.338758
 30
0.0
 11
-0.59139
 21
0.355982
 31
0.0
  0
LINE
  8
0
  6
CONTINUOUS
 62
   250
 10
-0.59139
 20
0.338758
 30
0.0
 11
-0.631581
 21
0.338758
 31
0.0
  0
LINE
  8
0
  6
CONTINUOUS
 62
   250
 10
-0.59139
 20
0.31579
 30
0.0
 11
-0.631581
 21
0.31579
 31
0.0
  0
LINE
  8
0
  6
CONTINUOUS
 62
   250
 10
-0.631581
 20
0.31579
 30
0.0
 11
-0.631581
 21
0.338758
 31
0.0
  0
LINE
  8
0
  6
CONTINUOUS
 62
   250
 10
-0.59139
 20
0.31579
 30
0.0
 11
-0.59139
 21
0.298532
 31
0.0
  0
LINE
  8
0
  6
CONTINUOUS
 62
   250
 10
-0.59139
 20
0.298532
 30
0.0
 11
-0.597132
 21
0.298532
 31
0.0
  0
LINE
  8
0
  6
CONTINUOUS
 62
   250
 10
-0.59139
 20
0.355982
 30
0.0
 11
-0.597132
 21
0.355982
 31
0.0
  0
LINE
  8
0
  6
CONTINUOUS
 62
   250
 10
-0.597132
 20
0.585649
 30
0.0
 11
-0.597132
 21
0.643063
 31
0.0
  0
LINE
  8
0
  6
CONTINUOUS
 62
   250
 10
-0.59139
 20
0.545456
 30
0.0
 11
-0.631581
 21
0.545456
 31
0.0
  0
LINE
  8
0
  6
CONTINUOUS
 62
   250
 10
-0.59139
 20
0.568423
 30
0.0
 11
-0.631581
 21
0.568423
 31
0.0
  0
LINE
  8
0
  6
CONTINUOUS
 62
   250
 10
-0.631581
 20
0.545456
 30
0.0
 11
-0.631581
 21
0.568423
 31
0.0
  0
LINE
  8
0
  6
CONTINUOUS
 62
   250
 10
-0.59139
 20
0.585649
 30
0.0
 11
-0.597132
 21
0.585649
 31
0.0
  0
LINE
  8
0
  6
CONTINUOUS
 62
   250
 10
-0.59139
 20
0.528231
 30
0.0
 11
-0.597132
 21
0.528231
 31
0.0
  0
LINE
  8
0
  6
CONTINUOUS
 62
   250
 10
-0.59139
 20
0.528231
 30
0.0
 11
-0.59139
 21
0.545456
 31
0.0
  0
LINE
  8
0
  6
CONTINUOUS
 62
   250
 10
-0.59139
 20
0.568423
 30
0.0
 11
-0.59139
 21
0.585649
 31
0.0
  0
LINE
  8
0
  6
CONTINUOUS
 62
   250
 10
-0.579906
 20
0.643063
 30
0.0
 11
-0.597132
 21
0.643063
 31
0.0
  0
LINE
  8
0
  6
CONTINUOUS
 62
   250
 10
-0.579906
 20
0.654548
 30
0.0
 11
-0.579906
 21
0.643063
 31
0.0
  0
LINE
  8
1
  6
CONTINUOUS
 62
   250
 10
-0.496739
 20
0.51164
 30
0.0
 11
-0.496739
 21
0.529349
 31
0.0
  0
LINE
  8
1
  6
CONTINUOUS
 62
   250
 10
-0.532158
 20
0.529349
 30
0.0
 11
-0.532158
 21
0.51164
 31
0.0
  0
CIRCLE
  8
1
  6
CONTINUOUS
 62
   250
 10
-0.523303
 20
0.520494
 30
0.0
 40
0.001771
  0
CIRCLE
  8
1
  6
CONTINUOUS
 62
   250
 10
-0.505592
 20
0.520494
 30
0.0
 40
0.001771
  0
LINE
  8
0
  6
CONTINUOUS
 62
   250
 10
-0.494265
 20
0.489933
 30
0.0
 11
-0.494265
 21
0.567771
 31
0.0
  0
LINE
  8
0
  6
CONTINUOUS
 62
   250
 10
-0.535139
 20
0.567771
 30
0.0
 11
-0.535139
 21
0.489933
 31
0.0
  0
LINE
  8
0
  6
CONTINUOUS
 62
   250
 10
-0.545457
 20
0.111387
 30
0.0
 11
-0.545457
 21
0.625839
 31
0.0
  0
LINE
  8
0
  6
CONTINUOUS
 62
   250
 10
0.220599
 20
0.265741
 30
0.0
 11
-0.1948
 21
0.265741
 31
0.0
  0
LINE
  8
0
  6
CONTINUOUS
 62
   250
 10
-0.1948
 20
0.328253
 30
0.0
 11
0.220599
 21
0.328253
 31
0.0
  0
LINE
  8
0
  6
CONTINUOUS
 62
   250
 10
0.286505
 20
0.028709
 30
0.0
 11
-0.48115
 21
0.028709
 31
0.0
  0
LINE
  8
0
  6
CONTINUOUS
 62
   250
 10
-0.134165
 20
0.237962
 30
0.0
 11
-0.134165
 21
0.13691
 31
0.0
  0
TEXT
  8
0
  6
CONTINUOUS
 62
   250
 10
-0.107937
 20
0.163565
 30
0.0
 40
0.013004
  1
RTD
 50
90.0
 41
0.889011
  7
SIMPLEX
  0
TEXT
  8
0
  6
CONTINUOUS
 62
   250
 10
-0.182003
 20
0.163565
 30
0.0
 40
0.013004
  1
+24V
 50
90.0
 41
0.889011
  7
SIMPLEX
  0
TEXT
  8
0
  6
CONTINUOUS
 62
   250
 10
-0.144968
 20
0.163565
 30
0.0
 40
0.013004
  1
GND
 50
90.0
 41
0.889011
  7
SIMPLEX
  0
LINE
  8
0
  6
CONTINUOUS
 62
   250
 10
-0.207007
 20
0.237962
 30
0.0
 11
-0.207007
 21
0.13691
 31
0.0
  0
ARC
  8
0
  6
CONTINUOUS
 62
   250
 10
-0.482996
 20
0.179025
 30
0.0
 40
0.025838
 50
44.997173
 51
224.997177
  0
LINE
  8
0
  6
CONTINUOUS
 62
   250
 10
-0.430215
 20
0.174965
 30
0.0
 11
-0.462696
 21
0.207444
 31
0.0
  0
LINE
  8
0
  6
CONTINUOUS
 62
   250
 10
-0.440367
 20
0.172934
 30
0.0
 11
-0.464724
 21
0.197294
 31
0.0
  0
CIRCLE
  8
0
  6
CONTINUOUS
 62
   250
 10
-0.471964
 20
0.164548
 30
0.0
 40
0.045932
  0
LINE
  8
0
  6
CONTINUOUS
 62
   250
 10
-0.234044
 20
0.114416
 30
0.0
 11
-0.234044
 21
0.476558
 31
0.0
  0
LINE
  8
0
  6
CONTINUOUS
 62
   250
 10
-0.284607
 20
0.476558
 30
0.0
 11
-0.284607
 21
0.114416
 31
0.0
  0
ARC
  8
0
  6
CONTINUOUS
 62
   250
 10
-0.458637
 20
0.154667
 30
0.0
 40
0.025838
 50
225.000092
 51
44.999912
  0
LINE
  8
0
  6
CONTINUOUS
 62
   250
 10
-0.48115
 20
0.028709
 30
0.0
 11
-0.48115
 21
0.102202
 31
0.0
  0
LINE
  8
0
  6
CONTINUOUS
 62
   250
 10
-0.490339
 20
0.111387
 30
0.0
 11
-0.545457
 21
0.111387
 31
0.0
  0
LINE
  8
0
  6
CONTINUOUS
 62
   250
 10
-0.511416
 20
0.158726
 30
0.0
 11
-0.478935
 21
0.126246
 31
0.0
  0
ARC
  8
0
  6
CONTINUOUS
 62
   250
 10
-0.487108
 20
0.183045
 30
0.0
 40
0.034384
 50
206.802429
 51
225.013672
  0
ARC
  8
0
  6
CONTINUOUS
 62
   250
 10
-0.454572
 20
0.150606
 30
0.0
 40
0.034452
 50
224.994965
 51
247.384796
  0
ARC
  8
0
  6
CONTINUOUS
 62
   250
 10
-0.490337
 20
0.102202
 30
0.0
 40
0.009186
 50
0.001405
 51
90.010178
  0
LINE
  8
0
  6
CONTINUOUS
 62
   250
 10
-0.501267
 20
0.160756
 30
0.0
 11
-0.476907
 21
0.136396
 31
0.0
  0
ARC
  8
0
  6
CONTINUOUS
 62
   250
 10
-1.039821
 20
-0.87617
 30
0.0
 40
1.214975
 50
59.624043
 51
59.625782
  0
CIRCLE
  8
0
  6
CONTINUOUS
 62
   250
 10
-0.26944
 20
0.160347
 30
0.0
 40
0.001836
  0
CIRCLE
  8
0
  6
CONTINUOUS
 62
   250
 10
-0.26944
 20
0.132788
 30
0.0
 40
0.001836
  0
LINE
  8
0
  6
CONTINUOUS
 62
   250
 10
-0.284607
 20
0.114416
 30
0.0
 11
-0.246474
 21
0.114416
 31
0.0
  0
LINE
  8
0
  6
CONTINUOUS
 62
   250
 10
-0.269496
 20
0.114416
 30
0.0
 11
-0.234044
 21
0.114416
 31
0.0
  0
CIRCLE
  8
0
  6
CONTINUOUS
 62
   250
 10
-0.246529
 20
0.160347
 30
0.0
 40
0.001837
  0
CIRCLE
  8
0
  6
CONTINUOUS
 62
   250
 10
-0.246529
 20
0.132788
 30
0.0
 40
0.001837
  0
LINE
  8
0
  6
CONTINUOUS
 62
   250
 10
-0.161707
 20
0.150689
 30
0.0
 11
-0.143334
 21
0.150689
 31
0.0
  0
CIRCLE
  8
0
  6
CONTINUOUS
 62
   250
 10
-0.152519
 20
0.150689
 30
0.0
 40
0.009186
  0
LINE
  8
0
  6
CONTINUOUS
 62
   250
 10
-0.198455
 20
0.150689
 30
0.0
 11
-0.180081
 21
0.150689
 31
0.0
  0
CIRCLE
  8
0
  6
CONTINUOUS
 62
   250
 10
-0.189267
 20
0.150689
 30
0.0
 40
0.009186
  0
LINE
  8
0
  6
CONTINUOUS
 62
   250
 10
-0.115775
 20
0.141504
 30
0.0
 11
-0.115775
 21
0.159877
 31
0.0
  0
CIRCLE
  8
0
  6
CONTINUOUS
 62
   250
 10
-0.115775
 20
0.150689
 30
0.0
 40
0.009186
  0
TEXT
  8
0
  6
CONTINUOUS
 62
   250
 10
-0.353692
 20
0.273924
 30
0.0
 40
0.013004
  1
SPAN
 41
0.889011
  7
SIMPLEX
  0
LINE
  8
0
  6
CONTINUOUS
 62
   250
 10
-0.311399
 20
0.231736
 30
0.0
 11
-0.344632
 21
0.231736
 31
0.0
  0
CIRCLE
  8
0
  6
CONTINUOUS
 62
   250
 10
-0.327855
 20
0.247888
 30
0.0
 40
0.009613
  0
LINE
  8
0
  6
CONTINUOUS
 62
   250
 10
-0.344632
 20
0.265024
 30
0.0
 11
-0.311399
 21
0.265024
 31
0.0
  0
TEXT
  8
0
  6
CONTINUOUS
 62
   250
 10
-0.532723
 20
0.274309
 30
0.0
 40
0.011704
  1
RTD SELECT
 41
0.889011
  7
SIMPLEX
  0
TEXT
  8
0
  6
CONTINUOUS
 62
   250
 10
-0.490262
 20
0.233
 30
0.0
 40
0.013004
  1
1000
 41
0.889011
  7
SIMPLEX
  0
LINE
  8
0
  6
CONTINUOUS
 62
   250
 10
-0.494055
 20
0.268727
 30
0.0
 11
-0.535111
 21
0.268727
 31
0.0
  0
LINE
  8
1
  6
CONTINUOUS
 62
   250
 10
-0.496739
 20
0.265942
 30
0.0
 11
-0.532158
 21
0.265942
 31
0.0
  0
LINE
  8
1
  6
CONTINUOUS
 62
   250
 10
-0.496739
 20
0.248134
 30
0.0
 11
-0.532158
 21
0.248134
 31
0.0
  0
CIRCLE
  8
1
  6
CONTINUOUS
 62
   250
 10
-0.505592
 20
0.239279
 30
0.0
 40
0.001771
  0
CIRCLE
  8
1
  6
CONTINUOUS
 62
   250
 10
-0.505592
 20
0.257087
 30
0.0
 40
0.001771
  0
LINE
  8
0
  6
CONTINUOUS
 62
   250
 10
-0.535111
 20
0.2266
 30
0.0
 11
-0.494055
 21
0.2266
 31
0.0
  0
LINE
  8
1
  6
CONTINUOUS
 62
   250
 10
-0.532158
 20
0.230391
 30
0.0
 11
-0.496739
 21
0.230391
 31
0.0
  0
CIRCLE
  8
1
  6
CONTINUOUS
 62
   250
 10
-0.523303
 20
0.239279
 30
0.0
 40
0.001771
  0
LINE
  8
1
  6
CONTINUOUS
 62
   250
 10
-0.532158
 20
0.265942
 30
0.0
 11
-0.532158
 21
0.248233
 31
0.0
  0
CIRCLE
  8
1
  6
CONTINUOUS
 62
   250
 10
-0.523303
 20
0.257087
 30
0.0
 40
0.001771
  0
LINE
  8
0
  6
CONTINUOUS
 62
   250
 10
-0.535111
 20
0.268727
 30
0.0
 11
-0.535111
 21
0.2266
 31
0.0
  0
LINE
  8
1
  6
CONTINUOUS
 62
   250
 10
-0.532158
 20
0.230391
 30
0.0
 11
-0.532158
 21
0.248134
 31
0.0
  0
TEXT
  8
0
  6
CONTINUOUS
 62
   250
 10
-0.49081
 20
0.25144
 30
0.0
 40
0.013004
  1
100
 41
0.889011
  7
SIMPLEX
  0
LINE
  8
1
  6
CONTINUOUS
 62
   250
 10
-0.496739
 20
0.248233
 30
0.0
 11
-0.496739
 21
0.265942
 31
0.0
  0
LINE
  8
0
  6
CONTINUOUS
 62
   250
 10
-0.494055
 20
0.2266
 30
0.0
 11
-0.494055
 21
0.268727
 31
0.0
  0
LINE
  8
1
  6
CONTINUOUS
 62
   250
 10
-0.496739
 20
0.230391
 30
0.0
 11
-0.496739
 21
0.248134
 31
0.0
  0
CIRCLE
  8
0
  6
CONTINUOUS
 62
   250
 10
-0.471928
 20
0.313495
 30
0.0
 40
0.017226
  0
LINE
  8
0
  6
CONTINUOUS
 62
   250
 10
-0.380619
 20
0.231736
 30
0.0
 11
-0.413849
 21
0.231736
 31
0.0
  0
LINE
  8
0
  6
CONTINUOUS
 62
   250
 10
-0.413849
 20
0.265024
 30
0.0
 11
-0.380619
 21
0.265024
 31
0.0
  0
CIRCLE
  8
0
  6
CONTINUOUS
 62
   250
 10
-0.397072
 20
0.247888
 30
0.0
 40
0.009615
  0
LINE
  8
0
  6
CONTINUOUS
 62
   250
 10
-0.413849
 20
0.231736
 30
0.0
 11
-0.413849
 21
0.265024
 31
0.0
  0
LINE
  8
0
  6
CONTINUOUS
 62
   250
 10
-0.344632
 20
0.231736
 30
0.0
 11
-0.344632
 21
0.265024
 31
0.0
  0
LINE
  8
0
  6
CONTINUOUS
 62
   250
 10
-0.380619
 20
0.265024
 30
0.0
 11
-0.380619
 21
0.231736
 31
0.0
  0
TEXT
  8
0
  6
CONTINUOUS
 62
   250
 10
-0.415259
 20
0.273924
 30
0.0
 40
0.013004
  1
ZERO
 41
0.889011
  7
SIMPLEX
  0
CIRCLE
  8
1
  6
CONTINUOUS
 62
   250
 10
-0.505592
 20
0.502686
 30
0.0
 40
0.001771
  0
LINE
  8
1
  6
CONTINUOUS
 62
   250
 10
-0.496739
 20
0.511541
 30
0.0
 11
-0.532158
 21
0.511541
 31
0.0
  0
LINE
  8
1
  6
CONTINUOUS
 62
   250
 10
-0.532158
 20
0.493798
 30
0.0
 11
-0.496739
 21
0.493798
 31
0.0
  0
LINE
  8
0
  6
CONTINUOUS
 62
   250
 10
-0.535139
 20
0.489933
 30
0.0
 11
-0.494265
 21
0.489933
 31
0.0
  0
CIRCLE
  8
1
  6
CONTINUOUS
 62
   250
 10
-0.523303
 20
0.502686
 30
0.0
 40
0.001771
  0
LINE
  8
1
  6
CONTINUOUS
 62
   250
 10
-0.532158
 20
0.493798
 30
0.0
 11
-0.532158
 21
0.511541
 31
0.0
  0
TEXT
  8
0
  6
CONTINUOUS
 62
   250
 10
-0.490262
 20
0.505949
 30
0.0
 40
0.013004
  1
SA
 41
0.889011
  7
SIMPLEX
  0
LINE
  8
1
  6
CONTINUOUS
 62
   250
 10
-0.496739
 20
0.493798
 30
0.0
 11
-0.496739
 21
0.511541
 31
0.0
  0
CIRCLE
  8
0
  6
CONTINUOUS
 62
   250
 10
-0.246529
 20
0.353419
 30
0.0
 40
0.001837
  0
CIRCLE
  8
0
  6
CONTINUOUS
 62
   250
 10
-0.26944
 20
0.353419
 30
0.0
 40
0.001836
  0
ARC
  8
0
  6
CONTINUOUS
 62
   250
 10
-0.194805
 20
0.277944
 30
0.0
 40
0.012203
 50
179.981491
 51
270.018494
  0
ARC
  8
0
  6
CONTINUOUS
 62
   250
 10
-0.194805
 20
0.31605
 30
0.0
 40
0.012203
 50
89.981232
 51
180.019028
  0
CIRCLE
  8
0
  6
CONTINUOUS
 62
   250
 10
-0.246529
 20
0.270589
 30
0.0
 40
0.001837
  0
CIRCLE
  8
0
  6
CONTINUOUS
 62
   250
 10
-0.26944
 20
0.270589
 30
0.0
 40
0.001836
  0
CIRCLE
  8
0
  6
CONTINUOUS
 62
   250
 10
-0.26944
 20
0.243027
 30
0.0
 40
0.001836
  0
CIRCLE
  8
0
  6
CONTINUOUS
 62
   250
 10
-0.26944
 20
0.215468
 30
0.0
 40
0.001836
  0
CIRCLE
  8
0
  6
CONTINUOUS
 62
   250
 10
-0.26944
 20
0.187906
 30
0.0
 40
0.001836
  0
LINE
  8
0
  6
CONTINUOUS
 62
   250
 10
-0.311399
 20
0.265024
 30
0.0
 11
-0.311399
 21
0.231736
 31
0.0
  0
CIRCLE
  8
0
  6
CONTINUOUS
 62
   250
 10
-0.246529
 20
0.243027
 30
0.0
 40
0.001837
  0
CIRCLE
  8
0
  6
CONTINUOUS
 62
   250
 10
-0.246529
 20
0.215468
 30
0.0
 40
0.001837
  0
CIRCLE
  8
0
  6
CONTINUOUS
 62
   250
 10
-0.246529
 20
0.187906
 30
0.0
 40
0.001837
  0
CIRCLE
  8
0
  6
CONTINUOUS
 62
   250
 10
-0.26944
 20
0.325708
 30
0.0
 40
0.001836
  0
CIRCLE
  8
0
  6
CONTINUOUS
 62
   250
 10
-0.26944
 20
0.298148
 30
0.0
 40
0.001836
  0
CIRCLE
  8
0
  6
CONTINUOUS
 62
   250
 10
-0.246529
 20
0.325708
 30
0.0
 40
0.001837
  0
CIRCLE
  8
0
  6
CONTINUOUS
 62
   250
 10
-0.246529
 20
0.298148
 30
0.0
 40
0.001837
  0
TEXT
  8
0
  6
CONTINUOUS
 62
   250
 10
-0.159701
 20
0.243002
 30
0.0
 40
0.013004
  1
-
 41
0.989011
  7
SIMPLEX
  0
TEXT
  8
0
  6
CONTINUOUS
 62
   250
 10
-0.196455
 20
0.243002
 30
0.0
 40
0.013004
  1
+
 41
0.989011
  7
SIMPLEX
  0
TEXT
  8
0
  6
CONTINUOUS
 62
   250
 10
-0.121047
 20
0.243002
 30
0.0
 40
0.013004
  1
T
 41
0.989011
  7
SIMPLEX
  0
TEXT
  8
0
  6
CONTINUOUS
 62
   250
 10
-0.157794
 20
0.335929
 30
0.0
 40
0.013004
  1
B
 41
0.989011
  7
SIMPLEX
  0
TEXT
  8
0
  6
CONTINUOUS
 62
   250
 10
-0.196449
 20
0.335929
 30
0.0
 40
0.013004
  1
A
 41
0.989011
  7
SIMPLEX
  0
LINE
  8
0
  6
CONTINUOUS
 62
   250
 10
-0.207006
 20
0.277948
 30
0.0
 11
-0.207006
 21
0.313247
 31
0.0
  0
LINE
  8
0
  6
CONTINUOUS
 62
   250
 10
-0.207006
 20
0.280747
 30
0.0
 11
-0.207006
 21
0.316047
 31
0.0
  0
TEXT
  8
0
  6
CONTINUOUS
 62
   250
 10
-0.120031
 20
0.335929
 30
0.0
 40
0.013004
  1
R
 41
0.989011
  7
SIMPLEX
  0
CIRCLE
  8
0
  6
CONTINUOUS
 62
   250
 10
-0.246529
 20
0.436248
 30
0.0
 40
0.001837
  0
CIRCLE
  8
0
  6
CONTINUOUS
 62
   250
 10
-0.26944
 20
0.436248
 30
0.0
 40
0.001836
  0
CIRCLE
  8
0
  6
CONTINUOUS
 62
   250
 10
-0.26944
 20
0.380978
 30
0.0
 40
0.001836
  0
CIRCLE
  8
0
  6
CONTINUOUS
 62
   250
 10
-0.26944
 20
0.408537
 30
0.0
 40
0.001836
  0
CIRCLE
  8
0
  6
CONTINUOUS
 62
   250
 10
-0.246529
 20
0.380978
 30
0.0
 40
0.001837
  0
CIRCLE
  8
0
  6
CONTINUOUS
 62
   250
 10
-0.246529
 20
0.408537
 30
0.0
 40
0.001837
  0
CIRCLE
  8
0
  6
CONTINUOUS
 62
   250
 10
-0.26944
 20
0.463807
 30
0.0
 40
0.001836
  0
LINE
  8
0
  6
CONTINUOUS
 62
   250
 10
-0.269496
 20
0.476558
 30
0.0
 11
-0.234044
 21
0.476558
 31
0.0
  0
LINE
  8
0
  6
CONTINUOUS
 62
   250
 10
-0.284607
 20
0.476558
 30
0.0
 11
-0.234044
 21
0.476558
 31
0.0
  0
CIRCLE
  8
0
  6
CONTINUOUS
 62
   250
 10
-0.246529
 20
0.463807
 30
0.0
 40
0.001837
  0
CIRCLE
  8
0
  6
CONTINUOUS
 62
   250
 10
-0.115775
 20
0.442438
 30
0.0
 40
0.009186
  0
LINE
  8
0
  6
CONTINUOUS
 62
   250
 10
-0.115775
 20
0.451624
 30
0.0
 11
-0.115775
 21
0.433251
 31
0.0
  0
CIRCLE
  8
0
  6
CONTINUOUS
 62
   250
 10
-0.189267
 20
0.442438
 30
0.0
 40
0.009186
  0
CIRCLE
  8
0
  6
CONTINUOUS
 62
   250
 10
-0.152519
 20
0.442438
 30
0.0
 40
0.009186
  0
LINE
  8
0
  6
CONTINUOUS
 62
   250
 10
-0.133732
 20
0.355164
 30
0.0
 11
-0.133732
 21
0.456218
 31
0.0
  0
LINE
  8
0
  6
CONTINUOUS
 62
   250
 10
-0.207007
 20
0.355164
 30
0.0
 11
-0.207007
 21
0.456218
 31
0.0
  0
TEXT
  8
0
  6
CONTINUOUS
 62
   250
 10
-0.144968
 20
0.370599
 30
0.0
 40
0.013004
  1
B
 50
90.0
 41
0.989011
  7
SIMPLEX
  0
LINE
  8
0
  6
CONTINUOUS
 62
   250
 10
-0.097418
 20
0.355164
 30
0.0
 11
-0.207007
 21
0.355164
 31
0.0
  0
TEXT
  8
0
  6
CONTINUOUS
 62
   250
 10
-0.182003
 20
0.370599
 30
0.0
 40
0.013004
  1
A
 50
90.0
 41
0.989011
  7
SIMPLEX
  0
TEXT
  8
0
  6
CONTINUOUS
 62
   250
 10
-0.107937
 20
0.370599
 30
0.0
 40
0.013004
  1
COM
 50
90.0
 41
0.889011
  7
SIMPLEX
  0
LINE
  8
0
  6
CONTINUOUS
 62
   250
 10
-0.097418
 20
0.456218
 30
0.0
 11
-0.207007
 21
0.456218
 31
0.0
  0
LINE
  8
0
  6
CONTINUOUS
 62
   250
 10
-0.161707
 20
0.442438
 30
0.0
 11
-0.143334
 21
0.442438
 31
0.0
  0
LINE
  8
0
  6
CONTINUOUS
 62
   250
 10
-0.198455
 20
0.442438
 30
0.0
 11
-0.180081
 21
0.442438
 31
0.0
  0
LINE
  8
0
  6
CONTINUOUS
 62
   250
 10
0.085017
 20
0.237962
 30
0.0
 11
0.085017
 21
0.13691
 31
0.0
  0
TEXT
  8
0
  6
CONTINUOUS
 62
   250
 10
-0.070902
 20
0.164514
 30
0.0
 40
0.013004
  1
RTD
 50
90.0
 41
0.889011
  7
SIMPLEX
  0
LINE
  8
0
  6
CONTINUOUS
 62
   250
 10
0.012175
 20
0.237962
 30
0.0
 11
0.012175
 21
0.13691
 31
0.0
  0
LINE
  8
0
  6
CONTINUOUS
 62
   250
 10
0.020728
 20
0.150689
 30
0.0
 11
0.0391
 21
0.150689
 31
0.0
  0
CIRCLE
  8
0
  6
CONTINUOUS
 62
   250
 10
0.029913
 20
0.150689
 30
0.0
 40
0.009187
  0
LINE
  8
0
  6
CONTINUOUS
 62
   250
 10
-0.088864
 20
0.150689
 30
0.0
 11
-0.07049
 21
0.150689
 31
0.0
  0
CIRCLE
  8
0
  6
CONTINUOUS
 62
   250
 10
-0.079677
 20
0.150689
 30
0.0
 40
0.009187
  0
LINE
  8
0
  6
CONTINUOUS
 62
   250
 10
0.057472
 20
0.150689
 30
0.0
 11
0.075847
 21
0.150689
 31
0.0
  0
CIRCLE
  8
0
  6
CONTINUOUS
 62
   250
 10
0.06666
 20
0.150689
 30
0.0
 40
0.009187
  0
LINE
  8
0
  6
CONTINUOUS
 62
   250
 10
0.286505
 20
0.017226
 30
0.0
 11
0.375172
 21
0.017226
 31
0.0
  0
LINE
  8
0
  6
CONTINUOUS
 62
   250
 10
0.286505
 20
0.028709
 30
0.0
 11
0.375172
 21
0.028709
 31
0.0
  0
TEXT
  8
0
  6
CONTINUOUS
 62
   250
 10
0.128825
 20
0.33663
 30
0.0
 40
0.013004
  1
A2
 41
0.889011
  7
SIMPLEX
  0
LINE
  8
0
  6
CONTINUOUS
 62
   250
 10
0.268101
 20
0.456218
 30
0.0
 11
0.121764
 21
0.456218
 31
0.0
  0
LINE
  8
0
  6
CONTINUOUS
 62
   250
 10
0.268101
 20
0.355164
 30
0.0
 11
0.121764
 21
0.355164
 31
0.0
  0
TEXT
  8
0
  6
CONTINUOUS
 62
   250
 10
0.017753
 20
0.243279
 30
0.0
 40
0.013004
  1
DI1
 41
0.889011
  7
SIMPLEX
  0
TEXT
  8
0
  6
CONTINUOUS
 62
   250
 10
0.039427
 20
0.196913
 30
0.0
 40
0.013004
  1
DI1
 50
90.0
 41
0.889011
  7
SIMPLEX
  0
TEXT
  8
0
  6
CONTINUOUS
 62
   250
 10
-0.088259
 20
0.243002
 30
0.0
 40
0.013004
  1
Tg
 41
0.889011
  7
SIMPLEX
  0
CIRCLE
  8
0
  6
CONTINUOUS
 62
   250
 10
-0.079677
 20
0.442438
 30
0.0
 40
0.009187
  0
CIRCLE
  8
0
  6
CONTINUOUS
 62
   250
 10
-0.04293
 20
0.442438
 30
0.0
 40
0.009187
  0
TEXT
  8
0
  6
CONTINUOUS
 62
   250
 10
-0.03421
 20
0.370599
 30
0.0
 40
0.013004
  1
N.O.
 50
90.0
 41
0.889011
  7
SIMPLEX
  0
TEXT
  8
0
  6
CONTINUOUS
 62
   250
 10
-0.070902
 20
0.370599
 30
0.0
 40
0.013004
  1
N.O.
 50
90.0
 41
0.889011
  7
SIMPLEX
  0
LINE
  8
0
  6
CONTINUOUS
 62
   250
 10
-0.088864
 20
0.442438
 30
0.0
 11
-0.07049
 21
0.442438
 31
0.0
  0
LINE
  8
0
  6
CONTINUOUS
 62
   250
 10
-0.052117
 20
0.442438
 30
0.0
 11
-0.033742
 21
0.442438
 31
0.0
  0
CIRCLE
  8
0
  6
CONTINUOUS
 62
   250
 10
0.139505
 20
0.442438
 30
0.0
 40
0.009184
  0
CIRCLE
  8
0
  6
CONTINUOUS
 62
   250
 10
0.103407
 20
0.442438
 30
0.0
 40
0.009187
  0
LINE
  8
0
  6
CONTINUOUS
 62
   250
 10
0.103407
 20
0.451624
 30
0.0
 11
0.103407
 21
0.433251
 31
0.0
  0
TEXT
  8
0
  6
CONTINUOUS
 62
   250
 10
0.111585
 20
0.370599
 30
0.0
 40
0.013004
  1
N.O.
 50
90.0
 41
0.889011
  7
SIMPLEX
  0
TEXT
  8
0
  6
CONTINUOUS
 62
   250
 10
0.148443
 20
0.370599
 30
0.0
 40
0.013004
  1
COM
 50
90.0
 41
0.889011
  7
SIMPLEX
  0
LINE
  8
0
  6
CONTINUOUS
 62
   250
 10
0.130318
 20
0.442438
 30
0.0
 11
0.148689
 21
0.442438
 31
0.0
  0
ARC
  8
0
  6
CONTINUOUS
 62
   250
 10
0.220602
 20
0.277944
 30
0.0
 40
0.012203
 50
269.980957
 51
0.019032
  0
TEXT
  8
0
  6
CONTINUOUS
 62
   250
 10
0.197915
 20
0.33663
 30
0.0
 40
0.013004
  1
AO1
 41
0.889011
  7
SIMPLEX
  0
TEXT
  8
0
  6
CONTINUOUS
 62
   250
 10
0.165141
 20
0.33663
 30
0.0
 40
0.013004
  1
A1
 41
0.889011
  7
SIMPLEX
  0
LINE
  8
0
  6
CONTINUOUS
 62
   250
 10
0.232806
 20
0.313247
 30
0.0
 11
0.232806
 21
0.277948
 31
0.0
  0
LINE
  8
0
  6
CONTINUOUS
 62
   250
 10
0.232806
 20
0.316047
 30
0.0
 11
0.232806
 21
0.280747
 31
0.0
  0
ARC
  8
0
  6
CONTINUOUS
 62
   250
 10
0.220601
 20
0.31605
 30
0.0
 40
0.012203
 50
359.981506
 51
90.018501
  0
CIRCLE
  8
0
  6
CONTINUOUS
 62
   250
 10
0.249744
 20
0.442438
 30
0.0
 40
0.009187
  0
LINE
  8
0
  6
CONTINUOUS
 62
   250
 10
0.249744
 20
0.451624
 30
0.0
 11
0.249744
 21
0.433251
 31
0.0
  0
LINE
  8
0
  6
CONTINUOUS
 62
   250
 10
0.212997
 20
0.451624
 30
0.0
 11
0.212997
 21
0.433251
 31
0.0
  0
CIRCLE
  8
0
  6
CONTINUOUS
 62
   250
 10
0.17625
 20
0.442438
 30
0.0
 40
0.009186
  0
CIRCLE
  8
0
  6
CONTINUOUS
 62
   250
 10
0.212997
 20
0.442438
 30
0.0
 40
0.009186
  0
LINE
  8
0
  6
CONTINUOUS
 62
   250
 10
0.157834
 20
0.355164
 30
0.0
 11
0.157834
 21
0.456218
 31
0.0
  0
LINE
  8
0
  6
CONTINUOUS
 62
   250
 10
0.268101
 20
0.355164
 30
0.0
 11
0.268101
 21
0.456218
 31
0.0
  0
TEXT
  8
0
  6
CONTINUOUS
 62
   250
 10
0.219465
 20
0.370599
 30
0.0
 40
0.013004
  1
AO1
 50
90.0
 41
0.889011
  7
SIMPLEX
  0
TEXT
  8
0
  6
CONTINUOUS
 62
   250
 10
0.184806
 20
0.370599
 30
0.0
 40
0.013004
  1
N.O.
 50
90.0
 41
0.889011
  7
SIMPLEX
  0
TEXT
  8
0
  6
CONTINUOUS
 62
   250
 10
0.256209
 20
0.370599
 30
0.0
 40
0.013004
  1
OVRD
 50
90.0
 41
0.889011
  7
SIMPLEX
  0
LINE
  8
0
  6
CONTINUOUS
 62
   250
 10
0.167065
 20
0.442438
 30
0.0
 11
0.185437
 21
0.442438
 31
0.0
  0
LINE
  8
0
  6
CONTINUOUS
 62
   250
 10
-0.545457
 20
0.625839
 30
0.0
 11
0.240015
 21
0.625839
 31
0.0
  0
LINE
  8
1
  6
CONTINUOUS
 62
   250
 10
-0.496739
 20
0.5649
 30
0.0
 11
-0.532158
 21
0.5649
 31
0.0
  0
LINE
  8
0
  6
CONTINUOUS
 62
   250
 10
-0.494265
 20
0.567771
 30
0.0
 11
-0.535139
 21
0.567771
 31
0.0
  0
CIRCLE
  8
1
  6
CONTINUOUS
 62
   250
 10
-0.505592
 20
0.538238
 30
0.0
 40
0.001771
  0
LINE
  8
1
  6
CONTINUOUS
 62
   250
 10
-0.496739
 20
0.547092
 30
0.0
 11
-0.532158
 21
0.547092
 31
0.0
  0
LINE
  8
1
  6
CONTINUOUS
 62
   250
 10
-0.532158
 20
0.529349
 30
0.0
 11
-0.496739
 21
0.529349
 31
0.0
  0
CIRCLE
  8
1
  6
CONTINUOUS
 62
   250
 10
-0.505592
 20
0.556045
 30
0.0
 40
0.001771
  0
LINE
  8
0
  6
CONTINUOUS
 62
   250
 10
-0.532158
 20
0.529349
 30
0.0
 11
-0.537174
 21
0.529349
 31
0.0
  0
LINE
  8
1
  6
CONTINUOUS
 62
   250
 10
-0.532158
 20
0.529349
 30
0.0
 11
-0.532158
 21
0.547092
 31
0.0
  0
CIRCLE
  8
1
  6
CONTINUOUS
 62
   250
 10
-0.523303
 20
0.538238
 30
0.0
 40
0.001771
  0
LINE
  8
1
  6
CONTINUOUS
 62
   250
 10
-0.532158
 20
0.5649
 30
0.0
 11
-0.532158
 21
0.547192
 31
0.0
  0
CIRCLE
  8
1
  6
CONTINUOUS
 62
   250
 10
-0.523303
 20
0.556045
 30
0.0
 40
0.001771
  0
LINE
  8
0
  6
CONTINUOUS
 62
   250
 10
-0.496739
 20
0.529349
 30
0.0
 11
-0.490761
 21
0.529349
 31
0.0
  0
TEXT
  8
0
  6
CONTINUOUS
 62
   250
 10
-0.49081
 20
0.541972
 30
0.0
 40
0.013004
  1
NW
 41
0.889011
  7
SIMPLEX
  0
LINE
  8
1
  6
CONTINUOUS
 62
   250
 10
-0.496739
 20
0.529349
 30
0.0
 11
-0.496739
 21
0.547092
 31
0.0
  0
LINE
  8
1
  6
CONTINUOUS
 62
   250
 10
-0.496739
 20
0.547192
 30
0.0
 11
-0.496739
 21
0.5649
 31
0.0
  0
CIRCLE
  8
0
  6
CONTINUOUS
 62
   250
 10
0.024858
 20
0.562961
 30
0.0
 40
0.026565
  0
LINE
  8
0
  6
CONTINUOUS
 62
   250
 10
0.579906
 20
0.355982
 30
0.0
 11
0.579906
 21
0.528231
 31
0.0
  0
LINE
  8
0
  6
CONTINUOUS
 62
   250
 10
0.556941
 20
0.625839
 30
0.0
 11
0.556941
 21
0.088421
 31
0.0
  0
LINE
  8
0
  6
CONTINUOUS
 62
   250
 10
0.56268
 20
0.637324
 30
0.0
 11
0.56268
 21
0.017226
 31
0.0
  0
ARC
  8
0
  6
CONTINUOUS
 62
   250
 10
0.471511
 20
0.179025
 30
0.0
 40
0.025836
 50
314.999817
 51
135.000183
  0
LINE
  8
0
  6
CONTINUOUS
 62
   250
 10
0.428881
 20
0.172934
 30
0.0
 11
0.453242
 21
0.197294
 31
0.0
  0
LINE
  8
0
  6
CONTINUOUS
 62
   250
 10
0.418732
 20
0.174965
 30
0.0
 11
0.451211
 21
0.207444
 31
0.0
  0
CIRCLE
  8
0
  6
CONTINUOUS
 62
   250
 10
0.46048
 20
0.164548
 30
0.0
 40
0.045933
  0
LINE
  8
0
  6
CONTINUOUS
 62
   250
 10
0.579906
 20
0.126315
 30
0.0
 11
0.579906
 21
0.298565
 31
0.0
  0
LINE
  8
0
  6
CONTINUOUS
 62
   250
 10
0.579906
 20
0.0
 30
0.0
 11
0.579906
 21
0.0689
 31
0.0
  0
ARC
  8
0
  6
CONTINUOUS
 62
   250
 10
0.44715
 20
0.154667
 30
0.0
 40
0.025837
 50
134.998581
 51
314.998596
  0
ARC
  8
0
  6
CONTINUOUS
 62
   250
 10
-1.039821
 20
-0.87617
 30
0.0
 40
1.796815
 50
35.681786
 51
35.779186
  0
ARC
  8
0
  6
CONTINUOUS
 62
   250
 10
0.475624
 20
0.183057
 30
0.0
 40
0.034391
 50
314.971863
 51
333.182709
  0
ARC
  8
0
  6
CONTINUOUS
 62
   250
 10
0.443056
 20
0.150659
 30
0.0
 40
0.034513
 50
292.624481
 51
314.978973
  0
LINE
  8
0
  6
CONTINUOUS
 62
   250
 10
0.499929
 20
0.158726
 30
0.0
 11
0.467452
 21
0.126246
 31
0.0
  0
LINE
  8
0
  6
CONTINUOUS
 62
   250
 10
0.48978
 20
0.160756
 30
0.0
 11
0.46542
 21
0.136396
 31
0.0
  0
LINE
  8
0
  6
CONTINUOUS
 62
   250
 10
0.597132
 20
0.086125
 30
0.0
 11
0.597132
 21
0.109092
 31
0.0
  0
LINE
  8
0
  6
CONTINUOUS
 62
   250
 10
0.543158
 20
0.070048
 30
0.0
 11
0.543158
 21
0.088421
 31
0.0
  0
LINE
  8
0
  6
CONTINUOUS
 62
   250
 10
0.543158
 20
0.070048
 30
0.0
 11
0.556941
 21
0.070048
 31
0.0
  0
LINE
  8
0
  6
CONTINUOUS
 62
   250
 10
0.543158
 20
0.088421
 30
0.0
 11
0.556941
 21
0.088421
 31
0.0
  0
LINE
  8
0
  6
CONTINUOUS
 62
   250
 10
0.556941
 20
0.070048
 30
0.0
 11
0.556941
 21
0.028709
 31
0.0
  0
LINE
  8
0
  6
CONTINUOUS
 62
   250
 10
0.574163
 20
0.0689
 30
0.0
 11
0.579906
 21
0.0689
 31
0.0
  0
LINE
  8
0
  6
CONTINUOUS
 62
   250
 10
0.574163
 20
0.086125
 30
0.0
 11
0.597132
 21
0.086125
 31
0.0
  0
LINE
  8
0
  6
CONTINUOUS
 62
   250
 10
0.574163
 20
0.0689
 30
0.0
 11
0.574163
 21
0.086125
 31
0.0
  0
LINE
  8
0
  6
CONTINUOUS
 62
   250
 10
0.574163
 20
0.109092
 30
0.0
 11
0.597132
 21
0.109092
 31
0.0
  0
LINE
  8
0
  6
CONTINUOUS
 62
   250
 10
0.574163
 20
0.126315
 30
0.0
 11
0.579906
 21
0.126315
 31
0.0
  0
LINE
  8
0
  6
CONTINUOUS
 62
   250
 10
0.574163
 20
0.109092
 30
0.0
 11
0.574163
 21
0.126315
 31
0.0
  0
LINE
  8
0
  6
CONTINUOUS
 62
   250
 10
0.574163
 20
0.338758
 30
0.0
 11
0.574163
 21
0.355982
 31
0.0
  0
ARC
  8
0
  6
CONTINUOUS
 62
   250
 10
-1.039821
 20
-0.87617
 30
0.0
 40
1.846645
 50
35.975544
 51
36.02005
  0
LINE
  8
0
  6
CONTINUOUS
 62
   250
 10
0.574163
 20
0.338758
 30
0.0
 11
0.597132
 21
0.338758
 31
0.0
  0
LINE
  8
0
  6
CONTINUOUS
 62
   250
 10
0.574163
 20
0.31579
 30
0.0
 11
0.597132
 21
0.31579
 31
0.0
  0
LINE
  8
0
  6
CONTINUOUS
 62
   250
 10
0.574163
 20
0.298565
 30
0.0
 11
0.579906
 21
0.298565
 31
0.0
  0
LINE
  8
0
  6
CONTINUOUS
 62
   250
 10
0.574163
 20
0.298565
 30
0.0
 11
0.574163
 21
0.31579
 31
0.0
  0
LINE
  8
0
  6
CONTINUOUS
 62
   250
 10
0.597132
 20
0.31579
 30
0.0
 11
0.597132
 21
0.338758
 31
0.0
  0
LINE
  8
0
  6
CONTINUOUS
 62
   250
 10
0.574163
 20
0.355982
 30
0.0
 11
0.579906
 21
0.355982
 31
0.0
  0
LINE
  8
0
  6
CONTINUOUS
 62
   250
 10
0.579906
 20
0.585649
 30
0.0
 11
0.579906
 21
0.654548
 31
0.0
  0
LINE
  8
0
  6
CONTINUOUS
 62
   250
 10
0.574163
 20
0.585649
 30
0.0
 11
0.579906
 21
0.585649
 31
0.0
  0
LINE
  8
0
  6
CONTINUOUS
 62
   250
 10
0.597132
 20
0.545456
 30
0.0
 11
0.597132
 21
0.568423
 31
0.0
  0
LINE
  8
0
  6
CONTINUOUS
 62
   250
 10
0.574163
 20
0.568423
 30
0.0
 11
0.597132
 21
0.568423
 31
0.0
  0
LINE
  8
0
  6
CONTINUOUS
 62
   250
 10
0.574163
 20
0.545456
 30
0.0
 11
0.597132
 21
0.545456
 31
0.0
  0
LINE
  8
0
  6
CONTINUOUS
 62
   250
 10
0.574163
 20
0.528231
 30
0.0
 11
0.579906
 21
0.528231
 31
0.0
  0
LINE
  8
0
  6
CONTINUOUS
 62
   250
 10
0.574163
 20
0.528231
 30
0.0
 11
0.574163
 21
0.545456
 31
0.0
  0
LINE
  8
0
  6
CONTINUOUS
 62
   250
 10
0.574163
 20
0.568423
 30
0.0
 11
0.574163
 21
0.585649
 31
0.0
  0
LINE
  8
0
  6
CONTINUOUS
 62
   250
 10
-0.097418
 20
0.355164
 30
0.0
 11
-0.025329
 21
0.355164
 31
0.0
  0
LINE
  8
0
  6
CONTINUOUS
 62
   250
 10
-0.025329
 20
0.355164
 30
0.0
 11
-0.025329
 21
0.456218
 31
0.0
  0
LINE
  8
0
  6
CONTINUOUS
 62
   250
 10
-0.025329
 20
0.456218
 30
0.0
 11
-0.097418
 21
0.456218
 31
0.0
  0
LINE
  8
0
  6
CONTINUOUS
 62
   250
 10
0.121764
 20
0.355164
 30
0.0
 11
0.084016
 21
0.355164
 31
0.0
  0
LINE
  8
0
  6
CONTINUOUS
 62
   250
 10
0.121764
 20
0.456218
 30
0.0
 11
0.084016
 21
0.456218
 31
0.0
  0
LINE
  8
0
  6
CONTINUOUS
 62
   250
 10
0.084016
 20
0.456218
 30
0.0
 11
0.084016
 21
0.355164
 31
0.0
  0
TEXT
  8
0
  6
CONTINUOUS
 62
   250
 10
0.091931
 20
0.33663
 30
0.0
 40
0.013004
  1
G
 41
0.889011
  7
SIMPLEX
  0
TEXT
  8
0
  6
CONTINUOUS
 62
   250
 10
-0.057055
 20
0.335653
 30
0.0
 40
0.009753
  1
W(Y)2
 41
0.889011
  7
SIMPLEX
  0
TEXT
  8
0
  6
CONTINUOUS
 62
   250
 10
-0.097317
 20
0.335653
 30
0.0
 40
0.009753
  1
W(Y)1
 41
0.889011
  7
SIMPLEX
  0
TEXT
  8
0
  6
CONTINUOUS
 62
   250
 10
0.071377
 20
0.166771
 30
0.0
 40
0.010404
  1
NOT USED
 50
90.0
 41
0.889011
  7
SIMPLEX
  0
LINE
  8
0
  6
CONTINUOUS
 62
   250
 10
0.085017
 20
0.13691
 30
0.0
 11
0.012175
 21
0.13691
 31
0.0
  0
LINE
  8
0
  6
CONTINUOUS
 62
   250
 10
0.085017
 20
0.237962
 30
0.0
 11
0.012175
 21
0.237962
 31
0.0
  0
LINE
  8
0
  6
CONTINUOUS
 62
   250
 10
0.012175
 20
0.237962
 30
0.0
 11
0.012175
 21
0.13691
 31
0.0
  0
LINE
  8
0
  6
CONTINUOUS
 62
   250
 10
-0.207007
 20
0.13691
 30
0.0
 11
-0.061319
 21
0.13691
 31
0.0
  0
LINE
  8
0
  6
CONTINUOUS
 62
   250
 10
-0.061319
 20
0.13691
 30
0.0
 11
-0.061319
 21
0.237962
 31
0.0
  0
LINE
  8
0
  6
CONTINUOUS
 62
   250
 10
-0.061319
 20
0.237962
 30
0.0
 11
-0.207007
 21
0.237962
 31
0.0
  0
ENDSEC
  0
EOF
