  0
SECTION
  2
HEADER
  9
$ACADVER
  1
AC1009
  9
$INSBASE
 10
0.0
 20
0.0
 30
0.0
  9
$EXTMIN
 10
-0.281086
 20
-0.007071
 30
0.0
  9
$EXTMAX
 10
0.281677
 20
0.762525
 30
0.0
  9
$LIMMIN
 10
0.05625
 20
0.0
  9
$LIMMAX
 10
8.44375
 20
7.07917
  9
$ORTHOMODE
 70
     1
  9
$REGENMODE
 70
     1
  9
$FILLMODE
 70
     1
  9
$QTEXTMODE
 70
     0
  9
$MIRRTEXT
 70
     1
  9
$DRAGMODE
 70
     2
  9
$LTSCALE
 40
1.0
  9
$OSMODE
 70
     0
  9
$ATTMODE
 70
     1
  9
$TEXTSIZE
 40
0.2
  9
$TRACEWID
 40
0.05
  9
$TEXTSTYLE
  7
STANDARD
  9
$CLAYER
  8
0
  9
$CELTYPE
  6
BYLAYER
  9
$CECOLOR
 62
   256
  9
$DIMSCALE
 40
1.0
  9
$DIMASZ
 40
0.18
  9
$DIMEXO
 40
0.0625
  9
$DIMDLI
 40
0.38
  9
$DIMRND
 40
0.0
  9
$DIMDLE
 40
0.0
  9
$DIMEXE
 40
0.18
  9
$DIMTP
 40
0.0
  9
$DIMTM
 40
0.0
  9
$DIMTXT
 40
0.18
  9
$DIMCEN
 40
0.09
  9
$DIMTSZ
 40
0.0
  9
$DIMTOL
 70
     0
  9
$DIMLIM
 70
     0
  9
$DIMTIH
 70
     1
  9
$DIMTOH
 70
     1
  9
$DIMSE1
 70
     0
  9
$DIMSE2
 70
     0
  9
$DIMTAD
 70
     0
  9
$DIMZIN
 70
     0
  9
$DIMBLK
  1

  9
$DIMASO
 70
     1
  9
$DIMSHO
 70
     1
  9
$DIMPOST
  1

  9
$DIMAPOST
  1

  9
$DIMALT
 70
     0
  9
$DIMALTD
 70
     2
  9
$DIMALTF
 40
25.4
  9
$DIMLFAC
 40
1.0
  9
$DIMTOFL
 70
     0
  9
$DIMTVP
 40
0.0
  9
$DIMTIX
 70
     0
  9
$DIMSOXD
 70
     0
  9
$DIMSAH
 70
     0
  9
$DIMBLK1
  1

  9
$DIMBLK2
  1

  9
$DIMSTYLE
  2
*UNNAMED
  9
$DIMCLRD
 70
     0
  9
$DIMCLRE
 70
     0
  9
$DIMCLRT
 70
     0
  9
$DIMTFAC
 40
1.0
  9
$DIMGAP
 40
0.09
  9
$LUNITS
 70
     2
  9
$LUPREC
 70
     4
  9
$SKETCHINC
 40
0.1
  9
$FILLETRAD
 40
0.0
  9
$AUNITS
 70
     0
  9
$AUPREC
 70
     0
  9
$MENU
  1
acad
  9
$ELEVATION
 40
0.0
  9
$PELEVATION
 40
0.0
  9
$THICKNESS
 40
0.0
  9
$LIMCHECK
 70
     0
  9
$BLIPMODE
 70
     0
  9
$CHAMFERA
 40
0.0
  9
$CHAMFERB
 40
0.0
  9
$SKPOLY
 70
     0
  9
$TDCREATE
 40
2450620.493241666
  9
$TDUPDATE
 40
2450620.493241666
  9
$TDINDWG
 40
0.0000000000
  9
$TDUSRTIMER
 40
0.0000000000
  9
$USRTIMER
 70
     1
  9
$ANGBASE
 50
0.0
  9
$ANGDIR
 70
     0
  9
$PDMODE
 70
     0
  9
$PDSIZE
 40
0.0
  9
$PLINEWID
 40
0.0
  9
$COORDS
 70
     1
  9
$SPLFRAME
 70
     0
  9
$SPLINETYPE
 70
     6
  9
$SPLINESEGS
 70
     8
  9
$ATTDIA
 70
     0
  9
$ATTREQ
 70
     1
  9
$HANDLING
 70
     0
  9
$HANDSEED
  5
0
  9
$SURFTAB1
 70
     6
  9
$SURFTAB2
 70
     6
  9
$SURFTYPE
 70
     6
  9
$SURFU
 70
     6
  9
$SURFV
 70
     6
  9
$UCSNAME
  2

  9
$UCSORG
 10
0.0
 20
0.0
 30
0.0
  9
$UCSXDIR
 10
1.0
 20
0.0
 30
0.0
  9
$UCSYDIR
 10
0.0
 20
1.0
 30
0.0
  9
$PUCSNAME
  2

  9
$PUCSORG
 10
0.0
 20
0.0
 30
0.0
  9
$PUCSXDIR
 10
1.0
 20
0.0
 30
0.0
  9
$PUCSYDIR
 10
0.0
 20
1.0
 30
0.0
  9
$USERI1
 70
     0
  9
$USERI2
 70
     0
  9
$USERI3
 70
     0
  9
$USERI4
 70
     0
  9
$USERI5
 70
     0
  9
$USERR1
 40
0.0
  9
$USERR2
 40
0.0
  9
$USERR3
 40
0.0
  9
$USERR4
 40
0.0
  9
$USERR5
 40
0.0
  9
$WORLDVIEW
 70
     1
  9
$SHADEDGE
 70
     3
  9
$SHADEDIF
 70
    70
  9
$TILEMODE
 70
     1
  9
$MAXACTVP
 70
    16
  9
$PINSBASE
 10
0.0
 20
0.0
 30
0.0
  9
$PLIMCHECK
 70
     0
  9
$PEXTMIN
 10
1.000000E+20
 20
1.000000E+20
 30
1.000000E+20
  9
$PEXTMAX
 10
-1.000000E+20
 20
-1.000000E+20
 30
-1.000000E+20
  9
$PLIMMIN
 10
0.0
 20
0.0
  9
$PLIMMAX
 10
12.0
 20
9.0
  9
$UNITMODE
 70
     0
  9
$VISRETAIN
 70
     0
  9
$PLINEGEN
 70
     0
  9
$PSLTSCALE
 70
     1
  9
$TREEDEPTH
 70
  3020
  9
$DWGCODEPAGE
  3
ascii
  0
ENDSEC
  0
SECTION
  2
TABLES
  0
TABLE
  2
VPORT
 70
     2
  0
VPORT
  2
*ACTIVE
 70
     0
 10
0.0
 20
0.0
 11
1.0
 21
1.0
 12
4.634673
 22
3.536049
 13
0.0
 23
0.0
 14
1.0
 24
1.0
 15
0.0
 25
0.0
 16
0.0
 26
0.0
 36
1.0
 17
0.0
 27
0.0
 37
0.0
 40
7.086241
 41
1.387409
 42
50.0
 43
0.0
 44
0.0
 50
0.0
 51
0.0
 71
     0
 72
   100
 73
     1
 74
     1
 75
     0
 76
     0
 77
     0
 78
     0
  0
ENDTAB
  0
TABLE
  2
LTYPE
 70
    10
  0
LTYPE
  2
CONTINUOUS
 70
     0
  3
Solid line
 72
    65
 73
     0
 40
0.0
  0
LTYPE
  2
DASHED
 70
     0
  3
__ __ __ __ __ __ __ __ __ __ __ __ __ __ __
 72
    65
 73
     2
 40
0.75
 49
0.5
 49
-0.25
  0
LTYPE
  2
HIDDEN
 70
     0
  3
_ _ _ _ _ _ _ _ _ _ _ _ _ _ _ _ _ _ _ _ _ _ _
 72
    65
 73
     2
 40
0.375
 49
0.25
 49
-0.125
  0
LTYPE
  2
CENTER
 70
     0
  3
____ _ ____ _ ____ _ ____ _ ____ _ ____ _ ____
 72
    65
 73
     4
 40
2.0
 49
1.25
 49
-0.25
 49
0.25
 49
-0.25
  0
LTYPE
  2
PHANTOM
 70
     0
  3
_____ _ _ _____ _ _ _____ _ _ _____ _ _ ____
 72
    65
 73
     6
 40
2.5
 49
1.25
 49
-0.25
 49
0.25
 49
-0.25
 49
0.25
 49
-0.25
  0
LTYPE
  2
DOT
 70
     0
  3
...............................................
 72
    65
 73
     2
 40
0.25
 49
0.0
 49
-0.25
  0
LTYPE
  2
DASHDOT
 70
     0
  3
__ . __ . __ . __ . __ . __ . __ . __ . __ . __
 72
    65
 73
     4
 40
1.0
 49
0.5
 49
-0.25
 49
0.0
 49
-0.25
  0
LTYPE
  2
BORDER
 70
     0
  3
__ __ . __ __ . __ __ . __ __ . __ __ . __ __
 72
    65
 73
     6
 40
1.75
 49
0.5
 49
-0.25
 49
0.5
 49
-0.25
 49
0.0
 49
-0.25
  0
LTYPE
  2
DIVIDE
 70
     0
  3
__ . . __ . . __ . . __ . . __ . . __ . . __
 72
    65
 73
     6
 40
1.25
 49
0.5
 49
-0.25
 49
0.0
 49
-0.25
 49
0.0
 49
-0.25
  0
LTYPE
  2
INVISIBLE
 70
     0
  3
invisible line
 72
    65
 73
     1
 40
1.0
 49
-1.0
  0
ENDTAB
  0
TABLE
  2
LAYER
 70
     2
  0
LAYER
  2
0
 70
     0
 62
     4
  6
CONTINUOUS
  0
LAYER
  2
1
 70
     0
 62
     7
  6
CONTINUOUS
  0
ENDTAB
  0
TABLE
  2
STYLE
 70
     2
  0
STYLE
  2
STANDARD
 70
     0
 40
0.0
 41
1.0
 50
0.0
 71
     0
 42
0.2
  3
txt
  4

  0
STYLE
  2
TXT
 70
     0
 40
0.0
 41
1.0
 50
0.0
 71
     0
 42
0.2
  3
TXT
  4

  0
ENDTAB
  0
TABLE
  2
VIEW
 70
     0
  0
ENDTAB
  0
TABLE
  2
UCS
 70
     0
  0
ENDTAB
  0
TABLE
  2
APPID
 70
     1
  0
APPID
  2
ACAD
 70
    64
  0
ENDTAB
  0
TABLE
  2
DIMSTYLE
 70
     0
  0
ENDTAB
  0
ENDSEC
  0
SECTION
  2
BLOCKS
  0
ENDSEC
  0
SECTION
  2
ENTITIES
  0
POLYLINE
  8
1
 66
     1
 10
0.0
 20
0.0
 30
0.0
  0
VERTEX
  8
1
 10
0.244552
 20
0.022394
 30
0.0
  0
VERTEX
  8
1
 10
0.244552
 20
0.022394
 30
0.0
  0
SEQEND
  8
1
  0
POLYLINE
  8
1
 66
     1
 10
0.0
 20
0.0
 30
0.0
  0
VERTEX
  8
1
 10
0.244552
 20
0.710669
 30
0.0
  0
VERTEX
  8
1
 10
0.244552
 20
0.710669
 30
0.0
  0
SEQEND
  8
1
  0
POLYLINE
  8
1
 66
     1
 10
0.0
 20
0.0
 30
0.0
  0
VERTEX
  8
1
 10
-0.251621
 20
0.014731
 30
0.0
  0
VERTEX
  8
1
 10
-0.253977
 20
0.015322
 30
0.0
  0
VERTEX
  8
1
 10
-0.255745
 20
0.015911
 30
0.0
  0
SEQEND
  8
1
  0
POLYLINE
  8
1
 66
     1
 10
0.0
 20
0.0
 30
0.0
  0
VERTEX
  8
1
 10
-0.255745
 20
0.015911
 30
0.0
  0
VERTEX
  8
1
 10
-0.256924
 20
0.017678
 30
0.0
  0
VERTEX
  8
1
 10
-0.258104
 20
0.018858
 30
0.0
  0
VERTEX
  8
1
 10
-0.258692
 20
0.021214
 30
0.0
  0
VERTEX
  8
1
 10
-0.258692
 20
0.022394
 30
0.0
  0
SEQEND
  8
1
  0
POLYLINE
  8
1
 66
     1
 10
0.0
 20
0.0
 30
0.0
  0
VERTEX
  8
1
 10
-0.23689
 20
-0.007071
 30
0.0
  0
VERTEX
  8
1
 10
-0.239246
 20
-0.007071
 30
0.0
  0
VERTEX
  8
1
 10
-0.241014
 20
-0.005892
 30
0.0
  0
VERTEX
  8
1
 10
-0.242193
 20
-0.004715
 30
0.0
  0
VERTEX
  8
1
 10
-0.24337
 20
-0.002947
 30
0.0
  0
VERTEX
  8
1
 10
-0.243961
 20
-0.001179
 30
0.0
  0
VERTEX
  8
1
 10
-0.243961
 20
0.0
 30
0.0
  0
SEQEND
  8
1
  0
POLYLINE
  8
1
 66
     1
 10
0.0
 20
0.0
 30
0.0
  0
VERTEX
  8
1
 10
-0.23689
 20
-0.007071
 30
0.0
  0
VERTEX
  8
1
 10
-0.236299
 20
-0.007071
 30
0.0
  0
SEQEND
  8
1
  0
POLYLINE
  8
1
 66
     1
 10
0.0
 20
0.0
 30
0.0
  0
VERTEX
  8
1
 10
-0.155569
 20
-0.007071
 30
0.0
  0
VERTEX
  8
1
 10
-0.154978
 20
-0.007071
 30
0.0
  0
SEQEND
  8
1
  0
POLYLINE
  8
1
 66
     1
 10
0.0
 20
0.0
 30
0.0
  0
VERTEX
  8
1
 10
-0.08132
 20
-0.007071
 30
0.0
  0
VERTEX
  8
1
 10
-0.080729
 20
-0.007071
 30
0.0
  0
SEQEND
  8
1
  0
POLYLINE
  8
1
 66
     1
 10
0.0
 20
0.0
 30
0.0
  0
VERTEX
  8
1
 10
0.0
 20
-0.007071
 30
0.0
  0
VERTEX
  8
1
 10
0.000591
 20
-0.007071
 30
0.0
  0
SEQEND
  8
1
  0
POLYLINE
  8
1
 66
     1
 10
0.0
 20
0.0
 30
0.0
  0
VERTEX
  8
1
 10
0.08132
 20
-0.007071
 30
0.0
  0
VERTEX
  8
1
 10
0.081912
 20
-0.007071
 30
0.0
  0
SEQEND
  8
1
  0
POLYLINE
  8
1
 66
     1
 10
0.0
 20
0.0
 30
0.0
  0
VERTEX
  8
1
 10
0.155569
 20
-0.007071
 30
0.0
  0
VERTEX
  8
1
 10
0.156161
 20
-0.007071
 30
0.0
  0
SEQEND
  8
1
  0
POLYLINE
  8
1
 66
     1
 10
0.0
 20
0.0
 30
0.0
  0
VERTEX
  8
1
 10
0.23689
 20
-0.007071
 30
0.0
  0
VERTEX
  8
1
 10
0.237481
 20
-0.007071
 30
0.0
  0
SEQEND
  8
1
  0
POLYLINE
  8
1
 66
     1
 10
0.0
 20
0.0
 30
0.0
  0
VERTEX
  8
1
 10
0.244552
 20
0.0
 30
0.0
  0
VERTEX
  8
1
 10
0.243961
 20
-0.002356
 30
0.0
  0
VERTEX
  8
1
 10
0.243373
 20
-0.004124
 30
0.0
  0
VERTEX
  8
1
 10
0.242193
 20
-0.005892
 30
0.0
  0
VERTEX
  8
1
 10
0.240425
 20
-0.007071
 30
0.0
  0
VERTEX
  8
1
 10
0.238658
 20
-0.007071
 30
0.0
  0
VERTEX
  8
1
 10
0.237481
 20
-0.007071
 30
0.0
  0
SEQEND
  8
1
  0
POLYLINE
  8
1
 66
     1
 10
0.0
 20
0.0
 30
0.0
  0
VERTEX
  8
1
 10
0.259283
 20
0.022394
 30
0.0
  0
VERTEX
  8
1
 10
0.259283
 20
0.020035
 30
0.0
  0
VERTEX
  8
1
 10
0.258104
 20
0.018267
 30
0.0
  0
VERTEX
  8
1
 10
0.256927
 20
0.016499
 30
0.0
  0
VERTEX
  8
1
 10
0.255159
 20
0.015322
 30
0.0
  0
VERTEX
  8
1
 10
0.253391
 20
0.014731
 30
0.0
  0
VERTEX
  8
1
 10
0.252212
 20
0.014731
 30
0.0
  0
SEQEND
  8
1
  0
POLYLINE
  8
1
 66
     1
 10
0.0
 20
0.0
 30
0.0
  0
VERTEX
  8
1
 10
-0.23689
 20
0.762525
 30
0.0
  0
VERTEX
  8
1
 10
-0.238658
 20
0.761936
 30
0.0
  0
VERTEX
  8
1
 10
-0.241014
 20
0.761348
 30
0.0
  0
VERTEX
  8
1
 10
-0.242193
 20
0.760169
 30
0.0
  0
VERTEX
  8
1
 10
-0.24337
 20
0.758401
 30
0.0
  0
VERTEX
  8
1
 10
-0.243961
 20
0.756633
 30
0.0
  0
VERTEX
  8
1
 10
-0.243961
 20
0.755453
 30
0.0
  0
SEQEND
  8
1
  0
POLYLINE
  8
1
 66
     1
 10
0.0
 20
0.0
 30
0.0
  0
VERTEX
  8
1
 10
-0.236299
 20
0.762525
 30
0.0
  0
VERTEX
  8
1
 10
-0.233942
 20
0.761936
 30
0.0
  0
VERTEX
  8
1
 10
-0.232175
 20
0.761348
 30
0.0
  0
VERTEX
  8
1
 10
-0.230995
 20
0.760169
 30
0.0
  0
VERTEX
  8
1
 10
-0.229818
 20
0.758401
 30
0.0
  0
VERTEX
  8
1
 10
-0.229227
 20
0.756045
 30
0.0
  0
VERTEX
  8
1
 10
-0.229227
 20
0.755453
 30
0.0
  0
SEQEND
  8
1
  0
POLYLINE
  8
1
 66
     1
 10
0.0
 20
0.0
 30
0.0
  0
VERTEX
  8
1
 10
-0.236299
 20
0.762525
 30
0.0
  0
VERTEX
  8
1
 10
-0.23689
 20
0.762525
 30
0.0
  0
SEQEND
  8
1
  0
POLYLINE
  8
1
 66
     1
 10
0.0
 20
0.0
 30
0.0
  0
VERTEX
  8
1
 10
-0.155569
 20
0.762525
 30
0.0
  0
VERTEX
  8
1
 10
-0.157926
 20
0.761936
 30
0.0
  0
VERTEX
  8
1
 10
-0.159105
 20
0.761348
 30
0.0
  0
VERTEX
  8
1
 10
-0.160873
 20
0.760169
 30
0.0
  0
VERTEX
  8
1
 10
-0.16205
 20
0.758401
 30
0.0
  0
VERTEX
  8
1
 10
-0.162641
 20
0.756633
 30
0.0
  0
VERTEX
  8
1
 10
-0.162641
 20
0.755453
 30
0.0
  0
SEQEND
  8
1
  0
POLYLINE
  8
1
 66
     1
 10
0.0
 20
0.0
 30
0.0
  0
VERTEX
  8
1
 10
-0.155569
 20
0.762525
 30
0.0
  0
VERTEX
  8
1
 10
-0.154978
 20
0.762525
 30
0.0
  0
VERTEX
  8
1
 10
-0.152622
 20
0.761936
 30
0.0
  0
VERTEX
  8
1
 10
-0.150854
 20
0.761348
 30
0.0
  0
VERTEX
  8
1
 10
-0.149675
 20
0.760169
 30
0.0
  0
SEQEND
  8
1
  0
POLYLINE
  8
1
 66
     1
 10
0.0
 20
0.0
 30
0.0
  0
VERTEX
  8
1
 10
-0.149675
 20
0.760169
 30
0.0
  0
VERTEX
  8
1
 10
-0.148498
 20
0.758401
 30
0.0
  0
VERTEX
  8
1
 10
-0.147907
 20
0.756045
 30
0.0
  0
VERTEX
  8
1
 10
-0.147907
 20
0.755453
 30
0.0
  0
SEQEND
  8
1
  0
POLYLINE
  8
1
 66
     1
 10
0.0
 20
0.0
 30
0.0
  0
VERTEX
  8
1
 10
-0.08132
 20
0.762525
 30
0.0
  0
VERTEX
  8
1
 10
-0.083677
 20
0.761936
 30
0.0
  0
VERTEX
  8
1
 10
-0.085444
 20
0.761348
 30
0.0
  0
VERTEX
  8
1
 10
-0.087212
 20
0.760169
 30
0.0
  0
VERTEX
  8
1
 10
-0.087801
 20
0.758401
 30
0.0
  0
VERTEX
  8
1
 10
-0.088392
 20
0.756633
 30
0.0
  0
VERTEX
  8
1
 10
-0.088392
 20
0.755453
 30
0.0
  0
SEQEND
  8
1
  0
POLYLINE
  8
1
 66
     1
 10
0.0
 20
0.0
 30
0.0
  0
VERTEX
  8
1
 10
-0.080729
 20
0.762525
 30
0.0
  0
VERTEX
  8
1
 10
-0.078373
 20
0.761936
 30
0.0
  0
VERTEX
  8
1
 10
-0.077194
 20
0.761348
 30
0.0
  0
VERTEX
  8
1
 10
-0.075426
 20
0.760169
 30
0.0
  0
VERTEX
  8
1
 10
-0.074249
 20
0.758401
 30
0.0
  0
VERTEX
  8
1
 10
-0.073658
 20
0.756045
 30
0.0
  0
VERTEX
  8
1
 10
-0.073658
 20
0.755453
 30
0.0
  0
SEQEND
  8
1
  0
POLYLINE
  8
1
 66
     1
 10
0.0
 20
0.0
 30
0.0
  0
VERTEX
  8
1
 10
-0.080729
 20
0.762525
 30
0.0
  0
VERTEX
  8
1
 10
-0.08132
 20
0.762525
 30
0.0
  0
SEQEND
  8
1
  0
POLYLINE
  8
1
 66
     1
 10
0.0
 20
0.0
 30
0.0
  0
VERTEX
  8
1
 10
0.0
 20
0.762525
 30
0.0
  0
VERTEX
  8
1
 10
-0.001768
 20
0.761936
 30
0.0
  0
VERTEX
  8
1
 10
-0.004124
 20
0.761348
 30
0.0
  0
VERTEX
  8
1
 10
-0.005304
 20
0.760169
 30
0.0
  0
VERTEX
  8
1
 10
-0.00648
 20
0.758401
 30
0.0
  0
VERTEX
  8
1
 10
-0.007071
 20
0.756633
 30
0.0
  0
VERTEX
  8
1
 10
-0.007071
 20
0.755453
 30
0.0
  0
SEQEND
  8
1
  0
POLYLINE
  8
1
 66
     1
 10
0.0
 20
0.0
 30
0.0
  0
VERTEX
  8
1
 10
0.0
 20
0.762525
 30
0.0
  0
VERTEX
  8
1
 10
0.000591
 20
0.762525
 30
0.0
  0
VERTEX
  8
1
 10
0.002947
 20
0.761936
 30
0.0
  0
VERTEX
  8
1
 10
0.004715
 20
0.761348
 30
0.0
  0
VERTEX
  8
1
 10
0.005895
 20
0.760169
 30
0.0
  0
VERTEX
  8
1
 10
0.007071
 20
0.758401
 30
0.0
  0
VERTEX
  8
1
 10
0.007662
 20
0.756045
 30
0.0
  0
VERTEX
  8
1
 10
0.007662
 20
0.755453
 30
0.0
  0
SEQEND
  8
1
  0
POLYLINE
  8
1
 66
     1
 10
0.0
 20
0.0
 30
0.0
  0
VERTEX
  8
1
 10
0.08132
 20
0.762525
 30
0.0
  0
VERTEX
  8
1
 10
0.079553
 20
0.761936
 30
0.0
  0
VERTEX
  8
1
 10
0.077785
 20
0.761348
 30
0.0
  0
VERTEX
  8
1
 10
0.076017
 20
0.760169
 30
0.0
  0
VERTEX
  8
1
 10
0.07484
 20
0.758401
 30
0.0
  0
VERTEX
  8
1
 10
0.074249
 20
0.756633
 30
0.0
  0
VERTEX
  8
1
 10
0.074249
 20
0.755453
 30
0.0
  0
SEQEND
  8
1
  0
POLYLINE
  8
1
 66
     1
 10
0.0
 20
0.0
 30
0.0
  0
VERTEX
  8
1
 10
0.08132
 20
0.762525
 30
0.0
  0
VERTEX
  8
1
 10
0.081912
 20
0.762525
 30
0.0
  0
VERTEX
  8
1
 10
0.084268
 20
0.761936
 30
0.0
  0
VERTEX
  8
1
 10
0.086036
 20
0.761348
 30
0.0
  0
VERTEX
  8
1
 10
0.087215
 20
0.760169
 30
0.0
  0
VERTEX
  8
1
 10
0.088392
 20
0.758401
 30
0.0
  0
VERTEX
  8
1
 10
0.088983
 20
0.756045
 30
0.0
  0
VERTEX
  8
1
 10
0.088983
 20
0.755453
 30
0.0
  0
SEQEND
  8
1
  0
POLYLINE
  8
1
 66
     1
 10
0.0
 20
0.0
 30
0.0
  0
VERTEX
  8
1
 10
0.155569
 20
0.762525
 30
0.0
  0
VERTEX
  8
1
 10
0.153213
 20
0.761936
 30
0.0
  0
VERTEX
  8
1
 10
0.151445
 20
0.761348
 30
0.0
  0
VERTEX
  8
1
 10
0.150266
 20
0.760169
 30
0.0
  0
VERTEX
  8
1
 10
0.149089
 20
0.758401
 30
0.0
  0
VERTEX
  8
1
 10
0.148498
 20
0.756633
 30
0.0
  0
VERTEX
  8
1
 10
0.148498
 20
0.755453
 30
0.0
  0
SEQEND
  8
1
  0
POLYLINE
  8
1
 66
     1
 10
0.0
 20
0.0
 30
0.0
  0
VERTEX
  8
1
 10
0.155569
 20
0.762525
 30
0.0
  0
VERTEX
  8
1
 10
0.156161
 20
0.762525
 30
0.0
  0
VERTEX
  8
1
 10
0.158517
 20
0.761936
 30
0.0
  0
VERTEX
  8
1
 10
0.160285
 20
0.761348
 30
0.0
  0
VERTEX
  8
1
 10
0.161464
 20
0.760169
 30
0.0
  0
VERTEX
  8
1
 10
0.162641
 20
0.758401
 30
0.0
  0
VERTEX
  8
1
 10
0.163232
 20
0.756045
 30
0.0
  0
VERTEX
  8
1
 10
0.163232
 20
0.755453
 30
0.0
  0
SEQEND
  8
1
  0
POLYLINE
  8
1
 66
     1
 10
0.0
 20
0.0
 30
0.0
  0
VERTEX
  8
1
 10
0.23689
 20
0.762525
 30
0.0
  0
VERTEX
  8
1
 10
0.235122
 20
0.761936
 30
0.0
  0
VERTEX
  8
1
 10
0.232766
 20
0.761348
 30
0.0
  0
VERTEX
  8
1
 10
0.231586
 20
0.760169
 30
0.0
  0
VERTEX
  8
1
 10
0.23041
 20
0.758401
 30
0.0
  0
VERTEX
  8
1
 10
0.229818
 20
0.756633
 30
0.0
  0
VERTEX
  8
1
 10
0.229818
 20
0.755453
 30
0.0
  0
SEQEND
  8
1
  0
POLYLINE
  8
1
 66
     1
 10
0.0
 20
0.0
 30
0.0
  0
VERTEX
  8
1
 10
0.23689
 20
0.762525
 30
0.0
  0
VERTEX
  8
1
 10
0.237481
 20
0.762525
 30
0.0
  0
VERTEX
  8
1
 10
0.239837
 20
0.761936
 30
0.0
  0
VERTEX
  8
1
 10
0.241017
 20
0.761348
 30
0.0
  0
VERTEX
  8
1
 10
0.242784
 20
0.760169
 30
0.0
  0
VERTEX
  8
1
 10
0.243961
 20
0.758401
 30
0.0
  0
VERTEX
  8
1
 10
0.244552
 20
0.756045
 30
0.0
  0
VERTEX
  8
1
 10
0.244552
 20
0.755453
 30
0.0
  0
SEQEND
  8
1
  0
POLYLINE
  8
1
 66
     1
 10
0.0
 20
0.0
 30
0.0
  0
VERTEX
  8
1
 10
0.252212
 20
0.718329
 30
0.0
  0
VERTEX
  8
1
 10
0.254568
 20
0.717741
 30
0.0
  0
VERTEX
  8
1
 10
0.256336
 20
0.717152
 30
0.0
  0
VERTEX
  8
1
 10
0.257515
 20
0.715384
 30
0.0
  0
VERTEX
  8
1
 10
0.258695
 20
0.714205
 30
0.0
  0
VERTEX
  8
1
 10
0.259283
 20
0.711849
 30
0.0
  0
VERTEX
  8
1
 10
0.259283
 20
0.710669
 30
0.0
  0
SEQEND
  8
1
  0
POLYLINE
  8
1
 66
     1
 10
0.0
 20
0.0
 30
0.0
  0
VERTEX
  8
1
 10
-0.251621
 20
0.718329
 30
0.0
  0
VERTEX
  8
1
 10
-0.253977
 20
0.717741
 30
0.0
  0
VERTEX
  8
1
 10
-0.255745
 20
0.717152
 30
0.0
  0
VERTEX
  8
1
 10
-0.256924
 20
0.715384
 30
0.0
  0
VERTEX
  8
1
 10
-0.258104
 20
0.714205
 30
0.0
  0
VERTEX
  8
1
 10
-0.258692
 20
0.711849
 30
0.0
  0
VERTEX
  8
1
 10
-0.258692
 20
0.710669
 30
0.0
  0
SEQEND
  8
1
  0
POLYLINE
  8
1
 66
     1
 10
0.0
 20
0.0
 30
0.0
  0
VERTEX
  8
1
 10
-0.281086
 20
0.037713
 30
0.0
  0
VERTEX
  8
1
 10
-0.280494
 20
0.039481
 30
0.0
  0
VERTEX
  8
1
 10
-0.279906
 20
0.041249
 30
0.0
  0
VERTEX
  8
1
 10
-0.278727
 20
0.043016
 30
0.0
  0
VERTEX
  8
1
 10
-0.276959
 20
0.043608
 30
0.0
  0
VERTEX
  8
1
 10
-0.274603
 20
0.044196
 30
0.0
  0
VERTEX
  8
1
 10
-0.274014
 20
0.044196
 30
0.0
  0
SEQEND
  8
1
  0
POLYLINE
  8
1
 66
     1
 10
0.0
 20
0.0
 30
0.0
  0
VERTEX
  8
1
 10
-0.281086
 20
0.037713
 30
0.0
  0
VERTEX
  8
1
 10
-0.281086
 20
0.037125
 30
0.0
  0
SEQEND
  8
1
  0
POLYLINE
  8
1
 66
     1
 10
0.0
 20
0.0
 30
0.0
  0
VERTEX
  8
1
 10
-0.274014
 20
0.029465
 30
0.0
  0
VERTEX
  8
1
 10
-0.27637
 20
0.030053
 30
0.0
  0
VERTEX
  8
1
 10
-0.278138
 20
0.031233
 30
0.0
  0
VERTEX
  8
1
 10
-0.279318
 20
0.032409
 30
0.0
  0
VERTEX
  8
1
 10
-0.280494
 20
0.033589
 30
0.0
  0
VERTEX
  8
1
 10
-0.281086
 20
0.035945
 30
0.0
  0
VERTEX
  8
1
 10
-0.281086
 20
0.037125
 30
0.0
  0
SEQEND
  8
1
  0
POLYLINE
  8
1
 66
     1
 10
0.0
 20
0.0
 30
0.0
  0
VERTEX
  8
1
 10
-0.281086
 20
0.252212
 30
0.0
  0
VERTEX
  8
1
 10
-0.280494
 20
0.254568
 30
0.0
  0
VERTEX
  8
1
 10
-0.279906
 20
0.255748
 30
0.0
  0
VERTEX
  8
1
 10
-0.278727
 20
0.257515
 30
0.0
  0
VERTEX
  8
1
 10
-0.276959
 20
0.258692
 30
0.0
  0
VERTEX
  8
1
 10
-0.274603
 20
0.259283
 30
0.0
  0
VERTEX
  8
1
 10
-0.274014
 20
0.259283
 30
0.0
  0
SEQEND
  8
1
  0
POLYLINE
  8
1
 66
     1
 10
0.0
 20
0.0
 30
0.0
  0
VERTEX
  8
1
 10
-0.281086
 20
0.252212
 30
0.0
  0
VERTEX
  8
1
 10
-0.281086
 20
0.251621
 30
0.0
  0
SEQEND
  8
1
  0
POLYLINE
  8
1
 66
     1
 10
0.0
 20
0.0
 30
0.0
  0
VERTEX
  8
1
 10
-0.274014
 20
0.244549
 30
0.0
  0
VERTEX
  8
1
 10
-0.27637
 20
0.245141
 30
0.0
  0
VERTEX
  8
1
 10
-0.278138
 20
0.245729
 30
0.0
  0
VERTEX
  8
1
 10
-0.279318
 20
0.246908
 30
0.0
  0
VERTEX
  8
1
 10
-0.280494
 20
0.248676
 30
0.0
  0
VERTEX
  8
1
 10
-0.281086
 20
0.250444
 30
0.0
  0
VERTEX
  8
1
 10
-0.281086
 20
0.251621
 30
0.0
  0
SEQEND
  8
1
  0
POLYLINE
  8
1
 66
     1
 10
0.0
 20
0.0
 30
0.0
  0
VERTEX
  8
1
 10
-0.281086
 20
0.466708
 30
0.0
  0
VERTEX
  8
1
 10
-0.280494
 20
0.469064
 30
0.0
  0
VERTEX
  8
1
 10
-0.279906
 20
0.470832
 30
0.0
  0
VERTEX
  8
1
 10
-0.278727
 20
0.4726
 30
0.0
  0
VERTEX
  8
1
 10
-0.276959
 20
0.473191
 30
0.0
  0
VERTEX
  8
1
 10
-0.274603
 20
0.473779
 30
0.0
  0
VERTEX
  8
1
 10
-0.274014
 20
0.473779
 30
0.0
  0
SEQEND
  8
1
  0
POLYLINE
  8
1
 66
     1
 10
0.0
 20
0.0
 30
0.0
  0
VERTEX
  8
1
 10
-0.281086
 20
0.466708
 30
0.0
  0
VERTEX
  8
1
 10
-0.281086
 20
0.46612
 30
0.0
  0
SEQEND
  8
1
  0
POLYLINE
  8
1
 66
     1
 10
0.0
 20
0.0
 30
0.0
  0
VERTEX
  8
1
 10
-0.274014
 20
0.459048
 30
0.0
  0
VERTEX
  8
1
 10
-0.27637
 20
0.459637
 30
0.0
  0
VERTEX
  8
1
 10
-0.278138
 20
0.460225
 30
0.0
  0
VERTEX
  8
1
 10
-0.279318
 20
0.461405
 30
0.0
  0
VERTEX
  8
1
 10
-0.280494
 20
0.463172
 30
0.0
  0
VERTEX
  8
1
 10
-0.281086
 20
0.46494
 30
0.0
  0
VERTEX
  8
1
 10
-0.281086
 20
0.46612
 30
0.0
  0
SEQEND
  8
1
  0
POLYLINE
  8
1
 66
     1
 10
0.0
 20
0.0
 30
0.0
  0
VERTEX
  8
1
 10
-0.281086
 20
0.437243
 30
0.0
  0
VERTEX
  8
1
 10
-0.281086
 20
0.281086
 30
0.0
  0
SEQEND
  8
1
  0
POLYLINE
  8
1
 66
     1
 10
0.0
 20
0.0
 30
0.0
  0
VERTEX
  8
1
 10
-0.251621
 20
0.281086
 30
0.0
  0
VERTEX
  8
1
 10
-0.281086
 20
0.281086
 30
0.0
  0
SEQEND
  8
1
  0
POLYLINE
  8
1
 66
     1
 10
0.0
 20
0.0
 30
0.0
  0
VERTEX
  8
1
 10
-0.251621
 20
0.437243
 30
0.0
  0
VERTEX
  8
1
 10
-0.281086
 20
0.437243
 30
0.0
  0
SEQEND
  8
1
  0
POLYLINE
  8
1
 66
     1
 10
0.0
 20
0.0
 30
0.0
  0
VERTEX
  8
1
 10
0.281677
 20
0.037713
 30
0.0
  0
VERTEX
  8
1
 10
0.281086
 20
0.039481
 30
0.0
  0
VERTEX
  8
1
 10
0.280497
 20
0.041249
 30
0.0
  0
VERTEX
  8
1
 10
0.279318
 20
0.043016
 30
0.0
  0
VERTEX
  8
1
 10
0.27755
 20
0.043608
 30
0.0
  0
VERTEX
  8
1
 10
0.275782
 20
0.044196
 30
0.0
  0
VERTEX
  8
1
 10
0.274605
 20
0.044196
 30
0.0
  0
SEQEND
  8
1
  0
POLYLINE
  8
1
 66
     1
 10
0.0
 20
0.0
 30
0.0
  0
VERTEX
  8
1
 10
0.281677
 20
0.037713
 30
0.0
  0
VERTEX
  8
1
 10
0.281677
 20
0.037125
 30
0.0
  0
SEQEND
  8
1
  0
POLYLINE
  8
1
 66
     1
 10
0.0
 20
0.0
 30
0.0
  0
VERTEX
  8
1
 10
0.274605
 20
0.029465
 30
0.0
  0
VERTEX
  8
1
 10
0.276373
 20
0.030053
 30
0.0
  0
VERTEX
  8
1
 10
0.278141
 20
0.030642
 30
0.0
  0
VERTEX
  8
1
 10
0.279909
 20
0.032409
 30
0.0
  0
VERTEX
  8
1
 10
0.281086
 20
0.033589
 30
0.0
  0
VERTEX
  8
1
 10
0.281677
 20
0.035945
 30
0.0
  0
VERTEX
  8
1
 10
0.281677
 20
0.037125
 30
0.0
  0
SEQEND
  8
1
  0
POLYLINE
  8
1
 66
     1
 10
0.0
 20
0.0
 30
0.0
  0
VERTEX
  8
1
 10
0.281677
 20
0.252212
 30
0.0
  0
VERTEX
  8
1
 10
0.281086
 20
0.25398
 30
0.0
  0
VERTEX
  8
1
 10
0.280497
 20
0.255748
 30
0.0
  0
VERTEX
  8
1
 10
0.279318
 20
0.257515
 30
0.0
  0
VERTEX
  8
1
 10
0.27755
 20
0.258692
 30
0.0
  0
VERTEX
  8
1
 10
0.275782
 20
0.259283
 30
0.0
  0
VERTEX
  8
1
 10
0.274605
 20
0.259283
 30
0.0
  0
SEQEND
  8
1
  0
POLYLINE
  8
1
 66
     1
 10
0.0
 20
0.0
 30
0.0
  0
VERTEX
  8
1
 10
0.281677
 20
0.252212
 30
0.0
  0
VERTEX
  8
1
 10
0.281677
 20
0.251621
 30
0.0
  0
SEQEND
  8
1
  0
POLYLINE
  8
1
 66
     1
 10
0.0
 20
0.0
 30
0.0
  0
VERTEX
  8
1
 10
0.274605
 20
0.244549
 30
0.0
  0
VERTEX
  8
1
 10
0.276373
 20
0.244549
 30
0.0
  0
VERTEX
  8
1
 10
0.278141
 20
0.245729
 30
0.0
  0
VERTEX
  8
1
 10
0.279909
 20
0.246908
 30
0.0
  0
VERTEX
  8
1
 10
0.281086
 20
0.248676
 30
0.0
  0
VERTEX
  8
1
 10
0.281677
 20
0.250444
 30
0.0
  0
VERTEX
  8
1
 10
0.281677
 20
0.251621
 30
0.0
  0
SEQEND
  8
1
  0
POLYLINE
  8
1
 66
     1
 10
0.0
 20
0.0
 30
0.0
  0
VERTEX
  8
1
 10
0.281677
 20
0.466708
 30
0.0
  0
VERTEX
  8
1
 10
0.281086
 20
0.468476
 30
0.0
  0
VERTEX
  8
1
 10
0.280497
 20
0.470832
 30
0.0
  0
VERTEX
  8
1
 10
0.279318
 20
0.472012
 30
0.0
  0
VERTEX
  8
1
 10
0.27755
 20
0.473191
 30
0.0
  0
VERTEX
  8
1
 10
0.275782
 20
0.473779
 30
0.0
  0
VERTEX
  8
1
 10
0.274605
 20
0.473779
 30
0.0
  0
SEQEND
  8
1
  0
POLYLINE
  8
1
 66
     1
 10
0.0
 20
0.0
 30
0.0
  0
VERTEX
  8
1
 10
0.281677
 20
0.466708
 30
0.0
  0
VERTEX
  8
1
 10
0.281677
 20
0.46612
 30
0.0
  0
SEQEND
  8
1
  0
POLYLINE
  8
1
 66
     1
 10
0.0
 20
0.0
 30
0.0
  0
VERTEX
  8
1
 10
0.274605
 20
0.459048
 30
0.0
  0
VERTEX
  8
1
 10
0.276373
 20
0.459048
 30
0.0
  0
VERTEX
  8
1
 10
0.278141
 20
0.460225
 30
0.0
  0
VERTEX
  8
1
 10
0.279909
 20
0.461405
 30
0.0
  0
VERTEX
  8
1
 10
0.281086
 20
0.463172
 30
0.0
  0
VERTEX
  8
1
 10
0.281677
 20
0.46494
 30
0.0
  0
VERTEX
  8
1
 10
0.281677
 20
0.46612
 30
0.0
  0
SEQEND
  8
1
  0
POLYLINE
  8
1
 66
     1
 10
0.0
 20
0.0
 30
0.0
  0
VERTEX
  8
1
 10
0.281677
 20
0.437243
 30
0.0
  0
VERTEX
  8
1
 10
0.281677
 20
0.281086
 30
0.0
  0
SEQEND
  8
1
  0
POLYLINE
  8
1
 66
     1
 10
0.0
 20
0.0
 30
0.0
  0
VERTEX
  8
1
 10
0.251624
 20
0.281086
 30
0.0
  0
VERTEX
  8
1
 10
0.281677
 20
0.281086
 30
0.0
  0
SEQEND
  8
1
  0
POLYLINE
  8
1
 66
     1
 10
0.0
 20
0.0
 30
0.0
  0
VERTEX
  8
1
 10
0.251624
 20
0.437243
 30
0.0
  0
VERTEX
  8
1
 10
0.281677
 20
0.437243
 30
0.0
  0
SEQEND
  8
1
  0
POLYLINE
  8
1
 66
     1
 10
0.0
 20
0.0
 30
0.0
  0
VERTEX
  8
1
 10
-0.243961
 20
0.014731
 30
0.0
  0
VERTEX
  8
1
 10
-0.251621
 20
0.014731
 30
0.0
  0
SEQEND
  8
1
  0
POLYLINE
  8
1
 66
     1
 10
0.0
 20
0.0
 30
0.0
  0
VERTEX
  8
1
 10
0.244552
 20
0.014731
 30
0.0
  0
VERTEX
  8
1
 10
0.252212
 20
0.014731
 30
0.0
  0
SEQEND
  8
1
  0
POLYLINE
  8
1
 66
     1
 10
0.0
 20
0.0
 30
0.0
  0
VERTEX
  8
1
 10
0.259283
 20
0.029465
 30
0.0
  0
VERTEX
  8
1
 10
0.259283
 20
0.022394
 30
0.0
  0
SEQEND
  8
1
  0
POLYLINE
  8
1
 66
     1
 10
0.0
 20
0.0
 30
0.0
  0
VERTEX
  8
1
 10
0.259283
 20
0.244549
 30
0.0
  0
VERTEX
  8
1
 10
0.259283
 20
0.044196
 30
0.0
  0
SEQEND
  8
1
  0
POLYLINE
  8
1
 66
     1
 10
0.0
 20
0.0
 30
0.0
  0
VERTEX
  8
1
 10
0.259283
 20
0.259283
 30
0.0
  0
VERTEX
  8
1
 10
0.259283
 20
0.281086
 30
0.0
  0
SEQEND
  8
1
  0
POLYLINE
  8
1
 66
     1
 10
0.0
 20
0.0
 30
0.0
  0
VERTEX
  8
1
 10
-0.258692
 20
0.029465
 30
0.0
  0
VERTEX
  8
1
 10
-0.258692
 20
0.022394
 30
0.0
  0
SEQEND
  8
1
  0
POLYLINE
  8
1
 66
     1
 10
0.0
 20
0.0
 30
0.0
  0
VERTEX
  8
1
 10
-0.258692
 20
0.244549
 30
0.0
  0
VERTEX
  8
1
 10
-0.258692
 20
0.044196
 30
0.0
  0
SEQEND
  8
1
  0
POLYLINE
  8
1
 66
     1
 10
0.0
 20
0.0
 30
0.0
  0
VERTEX
  8
1
 10
-0.258692
 20
0.259283
 30
0.0
  0
VERTEX
  8
1
 10
-0.258692
 20
0.281086
 30
0.0
  0
SEQEND
  8
1
  0
POLYLINE
  8
1
 66
     1
 10
0.0
 20
0.0
 30
0.0
  0
VERTEX
  8
1
 10
-0.258692
 20
0.459048
 30
0.0
  0
VERTEX
  8
1
 10
-0.258692
 20
0.437243
 30
0.0
  0
SEQEND
  8
1
  0
POLYLINE
  8
1
 66
     1
 10
0.0
 20
0.0
 30
0.0
  0
VERTEX
  8
1
 10
-0.258692
 20
0.473779
 30
0.0
  0
VERTEX
  8
1
 10
-0.258692
 20
0.710669
 30
0.0
  0
SEQEND
  8
1
  0
POLYLINE
  8
1
 66
     1
 10
0.0
 20
0.0
 30
0.0
  0
VERTEX
  8
1
 10
0.259283
 20
0.459048
 30
0.0
  0
VERTEX
  8
1
 10
0.259283
 20
0.437243
 30
0.0
  0
SEQEND
  8
1
  0
POLYLINE
  8
1
 66
     1
 10
0.0
 20
0.0
 30
0.0
  0
VERTEX
  8
1
 10
0.259283
 20
0.473779
 30
0.0
  0
VERTEX
  8
1
 10
0.259283
 20
0.710669
 30
0.0
  0
SEQEND
  8
1
  0
POLYLINE
  8
1
 66
     1
 10
0.0
 20
0.0
 30
0.0
  0
VERTEX
  8
1
 10
0.244552
 20
0.718329
 30
0.0
  0
VERTEX
  8
1
 10
0.252212
 20
0.718329
 30
0.0
  0
SEQEND
  8
1
  0
POLYLINE
  8
1
 66
     1
 10
0.0
 20
0.0
 30
0.0
  0
VERTEX
  8
1
 10
-0.243961
 20
0.718329
 30
0.0
  0
VERTEX
  8
1
 10
-0.251621
 20
0.718329
 30
0.0
  0
SEQEND
  8
1
  0
POLYLINE
  8
1
 66
     1
 10
0.0
 20
0.0
 30
0.0
  0
VERTEX
  8
1
 10
-0.243961
 20
0.717741
 30
0.0
  0
VERTEX
  8
1
 10
-0.243961
 20
0.755453
 30
0.0
  0
SEQEND
  8
1
  0
POLYLINE
  8
1
 66
     1
 10
0.0
 20
0.0
 30
0.0
  0
VERTEX
  8
1
 10
0.244552
 20
0.717741
 30
0.0
  0
VERTEX
  8
1
 10
0.244552
 20
0.755453
 30
0.0
  0
SEQEND
  8
1
  0
POLYLINE
  8
1
 66
     1
 10
0.0
 20
0.0
 30
0.0
  0
VERTEX
  8
1
 10
0.274605
 20
0.473779
 30
0.0
  0
VERTEX
  8
1
 10
0.259283
 20
0.473779
 30
0.0
  0
VERTEX
  8
1
 10
0.256927
 20
0.473191
 30
0.0
  0
VERTEX
  8
1
 10
0.255159
 20
0.4726
 30
0.0
  0
VERTEX
  8
1
 10
0.253391
 20
0.471423
 30
0.0
  0
VERTEX
  8
1
 10
0.2528
 20
0.469655
 30
0.0
  0
VERTEX
  8
1
 10
0.252212
 20
0.467888
 30
0.0
  0
VERTEX
  8
1
 10
0.251624
 20
0.466708
 30
0.0
  0
VERTEX
  8
1
 10
0.251624
 20
0.46612
 30
0.0
  0
SEQEND
  8
1
  0
POLYLINE
  8
1
 66
     1
 10
0.0
 20
0.0
 30
0.0
  0
VERTEX
  8
1
 10
0.259283
 20
0.459048
 30
0.0
  0
VERTEX
  8
1
 10
0.256927
 20
0.459637
 30
0.0
  0
VERTEX
  8
1
 10
0.255159
 20
0.460225
 30
0.0
  0
VERTEX
  8
1
 10
0.253391
 20
0.461405
 30
0.0
  0
VERTEX
  8
1
 10
0.252212
 20
0.463172
 30
0.0
  0
VERTEX
  8
1
 10
0.251624
 20
0.46494
 30
0.0
  0
VERTEX
  8
1
 10
0.251624
 20
0.46612
 30
0.0
  0
SEQEND
  8
1
  0
POLYLINE
  8
1
 66
     1
 10
0.0
 20
0.0
 30
0.0
  0
VERTEX
  8
1
 10
0.259283
 20
0.459048
 30
0.0
  0
VERTEX
  8
1
 10
0.274605
 20
0.459048
 30
0.0
  0
SEQEND
  8
1
  0
POLYLINE
  8
1
 66
     1
 10
0.0
 20
0.0
 30
0.0
  0
VERTEX
  8
1
 10
-0.274014
 20
0.473779
 30
0.0
  0
VERTEX
  8
1
 10
-0.258692
 20
0.473779
 30
0.0
  0
VERTEX
  8
1
 10
-0.256336
 20
0.473191
 30
0.0
  0
VERTEX
  8
1
 10
-0.254568
 20
0.4726
 30
0.0
  0
VERTEX
  8
1
 10
-0.253389
 20
0.471423
 30
0.0
  0
VERTEX
  8
1
 10
-0.252209
 20
0.469655
 30
0.0
  0
VERTEX
  8
1
 10
-0.251621
 20
0.467888
 30
0.0
  0
VERTEX
  8
1
 10
-0.251621
 20
0.466708
 30
0.0
  0
VERTEX
  8
1
 10
-0.251621
 20
0.46612
 30
0.0
  0
VERTEX
  8
1
 10
-0.251621
 20
0.463761
 30
0.0
  0
VERTEX
  8
1
 10
-0.2528
 20
0.462584
 30
0.0
  0
VERTEX
  8
1
 10
-0.253977
 20
0.460816
 30
0.0
  0
VERTEX
  8
1
 10
-0.255745
 20
0.459637
 30
0.0
  0
VERTEX
  8
1
 10
-0.257513
 20
0.459048
 30
0.0
  0
VERTEX
  8
1
 10
-0.258692
 20
0.459048
 30
0.0
  0
VERTEX
  8
1
 10
-0.274014
 20
0.459048
 30
0.0
  0
SEQEND
  8
1
  0
POLYLINE
  8
1
 66
     1
 10
0.0
 20
0.0
 30
0.0
  0
VERTEX
  8
1
 10
-0.251621
 20
0.251621
 30
0.0
  0
VERTEX
  8
1
 10
-0.251621
 20
0.249265
 30
0.0
  0
VERTEX
  8
1
 10
-0.2528
 20
0.247497
 30
0.0
  0
VERTEX
  8
1
 10
-0.253977
 20
0.245729
 30
0.0
  0
VERTEX
  8
1
 10
-0.255745
 20
0.245141
 30
0.0
  0
VERTEX
  8
1
 10
-0.257513
 20
0.244549
 30
0.0
  0
VERTEX
  8
1
 10
-0.258692
 20
0.244549
 30
0.0
  0
VERTEX
  8
1
 10
-0.274014
 20
0.244549
 30
0.0
  0
SEQEND
  8
1
  0
POLYLINE
  8
1
 66
     1
 10
0.0
 20
0.0
 30
0.0
  0
VERTEX
  8
1
 10
-0.251621
 20
0.251621
 30
0.0
  0
VERTEX
  8
1
 10
-0.251621
 20
0.252212
 30
0.0
  0
SEQEND
  8
1
  0
POLYLINE
  8
1
 66
     1
 10
0.0
 20
0.0
 30
0.0
  0
VERTEX
  8
1
 10
-0.258692
 20
0.259283
 30
0.0
  0
VERTEX
  8
1
 10
-0.256336
 20
0.258692
 30
0.0
  0
VERTEX
  8
1
 10
-0.254568
 20
0.258104
 30
0.0
  0
VERTEX
  8
1
 10
-0.253389
 20
0.256336
 30
0.0
  0
VERTEX
  8
1
 10
-0.252209
 20
0.255156
 30
0.0
  0
VERTEX
  8
1
 10
-0.251621
 20
0.2528
 30
0.0
  0
VERTEX
  8
1
 10
-0.251621
 20
0.252212
 30
0.0
  0
SEQEND
  8
1
  0
POLYLINE
  8
1
 66
     1
 10
0.0
 20
0.0
 30
0.0
  0
VERTEX
  8
1
 10
-0.258692
 20
0.259283
 30
0.0
  0
VERTEX
  8
1
 10
-0.274014
 20
0.259283
 30
0.0
  0
SEQEND
  8
1
  0
POLYLINE
  8
1
 66
     1
 10
0.0
 20
0.0
 30
0.0
  0
VERTEX
  8
1
 10
-0.258692
 20
0.044196
 30
0.0
  0
VERTEX
  8
1
 10
-0.256336
 20
0.044196
 30
0.0
  0
VERTEX
  8
1
 10
-0.254568
 20
0.043608
 30
0.0
  0
VERTEX
  8
1
 10
-0.253389
 20
0.04184
 30
0.0
  0
VERTEX
  8
1
 10
-0.252209
 20
0.040072
 30
0.0
  0
VERTEX
  8
1
 10
-0.251621
 20
0.038304
 30
0.0
  0
VERTEX
  8
1
 10
-0.251621
 20
0.037713
 30
0.0
  0
SEQEND
  8
1
  0
POLYLINE
  8
1
 66
     1
 10
0.0
 20
0.0
 30
0.0
  0
VERTEX
  8
1
 10
-0.258692
 20
0.044196
 30
0.0
  0
VERTEX
  8
1
 10
-0.274014
 20
0.044196
 30
0.0
  0
SEQEND
  8
1
  0
POLYLINE
  8
1
 66
     1
 10
0.0
 20
0.0
 30
0.0
  0
VERTEX
  8
1
 10
-0.251621
 20
0.037713
 30
0.0
  0
VERTEX
  8
1
 10
-0.251621
 20
0.037125
 30
0.0
  0
VERTEX
  8
1
 10
-0.251621
 20
0.034768
 30
0.0
  0
VERTEX
  8
1
 10
-0.2528
 20
0.033001
 30
0.0
  0
VERTEX
  8
1
 10
-0.253977
 20
0.031233
 30
0.0
  0
VERTEX
  8
1
 10
-0.255745
 20
0.030053
 30
0.0
  0
VERTEX
  8
1
 10
-0.257513
 20
0.029465
 30
0.0
  0
VERTEX
  8
1
 10
-0.258692
 20
0.029465
 30
0.0
  0
VERTEX
  8
1
 10
-0.274014
 20
0.029465
 30
0.0
  0
SEQEND
  8
1
  0
POLYLINE
  8
1
 66
     1
 10
0.0
 20
0.0
 30
0.0
  0
VERTEX
  8
1
 10
-0.243961
 20
0.015322
 30
0.0
  0
VERTEX
  8
1
 10
-0.243961
 20
0.0
 30
0.0
  0
SEQEND
  8
1
  0
POLYLINE
  8
1
 66
     1
 10
0.0
 20
0.0
 30
0.0
  0
VERTEX
  8
1
 10
0.244552
 20
0.015322
 30
0.0
  0
VERTEX
  8
1
 10
0.244552
 20
0.0
 30
0.0
  0
SEQEND
  8
1
  0
POLYLINE
  8
1
 66
     1
 10
0.0
 20
0.0
 30
0.0
  0
VERTEX
  8
1
 10
0.274605
 20
0.029465
 30
0.0
  0
VERTEX
  8
1
 10
0.259283
 20
0.029465
 30
0.0
  0
VERTEX
  8
1
 10
0.256927
 20
0.030053
 30
0.0
  0
VERTEX
  8
1
 10
0.255159
 20
0.031233
 30
0.0
  0
VERTEX
  8
1
 10
0.253391
 20
0.032409
 30
0.0
  0
VERTEX
  8
1
 10
0.252212
 20
0.033589
 30
0.0
  0
VERTEX
  8
1
 10
0.251624
 20
0.035945
 30
0.0
  0
VERTEX
  8
1
 10
0.251624
 20
0.037125
 30
0.0
  0
SEQEND
  8
1
  0
POLYLINE
  8
1
 66
     1
 10
0.0
 20
0.0
 30
0.0
  0
VERTEX
  8
1
 10
0.274605
 20
0.044196
 30
0.0
  0
VERTEX
  8
1
 10
0.259283
 20
0.044196
 30
0.0
  0
VERTEX
  8
1
 10
0.256927
 20
0.044196
 30
0.0
  0
VERTEX
  8
1
 10
0.255159
 20
0.043608
 30
0.0
  0
VERTEX
  8
1
 10
0.253391
 20
0.042428
 30
0.0
  0
VERTEX
  8
1
 10
0.2528
 20
0.04066
 30
0.0
  0
VERTEX
  8
1
 10
0.252212
 20
0.038304
 30
0.0
  0
VERTEX
  8
1
 10
0.251624
 20
0.037713
 30
0.0
  0
VERTEX
  8
1
 10
0.251624
 20
0.037125
 30
0.0
  0
SEQEND
  8
1
  0
POLYLINE
  8
1
 66
     1
 10
0.0
 20
0.0
 30
0.0
  0
VERTEX
  8
1
 10
0.274605
 20
0.244549
 30
0.0
  0
VERTEX
  8
1
 10
0.259283
 20
0.244549
 30
0.0
  0
VERTEX
  8
1
 10
0.256927
 20
0.245141
 30
0.0
  0
VERTEX
  8
1
 10
0.255159
 20
0.245729
 30
0.0
  0
VERTEX
  8
1
 10
0.253391
 20
0.246908
 30
0.0
  0
VERTEX
  8
1
 10
0.252212
 20
0.248676
 30
0.0
  0
VERTEX
  8
1
 10
0.251624
 20
0.250444
 30
0.0
  0
VERTEX
  8
1
 10
0.251624
 20
0.251621
 30
0.0
  0
SEQEND
  8
1
  0
POLYLINE
  8
1
 66
     1
 10
0.0
 20
0.0
 30
0.0
  0
VERTEX
  8
1
 10
0.274605
 20
0.259283
 30
0.0
  0
VERTEX
  8
1
 10
0.259283
 20
0.259283
 30
0.0
  0
VERTEX
  8
1
 10
0.256927
 20
0.258692
 30
0.0
  0
VERTEX
  8
1
 10
0.255159
 20
0.258104
 30
0.0
  0
VERTEX
  8
1
 10
0.253391
 20
0.256924
 30
0.0
  0
VERTEX
  8
1
 10
0.2528
 20
0.255156
 30
0.0
  0
VERTEX
  8
1
 10
0.252212
 20
0.253389
 30
0.0
  0
VERTEX
  8
1
 10
0.251624
 20
0.252212
 30
0.0
  0
VERTEX
  8
1
 10
0.251624
 20
0.251621
 30
0.0
  0
SEQEND
  8
1
  0
POLYLINE
  8
1
 66
     1
 10
0.0
 20
0.0
 30
0.0
  0
VERTEX
  8
1
 10
-0.251621
 20
0.022394
 30
0.0
  0
VERTEX
  8
1
 10
-0.251621
 20
0.710669
 30
0.0
  0
SEQEND
  8
1
  0
POLYLINE
  8
1
 66
     1
 10
0.0
 20
0.0
 30
0.0
  0
VERTEX
  8
1
 10
0.251624
 20
0.710669
 30
0.0
  0
VERTEX
  8
1
 10
0.251624
 20
0.022394
 30
0.0
  0
SEQEND
  8
1
  0
POLYLINE
  8
1
 66
     1
 10
0.0
 20
0.0
 30
0.0
  0
VERTEX
  8
1
 10
-0.23689
 20
0.0
 30
0.0
  0
VERTEX
  8
1
 10
0.23689
 20
0.0
 30
0.0
  0
VERTEX
  8
1
 10
0.23689
 20
0.7254
 30
0.0
  0
VERTEX
  8
1
 10
-0.23689
 20
0.7254
 30
0.0
  0
VERTEX
  8
1
 10
-0.23689
 20
0.0
 30
0.0
  0
SEQEND
  8
1
  0
POLYLINE
  8
1
 66
     1
 10
0.0
 20
0.0
 30
0.0
  0
VERTEX
  8
1
 10
-0.251621
 20
0.022394
 30
0.0
  0
VERTEX
  8
1
 10
-0.23689
 20
0.022394
 30
0.0
  0
SEQEND
  8
1
  0
POLYLINE
  8
1
 66
     1
 10
0.0
 20
0.0
 30
0.0
  0
VERTEX
  8
1
 10
-0.23689
 20
0.022394
 30
0.0
  0
VERTEX
  8
1
 10
-0.238658
 20
0.021802
 30
0.0
  0
VERTEX
  8
1
 10
-0.241014
 20
0.021214
 30
0.0
  0
VERTEX
  8
1
 10
-0.242193
 20
0.020035
 30
0.0
  0
VERTEX
  8
1
 10
-0.24337
 20
0.018267
 30
0.0
  0
VERTEX
  8
1
 10
-0.243961
 20
0.016499
 30
0.0
  0
VERTEX
  8
1
 10
-0.243961
 20
0.015322
 30
0.0
  0
SEQEND
  8
1
  0
POLYLINE
  8
1
 66
     1
 10
0.0
 20
0.0
 30
0.0
  0
VERTEX
  8
1
 10
-0.236299
 20
-0.007071
 30
0.0
  0
VERTEX
  8
1
 10
-0.233942
 20
-0.007071
 30
0.0
  0
VERTEX
  8
1
 10
-0.232763
 20
-0.006483
 30
0.0
  0
VERTEX
  8
1
 10
-0.230995
 20
-0.004715
 30
0.0
  0
VERTEX
  8
1
 10
-0.229818
 20
-0.002947
 30
0.0
  0
VERTEX
  8
1
 10
-0.229227
 20
-0.001179
 30
0.0
  0
VERTEX
  8
1
 10
-0.229227
 20
0.0
 30
0.0
  0
SEQEND
  8
1
  0
POLYLINE
  8
1
 66
     1
 10
0.0
 20
0.0
 30
0.0
  0
VERTEX
  8
1
 10
-0.162641
 20
0.0
 30
0.0
  0
VERTEX
  8
1
 10
-0.162641
 20
-0.001768
 30
0.0
  0
SEQEND
  8
1
  0
POLYLINE
  8
1
 66
     1
 10
0.0
 20
0.0
 30
0.0
  0
VERTEX
  8
1
 10
-0.162641
 20
-0.001768
 30
0.0
  0
VERTEX
  8
1
 10
-0.161461
 20
-0.003536
 30
0.0
  0
VERTEX
  8
1
 10
-0.160282
 20
-0.005304
 30
0.0
  0
VERTEX
  8
1
 10
-0.158514
 20
-0.006483
 30
0.0
  0
VERTEX
  8
1
 10
-0.157337
 20
-0.007071
 30
0.0
  0
VERTEX
  8
1
 10
-0.155569
 20
-0.007071
 30
0.0
  0
SEQEND
  8
1
  0
POLYLINE
  8
1
 66
     1
 10
0.0
 20
0.0
 30
0.0
  0
VERTEX
  8
1
 10
-0.154978
 20
-0.007071
 30
0.0
  0
VERTEX
  8
1
 10
-0.152622
 20
-0.007071
 30
0.0
  0
VERTEX
  8
1
 10
-0.150854
 20
-0.006483
 30
0.0
  0
VERTEX
  8
1
 10
-0.149675
 20
-0.004715
 30
0.0
  0
VERTEX
  8
1
 10
-0.148498
 20
-0.002947
 30
0.0
  0
VERTEX
  8
1
 10
-0.147907
 20
-0.001179
 30
0.0
  0
VERTEX
  8
1
 10
-0.147907
 20
0.0
 30
0.0
  0
SEQEND
  8
1
  0
POLYLINE
  8
1
 66
     1
 10
0.0
 20
0.0
 30
0.0
  0
VERTEX
  8
1
 10
-0.080729
 20
-0.007071
 30
0.0
  0
VERTEX
  8
1
 10
-0.078961
 20
-0.007071
 30
0.0
  0
VERTEX
  8
1
 10
-0.077194
 20
-0.006483
 30
0.0
  0
VERTEX
  8
1
 10
-0.075426
 20
-0.004715
 30
0.0
  0
VERTEX
  8
1
 10
-0.074249
 20
-0.002947
 30
0.0
  0
VERTEX
  8
1
 10
-0.073658
 20
-0.001179
 30
0.0
  0
VERTEX
  8
1
 10
-0.073658
 20
0.0
 30
0.0
  0
SEQEND
  8
1
  0
POLYLINE
  8
1
 66
     1
 10
0.0
 20
0.0
 30
0.0
  0
VERTEX
  8
1
 10
-0.088392
 20
0.0
 30
0.0
  0
VERTEX
  8
1
 10
-0.088392
 20
-0.001768
 30
0.0
  0
VERTEX
  8
1
 10
-0.087212
 20
-0.003536
 30
0.0
  0
VERTEX
  8
1
 10
-0.086624
 20
-0.005304
 30
0.0
  0
VERTEX
  8
1
 10
-0.084856
 20
-0.006483
 30
0.0
  0
VERTEX
  8
1
 10
-0.083088
 20
-0.007071
 30
0.0
  0
VERTEX
  8
1
 10
-0.08132
 20
-0.007071
 30
0.0
  0
SEQEND
  8
1
  0
POLYLINE
  8
1
 66
     1
 10
0.0
 20
0.0
 30
0.0
  0
VERTEX
  8
1
 10
-0.007071
 20
0.0
 30
0.0
  0
VERTEX
  8
1
 10
-0.007071
 20
-0.001768
 30
0.0
  0
VERTEX
  8
1
 10
-0.00648
 20
-0.003536
 30
0.0
  0
VERTEX
  8
1
 10
-0.005304
 20
-0.005304
 30
0.0
  0
VERTEX
  8
1
 10
-0.003536
 20
-0.006483
 30
0.0
  0
VERTEX
  8
1
 10
-0.001177
 20
-0.007071
 30
0.0
  0
VERTEX
  8
1
 10
0.0
 20
-0.007071
 30
0.0
  0
SEQEND
  8
1
  0
POLYLINE
  8
1
 66
     1
 10
0.0
 20
0.0
 30
0.0
  0
VERTEX
  8
1
 10
0.000591
 20
-0.007071
 30
0.0
  0
VERTEX
  8
1
 10
0.002947
 20
-0.007071
 30
0.0
  0
VERTEX
  8
1
 10
0.004127
 20
-0.006483
 30
0.0
  0
VERTEX
  8
1
 10
0.005895
 20
-0.004715
 30
0.0
  0
VERTEX
  8
1
 10
0.007071
 20
-0.002947
 30
0.0
  0
VERTEX
  8
1
 10
0.007662
 20
-0.001179
 30
0.0
  0
VERTEX
  8
1
 10
0.007662
 20
0.0
 30
0.0
  0
SEQEND
  8
1
  0
POLYLINE
  8
1
 66
     1
 10
0.0
 20
0.0
 30
0.0
  0
VERTEX
  8
1
 10
0.074249
 20
0.0
 30
0.0
  0
VERTEX
  8
1
 10
0.074249
 20
-0.001768
 30
0.0
  0
VERTEX
  8
1
 10
0.075429
 20
-0.003536
 30
0.0
  0
VERTEX
  8
1
 10
0.076608
 20
-0.005304
 30
0.0
  0
VERTEX
  8
1
 10
0.078376
 20
-0.006483
 30
0.0
  0
VERTEX
  8
1
 10
0.079553
 20
-0.007071
 30
0.0
  0
VERTEX
  8
1
 10
0.08132
 20
-0.007071
 30
0.0
  0
SEQEND
  8
1
  0
POLYLINE
  8
1
 66
     1
 10
0.0
 20
0.0
 30
0.0
  0
VERTEX
  8
1
 10
0.081912
 20
-0.007071
 30
0.0
  0
VERTEX
  8
1
 10
0.084268
 20
-0.007071
 30
0.0
  0
VERTEX
  8
1
 10
0.086036
 20
-0.006483
 30
0.0
  0
VERTEX
  8
1
 10
0.087215
 20
-0.004715
 30
0.0
  0
VERTEX
  8
1
 10
0.088392
 20
-0.002947
 30
0.0
  0
VERTEX
  8
1
 10
0.088983
 20
-0.001179
 30
0.0
  0
VERTEX
  8
1
 10
0.088983
 20
0.0
 30
0.0
  0
SEQEND
  8
1
  0
POLYLINE
  8
1
 66
     1
 10
0.0
 20
0.0
 30
0.0
  0
VERTEX
  8
1
 10
0.148498
 20
0.0
 30
0.0
  0
VERTEX
  8
1
 10
0.148498
 20
-0.001768
 30
0.0
  0
VERTEX
  8
1
 10
0.149089
 20
-0.003536
 30
0.0
  0
VERTEX
  8
1
 10
0.150266
 20
-0.005304
 30
0.0
  0
VERTEX
  8
1
 10
0.152034
 20
-0.006483
 30
0.0
  0
VERTEX
  8
1
 10
0.153802
 20
-0.007071
 30
0.0
  0
VERTEX
  8
1
 10
0.155569
 20
-0.007071
 30
0.0
  0
SEQEND
  8
1
  0
POLYLINE
  8
1
 66
     1
 10
0.0
 20
0.0
 30
0.0
  0
VERTEX
  8
1
 10
0.156161
 20
-0.007071
 30
0.0
  0
VERTEX
  8
1
 10
0.157928
 20
-0.007071
 30
0.0
  0
VERTEX
  8
1
 10
0.160285
 20
-0.006483
 30
0.0
  0
VERTEX
  8
1
 10
0.161464
 20
-0.004715
 30
0.0
  0
VERTEX
  8
1
 10
0.162641
 20
-0.002947
 30
0.0
  0
VERTEX
  8
1
 10
0.163232
 20
-0.001179
 30
0.0
  0
VERTEX
  8
1
 10
0.163232
 20
0.0
 30
0.0
  0
SEQEND
  8
1
  0
POLYLINE
  8
1
 66
     1
 10
0.0
 20
0.0
 30
0.0
  0
VERTEX
  8
1
 10
0.229818
 20
0.0
 30
0.0
  0
VERTEX
  8
1
 10
0.229818
 20
-0.001768
 30
0.0
  0
VERTEX
  8
1
 10
0.230998
 20
-0.003536
 30
0.0
  0
VERTEX
  8
1
 10
0.231586
 20
-0.005304
 30
0.0
  0
VERTEX
  8
1
 10
0.233354
 20
-0.006483
 30
0.0
  0
VERTEX
  8
1
 10
0.235713
 20
-0.007071
 30
0.0
  0
VERTEX
  8
1
 10
0.23689
 20
-0.007071
 30
0.0
  0
SEQEND
  8
1
  0
POLYLINE
  8
1
 66
     1
 10
0.0
 20
0.0
 30
0.0
  0
VERTEX
  8
1
 10
0.251624
 20
0.022394
 30
0.0
  0
VERTEX
  8
1
 10
0.23689
 20
0.022394
 30
0.0
  0
SEQEND
  8
1
  0
POLYLINE
  8
1
 66
     1
 10
0.0
 20
0.0
 30
0.0
  0
VERTEX
  8
1
 10
0.244552
 20
0.015322
 30
0.0
  0
VERTEX
  8
1
 10
0.244552
 20
0.017678
 30
0.0
  0
VERTEX
  8
1
 10
0.243373
 20
0.018858
 30
0.0
  0
VERTEX
  8
1
 10
0.242193
 20
0.020626
 30
0.0
  0
VERTEX
  8
1
 10
0.240425
 20
0.021802
 30
0.0
  0
VERTEX
  8
1
 10
0.238658
 20
0.022394
 30
0.0
  0
VERTEX
  8
1
 10
0.23689
 20
0.022394
 30
0.0
  0
SEQEND
  8
1
  0
POLYLINE
  8
1
 66
     1
 10
0.0
 20
0.0
 30
0.0
  0
VERTEX
  8
1
 10
-0.229227
 20
0.7254
 30
0.0
  0
VERTEX
  8
1
 10
-0.229227
 20
0.755453
 30
0.0
  0
SEQEND
  8
1
  0
POLYLINE
  8
1
 66
     1
 10
0.0
 20
0.0
 30
0.0
  0
VERTEX
  8
1
 10
-0.243961
 20
0.717741
 30
0.0
  0
VERTEX
  8
1
 10
-0.243961
 20
0.715384
 30
0.0
  0
VERTEX
  8
1
 10
-0.242782
 20
0.714205
 30
0.0
  0
VERTEX
  8
1
 10
-0.241602
 20
0.712437
 30
0.0
  0
VERTEX
  8
1
 10
-0.239834
 20
0.711258
 30
0.0
  0
VERTEX
  8
1
 10
-0.238066
 20
0.710669
 30
0.0
  0
VERTEX
  8
1
 10
-0.23689
 20
0.710669
 30
0.0
  0
VERTEX
  8
1
 10
-0.251621
 20
0.710669
 30
0.0
  0
SEQEND
  8
1
  0
POLYLINE
  8
1
 66
     1
 10
0.0
 20
0.0
 30
0.0
  0
VERTEX
  8
1
 10
-0.162641
 20
0.7254
 30
0.0
  0
VERTEX
  8
1
 10
-0.162641
 20
0.755453
 30
0.0
  0
SEQEND
  8
1
  0
POLYLINE
  8
1
 66
     1
 10
0.0
 20
0.0
 30
0.0
  0
VERTEX
  8
1
 10
-0.147907
 20
0.7254
 30
0.0
  0
VERTEX
  8
1
 10
-0.147907
 20
0.755453
 30
0.0
  0
SEQEND
  8
1
  0
POLYLINE
  8
1
 66
     1
 10
0.0
 20
0.0
 30
0.0
  0
VERTEX
  8
1
 10
-0.088392
 20
0.7254
 30
0.0
  0
VERTEX
  8
1
 10
-0.088392
 20
0.755453
 30
0.0
  0
SEQEND
  8
1
  0
POLYLINE
  8
1
 66
     1
 10
0.0
 20
0.0
 30
0.0
  0
VERTEX
  8
1
 10
-0.073658
 20
0.7254
 30
0.0
  0
VERTEX
  8
1
 10
-0.073658
 20
0.755453
 30
0.0
  0
SEQEND
  8
1
  0
POLYLINE
  8
1
 66
     1
 10
0.0
 20
0.0
 30
0.0
  0
VERTEX
  8
1
 10
-0.007071
 20
0.7254
 30
0.0
  0
VERTEX
  8
1
 10
-0.007071
 20
0.755453
 30
0.0
  0
SEQEND
  8
1
  0
POLYLINE
  8
1
 66
     1
 10
0.0
 20
0.0
 30
0.0
  0
VERTEX
  8
1
 10
0.007662
 20
0.7254
 30
0.0
  0
VERTEX
  8
1
 10
0.007662
 20
0.755453
 30
0.0
  0
SEQEND
  8
1
  0
POLYLINE
  8
1
 66
     1
 10
0.0
 20
0.0
 30
0.0
  0
VERTEX
  8
1
 10
0.074249
 20
0.7254
 30
0.0
  0
VERTEX
  8
1
 10
0.074249
 20
0.755453
 30
0.0
  0
SEQEND
  8
1
  0
POLYLINE
  8
1
 66
     1
 10
0.0
 20
0.0
 30
0.0
  0
VERTEX
  8
1
 10
0.088983
 20
0.7254
 30
0.0
  0
VERTEX
  8
1
 10
0.088983
 20
0.755453
 30
0.0
  0
SEQEND
  8
1
  0
POLYLINE
  8
1
 66
     1
 10
0.0
 20
0.0
 30
0.0
  0
VERTEX
  8
1
 10
0.148498
 20
0.7254
 30
0.0
  0
VERTEX
  8
1
 10
0.148498
 20
0.755453
 30
0.0
  0
SEQEND
  8
1
  0
POLYLINE
  8
1
 66
     1
 10
0.0
 20
0.0
 30
0.0
  0
VERTEX
  8
1
 10
0.163232
 20
0.7254
 30
0.0
  0
VERTEX
  8
1
 10
0.163232
 20
0.755453
 30
0.0
  0
SEQEND
  8
1
  0
POLYLINE
  8
1
 66
     1
 10
0.0
 20
0.0
 30
0.0
  0
VERTEX
  8
1
 10
0.23689
 20
0.710669
 30
0.0
  0
VERTEX
  8
1
 10
0.251624
 20
0.710669
 30
0.0
  0
SEQEND
  8
1
  0
POLYLINE
  8
1
 66
     1
 10
0.0
 20
0.0
 30
0.0
  0
VERTEX
  8
1
 10
0.237481
 20
0.710669
 30
0.0
  0
VERTEX
  8
1
 10
0.239249
 20
0.710669
 30
0.0
  0
VERTEX
  8
1
 10
0.241017
 20
0.711849
 30
0.0
  0
VERTEX
  8
1
 10
0.242784
 20
0.713025
 30
0.0
  0
VERTEX
  8
1
 10
0.243961
 20
0.714793
 30
0.0
  0
VERTEX
  8
1
 10
0.244552
 20
0.716561
 30
0.0
  0
VERTEX
  8
1
 10
0.244552
 20
0.717741
 30
0.0
  0
SEQEND
  8
1
  0
POLYLINE
  8
1
 66
     1
 10
0.0
 20
0.0
 30
0.0
  0
VERTEX
  8
1
 10
0.229818
 20
0.7254
 30
0.0
  0
VERTEX
  8
1
 10
0.229818
 20
0.755453
 30
0.0
  0
SEQEND
  8
1
  0
POLYLINE
  8
1
 66
     1
 10
0.0
 20
0.0
 30
0.0
  0
VERTEX
  8
1
 10
-0.230407
 20
0.140838
 30
0.0
  0
VERTEX
  8
1
 10
-0.230407
 20
0.039481
 30
0.0
  0
SEQEND
  8
1
  0
POLYLINE
  8
1
 66
     1
 10
0.0
 20
0.0
 30
0.0
  0
VERTEX
  8
1
 10
-0.184443
 20
0.053035
 30
0.0
  0
VERTEX
  8
1
 10
-0.166176
 20
0.053035
 30
0.0
  0
SEQEND
  8
1
  0
POLYLINE
  8
1
 66
     1
 10
0.0
 20
0.0
 30
0.0
  0
VERTEX
  8
1
 10
-0.175604
 20
0.062463
 30
0.0
  0
VERTEX
  8
1
 10
-0.17796
 20
0.061874
 30
0.0
  0
VERTEX
  8
1
 10
-0.179728
 20
0.061286
 30
0.0
  0
VERTEX
  8
1
 10
-0.182087
 20
0.059518
 30
0.0
  0
VERTEX
  8
1
 10
-0.183264
 20
0.058339
 30
0.0
  0
VERTEX
  8
1
 10
-0.184443
 20
0.055982
 30
0.0
  0
VERTEX
  8
1
 10
-0.184443
 20
0.053623
 30
0.0
  0
VERTEX
  8
1
 10
-0.184443
 20
0.051856
 30
0.0
  0
VERTEX
  8
1
 10
-0.183855
 20
0.049499
 30
0.0
  0
VERTEX
  8
1
 10
-0.183264
 20
0.047732
 30
0.0
  0
VERTEX
  8
1
 10
-0.181496
 20
0.045964
 30
0.0
  0
VERTEX
  8
1
 10
-0.17914
 20
0.044784
 30
0.0
  0
VERTEX
  8
1
 10
-0.177372
 20
0.044196
 30
0.0
  0
VERTEX
  8
1
 10
-0.175016
 20
0.043608
 30
0.0
  0
VERTEX
  8
1
 10
-0.173248
 20
0.044196
 30
0.0
  0
VERTEX
  8
1
 10
-0.170889
 20
0.045375
 30
0.0
  0
VERTEX
  8
1
 10
-0.169121
 20
0.046552
 30
0.0
  0
VERTEX
  8
1
 10
-0.167944
 20
0.04832
 30
0.0
  0
VERTEX
  8
1
 10
-0.166765
 20
0.050679
 30
0.0
  0
VERTEX
  8
1
 10
-0.166176
 20
0.052447
 30
0.0
  0
VERTEX
  8
1
 10
-0.166765
 20
0.054803
 30
0.0
  0
VERTEX
  8
1
 10
-0.167353
 20
0.057159
 30
0.0
  0
VERTEX
  8
1
 10
-0.168533
 20
0.058927
 30
0.0
  0
VERTEX
  8
1
 10
-0.169712
 20
0.060695
 30
0.0
  0
VERTEX
  8
1
 10
-0.172068
 20
0.061874
 30
0.0
  0
VERTEX
  8
1
 10
-0.173836
 20
0.062463
 30
0.0
  0
VERTEX
  8
1
 10
-0.175604
 20
0.062463
 30
0.0
  0
SEQEND
  8
1
  0
POLYLINE
  8
1
 66
     1
 10
0.0
 20
0.0
 30
0.0
  0
VERTEX
  8
1
 10
-0.221568
 20
0.053035
 30
0.0
  0
VERTEX
  8
1
 10
-0.203301
 20
0.053035
 30
0.0
  0
SEQEND
  8
1
  0
POLYLINE
  8
1
 66
     1
 10
0.0
 20
0.0
 30
0.0
  0
VERTEX
  8
1
 10
-0.212728
 20
0.062463
 30
0.0
  0
VERTEX
  8
1
 10
-0.214496
 20
0.061874
 30
0.0
  0
VERTEX
  8
1
 10
-0.216852
 20
0.061286
 30
0.0
  0
VERTEX
  8
1
 10
-0.21862
 20
0.059518
 30
0.0
  0
VERTEX
  8
1
 10
-0.220388
 20
0.058339
 30
0.0
  0
VERTEX
  8
1
 10
-0.220979
 20
0.055982
 30
0.0
  0
VERTEX
  8
1
 10
-0.221568
 20
0.053623
 30
0.0
  0
VERTEX
  8
1
 10
-0.221568
 20
0.051856
 30
0.0
  0
VERTEX
  8
1
 10
-0.220979
 20
0.049499
 30
0.0
  0
VERTEX
  8
1
 10
-0.2198
 20
0.047732
 30
0.0
  0
VERTEX
  8
1
 10
-0.21862
 20
0.045964
 30
0.0
  0
VERTEX
  8
1
 10
-0.216264
 20
0.044784
 30
0.0
  0
VERTEX
  8
1
 10
-0.213908
 20
0.044196
 30
0.0
  0
VERTEX
  8
1
 10
-0.21214
 20
0.043608
 30
0.0
  0
VERTEX
  8
1
 10
-0.209781
 20
0.044196
 30
0.0
  0
VERTEX
  8
1
 10
-0.208013
 20
0.045375
 30
0.0
  0
VERTEX
  8
1
 10
-0.205657
 20
0.046552
 30
0.0
  0
VERTEX
  8
1
 10
-0.204478
 20
0.04832
 30
0.0
  0
VERTEX
  8
1
 10
-0.203301
 20
0.050679
 30
0.0
  0
VERTEX
  8
1
 10
-0.203301
 20
0.052447
 30
0.0
  0
VERTEX
  8
1
 10
-0.203301
 20
0.054803
 30
0.0
  0
VERTEX
  8
1
 10
-0.203889
 20
0.057159
 30
0.0
  0
VERTEX
  8
1
 10
-0.205069
 20
0.058927
 30
0.0
  0
VERTEX
  8
1
 10
-0.206837
 20
0.060695
 30
0.0
  0
VERTEX
  8
1
 10
-0.208604
 20
0.061874
 30
0.0
  0
VERTEX
  8
1
 10
-0.210961
 20
0.062463
 30
0.0
  0
VERTEX
  8
1
 10
-0.212728
 20
0.062463
 30
0.0
  0
SEQEND
  8
1
  0
POLYLINE
  8
1
 66
     1
 10
0.0
 20
0.0
 30
0.0
  0
VERTEX
  8
1
 10
-0.138479
 20
0.043608
 30
0.0
  0
VERTEX
  8
1
 10
-0.138479
 20
0.062463
 30
0.0
  0
VERTEX
  8
1
 10
-0.141427
 20
0.061874
 30
0.0
  0
VERTEX
  8
1
 10
-0.143195
 20
0.061286
 30
0.0
  0
VERTEX
  8
1
 10
-0.144962
 20
0.059518
 30
0.0
  0
VERTEX
  8
1
 10
-0.14673
 20
0.058339
 30
0.0
  0
VERTEX
  8
1
 10
-0.147319
 20
0.055982
 30
0.0
  0
VERTEX
  8
1
 10
-0.147907
 20
0.053623
 30
0.0
  0
VERTEX
  8
1
 10
-0.147907
 20
0.051856
 30
0.0
  0
VERTEX
  8
1
 10
-0.147319
 20
0.049499
 30
0.0
  0
VERTEX
  8
1
 10
-0.146139
 20
0.047732
 30
0.0
  0
VERTEX
  8
1
 10
-0.144371
 20
0.045964
 30
0.0
  0
VERTEX
  8
1
 10
-0.142603
 20
0.044784
 30
0.0
  0
VERTEX
  8
1
 10
-0.140247
 20
0.044196
 30
0.0
  0
VERTEX
  8
1
 10
-0.137891
 20
0.043608
 30
0.0
  0
VERTEX
  8
1
 10
-0.136123
 20
0.044196
 30
0.0
  0
VERTEX
  8
1
 10
-0.133764
 20
0.045375
 30
0.0
  0
VERTEX
  8
1
 10
-0.132588
 20
0.046552
 30
0.0
  0
VERTEX
  8
1
 10
-0.13082
 20
0.04832
 30
0.0
  0
VERTEX
  8
1
 10
-0.12964
 20
0.050679
 30
0.0
  0
VERTEX
  8
1
 10
-0.12964
 20
0.052447
 30
0.0
  0
VERTEX
  8
1
 10
-0.12964
 20
0.054803
 30
0.0
  0
VERTEX
  8
1
 10
-0.130229
 20
0.057159
 30
0.0
  0
VERTEX
  8
1
 10
-0.131408
 20
0.058927
 30
0.0
  0
VERTEX
  8
1
 10
-0.133176
 20
0.060695
 30
0.0
  0
VERTEX
  8
1
 10
-0.134944
 20
0.061874
 30
0.0
  0
VERTEX
  8
1
 10
-0.1373
 20
0.062463
 30
0.0
  0
VERTEX
  8
1
 10
-0.138479
 20
0.062463
 30
0.0
  0
SEQEND
  8
1
  0
POLYLINE
  8
1
 66
     1
 10
0.0
 20
0.0
 30
0.0
  0
VERTEX
  8
1
 10
-0.111962
 20
0.053035
 30
0.0
  0
VERTEX
  8
1
 10
-0.093104
 20
0.053035
 30
0.0
  0
SEQEND
  8
1
  0
POLYLINE
  8
1
 66
     1
 10
0.0
 20
0.0
 30
0.0
  0
VERTEX
  8
1
 10
-0.102534
 20
0.062463
 30
0.0
  0
VERTEX
  8
1
 10
-0.104891
 20
0.061874
 30
0.0
  0
VERTEX
  8
1
 10
-0.107247
 20
0.061286
 30
0.0
  0
VERTEX
  8
1
 10
-0.108426
 20
0.059518
 30
0.0
  0
VERTEX
  8
1
 10
-0.110194
 20
0.058339
 30
0.0
  0
VERTEX
  8
1
 10
-0.111374
 20
0.055982
 30
0.0
  0
VERTEX
  8
1
 10
-0.111962
 20
0.053623
 30
0.0
  0
VERTEX
  8
1
 10
-0.111962
 20
0.051856
 30
0.0
  0
VERTEX
  8
1
 10
-0.110782
 20
0.049499
 30
0.0
  0
VERTEX
  8
1
 10
-0.109606
 20
0.047732
 30
0.0
  0
VERTEX
  8
1
 10
-0.108426
 20
0.045964
 30
0.0
  0
VERTEX
  8
1
 10
-0.106658
 20
0.044784
 30
0.0
  0
VERTEX
  8
1
 10
-0.104302
 20
0.044196
 30
0.0
  0
VERTEX
  8
1
 10
-0.101943
 20
0.043608
 30
0.0
  0
VERTEX
  8
1
 10
-0.099587
 20
0.044196
 30
0.0
  0
VERTEX
  8
1
 10
-0.097819
 20
0.045375
 30
0.0
  0
VERTEX
  8
1
 10
-0.096051
 20
0.046552
 30
0.0
  0
VERTEX
  8
1
 10
-0.094872
 20
0.04832
 30
0.0
  0
VERTEX
  8
1
 10
-0.093695
 20
0.050679
 30
0.0
  0
VERTEX
  8
1
 10
-0.093104
 20
0.052447
 30
0.0
  0
VERTEX
  8
1
 10
-0.093104
 20
0.054803
 30
0.0
  0
VERTEX
  8
1
 10
-0.094284
 20
0.057159
 30
0.0
  0
VERTEX
  8
1
 10
-0.095463
 20
0.058927
 30
0.0
  0
VERTEX
  8
1
 10
-0.097231
 20
0.060695
 30
0.0
  0
VERTEX
  8
1
 10
-0.098999
 20
0.061874
 30
0.0
  0
VERTEX
  8
1
 10
-0.101355
 20
0.062463
 30
0.0
  0
SEQEND
  8
1
  0
POLYLINE
  8
1
 66
     1
 10
0.0
 20
0.0
 30
0.0
  0
VERTEX
  8
1
 10
-0.101355
 20
0.062463
 30
0.0
  0
VERTEX
  8
1
 10
-0.102534
 20
0.062463
 30
0.0
  0
SEQEND
  8
1
  0
POLYLINE
  8
1
 66
     1
 10
0.0
 20
0.0
 30
0.0
  0
VERTEX
  8
1
 10
-0.074837
 20
0.053035
 30
0.0
  0
VERTEX
  8
1
 10
-0.056571
 20
0.053035
 30
0.0
  0
SEQEND
  8
1
  0
POLYLINE
  8
1
 66
     1
 10
0.0
 20
0.0
 30
0.0
  0
VERTEX
  8
1
 10
-0.06541
 20
0.062463
 30
0.0
  0
VERTEX
  8
1
 10
-0.067766
 20
0.061874
 30
0.0
  0
VERTEX
  8
1
 10
-0.070122
 20
0.061286
 30
0.0
  0
VERTEX
  8
1
 10
-0.07189
 20
0.059518
 30
0.0
  0
VERTEX
  8
1
 10
-0.07307
 20
0.058339
 30
0.0
  0
VERTEX
  8
1
 10
-0.074249
 20
0.055982
 30
0.0
  0
VERTEX
  8
1
 10
-0.074837
 20
0.053623
 30
0.0
  0
VERTEX
  8
1
 10
-0.074837
 20
0.051856
 30
0.0
  0
VERTEX
  8
1
 10
-0.074249
 20
0.049499
 30
0.0
  0
VERTEX
  8
1
 10
-0.07307
 20
0.047732
 30
0.0
  0
VERTEX
  8
1
 10
-0.071302
 20
0.045964
 30
0.0
  0
VERTEX
  8
1
 10
-0.069534
 20
0.044784
 30
0.0
  0
VERTEX
  8
1
 10
-0.067178
 20
0.044196
 30
0.0
  0
VERTEX
  8
1
 10
-0.06541
 20
0.043608
 30
0.0
  0
VERTEX
  8
1
 10
-0.063051
 20
0.044196
 30
0.0
  0
VERTEX
  8
1
 10
-0.060695
 20
0.045375
 30
0.0
  0
VERTEX
  8
1
 10
-0.058927
 20
0.046552
 30
0.0
  0
VERTEX
  8
1
 10
-0.057747
 20
0.04832
 30
0.0
  0
VERTEX
  8
1
 10
-0.056571
 20
0.050679
 30
0.0
  0
VERTEX
  8
1
 10
-0.056571
 20
0.052447
 30
0.0
  0
VERTEX
  8
1
 10
-0.056571
 20
0.054803
 30
0.0
  0
VERTEX
  8
1
 10
-0.057159
 20
0.057159
 30
0.0
  0
VERTEX
  8
1
 10
-0.058339
 20
0.058927
 30
0.0
  0
VERTEX
  8
1
 10
-0.060106
 20
0.060695
 30
0.0
  0
VERTEX
  8
1
 10
-0.061874
 20
0.061874
 30
0.0
  0
VERTEX
  8
1
 10
-0.06423
 20
0.062463
 30
0.0
  0
VERTEX
  8
1
 10
-0.06541
 20
0.062463
 30
0.0
  0
SEQEND
  8
1
  0
POLYLINE
  8
1
 66
     1
 10
0.0
 20
0.0
 30
0.0
  0
VERTEX
  8
1
 10
-0.230407
 20
0.039481
 30
0.0
  0
VERTEX
  8
1
 10
-0.04714
 20
0.039481
 30
0.0
  0
VERTEX
  8
1
 10
-0.04714
 20
0.140838
 30
0.0
  0
VERTEX
  8
1
 10
-0.230407
 20
0.140838
 30
0.0
  0
SEQEND
  8
1
  0
POLYLINE
  8
1
 66
     1
 10
0.0
 20
0.0
 30
0.0
  0
VERTEX
  8
1
 10
-0.120213
 20
0.140838
 30
0.0
  0
VERTEX
  8
1
 10
-0.120213
 20
0.039481
 30
0.0
  0
SEQEND
  8
1
  0
POLYLINE
  8
1
 66
     1
 10
0.0
 20
0.0
 30
0.0
  0
VERTEX
  8
1
 10
0.043608
 20
0.140838
 30
0.0
  0
VERTEX
  8
1
 10
0.043608
 20
0.039481
 30
0.0
  0
SEQEND
  8
1
  0
POLYLINE
  8
1
 66
     1
 10
0.0
 20
0.0
 30
0.0
  0
VERTEX
  8
1
 10
0.088983
 20
0.053035
 30
0.0
  0
VERTEX
  8
1
 10
0.107838
 20
0.053035
 30
0.0
  0
SEQEND
  8
1
  0
POLYLINE
  8
1
 66
     1
 10
0.0
 20
0.0
 30
0.0
  0
VERTEX
  8
1
 10
0.09841
 20
0.062463
 30
0.0
  0
VERTEX
  8
1
 10
0.096054
 20
0.061874
 30
0.0
  0
VERTEX
  8
1
 10
0.093695
 20
0.061286
 30
0.0
  0
VERTEX
  8
1
 10
0.091927
 20
0.059518
 30
0.0
  0
VERTEX
  8
1
 10
0.090751
 20
0.058339
 30
0.0
  0
VERTEX
  8
1
 10
0.089571
 20
0.055982
 30
0.0
  0
VERTEX
  8
1
 10
0.088983
 20
0.053623
 30
0.0
  0
VERTEX
  8
1
 10
0.089571
 20
0.051856
 30
0.0
  0
VERTEX
  8
1
 10
0.089571
 20
0.049499
 30
0.0
  0
VERTEX
  8
1
 10
0.090751
 20
0.047732
 30
0.0
  0
VERTEX
  8
1
 10
0.092519
 20
0.045964
 30
0.0
  0
VERTEX
  8
1
 10
0.094286
 20
0.044784
 30
0.0
  0
VERTEX
  8
1
 10
0.096643
 20
0.044196
 30
0.0
  0
VERTEX
  8
1
 10
0.098999
 20
0.043608
 30
0.0
  0
VERTEX
  8
1
 10
0.100767
 20
0.044196
 30
0.0
  0
VERTEX
  8
1
 10
0.103126
 20
0.045375
 30
0.0
  0
VERTEX
  8
1
 10
0.104893
 20
0.046552
 30
0.0
  0
VERTEX
  8
1
 10
0.10607
 20
0.04832
 30
0.0
  0
VERTEX
  8
1
 10
0.10725
 20
0.050679
 30
0.0
  0
VERTEX
  8
1
 10
0.10725
 20
0.052447
 30
0.0
  0
VERTEX
  8
1
 10
0.10725
 20
0.054803
 30
0.0
  0
VERTEX
  8
1
 10
0.106661
 20
0.057159
 30
0.0
  0
VERTEX
  8
1
 10
0.105482
 20
0.058927
 30
0.0
  0
VERTEX
  8
1
 10
0.103714
 20
0.060695
 30
0.0
  0
VERTEX
  8
1
 10
0.101946
 20
0.061874
 30
0.0
  0
VERTEX
  8
1
 10
0.09959
 20
0.062463
 30
0.0
  0
VERTEX
  8
1
 10
0.09841
 20
0.062463
 30
0.0
  0
SEQEND
  8
1
  0
POLYLINE
  8
1
 66
     1
 10
0.0
 20
0.0
 30
0.0
  0
VERTEX
  8
1
 10
0.052447
 20
0.053035
 30
0.0
  0
VERTEX
  8
1
 10
0.070713
 20
0.053035
 30
0.0
  0
SEQEND
  8
1
  0
POLYLINE
  8
1
 66
     1
 10
0.0
 20
0.0
 30
0.0
  0
VERTEX
  8
1
 10
0.061286
 20
0.062463
 30
0.0
  0
VERTEX
  8
1
 10
0.05893
 20
0.061874
 30
0.0
  0
VERTEX
  8
1
 10
0.057162
 20
0.061286
 30
0.0
  0
VERTEX
  8
1
 10
0.054803
 20
0.059518
 30
0.0
  0
VERTEX
  8
1
 10
0.053626
 20
0.058339
 30
0.0
  0
VERTEX
  8
1
 10
0.053035
 20
0.055982
 30
0.0
  0
VERTEX
  8
1
 10
0.052447
 20
0.053623
 30
0.0
  0
VERTEX
  8
1
 10
0.052447
 20
0.051856
 30
0.0
  0
VERTEX
  8
1
 10
0.053035
 20
0.049499
 30
0.0
  0
VERTEX
  8
1
 10
0.054215
 20
0.047732
 30
0.0
  0
VERTEX
  8
1
 10
0.055394
 20
0.045964
 30
0.0
  0
VERTEX
  8
1
 10
0.05775
 20
0.044784
 30
0.0
  0
VERTEX
  8
1
 10
0.059518
 20
0.044196
 30
0.0
  0
VERTEX
  8
1
 10
0.061874
 20
0.043608
 30
0.0
  0
VERTEX
  8
1
 10
0.064233
 20
0.044196
 30
0.0
  0
VERTEX
  8
1
 10
0.066001
 20
0.045375
 30
0.0
  0
VERTEX
  8
1
 10
0.067769
 20
0.046552
 30
0.0
  0
VERTEX
  8
1
 10
0.069537
 20
0.04832
 30
0.0
  0
VERTEX
  8
1
 10
0.070125
 20
0.050679
 30
0.0
  0
VERTEX
  8
1
 10
0.070713
 20
0.052447
 30
0.0
  0
VERTEX
  8
1
 10
0.070713
 20
0.054803
 30
0.0
  0
VERTEX
  8
1
 10
0.069537
 20
0.057159
 30
0.0
  0
VERTEX
  8
1
 10
0.068946
 20
0.058927
 30
0.0
  0
VERTEX
  8
1
 10
0.067178
 20
0.060695
 30
0.0
  0
VERTEX
  8
1
 10
0.064822
 20
0.061874
 30
0.0
  0
VERTEX
  8
1
 10
0.063054
 20
0.062463
 30
0.0
  0
VERTEX
  8
1
 10
0.061286
 20
0.062463
 30
0.0
  0
SEQEND
  8
1
  0
POLYLINE
  8
1
 66
     1
 10
0.0
 20
0.0
 30
0.0
  0
VERTEX
  8
1
 10
0.134947
 20
0.043608
 30
0.0
  0
VERTEX
  8
1
 10
0.134947
 20
0.062463
 30
0.0
  0
VERTEX
  8
1
 10
0.132588
 20
0.061874
 30
0.0
  0
VERTEX
  8
1
 10
0.13082
 20
0.061286
 30
0.0
  0
VERTEX
  8
1
 10
0.129052
 20
0.059518
 30
0.0
  0
VERTEX
  8
1
 10
0.127284
 20
0.058339
 30
0.0
  0
VERTEX
  8
1
 10
0.126696
 20
0.055982
 30
0.0
  0
VERTEX
  8
1
 10
0.126107
 20
0.053623
 30
0.0
  0
VERTEX
  8
1
 10
0.126107
 20
0.051856
 30
0.0
  0
VERTEX
  8
1
 10
0.126696
 20
0.049499
 30
0.0
  0
VERTEX
  8
1
 10
0.127875
 20
0.047732
 30
0.0
  0
VERTEX
  8
1
 10
0.129643
 20
0.045964
 30
0.0
  0
VERTEX
  8
1
 10
0.131411
 20
0.044784
 30
0.0
  0
VERTEX
  8
1
 10
0.133767
 20
0.044196
 30
0.0
  0
VERTEX
  8
1
 10
0.135535
 20
0.043608
 30
0.0
  0
VERTEX
  8
1
 10
0.137891
 20
0.044196
 30
0.0
  0
VERTEX
  8
1
 10
0.14025
 20
0.045375
 30
0.0
  0
VERTEX
  8
1
 10
0.141427
 20
0.046552
 30
0.0
  0
VERTEX
  8
1
 10
0.143195
 20
0.04832
 30
0.0
  0
VERTEX
  8
1
 10
0.143786
 20
0.050679
 30
0.0
  0
VERTEX
  8
1
 10
0.144374
 20
0.052447
 30
0.0
  0
VERTEX
  8
1
 10
0.144374
 20
0.054803
 30
0.0
  0
VERTEX
  8
1
 10
0.143786
 20
0.057159
 30
0.0
  0
VERTEX
  8
1
 10
0.142606
 20
0.058927
 30
0.0
  0
VERTEX
  8
1
 10
0.140838
 20
0.060695
 30
0.0
  0
VERTEX
  8
1
 10
0.139071
 20
0.061874
 30
0.0
  0
VERTEX
  8
1
 10
0.136714
 20
0.062463
 30
0.0
  0
VERTEX
  8
1
 10
0.134947
 20
0.062463
 30
0.0
  0
SEQEND
  8
1
  0
POLYLINE
  8
1
 66
     1
 10
0.0
 20
0.0
 30
0.0
  0
VERTEX
  8
1
 10
0.043608
 20
0.140838
 30
0.0
  0
VERTEX
  8
1
 10
0.153802
 20
0.140838
 30
0.0
  0
VERTEX
  8
1
 10
0.153802
 20
0.039481
 30
0.0
  0
VERTEX
  8
1
 10
0.043608
 20
0.039481
 30
0.0
  0
SEQEND
  8
1
  0
POLYLINE
  8
1
 66
     1
 10
0.0
 20
0.0
 30
0.0
  0
VERTEX
  8
1
 10
0.043608
 20
0.093695
 30
0.0
  0
VERTEX
  8
1
 10
0.04184
 20
0.09841
 30
0.0
  0
VERTEX
  8
1
 10
0.040072
 20
0.102534
 30
0.0
  0
VERTEX
  8
1
 10
0.037716
 20
0.106658
 30
0.0
  0
VERTEX
  8
1
 10
0.034768
 20
0.110194
 30
0.0
  0
VERTEX
  8
1
 10
0.031821
 20
0.114321
 30
0.0
  0
VERTEX
  8
1
 10
0.028285
 20
0.117265
 30
0.0
  0
VERTEX
  8
1
 10
0.024161
 20
0.119624
 30
0.0
  0
VERTEX
  8
1
 10
0.020037
 20
0.121981
 30
0.0
  0
VERTEX
  8
1
 10
0.015911
 20
0.123748
 30
0.0
  0
VERTEX
  8
1
 10
0.011198
 20
0.124928
 30
0.0
  0
VERTEX
  8
1
 10
0.006483
 20
0.126105
 30
0.0
  0
VERTEX
  8
1
 10
0.001768
 20
0.126696
 30
0.0
  0
VERTEX
  8
1
 10
-0.002945
 20
0.126696
 30
0.0
  0
VERTEX
  8
1
 10
-0.00766
 20
0.126105
 30
0.0
  0
VERTEX
  8
1
 10
-0.011784
 20
0.124928
 30
0.0
  0
VERTEX
  8
1
 10
-0.016499
 20
0.12316
 30
0.0
  0
VERTEX
  8
1
 10
-0.021214
 20
0.121392
 30
0.0
  0
VERTEX
  8
1
 10
-0.02475
 20
0.119033
 30
0.0
  0
VERTEX
  8
1
 10
-0.028874
 20
0.116089
 30
0.0
  0
VERTEX
  8
1
 10
-0.031821
 20
0.113141
 30
0.0
  0
VERTEX
  8
1
 10
-0.035357
 20
0.109017
 30
0.0
  0
VERTEX
  8
1
 10
-0.037713
 20
0.105482
 30
0.0
  0
VERTEX
  8
1
 10
-0.040069
 20
0.101355
 30
0.0
  0
VERTEX
  8
1
 10
-0.041837
 20
0.097231
 30
0.0
  0
VERTEX
  8
1
 10
-0.043605
 20
0.092516
 30
0.0
  0
VERTEX
  8
1
 10
-0.044196
 20
0.087803
 30
0.0
  0
VERTEX
  8
1
 10
-0.044784
 20
0.083088
 30
0.0
  0
VERTEX
  8
1
 10
-0.044784
 20
0.078373
 30
0.0
  0
VERTEX
  8
1
 10
-0.044196
 20
0.073661
 30
0.0
  0
VERTEX
  8
1
 10
-0.043016
 20
0.068946
 30
0.0
  0
VERTEX
  8
1
 10
-0.041837
 20
0.064822
 30
0.0
  0
VERTEX
  8
1
 10
-0.039481
 20
0.060106
 30
0.0
  0
VERTEX
  8
1
 10
-0.037125
 20
0.056571
 30
0.0
  0
VERTEX
  8
1
 10
-0.034177
 20
0.052447
 30
0.0
  0
VERTEX
  8
1
 10
-0.03123
 20
0.048911
 30
0.0
  0
VERTEX
  8
1
 10
-0.027106
 20
0.045964
 30
0.0
  0
VERTEX
  8
1
 10
-0.02357
 20
0.043608
 30
0.0
  0
VERTEX
  8
1
 10
-0.019446
 20
0.041249
 30
0.0
  0
VERTEX
  8
1
 10
-0.015319
 20
0.038892
 30
0.0
  0
VERTEX
  8
1
 10
-0.010607
 20
0.037713
 30
0.0
  0
VERTEX
  8
1
 10
-0.005892
 20
0.037125
 30
0.0
  0
VERTEX
  8
1
 10
-0.001177
 20
0.036536
 30
0.0
  0
VERTEX
  8
1
 10
0.003536
 20
0.036536
 30
0.0
  0
VERTEX
  8
1
 10
0.008251
 20
0.037125
 30
0.0
  0
VERTEX
  8
1
 10
0.012966
 20
0.038304
 30
0.0
  0
VERTEX
  8
1
 10
0.01709
 20
0.039481
 30
0.0
  0
VERTEX
  8
1
 10
0.021214
 20
0.04184
 30
0.0
  0
VERTEX
  8
1
 10
0.025341
 20
0.044196
 30
0.0
  0
VERTEX
  8
1
 10
0.028877
 20
0.047143
 30
0.0
  0
SEQEND
  8
1
  0
POLYLINE
  8
1
 66
     1
 10
0.0
 20
0.0
 30
0.0
  0
VERTEX
  8
1
 10
0.028877
 20
0.047143
 30
0.0
  0
VERTEX
  8
1
 10
0.033001
 20
0.050088
 30
0.0
  0
VERTEX
  8
1
 10
0.035948
 20
0.053623
 30
0.0
  0
VERTEX
  8
1
 10
0.038304
 20
0.05775
 30
0.0
  0
VERTEX
  8
1
 10
0.04066
 20
0.061874
 30
0.0
  0
VERTEX
  8
1
 10
0.042428
 20
0.065998
 30
0.0
  0
VERTEX
  8
1
 10
0.043608
 20
0.069534
 30
0.0
  0
SEQEND
  8
1
  0
POLYLINE
  8
1
 66
     1
 10
0.0
 20
0.0
 30
0.0
  0
VERTEX
  8
1
 10
0.169712
 20
0.075429
 30
0.0
  0
VERTEX
  8
1
 10
0.187982
 20
0.075429
 30
0.0
  0
SEQEND
  8
1
  0
POLYLINE
  8
1
 66
     1
 10
0.0
 20
0.0
 30
0.0
  0
VERTEX
  8
1
 10
0.178551
 20
0.084268
 30
0.0
  0
VERTEX
  8
1
 10
0.176195
 20
0.084268
 30
0.0
  0
VERTEX
  8
1
 10
0.174427
 20
0.083677
 30
0.0
  0
VERTEX
  8
1
 10
0.172659
 20
0.081909
 30
0.0
  0
VERTEX
  8
1
 10
0.170892
 20
0.080141
 30
0.0
  0
VERTEX
  8
1
 10
0.170303
 20
0.078373
 30
0.0
  0
VERTEX
  8
1
 10
0.169712
 20
0.076017
 30
0.0
  0
VERTEX
  8
1
 10
0.169712
 20
0.073661
 30
0.0
  0
VERTEX
  8
1
 10
0.170303
 20
0.071893
 30
0.0
  0
VERTEX
  8
1
 10
0.17148
 20
0.069534
 30
0.0
  0
VERTEX
  8
1
 10
0.173248
 20
0.068357
 30
0.0
  0
VERTEX
  8
1
 10
0.175016
 20
0.067178
 30
0.0
  0
VERTEX
  8
1
 10
0.176783
 20
0.065998
 30
0.0
  0
VERTEX
  8
1
 10
0.179142
 20
0.065998
 30
0.0
  0
VERTEX
  8
1
 10
0.181499
 20
0.066589
 30
0.0
  0
VERTEX
  8
1
 10
0.183855
 20
0.067766
 30
0.0
  0
VERTEX
  8
1
 10
0.185623
 20
0.068946
 30
0.0
  0
VERTEX
  8
1
 10
0.186802
 20
0.070713
 30
0.0
  0
VERTEX
  8
1
 10
0.18739
 20
0.072481
 30
0.0
  0
VERTEX
  8
1
 10
0.187982
 20
0.074837
 30
0.0
  0
VERTEX
  8
1
 10
0.187982
 20
0.077196
 30
0.0
  0
VERTEX
  8
1
 10
0.186802
 20
0.078964
 30
0.0
  0
VERTEX
  8
1
 10
0.185623
 20
0.08132
 30
0.0
  0
VERTEX
  8
1
 10
0.184446
 20
0.0825
 30
0.0
  0
VERTEX
  8
1
 10
0.182087
 20
0.083677
 30
0.0
  0
VERTEX
  8
1
 10
0.180319
 20
0.084268
 30
0.0
  0
VERTEX
  8
1
 10
0.178551
 20
0.084268
 30
0.0
  0
SEQEND
  8
1
  0
POLYLINE
  8
1
 66
     1
 10
0.0
 20
0.0
 30
0.0
  0
VERTEX
  8
1
 10
0.206248
 20
0.075429
 30
0.0
  0
VERTEX
  8
1
 10
0.225106
 20
0.075429
 30
0.0
  0
SEQEND
  8
1
  0
POLYLINE
  8
1
 66
     1
 10
0.0
 20
0.0
 30
0.0
  0
VERTEX
  8
1
 10
0.215676
 20
0.084268
 30
0.0
  0
VERTEX
  8
1
 10
0.21332
 20
0.084268
 30
0.0
  0
VERTEX
  8
1
 10
0.210963
 20
0.083677
 30
0.0
  0
VERTEX
  8
1
 10
0.209196
 20
0.081909
 30
0.0
  0
VERTEX
  8
1
 10
0.208016
 20
0.080141
 30
0.0
  0
VERTEX
  8
1
 10
0.206837
 20
0.078373
 30
0.0
  0
VERTEX
  8
1
 10
0.206248
 20
0.076017
 30
0.0
  0
VERTEX
  8
1
 10
0.206248
 20
0.073661
 30
0.0
  0
VERTEX
  8
1
 10
0.206837
 20
0.071893
 30
0.0
  0
VERTEX
  8
1
 10
0.208016
 20
0.069534
 30
0.0
  0
VERTEX
  8
1
 10
0.209784
 20
0.068357
 30
0.0
  0
VERTEX
  8
1
 10
0.211552
 20
0.067178
 30
0.0
  0
VERTEX
  8
1
 10
0.213908
 20
0.065998
 30
0.0
  0
VERTEX
  8
1
 10
0.216267
 20
0.065998
 30
0.0
  0
VERTEX
  8
1
 10
0.218623
 20
0.066589
 30
0.0
  0
VERTEX
  8
1
 10
0.220391
 20
0.067766
 30
0.0
  0
VERTEX
  8
1
 10
0.222159
 20
0.068946
 30
0.0
  0
VERTEX
  8
1
 10
0.223338
 20
0.070713
 30
0.0
  0
VERTEX
  8
1
 10
0.224515
 20
0.072481
 30
0.0
  0
VERTEX
  8
1
 10
0.225106
 20
0.074837
 30
0.0
  0
VERTEX
  8
1
 10
0.224515
 20
0.077196
 30
0.0
  0
VERTEX
  8
1
 10
0.223927
 20
0.078964
 30
0.0
  0
VERTEX
  8
1
 10
0.222747
 20
0.08132
 30
0.0
  0
VERTEX
  8
1
 10
0.220979
 20
0.0825
 30
0.0
  0
VERTEX
  8
1
 10
0.219211
 20
0.083677
 30
0.0
  0
VERTEX
  8
1
 10
0.216855
 20
0.084268
 30
0.0
  0
VERTEX
  8
1
 10
0.215676
 20
0.084268
 30
0.0
  0
SEQEND
  8
1
  0
POLYLINE
  8
1
 66
     1
 10
0.0
 20
0.0
 30
0.0
  0
VERTEX
  8
1
 10
0.233945
 20
0.061286
 30
0.0
  0
VERTEX
  8
1
 10
0.233945
 20
0.162641
 30
0.0
  0
VERTEX
  8
1
 10
0.160873
 20
0.162641
 30
0.0
  0
SEQEND
  8
1
  0
POLYLINE
  8
1
 66
     1
 10
0.0
 20
0.0
 30
0.0
  0
VERTEX
  8
1
 10
0.160873
 20
0.061286
 30
0.0
  0
VERTEX
  8
1
 10
0.233945
 20
0.061286
 30
0.0
  0
SEQEND
  8
1
  0
POLYLINE
  8
1
 66
     1
 10
0.0
 20
0.0
 30
0.0
  0
VERTEX
  8
1
 10
0.160873
 20
0.162641
 30
0.0
  0
VERTEX
  8
1
 10
0.160873
 20
0.061286
 30
0.0
  0
SEQEND
  8
1
  0
POLYLINE
  8
1
 66
     1
 10
0.0
 20
0.0
 30
0.0
  0
VERTEX
  8
1
 10
0.210963
 20
0.144374
 30
0.0
  0
VERTEX
  8
1
 10
0.210963
 20
0.13082
 30
0.0
  0
VERTEX
  8
1
 10
0.216855
 20
0.13082
 30
0.0
  0
VERTEX
  8
1
 10
0.218035
 20
0.131999
 30
0.0
  0
VERTEX
  8
1
 10
0.219211
 20
0.132588
 30
0.0
  0
VERTEX
  8
1
 10
0.219803
 20
0.134355
 30
0.0
  0
VERTEX
  8
1
 10
0.219803
 20
0.135535
 30
0.0
  0
VERTEX
  8
1
 10
0.219211
 20
0.136712
 30
0.0
  0
VERTEX
  8
1
 10
0.218035
 20
0.137891
 30
0.0
  0
VERTEX
  8
1
 10
0.216855
 20
0.138479
 30
0.0
  0
VERTEX
  8
1
 10
0.210963
 20
0.138479
 30
0.0
  0
SEQEND
  8
1
  0
POLYLINE
  8
1
 66
     1
 10
0.0
 20
0.0
 30
0.0
  0
VERTEX
  8
1
 10
0.216855
 20
0.138479
 30
0.0
  0
VERTEX
  8
1
 10
0.218035
 20
0.139071
 30
0.0
  0
VERTEX
  8
1
 10
0.219211
 20
0.139659
 30
0.0
  0
VERTEX
  8
1
 10
0.219803
 20
0.140838
 30
0.0
  0
VERTEX
  8
1
 10
0.219803
 20
0.142015
 30
0.0
  0
VERTEX
  8
1
 10
0.219211
 20
0.143195
 30
0.0
  0
VERTEX
  8
1
 10
0.218035
 20
0.143783
 30
0.0
  0
VERTEX
  8
1
 10
0.216855
 20
0.144374
 30
0.0
  0
VERTEX
  8
1
 10
0.216267
 20
0.144374
 30
0.0
  0
VERTEX
  8
1
 10
0.210963
 20
0.144374
 30
0.0
  0
SEQEND
  8
1
  0
POLYLINE
  8
1
 66
     1
 10
0.0
 20
0.0
 30
0.0
  0
VERTEX
  8
1
 10
0.179142
 20
0.144374
 30
0.0
  0
VERTEX
  8
1
 10
0.174427
 20
0.13082
 30
0.0
  0
SEQEND
  8
1
  0
POLYLINE
  8
1
 66
     1
 10
0.0
 20
0.0
 30
0.0
  0
VERTEX
  8
1
 10
0.176783
 20
0.137891
 30
0.0
  0
VERTEX
  8
1
 10
0.181499
 20
0.137891
 30
0.0
  0
SEQEND
  8
1
  0
POLYLINE
  8
1
 66
     1
 10
0.0
 20
0.0
 30
0.0
  0
VERTEX
  8
1
 10
0.179142
 20
0.144374
 30
0.0
  0
VERTEX
  8
1
 10
0.183855
 20
0.13082
 30
0.0
  0
SEQEND
  8
1
  0
POLYLINE
  8
1
 66
     1
 10
0.0
 20
0.0
 30
0.0
  0
VERTEX
  8
1
 10
0.13082
 20
0.109017
 30
0.0
  0
VERTEX
  8
1
 10
0.13082
 20
0.121981
 30
0.0
  0
VERTEX
  8
1
 10
0.135535
 20
0.121981
 30
0.0
  0
VERTEX
  8
1
 10
0.136714
 20
0.121392
 30
0.0
  0
VERTEX
  8
1
 10
0.137891
 20
0.120801
 30
0.0
  0
VERTEX
  8
1
 10
0.139071
 20
0.119033
 30
0.0
  0
SEQEND
  8
1
  0
POLYLINE
  8
1
 66
     1
 10
0.0
 20
0.0
 30
0.0
  0
VERTEX
  8
1
 10
0.139071
 20
0.119033
 30
0.0
  0
VERTEX
  8
1
 10
0.139071
 20
0.117857
 30
0.0
  0
VERTEX
  8
1
 10
0.138482
 20
0.116677
 30
0.0
  0
VERTEX
  8
1
 10
0.137303
 20
0.115498
 30
0.0
  0
VERTEX
  8
1
 10
0.136123
 20
0.114909
 30
0.0
  0
VERTEX
  8
1
 10
0.135535
 20
0.114321
 30
0.0
  0
VERTEX
  8
1
 10
0.13082
 20
0.114321
 30
0.0
  0
SEQEND
  8
1
  0
POLYLINE
  8
1
 66
     1
 10
0.0
 20
0.0
 30
0.0
  0
VERTEX
  8
1
 10
0.134947
 20
0.114321
 30
0.0
  0
VERTEX
  8
1
 10
0.139071
 20
0.109017
 30
0.0
  0
SEQEND
  8
1
  0
POLYLINE
  8
1
 66
     1
 10
0.0
 20
0.0
 30
0.0
  0
VERTEX
  8
1
 10
0.100767
 20
0.120801
 30
0.0
  0
VERTEX
  8
1
 10
0.09959
 20
0.121981
 30
0.0
  0
VERTEX
  8
1
 10
0.09841
 20
0.121981
 30
0.0
  0
VERTEX
  8
1
 10
0.097231
 20
0.121392
 30
0.0
  0
VERTEX
  8
1
 10
0.096643
 20
0.120801
 30
0.0
  0
VERTEX
  8
1
 10
0.094875
 20
0.119624
 30
0.0
  0
VERTEX
  8
1
 10
0.094286
 20
0.117857
 30
0.0
  0
VERTEX
  8
1
 10
0.094286
 20
0.116089
 30
0.0
  0
VERTEX
  8
1
 10
0.094286
 20
0.114321
 30
0.0
  0
VERTEX
  8
1
 10
0.094875
 20
0.111962
 30
0.0
  0
VERTEX
  8
1
 10
0.095463
 20
0.110194
 30
0.0
  0
VERTEX
  8
1
 10
0.096643
 20
0.109606
 30
0.0
  0
VERTEX
  8
1
 10
0.097822
 20
0.109017
 30
0.0
  0
VERTEX
  8
1
 10
0.098999
 20
0.109017
 30
0.0
  0
VERTEX
  8
1
 10
0.100178
 20
0.109017
 30
0.0
  0
VERTEX
  8
1
 10
0.100767
 20
0.109606
 30
0.0
  0
VERTEX
  8
1
 10
0.102534
 20
0.111374
 30
0.0
  0
VERTEX
  8
1
 10
0.102534
 20
0.111374
 30
0.0
  0
SEQEND
  8
1
  0
POLYLINE
  8
1
 66
     1
 10
0.0
 20
0.0
 30
0.0
  0
VERTEX
  8
1
 10
0.102534
 20
0.119033
 30
0.0
  0
VERTEX
  8
1
 10
0.101358
 20
0.120801
 30
0.0
  0
VERTEX
  8
1
 10
0.100767
 20
0.120801
 30
0.0
  0
SEQEND
  8
1
  0
POLYLINE
  8
1
 66
     1
 10
0.0
 20
0.0
 30
0.0
  0
VERTEX
  8
1
 10
0.057162
 20
0.121981
 30
0.0
  0
VERTEX
  8
1
 10
0.057162
 20
0.109017
 30
0.0
  0
VERTEX
  8
1
 10
0.061286
 20
0.109017
 30
0.0
  0
SEQEND
  8
1
  0
POLYLINE
  8
1
 66
     1
 10
0.0
 20
0.0
 30
0.0
  0
VERTEX
  8
1
 10
0.064233
 20
0.111374
 30
0.0
  0
VERTEX
  8
1
 10
0.063642
 20
0.110194
 30
0.0
  0
VERTEX
  8
1
 10
0.061874
 20
0.109017
 30
0.0
  0
VERTEX
  8
1
 10
0.061286
 20
0.109017
 30
0.0
  0
SEQEND
  8
1
  0
POLYLINE
  8
1
 66
     1
 10
0.0
 20
0.0
 30
0.0
  0
VERTEX
  8
1
 10
0.066001
 20
0.115498
 30
0.0
  0
VERTEX
  8
1
 10
0.06541
 20
0.11373
 30
0.0
  0
VERTEX
  8
1
 10
0.064822
 20
0.111962
 30
0.0
  0
VERTEX
  8
1
 10
0.064233
 20
0.111374
 30
0.0
  0
SEQEND
  8
1
  0
POLYLINE
  8
1
 66
     1
 10
0.0
 20
0.0
 30
0.0
  0
VERTEX
  8
1
 10
0.064233
 20
0.119624
 30
0.0
  0
VERTEX
  8
1
 10
0.06541
 20
0.117857
 30
0.0
  0
VERTEX
  8
1
 10
0.066001
 20
0.116089
 30
0.0
  0
VERTEX
  8
1
 10
0.066001
 20
0.115498
 30
0.0
  0
SEQEND
  8
1
  0
POLYLINE
  8
1
 66
     1
 10
0.0
 20
0.0
 30
0.0
  0
VERTEX
  8
1
 10
0.061286
 20
0.121981
 30
0.0
  0
VERTEX
  8
1
 10
0.057162
 20
0.121981
 30
0.0
  0
SEQEND
  8
1
  0
POLYLINE
  8
1
 66
     1
 10
0.0
 20
0.0
 30
0.0
  0
VERTEX
  8
1
 10
0.061286
 20
0.121981
 30
0.0
  0
VERTEX
  8
1
 10
0.063642
 20
0.120801
 30
0.0
  0
VERTEX
  8
1
 10
0.064233
 20
0.119624
 30
0.0
  0
VERTEX
  8
1
 10
0.064233
 20
0.119624
 30
0.0
  0
SEQEND
  8
1
  0
POLYLINE
  8
1
 66
     1
 10
0.0
 20
0.0
 30
0.0
  0
VERTEX
  8
1
 10
0.068357
 20
0.121981
 30
0.0
  0
VERTEX
  8
1
 10
0.068357
 20
0.109017
 30
0.0
  0
SEQEND
  8
1
  0
POLYLINE
  8
1
 66
     1
 10
0.0
 20
0.0
 30
0.0
  0
VERTEX
  8
1
 10
0.070713
 20
0.119033
 30
0.0
  0
VERTEX
  8
1
 10
0.072481
 20
0.120213
 30
0.0
  0
VERTEX
  8
1
 10
0.072481
 20
0.109017
 30
0.0
  0
SEQEND
  8
1
  0
POLYLINE
  8
1
 66
     1
 10
0.0
 20
0.0
 30
0.0
  0
VERTEX
  8
1
 10
-0.069534
 20
0.109017
 30
0.0
  0
VERTEX
  8
1
 10
-0.069534
 20
0.121981
 30
0.0
  0
VERTEX
  8
1
 10
-0.064819
 20
0.121981
 30
0.0
  0
VERTEX
  8
1
 10
-0.063051
 20
0.121392
 30
0.0
  0
VERTEX
  8
1
 10
-0.061874
 20
0.120801
 30
0.0
  0
VERTEX
  8
1
 10
-0.061283
 20
0.119033
 30
0.0
  0
VERTEX
  8
1
 10
-0.061283
 20
0.117857
 30
0.0
  0
VERTEX
  8
1
 10
-0.061874
 20
0.116677
 30
0.0
  0
VERTEX
  8
1
 10
-0.062463
 20
0.115498
 30
0.0
  0
VERTEX
  8
1
 10
-0.063642
 20
0.114909
 30
0.0
  0
VERTEX
  8
1
 10
-0.064819
 20
0.114321
 30
0.0
  0
VERTEX
  8
1
 10
-0.069534
 20
0.114321
 30
0.0
  0
SEQEND
  8
1
  0
POLYLINE
  8
1
 66
     1
 10
0.0
 20
0.0
 30
0.0
  0
VERTEX
  8
1
 10
-0.06541
 20
0.114321
 30
0.0
  0
VERTEX
  8
1
 10
-0.061283
 20
0.109017
 30
0.0
  0
SEQEND
  8
1
  0
POLYLINE
  8
1
 66
     1
 10
0.0
 20
0.0
 30
0.0
  0
VERTEX
  8
1
 10
-0.117854
 20
0.121392
 30
0.0
  0
VERTEX
  8
1
 10
-0.113141
 20
0.115498
 30
0.0
  0
VERTEX
  8
1
 10
-0.108426
 20
0.121392
 30
0.0
  0
SEQEND
  8
1
  0
POLYLINE
  8
1
 66
     1
 10
0.0
 20
0.0
 30
0.0
  0
VERTEX
  8
1
 10
-0.113141
 20
0.115498
 30
0.0
  0
VERTEX
  8
1
 10
-0.113141
 20
0.108426
 30
0.0
  0
SEQEND
  8
1
  0
POLYLINE
  8
1
 66
     1
 10
0.0
 20
0.0
 30
0.0
  0
VERTEX
  8
1
 10
-0.099587
 20
0.119624
 30
0.0
  0
VERTEX
  8
1
 10
-0.10607
 20
0.109606
 30
0.0
  0
SEQEND
  8
1
  0
POLYLINE
  8
1
 66
     1
 10
0.0
 20
0.0
 30
0.0
  0
VERTEX
  8
1
 10
-0.097231
 20
0.121392
 30
0.0
  0
VERTEX
  8
1
 10
-0.094284
 20
0.108426
 30
0.0
  0
VERTEX
  8
1
 10
-0.091927
 20
0.114321
 30
0.0
  0
VERTEX
  8
1
 10
-0.089568
 20
0.108426
 30
0.0
  0
VERTEX
  8
1
 10
-0.087212
 20
0.121392
 30
0.0
  0
SEQEND
  8
1
  0
POLYLINE
  8
1
 66
     1
 10
0.0
 20
0.0
 30
0.0
  0
VERTEX
  8
1
 10
-0.14673
 20
0.115498
 30
0.0
  0
VERTEX
  8
1
 10
-0.141427
 20
0.115498
 30
0.0
  0
SEQEND
  8
1
  0
POLYLINE
  8
1
 66
     1
 10
0.0
 20
0.0
 30
0.0
  0
VERTEX
  8
1
 10
-0.143783
 20
0.117857
 30
0.0
  0
VERTEX
  8
1
 10
-0.143783
 20
0.113141
 30
0.0
  0
SEQEND
  8
1
  0
POLYLINE
  8
1
 66
     1
 10
0.0
 20
0.0
 30
0.0
  0
VERTEX
  8
1
 10
-0.139068
 20
0.109017
 30
0.0
  0
VERTEX
  8
1
 10
-0.139068
 20
0.121981
 30
0.0
  0
VERTEX
  8
1
 10
-0.134355
 20
0.121981
 30
0.0
  0
VERTEX
  8
1
 10
-0.132588
 20
0.121392
 30
0.0
  0
VERTEX
  8
1
 10
-0.131996
 20
0.120801
 30
0.0
  0
VERTEX
  8
1
 10
-0.13082
 20
0.119033
 30
0.0
  0
VERTEX
  8
1
 10
-0.13082
 20
0.117857
 30
0.0
  0
VERTEX
  8
1
 10
-0.131408
 20
0.116677
 30
0.0
  0
VERTEX
  8
1
 10
-0.132588
 20
0.115498
 30
0.0
  0
VERTEX
  8
1
 10
-0.133176
 20
0.114909
 30
0.0
  0
VERTEX
  8
1
 10
-0.134355
 20
0.114321
 30
0.0
  0
VERTEX
  8
1
 10
-0.139068
 20
0.114321
 30
0.0
  0
SEQEND
  8
1
  0
POLYLINE
  8
1
 66
     1
 10
0.0
 20
0.0
 30
0.0
  0
VERTEX
  8
1
 10
-0.221568
 20
0.121981
 30
0.0
  0
VERTEX
  8
1
 10
-0.226283
 20
0.109017
 30
0.0
  0
SEQEND
  8
1
  0
POLYLINE
  8
1
 66
     1
 10
0.0
 20
0.0
 30
0.0
  0
VERTEX
  8
1
 10
-0.223924
 20
0.115498
 30
0.0
  0
VERTEX
  8
1
 10
-0.21862
 20
0.115498
 30
0.0
  0
SEQEND
  8
1
  0
POLYLINE
  8
1
 66
     1
 10
0.0
 20
0.0
 30
0.0
  0
VERTEX
  8
1
 10
-0.221568
 20
0.121981
 30
0.0
  0
VERTEX
  8
1
 10
-0.216264
 20
0.109017
 30
0.0
  0
SEQEND
  8
1
  0
POLYLINE
  8
1
 66
     1
 10
0.0
 20
0.0
 30
0.0
  0
VERTEX
  8
1
 10
-0.206837
 20
0.120801
 30
0.0
  0
VERTEX
  8
1
 10
-0.208013
 20
0.121981
 30
0.0
  0
VERTEX
  8
1
 10
-0.209193
 20
0.121981
 30
0.0
  0
VERTEX
  8
1
 10
-0.210372
 20
0.121392
 30
0.0
  0
VERTEX
  8
1
 10
-0.211549
 20
0.120801
 30
0.0
  0
VERTEX
  8
1
 10
-0.212728
 20
0.119624
 30
0.0
  0
VERTEX
  8
1
 10
-0.213317
 20
0.117857
 30
0.0
  0
VERTEX
  8
1
 10
-0.213908
 20
0.116089
 30
0.0
  0
VERTEX
  8
1
 10
-0.213317
 20
0.114321
 30
0.0
  0
VERTEX
  8
1
 10
-0.213317
 20
0.111962
 30
0.0
  0
VERTEX
  8
1
 10
-0.21214
 20
0.110194
 30
0.0
  0
VERTEX
  8
1
 10
-0.211549
 20
0.109606
 30
0.0
  0
VERTEX
  8
1
 10
-0.209781
 20
0.109017
 30
0.0
  0
VERTEX
  8
1
 10
-0.208604
 20
0.109017
 30
0.0
  0
VERTEX
  8
1
 10
-0.207425
 20
0.109017
 30
0.0
  0
VERTEX
  8
1
 10
-0.206837
 20
0.109606
 30
0.0
  0
VERTEX
  8
1
 10
-0.205069
 20
0.111374
 30
0.0
  0
VERTEX
  8
1
 10
-0.204478
 20
0.113141
 30
0.0
  0
VERTEX
  8
1
 10
-0.203889
 20
0.114909
 30
0.0
  0
VERTEX
  8
1
 10
-0.203889
 20
0.117265
 30
0.0
  0
VERTEX
  8
1
 10
-0.205069
 20
0.119033
 30
0.0
  0
VERTEX
  8
1
 10
-0.206245
 20
0.120213
 30
0.0
  0
VERTEX
  8
1
 10
-0.206837
 20
0.120801
 30
0.0
  0
SEQEND
  8
1
  0
POLYLINE
  8
1
 66
     1
 10
0.0
 20
0.0
 30
0.0
  0
VERTEX
  8
1
 10
-0.201533
 20
0.119033
 30
0.0
  0
VERTEX
  8
1
 10
-0.200354
 20
0.120213
 30
0.0
  0
VERTEX
  8
1
 10
-0.200354
 20
0.109017
 30
0.0
  0
SEQEND
  8
1
  0
POLYLINE
  8
1
 66
     1
 10
0.0
 20
0.0
 30
0.0
  0
VERTEX
  8
1
 10
-0.181496
 20
0.121981
 30
0.0
  0
VERTEX
  8
1
 10
-0.181496
 20
0.109017
 30
0.0
  0
SEQEND
  8
1
  0
POLYLINE
  8
1
 66
     1
 10
0.0
 20
0.0
 30
0.0
  0
VERTEX
  8
1
 10
-0.178551
 20
0.109017
 30
0.0
  0
VERTEX
  8
1
 10
-0.178551
 20
0.121981
 30
0.0
  0
VERTEX
  8
1
 10
-0.169121
 20
0.109017
 30
0.0
  0
VERTEX
  8
1
 10
-0.169121
 20
0.121981
 30
0.0
  0
SEQEND
  8
1
  0
POLYLINE
  8
1
 66
     1
 10
0.0
 20
0.0
 30
0.0
  0
VERTEX
  8
1
 10
0.014734
 20
0.103714
 30
0.0
  0
VERTEX
  8
1
 10
0.014734
 20
0.106658
 30
0.0
  0
VERTEX
  8
1
 10
0.014143
 20
0.109606
 30
0.0
  0
VERTEX
  8
1
 10
0.012375
 20
0.111962
 30
0.0
  0
VERTEX
  8
1
 10
0.010607
 20
0.114321
 30
0.0
  0
VERTEX
  8
1
 10
0.008839
 20
0.116089
 30
0.0
  0
VERTEX
  8
1
 10
0.005895
 20
0.117265
 30
0.0
  0
VERTEX
  8
1
 10
0.003536
 20
0.118445
 30
0.0
  0
VERTEX
  8
1
 10
0.000591
 20
0.118445
 30
0.0
  0
VERTEX
  8
1
 10
-0.002356
 20
0.118445
 30
0.0
  0
VERTEX
  8
1
 10
-0.005304
 20
0.117857
 30
0.0
  0
VERTEX
  8
1
 10
-0.00766
 20
0.116089
 30
0.0
  0
VERTEX
  8
1
 10
-0.010016
 20
0.114321
 30
0.0
  0
VERTEX
  8
1
 10
-0.011784
 20
0.112553
 30
0.0
  0
VERTEX
  8
1
 10
-0.012963
 20
0.110194
 30
0.0
  0
VERTEX
  8
1
 10
-0.014143
 20
0.10725
 30
0.0
  0
VERTEX
  8
1
 10
-0.014731
 20
0.104302
 30
0.0
  0
VERTEX
  8
1
 10
-0.014731
 20
0.103714
 30
0.0
  0
VERTEX
  8
1
 10
-0.014731
 20
0.059518
 30
0.0
  0
SEQEND
  8
1
  0
POLYLINE
  8
1
 66
     1
 10
0.0
 20
0.0
 30
0.0
  0
VERTEX
  8
1
 10
0.014734
 20
0.059518
 30
0.0
  0
VERTEX
  8
1
 10
0.014734
 20
0.103714
 30
0.0
  0
SEQEND
  8
1
  0
POLYLINE
  8
1
 66
     1
 10
0.0
 20
0.0
 30
0.0
  0
VERTEX
  8
1
 10
0.014734
 20
0.059518
 30
0.0
  0
VERTEX
  8
1
 10
0.014734
 20
0.055982
 30
0.0
  0
VERTEX
  8
1
 10
0.014143
 20
0.053623
 30
0.0
  0
VERTEX
  8
1
 10
0.012375
 20
0.050679
 30
0.0
  0
VERTEX
  8
1
 10
0.010607
 20
0.04832
 30
0.0
  0
VERTEX
  8
1
 10
0.008251
 20
0.047143
 30
0.0
  0
VERTEX
  8
1
 10
0.005895
 20
0.045375
 30
0.0
  0
VERTEX
  8
1
 10
0.002947
 20
0.044784
 30
0.0
  0
VERTEX
  8
1
 10
0.0
 20
0.044196
 30
0.0
  0
VERTEX
  8
1
 10
-0.002356
 20
0.044784
 30
0.0
  0
VERTEX
  8
1
 10
-0.005304
 20
0.045375
 30
0.0
  0
VERTEX
  8
1
 10
-0.00766
 20
0.047143
 30
0.0
  0
VERTEX
  8
1
 10
-0.010016
 20
0.04832
 30
0.0
  0
VERTEX
  8
1
 10
-0.011784
 20
0.050679
 30
0.0
  0
SEQEND
  8
1
  0
POLYLINE
  8
1
 66
     1
 10
0.0
 20
0.0
 30
0.0
  0
VERTEX
  8
1
 10
-0.011784
 20
0.050679
 30
0.0
  0
VERTEX
  8
1
 10
-0.012963
 20
0.053623
 30
0.0
  0
VERTEX
  8
1
 10
-0.014143
 20
0.055982
 30
0.0
  0
VERTEX
  8
1
 10
-0.014731
 20
0.058927
 30
0.0
  0
VERTEX
  8
1
 10
-0.014731
 20
0.059518
 30
0.0
  0
SEQEND
  8
1
  0
POLYLINE
  8
1
 66
     1
 10
0.0
 20
0.0
 30
0.0
  0
VERTEX
  8
1
 10
0.0
 20
0.688867
 30
0.0
  0
VERTEX
  8
1
 10
-0.005304
 20
0.688276
 30
0.0
  0
VERTEX
  8
1
 10
-0.010016
 20
0.687099
 30
0.0
  0
VERTEX
  8
1
 10
-0.014143
 20
0.68592
 30
0.0
  0
VERTEX
  8
1
 10
-0.018267
 20
0.68474
 30
0.0
  0
VERTEX
  8
1
 10
-0.022391
 20
0.682384
 30
0.0
  0
VERTEX
  8
1
 10
-0.026518
 20
0.679437
 30
0.0
  0
VERTEX
  8
1
 10
-0.030053
 20
0.676492
 30
0.0
  0
VERTEX
  8
1
 10
-0.032998
 20
0.673545
 30
0.0
  0
VERTEX
  8
1
 10
-0.035945
 20
0.670009
 30
0.0
  0
VERTEX
  8
1
 10
-0.038301
 20
0.665294
 30
0.0
  0
VERTEX
  8
1
 10
-0.04066
 20
0.66117
 30
0.0
  0
VERTEX
  8
1
 10
-0.041837
 20
0.657046
 30
0.0
  0
VERTEX
  8
1
 10
-0.043016
 20
0.652331
 30
0.0
  0
VERTEX
  8
1
 10
-0.044196
 20
0.648207
 30
0.0
  0
VERTEX
  8
1
 10
-0.044196
 20
0.643492
 30
0.0
  0
VERTEX
  8
1
 10
-0.043605
 20
0.638776
 30
0.0
  0
VERTEX
  8
1
 10
-0.043016
 20
0.634064
 30
0.0
  0
VERTEX
  8
1
 10
-0.041837
 20
0.629349
 30
0.0
  0
VERTEX
  8
1
 10
-0.040069
 20
0.625225
 30
0.0
  0
VERTEX
  8
1
 10
-0.037713
 20
0.621098
 30
0.0
  0
VERTEX
  8
1
 10
-0.035357
 20
0.617562
 30
0.0
  0
VERTEX
  8
1
 10
-0.031821
 20
0.614027
 30
0.0
  0
VERTEX
  8
1
 10
-0.028874
 20
0.610491
 30
0.0
  0
VERTEX
  8
1
 10
-0.025338
 20
0.607547
 30
0.0
  0
VERTEX
  8
1
 10
-0.021214
 20
0.605188
 30
0.0
  0
VERTEX
  8
1
 10
-0.017087
 20
0.60342
 30
0.0
  0
VERTEX
  8
1
 10
-0.012375
 20
0.601652
 30
0.0
  0
VERTEX
  8
1
 10
-0.008248
 20
0.600475
 30
0.0
  0
VERTEX
  8
1
 10
-0.003536
 20
0.599884
 30
0.0
  0
VERTEX
  8
1
 10
0.001179
 20
0.599884
 30
0.0
  0
VERTEX
  8
1
 10
0.005895
 20
0.599884
 30
0.0
  0
SEQEND
  8
1
  0
POLYLINE
  8
1
 66
     1
 10
0.0
 20
0.0
 30
0.0
  0
VERTEX
  8
1
 10
0.005895
 20
0.599884
 30
0.0
  0
VERTEX
  8
1
 10
0.010019
 20
0.601064
 30
0.0
  0
VERTEX
  8
1
 10
0.014734
 20
0.602243
 30
0.0
  0
VERTEX
  8
1
 10
0.018858
 20
0.604011
 30
0.0
  0
VERTEX
  8
1
 10
0.022982
 20
0.605779
 30
0.0
  0
VERTEX
  8
1
 10
0.027109
 20
0.608723
 30
0.0
  0
VERTEX
  8
1
 10
0.030644
 20
0.611671
 30
0.0
  0
VERTEX
  8
1
 10
0.03418
 20
0.614618
 30
0.0
  0
VERTEX
  8
1
 10
0.036536
 20
0.618742
 30
0.0
  0
VERTEX
  8
1
 10
0.038892
 20
0.622866
 30
0.0
  0
VERTEX
  8
1
 10
0.041251
 20
0.626993
 30
0.0
  0
VERTEX
  8
1
 10
0.043019
 20
0.631117
 30
0.0
  0
VERTEX
  8
1
 10
0.044196
 20
0.635832
 30
0.0
  0
VERTEX
  8
1
 10
0.044196
 20
0.639956
 30
0.0
  0
VERTEX
  8
1
 10
0.044787
 20
0.644671
 30
0.0
  0
VERTEX
  8
1
 10
0.044196
 20
0.649383
 30
0.0
  0
VERTEX
  8
1
 10
0.043608
 20
0.654099
 30
0.0
  0
VERTEX
  8
1
 10
0.042428
 20
0.658814
 30
0.0
  0
VERTEX
  8
1
 10
0.04066
 20
0.662938
 30
0.0
  0
VERTEX
  8
1
 10
0.038304
 20
0.667062
 30
0.0
  0
VERTEX
  8
1
 10
0.035948
 20
0.670597
 30
0.0
  0
VERTEX
  8
1
 10
0.033001
 20
0.674724
 30
0.0
  0
VERTEX
  8
1
 10
0.029465
 20
0.677669
 30
0.0
  0
VERTEX
  8
1
 10
0.025929
 20
0.680616
 30
0.0
  0
VERTEX
  8
1
 10
0.021805
 20
0.682972
 30
0.0
  0
VERTEX
  8
1
 10
0.017678
 20
0.68474
 30
0.0
  0
VERTEX
  8
1
 10
0.013554
 20
0.686508
 30
0.0
  0
VERTEX
  8
1
 10
0.008839
 20
0.687687
 30
0.0
  0
VERTEX
  8
1
 10
0.004127
 20
0.688276
 30
0.0
  0
VERTEX
  8
1
 10
0.0
 20
0.688867
 30
0.0
  0
SEQEND
  8
1
  0
POLYLINE
  8
1
 66
     1
 10
0.0
 20
0.0
 30
0.0
  0
VERTEX
  8
1
 10
-0.021802
 20
0.658814
 30
0.0
  0
VERTEX
  8
1
 10
-0.025338
 20
0.658814
 30
0.0
  0
VERTEX
  8
1
 10
-0.027694
 20
0.657634
 30
0.0
  0
VERTEX
  8
1
 10
-0.030053
 20
0.656455
 30
0.0
  0
VERTEX
  8
1
 10
-0.032409
 20
0.654687
 30
0.0
  0
VERTEX
  8
1
 10
-0.034177
 20
0.652331
 30
0.0
  0
VERTEX
  8
1
 10
-0.035945
 20
0.649975
 30
0.0
  0
VERTEX
  8
1
 10
-0.036533
 20
0.647027
 30
0.0
  0
VERTEX
  8
1
 10
-0.036533
 20
0.644671
 30
0.0
  0
VERTEX
  8
1
 10
-0.036533
 20
0.641724
 30
0.0
  0
VERTEX
  8
1
 10
-0.035945
 20
0.638776
 30
0.0
  0
VERTEX
  8
1
 10
-0.034766
 20
0.63642
 30
0.0
  0
VERTEX
  8
1
 10
-0.032409
 20
0.634064
 30
0.0
  0
VERTEX
  8
1
 10
-0.030642
 20
0.632296
 30
0.0
  0
VERTEX
  8
1
 10
-0.028285
 20
0.630528
 30
0.0
  0
VERTEX
  8
1
 10
-0.025338
 20
0.629349
 30
0.0
  0
VERTEX
  8
1
 10
-0.022391
 20
0.629349
 30
0.0
  0
VERTEX
  8
1
 10
-0.021802
 20
0.629349
 30
0.0
  0
VERTEX
  8
1
 10
0.022394
 20
0.629349
 30
0.0
  0
SEQEND
  8
1
  0
POLYLINE
  8
1
 66
     1
 10
0.0
 20
0.0
 30
0.0
  0
VERTEX
  8
1
 10
0.022394
 20
0.658814
 30
0.0
  0
VERTEX
  8
1
 10
-0.021802
 20
0.658814
 30
0.0
  0
SEQEND
  8
1
  0
POLYLINE
  8
1
 66
     1
 10
0.0
 20
0.0
 30
0.0
  0
VERTEX
  8
1
 10
0.022394
 20
0.658814
 30
0.0
  0
VERTEX
  8
1
 10
0.025929
 20
0.658814
 30
0.0
  0
VERTEX
  8
1
 10
0.028877
 20
0.657634
 30
0.0
  0
VERTEX
  8
1
 10
0.030644
 20
0.656455
 30
0.0
  0
VERTEX
  8
1
 10
0.033001
 20
0.654687
 30
0.0
  0
VERTEX
  8
1
 10
0.034768
 20
0.652331
 30
0.0
  0
VERTEX
  8
1
 10
0.035948
 20
0.649383
 30
0.0
  0
VERTEX
  8
1
 10
0.037125
 20
0.647027
 30
0.0
  0
VERTEX
  8
1
 10
0.037125
 20
0.64408
 30
0.0
  0
VERTEX
  8
1
 10
0.037125
 20
0.641135
 30
0.0
  0
VERTEX
  8
1
 10
0.035948
 20
0.638776
 30
0.0
  0
VERTEX
  8
1
 10
0.034768
 20
0.635832
 30
0.0
  0
VERTEX
  8
1
 10
0.033001
 20
0.634064
 30
0.0
  0
VERTEX
  8
1
 10
0.030644
 20
0.631705
 30
0.0
  0
VERTEX
  8
1
 10
0.028877
 20
0.630528
 30
0.0
  0
VERTEX
  8
1
 10
0.025929
 20
0.629349
 30
0.0
  0
VERTEX
  8
1
 10
0.022982
 20
0.629349
 30
0.0
  0
VERTEX
  8
1
 10
0.022394
 20
0.629349
 30
0.0
  0
SEQEND
  8
1
  0
POLYLINE
  8
1
 66
     1
 10
0.0
 20
0.0
 30
0.0
  0
VERTEX
  8
1
 10
-0.118445
 20
0.199765
 30
0.0
  0
VERTEX
  8
1
 10
-0.120801
 20
0.200354
 30
0.0
  0
VERTEX
  8
1
 10
-0.122569
 20
0.200945
 30
0.0
  0
VERTEX
  8
1
 10
-0.123748
 20
0.202713
 30
0.0
  0
VERTEX
  8
1
 10
-0.124925
 20
0.20448
 30
0.0
  0
VERTEX
  8
1
 10
-0.125516
 20
0.206248
 30
0.0
  0
VERTEX
  8
1
 10
-0.125516
 20
0.206837
 30
0.0
  0
SEQEND
  8
1
  0
POLYLINE
  8
1
 66
     1
 10
0.0
 20
0.0
 30
0.0
  0
VERTEX
  8
1
 10
-0.118445
 20
0.199765
 30
0.0
  0
VERTEX
  8
1
 10
0.119036
 20
0.199765
 30
0.0
  0
SEQEND
  8
1
  0
POLYLINE
  8
1
 66
     1
 10
0.0
 20
0.0
 30
0.0
  0
VERTEX
  8
1
 10
0.126107
 20
0.206837
 30
0.0
  0
VERTEX
  8
1
 10
0.125516
 20
0.205069
 30
0.0
  0
VERTEX
  8
1
 10
0.124928
 20
0.203301
 30
0.0
  0
VERTEX
  8
1
 10
0.123748
 20
0.201533
 30
0.0
  0
VERTEX
  8
1
 10
0.121981
 20
0.200354
 30
0.0
  0
VERTEX
  8
1
 10
0.120213
 20
0.199765
 30
0.0
  0
VERTEX
  8
1
 10
0.119036
 20
0.199765
 30
0.0
  0
SEQEND
  8
1
  0
POLYLINE
  8
1
 66
     1
 10
0.0
 20
0.0
 30
0.0
  0
VERTEX
  8
1
 10
-0.125516
 20
0.206837
 30
0.0
  0
VERTEX
  8
1
 10
-0.125516
 20
0.289336
 30
0.0
  0
SEQEND
  8
1
  0
POLYLINE
  8
1
 66
     1
 10
0.0
 20
0.0
 30
0.0
  0
VERTEX
  8
1
 10
-0.118445
 20
0.295817
 30
0.0
  0
VERTEX
  8
1
 10
-0.120801
 20
0.295817
 30
0.0
  0
VERTEX
  8
1
 10
-0.122569
 20
0.295228
 30
0.0
  0
VERTEX
  8
1
 10
-0.123748
 20
0.294049
 30
0.0
  0
VERTEX
  8
1
 10
-0.124925
 20
0.292281
 30
0.0
  0
VERTEX
  8
1
 10
-0.125516
 20
0.290513
 30
0.0
  0
VERTEX
  8
1
 10
-0.125516
 20
0.289336
 30
0.0
  0
SEQEND
  8
1
  0
POLYLINE
  8
1
 66
     1
 10
0.0
 20
0.0
 30
0.0
  0
VERTEX
  8
1
 10
-0.118445
 20
0.295817
 30
0.0
  0
VERTEX
  8
1
 10
0.119036
 20
0.295817
 30
0.0
  0
VERTEX
  8
1
 10
0.121392
 20
0.295817
 30
0.0
  0
VERTEX
  8
1
 10
0.12316
 20
0.295228
 30
0.0
  0
VERTEX
  8
1
 10
0.12434
 20
0.29346
 30
0.0
  0
VERTEX
  8
1
 10
0.125516
 20
0.291693
 30
0.0
  0
VERTEX
  8
1
 10
0.126107
 20
0.289925
 30
0.0
  0
VERTEX
  8
1
 10
0.126107
 20
0.289336
 30
0.0
  0
VERTEX
  8
1
 10
0.126107
 20
0.206837
 30
0.0
  0
SEQEND
  8
1
  0
POLYLINE
  8
1
 66
     1
 10
0.0
 20
0.0
 30
0.0
  0
VERTEX
  8
1
 10
-0.054803
 20
0.40719
 30
0.0
  0
VERTEX
  8
1
 10
-0.05598
 20
0.40719
 30
0.0
  0
VERTEX
  8
1
 10
-0.056571
 20
0.406602
 30
0.0
  0
VERTEX
  8
1
 10
-0.056571
 20
0.405422
 30
0.0
  0
VERTEX
  8
1
 10
-0.056571
 20
0.404834
 30
0.0
  0
VERTEX
  8
1
 10
-0.05598
 20
0.404246
 30
0.0
  0
VERTEX
  8
1
 10
-0.054803
 20
0.403654
 30
0.0
  0
VERTEX
  8
1
 10
-0.053623
 20
0.404246
 30
0.0
  0
VERTEX
  8
1
 10
-0.053035
 20
0.404834
 30
0.0
  0
VERTEX
  8
1
 10
-0.053035
 20
0.406013
 30
0.0
  0
VERTEX
  8
1
 10
-0.053623
 20
0.40719
 30
0.0
  0
VERTEX
  8
1
 10
-0.054212
 20
0.40719
 30
0.0
  0
VERTEX
  8
1
 10
-0.054803
 20
0.40719
 30
0.0
  0
SEQEND
  8
1
  0
POLYLINE
  8
1
 66
     1
 10
0.0
 20
0.0
 30
0.0
  0
VERTEX
  8
1
 10
-0.082497
 20
0.40719
 30
0.0
  0
VERTEX
  8
1
 10
-0.083677
 20
0.40719
 30
0.0
  0
VERTEX
  8
1
 10
-0.084265
 20
0.406602
 30
0.0
  0
VERTEX
  8
1
 10
-0.084265
 20
0.405422
 30
0.0
  0
VERTEX
  8
1
 10
-0.084265
 20
0.404834
 30
0.0
  0
VERTEX
  8
1
 10
-0.083088
 20
0.404246
 30
0.0
  0
VERTEX
  8
1
 10
-0.081909
 20
0.403654
 30
0.0
  0
VERTEX
  8
1
 10
-0.08132
 20
0.404246
 30
0.0
  0
VERTEX
  8
1
 10
-0.080729
 20
0.404834
 30
0.0
  0
VERTEX
  8
1
 10
-0.080729
 20
0.406013
 30
0.0
  0
VERTEX
  8
1
 10
-0.08132
 20
0.40719
 30
0.0
  0
VERTEX
  8
1
 10
-0.081909
 20
0.40719
 30
0.0
  0
VERTEX
  8
1
 10
-0.082497
 20
0.40719
 30
0.0
  0
SEQEND
  8
1
  0
POLYLINE
  8
1
 66
     1
 10
0.0
 20
0.0
 30
0.0
  0
VERTEX
  8
1
 10
-0.100767
 20
0.420744
 30
0.0
  0
VERTEX
  8
1
 10
-0.100767
 20
0.38244
 30
0.0
  0
SEQEND
  8
1
  0
POLYLINE
  8
1
 66
     1
 10
0.0
 20
0.0
 30
0.0
  0
VERTEX
  8
1
 10
-0.100767
 20
0.406013
 30
0.0
  0
VERTEX
  8
1
 10
-0.100767
 20
0.370066
 30
0.0
  0
SEQEND
  8
1
  0
POLYLINE
  8
1
 66
     1
 10
0.0
 20
0.0
 30
0.0
  0
VERTEX
  8
1
 10
-0.054803
 20
0.384799
 30
0.0
  0
VERTEX
  8
1
 10
-0.05598
 20
0.384208
 30
0.0
  0
VERTEX
  8
1
 10
-0.056571
 20
0.38362
 30
0.0
  0
VERTEX
  8
1
 10
-0.056571
 20
0.38244
 30
0.0
  0
VERTEX
  8
1
 10
-0.056571
 20
0.381852
 30
0.0
  0
VERTEX
  8
1
 10
-0.05598
 20
0.381264
 30
0.0
  0
VERTEX
  8
1
 10
-0.054803
 20
0.381264
 30
0.0
  0
VERTEX
  8
1
 10
-0.053623
 20
0.381264
 30
0.0
  0
VERTEX
  8
1
 10
-0.053035
 20
0.381852
 30
0.0
  0
VERTEX
  8
1
 10
-0.053035
 20
0.383032
 30
0.0
  0
VERTEX
  8
1
 10
-0.053623
 20
0.384208
 30
0.0
  0
VERTEX
  8
1
 10
-0.054212
 20
0.384799
 30
0.0
  0
VERTEX
  8
1
 10
-0.054803
 20
0.384799
 30
0.0
  0
SEQEND
  8
1
  0
POLYLINE
  8
1
 66
     1
 10
0.0
 20
0.0
 30
0.0
  0
VERTEX
  8
1
 10
-0.082497
 20
0.384799
 30
0.0
  0
VERTEX
  8
1
 10
-0.083677
 20
0.384208
 30
0.0
  0
VERTEX
  8
1
 10
-0.084265
 20
0.38362
 30
0.0
  0
VERTEX
  8
1
 10
-0.084265
 20
0.38244
 30
0.0
  0
VERTEX
  8
1
 10
-0.084265
 20
0.381852
 30
0.0
  0
VERTEX
  8
1
 10
-0.083088
 20
0.381264
 30
0.0
  0
VERTEX
  8
1
 10
-0.081909
 20
0.381264
 30
0.0
  0
VERTEX
  8
1
 10
-0.08132
 20
0.381264
 30
0.0
  0
VERTEX
  8
1
 10
-0.080729
 20
0.381852
 30
0.0
  0
VERTEX
  8
1
 10
-0.080729
 20
0.383032
 30
0.0
  0
VERTEX
  8
1
 10
-0.08132
 20
0.384208
 30
0.0
  0
VERTEX
  8
1
 10
-0.081909
 20
0.384799
 30
0.0
  0
VERTEX
  8
1
 10
-0.082497
 20
0.384799
 30
0.0
  0
SEQEND
  8
1
  0
POLYLINE
  8
1
 66
     1
 10
0.0
 20
0.0
 30
0.0
  0
VERTEX
  8
1
 10
0.055394
 20
0.384799
 30
0.0
  0
VERTEX
  8
1
 10
0.054803
 20
0.384208
 30
0.0
  0
VERTEX
  8
1
 10
0.054215
 20
0.38362
 30
0.0
  0
VERTEX
  8
1
 10
0.054215
 20
0.38244
 30
0.0
  0
VERTEX
  8
1
 10
0.054215
 20
0.381852
 30
0.0
  0
VERTEX
  8
1
 10
0.054803
 20
0.381264
 30
0.0
  0
VERTEX
  8
1
 10
0.055982
 20
0.381264
 30
0.0
  0
VERTEX
  8
1
 10
0.056571
 20
0.381264
 30
0.0
  0
VERTEX
  8
1
 10
0.057162
 20
0.381852
 30
0.0
  0
VERTEX
  8
1
 10
0.05775
 20
0.383032
 30
0.0
  0
VERTEX
  8
1
 10
0.057162
 20
0.384208
 30
0.0
  0
VERTEX
  8
1
 10
0.055982
 20
0.384799
 30
0.0
  0
VERTEX
  8
1
 10
0.055394
 20
0.384799
 30
0.0
  0
SEQEND
  8
1
  0
POLYLINE
  8
1
 66
     1
 10
0.0
 20
0.0
 30
0.0
  0
VERTEX
  8
1
 10
0.055394
 20
0.40719
 30
0.0
  0
VERTEX
  8
1
 10
0.054803
 20
0.40719
 30
0.0
  0
VERTEX
  8
1
 10
0.054215
 20
0.406602
 30
0.0
  0
VERTEX
  8
1
 10
0.054215
 20
0.405422
 30
0.0
  0
VERTEX
  8
1
 10
0.054215
 20
0.404834
 30
0.0
  0
VERTEX
  8
1
 10
0.054803
 20
0.404246
 30
0.0
  0
VERTEX
  8
1
 10
0.055982
 20
0.403654
 30
0.0
  0
VERTEX
  8
1
 10
0.056571
 20
0.404246
 30
0.0
  0
VERTEX
  8
1
 10
0.057162
 20
0.404834
 30
0.0
  0
VERTEX
  8
1
 10
0.05775
 20
0.406013
 30
0.0
  0
VERTEX
  8
1
 10
0.057162
 20
0.40719
 30
0.0
  0
VERTEX
  8
1
 10
0.055982
 20
0.40719
 30
0.0
  0
VERTEX
  8
1
 10
0.055394
 20
0.40719
 30
0.0
  0
SEQEND
  8
1
  0
POLYLINE
  8
1
 66
     1
 10
0.0
 20
0.0
 30
0.0
  0
VERTEX
  8
1
 10
0.028285
 20
0.40719
 30
0.0
  0
VERTEX
  8
1
 10
0.027109
 20
0.40719
 30
0.0
  0
VERTEX
  8
1
 10
0.026518
 20
0.406602
 30
0.0
  0
VERTEX
  8
1
 10
0.025929
 20
0.405422
 30
0.0
  0
VERTEX
  8
1
 10
0.026518
 20
0.404834
 30
0.0
  0
VERTEX
  8
1
 10
0.027109
 20
0.404246
 30
0.0
  0
VERTEX
  8
1
 10
0.028285
 20
0.403654
 30
0.0
  0
VERTEX
  8
1
 10
0.028877
 20
0.404246
 30
0.0
  0
VERTEX
  8
1
 10
0.029465
 20
0.404834
 30
0.0
  0
VERTEX
  8
1
 10
0.029465
 20
0.406013
 30
0.0
  0
VERTEX
  8
1
 10
0.029465
 20
0.40719
 30
0.0
  0
VERTEX
  8
1
 10
0.028877
 20
0.40719
 30
0.0
  0
VERTEX
  8
1
 10
0.028285
 20
0.40719
 30
0.0
  0
SEQEND
  8
1
  0
POLYLINE
  8
1
 66
     1
 10
0.0
 20
0.0
 30
0.0
  0
VERTEX
  8
1
 10
0.000591
 20
0.40719
 30
0.0
  0
VERTEX
  8
1
 10
-0.000588
 20
0.40719
 30
0.0
  0
VERTEX
  8
1
 10
-0.001177
 20
0.406602
 30
0.0
  0
VERTEX
  8
1
 10
-0.001177
 20
0.405422
 30
0.0
  0
VERTEX
  8
1
 10
-0.001177
 20
0.404834
 30
0.0
  0
VERTEX
  8
1
 10
-0.000588
 20
0.404246
 30
0.0
  0
VERTEX
  8
1
 10
0.000591
 20
0.403654
 30
0.0
  0
VERTEX
  8
1
 10
0.001768
 20
0.404246
 30
0.0
  0
VERTEX
  8
1
 10
0.002359
 20
0.404834
 30
0.0
  0
VERTEX
  8
1
 10
0.002359
 20
0.406013
 30
0.0
  0
VERTEX
  8
1
 10
0.001768
 20
0.40719
 30
0.0
  0
VERTEX
  8
1
 10
0.001179
 20
0.40719
 30
0.0
  0
VERTEX
  8
1
 10
0.000591
 20
0.40719
 30
0.0
  0
SEQEND
  8
1
  0
POLYLINE
  8
1
 66
     1
 10
0.0
 20
0.0
 30
0.0
  0
VERTEX
  8
1
 10
-0.027106
 20
0.40719
 30
0.0
  0
VERTEX
  8
1
 10
-0.028285
 20
0.40719
 30
0.0
  0
VERTEX
  8
1
 10
-0.028874
 20
0.406602
 30
0.0
  0
VERTEX
  8
1
 10
-0.028874
 20
0.405422
 30
0.0
  0
VERTEX
  8
1
 10
-0.028874
 20
0.404834
 30
0.0
  0
VERTEX
  8
1
 10
-0.027694
 20
0.404246
 30
0.0
  0
VERTEX
  8
1
 10
-0.027106
 20
0.403654
 30
0.0
  0
VERTEX
  8
1
 10
-0.026518
 20
0.404246
 30
0.0
  0
VERTEX
  8
1
 10
-0.025926
 20
0.404834
 30
0.0
  0
VERTEX
  8
1
 10
-0.025338
 20
0.406013
 30
0.0
  0
VERTEX
  8
1
 10
-0.025926
 20
0.40719
 30
0.0
  0
VERTEX
  8
1
 10
-0.026518
 20
0.40719
 30
0.0
  0
VERTEX
  8
1
 10
-0.027106
 20
0.40719
 30
0.0
  0
SEQEND
  8
1
  0
POLYLINE
  8
1
 66
     1
 10
0.0
 20
0.0
 30
0.0
  0
VERTEX
  8
1
 10
0.028285
 20
0.384799
 30
0.0
  0
VERTEX
  8
1
 10
0.027109
 20
0.384208
 30
0.0
  0
VERTEX
  8
1
 10
0.026518
 20
0.38362
 30
0.0
  0
VERTEX
  8
1
 10
0.025929
 20
0.38244
 30
0.0
  0
VERTEX
  8
1
 10
0.026518
 20
0.381852
 30
0.0
  0
VERTEX
  8
1
 10
0.027109
 20
0.381264
 30
0.0
  0
VERTEX
  8
1
 10
0.028285
 20
0.381264
 30
0.0
  0
VERTEX
  8
1
 10
0.028877
 20
0.381264
 30
0.0
  0
VERTEX
  8
1
 10
0.029465
 20
0.381852
 30
0.0
  0
VERTEX
  8
1
 10
0.029465
 20
0.383032
 30
0.0
  0
VERTEX
  8
1
 10
0.029465
 20
0.384208
 30
0.0
  0
VERTEX
  8
1
 10
0.028877
 20
0.384799
 30
0.0
  0
VERTEX
  8
1
 10
0.028285
 20
0.384799
 30
0.0
  0
SEQEND
  8
1
  0
POLYLINE
  8
1
 66
     1
 10
0.0
 20
0.0
 30
0.0
  0
VERTEX
  8
1
 10
0.000591
 20
0.384799
 30
0.0
  0
VERTEX
  8
1
 10
-0.000588
 20
0.384208
 30
0.0
  0
VERTEX
  8
1
 10
-0.001177
 20
0.38362
 30
0.0
  0
VERTEX
  8
1
 10
-0.001177
 20
0.38244
 30
0.0
  0
VERTEX
  8
1
 10
-0.001177
 20
0.381852
 30
0.0
  0
VERTEX
  8
1
 10
-0.000588
 20
0.381264
 30
0.0
  0
VERTEX
  8
1
 10
0.000591
 20
0.381264
 30
0.0
  0
VERTEX
  8
1
 10
0.001768
 20
0.381264
 30
0.0
  0
VERTEX
  8
1
 10
0.002359
 20
0.381852
 30
0.0
  0
VERTEX
  8
1
 10
0.002359
 20
0.383032
 30
0.0
  0
VERTEX
  8
1
 10
0.001768
 20
0.384208
 30
0.0
  0
VERTEX
  8
1
 10
0.001179
 20
0.384799
 30
0.0
  0
VERTEX
  8
1
 10
0.000591
 20
0.384799
 30
0.0
  0
SEQEND
  8
1
  0
POLYLINE
  8
1
 66
     1
 10
0.0
 20
0.0
 30
0.0
  0
VERTEX
  8
1
 10
-0.027106
 20
0.384799
 30
0.0
  0
VERTEX
  8
1
 10
-0.028285
 20
0.384208
 30
0.0
  0
VERTEX
  8
1
 10
-0.028874
 20
0.38362
 30
0.0
  0
VERTEX
  8
1
 10
-0.028874
 20
0.38244
 30
0.0
  0
VERTEX
  8
1
 10
-0.028874
 20
0.381852
 30
0.0
  0
VERTEX
  8
1
 10
-0.027694
 20
0.381264
 30
0.0
  0
VERTEX
  8
1
 10
-0.027106
 20
0.381264
 30
0.0
  0
VERTEX
  8
1
 10
-0.026518
 20
0.381264
 30
0.0
  0
VERTEX
  8
1
 10
-0.025926
 20
0.381852
 30
0.0
  0
VERTEX
  8
1
 10
-0.025338
 20
0.383032
 30
0.0
  0
VERTEX
  8
1
 10
-0.025926
 20
0.384208
 30
0.0
  0
VERTEX
  8
1
 10
-0.026518
 20
0.384799
 30
0.0
  0
VERTEX
  8
1
 10
-0.027106
 20
0.384799
 30
0.0
  0
SEQEND
  8
1
  0
POLYLINE
  8
1
 66
     1
 10
0.0
 20
0.0
 30
0.0
  0
VERTEX
  8
1
 10
0.083679
 20
0.40719
 30
0.0
  0
VERTEX
  8
1
 10
0.0825
 20
0.40719
 30
0.0
  0
VERTEX
  8
1
 10
0.081912
 20
0.406602
 30
0.0
  0
VERTEX
  8
1
 10
0.08132
 20
0.405422
 30
0.0
  0
VERTEX
  8
1
 10
0.081912
 20
0.404834
 30
0.0
  0
VERTEX
  8
1
 10
0.0825
 20
0.404246
 30
0.0
  0
VERTEX
  8
1
 10
0.083679
 20
0.403654
 30
0.0
  0
VERTEX
  8
1
 10
0.084856
 20
0.404246
 30
0.0
  0
VERTEX
  8
1
 10
0.084856
 20
0.404834
 30
0.0
  0
VERTEX
  8
1
 10
0.084856
 20
0.406013
 30
0.0
  0
VERTEX
  8
1
 10
0.084856
 20
0.40719
 30
0.0
  0
VERTEX
  8
1
 10
0.084268
 20
0.40719
 30
0.0
  0
VERTEX
  8
1
 10
0.083679
 20
0.40719
 30
0.0
  0
SEQEND
  8
1
  0
POLYLINE
  8
1
 66
     1
 10
0.0
 20
0.0
 30
0.0
  0
VERTEX
  8
1
 10
0.083679
 20
0.384799
 30
0.0
  0
VERTEX
  8
1
 10
0.0825
 20
0.384208
 30
0.0
  0
VERTEX
  8
1
 10
0.081912
 20
0.38362
 30
0.0
  0
VERTEX
  8
1
 10
0.08132
 20
0.38244
 30
0.0
  0
VERTEX
  8
1
 10
0.081912
 20
0.381852
 30
0.0
  0
VERTEX
  8
1
 10
0.0825
 20
0.381264
 30
0.0
  0
VERTEX
  8
1
 10
0.083679
 20
0.381264
 30
0.0
  0
SEQEND
  8
1
  0
POLYLINE
  8
1
 66
     1
 10
0.0
 20
0.0
 30
0.0
  0
VERTEX
  8
1
 10
0.083679
 20
0.381264
 30
0.0
  0
VERTEX
  8
1
 10
0.084856
 20
0.381264
 30
0.0
  0
VERTEX
  8
1
 10
0.084856
 20
0.381852
 30
0.0
  0
VERTEX
  8
1
 10
0.084856
 20
0.383032
 30
0.0
  0
VERTEX
  8
1
 10
0.084856
 20
0.384208
 30
0.0
  0
VERTEX
  8
1
 10
0.084268
 20
0.384799
 30
0.0
  0
VERTEX
  8
1
 10
0.083679
 20
0.384799
 30
0.0
  0
SEQEND
  8
1
  0
POLYLINE
  8
1
 66
     1
 10
0.0
 20
0.0
 30
0.0
  0
VERTEX
  8
1
 10
-0.100767
 20
0.370066
 30
0.0
  0
VERTEX
  8
1
 10
0.101358
 20
0.370066
 30
0.0
  0
VERTEX
  8
1
 10
0.101358
 20
0.420744
 30
0.0
  0
VERTEX
  8
1
 10
-0.100767
 20
0.420744
 30
0.0
  0
SEQEND
  8
1
  0
POLYLINE
  8
1
 66
     1
 10
0.0
 20
0.0
 30
0.0
  0
VERTEX
  8
1
 10
0.20448
 20
0.338836
 30
0.0
  0
VERTEX
  8
1
 10
0.20448
 20
0.356514
 30
0.0
  0
SEQEND
  8
1
  0
POLYLINE
  8
1
 66
     1
 10
0.0
 20
0.0
 30
0.0
  0
VERTEX
  8
1
 10
0.169124
 20
0.356514
 30
0.0
  0
VERTEX
  8
1
 10
0.169124
 20
0.338836
 30
0.0
  0
SEQEND
  8
1
  0
POLYLINE
  8
1
 66
     1
 10
0.0
 20
0.0
 30
0.0
  0
VERTEX
  8
1
 10
0.177963
 20
0.349443
 30
0.0
  0
VERTEX
  8
1
 10
0.176783
 20
0.349443
 30
0.0
  0
VERTEX
  8
1
 10
0.176195
 20
0.348852
 30
0.0
  0
VERTEX
  8
1
 10
0.176195
 20
0.347675
 30
0.0
  0
VERTEX
  8
1
 10
0.176195
 20
0.346495
 30
0.0
  0
VERTEX
  8
1
 10
0.177375
 20
0.346495
 30
0.0
  0
VERTEX
  8
1
 10
0.178551
 20
0.346495
 30
0.0
  0
VERTEX
  8
1
 10
0.179142
 20
0.346495
 30
0.0
  0
VERTEX
  8
1
 10
0.179731
 20
0.347675
 30
0.0
  0
VERTEX
  8
1
 10
0.179731
 20
0.348263
 30
0.0
  0
VERTEX
  8
1
 10
0.179142
 20
0.349443
 30
0.0
  0
VERTEX
  8
1
 10
0.177963
 20
0.349443
 30
0.0
  0
VERTEX
  8
1
 10
0.177963
 20
0.349443
 30
0.0
  0
SEQEND
  8
1
  0
POLYLINE
  8
1
 66
     1
 10
0.0
 20
0.0
 30
0.0
  0
VERTEX
  8
1
 10
0.195641
 20
0.349443
 30
0.0
  0
VERTEX
  8
1
 10
0.195053
 20
0.349443
 30
0.0
  0
VERTEX
  8
1
 10
0.193873
 20
0.348852
 30
0.0
  0
VERTEX
  8
1
 10
0.193873
 20
0.347675
 30
0.0
  0
VERTEX
  8
1
 10
0.194462
 20
0.346495
 30
0.0
  0
VERTEX
  8
1
 10
0.195053
 20
0.346495
 30
0.0
  0
VERTEX
  8
1
 10
0.19623
 20
0.346495
 30
0.0
  0
VERTEX
  8
1
 10
0.196821
 20
0.346495
 30
0.0
  0
VERTEX
  8
1
 10
0.197409
 20
0.347675
 30
0.0
  0
VERTEX
  8
1
 10
0.197409
 20
0.348263
 30
0.0
  0
VERTEX
  8
1
 10
0.196821
 20
0.349443
 30
0.0
  0
VERTEX
  8
1
 10
0.195641
 20
0.349443
 30
0.0
  0
SEQEND
  8
1
  0
POLYLINE
  8
1
 66
     1
 10
0.0
 20
0.0
 30
0.0
  0
VERTEX
  8
1
 10
0.195641
 20
0.349443
 30
0.0
  0
VERTEX
  8
1
 10
0.195641
 20
0.349443
 30
0.0
  0
SEQEND
  8
1
  0
POLYLINE
  8
1
 66
     1
 10
0.0
 20
0.0
 30
0.0
  0
VERTEX
  8
1
 10
0.20448
 20
0.338836
 30
0.0
  0
VERTEX
  8
1
 10
0.169124
 20
0.338836
 30
0.0
  0
SEQEND
  8
1
  0
POLYLINE
  8
1
 66
     1
 10
0.0
 20
0.0
 30
0.0
  0
VERTEX
  8
1
 10
0.20448
 20
0.392459
 30
0.0
  0
VERTEX
  8
1
 10
0.169124
 20
0.392459
 30
0.0
  0
SEQEND
  8
1
  0
POLYLINE
  8
1
 66
     1
 10
0.0
 20
0.0
 30
0.0
  0
VERTEX
  8
1
 10
0.195641
 20
0.367121
 30
0.0
  0
VERTEX
  8
1
 10
0.195053
 20
0.367121
 30
0.0
  0
VERTEX
  8
1
 10
0.193873
 20
0.36653
 30
0.0
  0
VERTEX
  8
1
 10
0.193873
 20
0.365353
 30
0.0
  0
VERTEX
  8
1
 10
0.194462
 20
0.364762
 30
0.0
  0
VERTEX
  8
1
 10
0.195053
 20
0.364174
 30
0.0
  0
VERTEX
  8
1
 10
0.19623
 20
0.364174
 30
0.0
  0
VERTEX
  8
1
 10
0.196821
 20
0.364174
 30
0.0
  0
VERTEX
  8
1
 10
0.197409
 20
0.365353
 30
0.0
  0
VERTEX
  8
1
 10
0.197409
 20
0.36653
 30
0.0
  0
VERTEX
  8
1
 10
0.196821
 20
0.367121
 30
0.0
  0
VERTEX
  8
1
 10
0.195641
 20
0.367121
 30
0.0
  0
VERTEX
  8
1
 10
0.195641
 20
0.367121
 30
0.0
  0
SEQEND
  8
1
  0
POLYLINE
  8
1
 66
     1
 10
0.0
 20
0.0
 30
0.0
  0
VERTEX
  8
1
 10
0.195641
 20
0.385388
 30
0.0
  0
VERTEX
  8
1
 10
0.195053
 20
0.384799
 30
0.0
  0
VERTEX
  8
1
 10
0.193873
 20
0.384208
 30
0.0
  0
VERTEX
  8
1
 10
0.193873
 20
0.383032
 30
0.0
  0
VERTEX
  8
1
 10
0.194462
 20
0.38244
 30
0.0
  0
VERTEX
  8
1
 10
0.195053
 20
0.381852
 30
0.0
  0
VERTEX
  8
1
 10
0.19623
 20
0.381852
 30
0.0
  0
VERTEX
  8
1
 10
0.196821
 20
0.38244
 30
0.0
  0
VERTEX
  8
1
 10
0.197409
 20
0.383032
 30
0.0
  0
VERTEX
  8
1
 10
0.197409
 20
0.384208
 30
0.0
  0
VERTEX
  8
1
 10
0.196821
 20
0.384799
 30
0.0
  0
VERTEX
  8
1
 10
0.195641
 20
0.385388
 30
0.0
  0
VERTEX
  8
1
 10
0.195641
 20
0.385388
 30
0.0
  0
SEQEND
  8
1
  0
POLYLINE
  8
1
 66
     1
 10
0.0
 20
0.0
 30
0.0
  0
VERTEX
  8
1
 10
0.169124
 20
0.356514
 30
0.0
  0
VERTEX
  8
1
 10
0.169124
 20
0.374781
 30
0.0
  0
SEQEND
  8
1
  0
POLYLINE
  8
1
 66
     1
 10
0.0
 20
0.0
 30
0.0
  0
VERTEX
  8
1
 10
0.177963
 20
0.367121
 30
0.0
  0
VERTEX
  8
1
 10
0.176783
 20
0.367121
 30
0.0
  0
VERTEX
  8
1
 10
0.176195
 20
0.36653
 30
0.0
  0
VERTEX
  8
1
 10
0.176195
 20
0.365353
 30
0.0
  0
VERTEX
  8
1
 10
0.176195
 20
0.364762
 30
0.0
  0
VERTEX
  8
1
 10
0.177375
 20
0.364174
 30
0.0
  0
VERTEX
  8
1
 10
0.178551
 20
0.364174
 30
0.0
  0
VERTEX
  8
1
 10
0.179142
 20
0.364174
 30
0.0
  0
VERTEX
  8
1
 10
0.179731
 20
0.365353
 30
0.0
  0
VERTEX
  8
1
 10
0.179731
 20
0.36653
 30
0.0
  0
VERTEX
  8
1
 10
0.179142
 20
0.367121
 30
0.0
  0
VERTEX
  8
1
 10
0.177963
 20
0.367121
 30
0.0
  0
VERTEX
  8
1
 10
0.177963
 20
0.367121
 30
0.0
  0
SEQEND
  8
1
  0
POLYLINE
  8
1
 66
     1
 10
0.0
 20
0.0
 30
0.0
  0
VERTEX
  8
1
 10
0.169124
 20
0.392459
 30
0.0
  0
VERTEX
  8
1
 10
0.169124
 20
0.374781
 30
0.0
  0
SEQEND
  8
1
  0
POLYLINE
  8
1
 66
     1
 10
0.0
 20
0.0
 30
0.0
  0
VERTEX
  8
1
 10
0.177963
 20
0.385388
 30
0.0
  0
VERTEX
  8
1
 10
0.176783
 20
0.384799
 30
0.0
  0
VERTEX
  8
1
 10
0.176195
 20
0.384208
 30
0.0
  0
VERTEX
  8
1
 10
0.176195
 20
0.383032
 30
0.0
  0
VERTEX
  8
1
 10
0.176195
 20
0.38244
 30
0.0
  0
VERTEX
  8
1
 10
0.177375
 20
0.381852
 30
0.0
  0
VERTEX
  8
1
 10
0.178551
 20
0.381852
 30
0.0
  0
VERTEX
  8
1
 10
0.179142
 20
0.38244
 30
0.0
  0
VERTEX
  8
1
 10
0.179731
 20
0.383032
 30
0.0
  0
VERTEX
  8
1
 10
0.179731
 20
0.384208
 30
0.0
  0
VERTEX
  8
1
 10
0.179142
 20
0.384799
 30
0.0
  0
VERTEX
  8
1
 10
0.177963
 20
0.385388
 30
0.0
  0
VERTEX
  8
1
 10
0.177963
 20
0.385388
 30
0.0
  0
SEQEND
  8
1
  0
POLYLINE
  8
1
 66
     1
 10
0.0
 20
0.0
 30
0.0
  0
VERTEX
  8
1
 10
0.20448
 20
0.356514
 30
0.0
  0
VERTEX
  8
1
 10
0.20448
 20
0.374781
 30
0.0
  0
VERTEX
  8
1
 10
0.20448
 20
0.392459
 30
0.0
  0
SEQEND
  8
1
  0
POLYLINE
  8
1
 66
     1
 10
0.0
 20
0.0
 30
0.0
  0
VERTEX
  8
1
 10
0.133767
 20
0.395406
 30
0.0
  0
VERTEX
  8
1
 10
0.206837
 20
0.395406
 30
0.0
  0
SEQEND
  8
1
  0
POLYLINE
  8
1
 66
     1
 10
0.0
 20
0.0
 30
0.0
  0
VERTEX
  8
1
 10
0.133767
 20
0.365942
 30
0.0
  0
VERTEX
  8
1
 10
0.166176
 20
0.365942
 30
0.0
  0
SEQEND
  8
1
  0
POLYLINE
  8
1
 66
     1
 10
0.0
 20
0.0
 30
0.0
  0
VERTEX
  8
1
 10
0.166176
 20
0.395406
 30
0.0
  0
VERTEX
  8
1
 10
0.166176
 20
0.3353
 30
0.0
  0
SEQEND
  8
1
  0
POLYLINE
  8
1
 66
     1
 10
0.0
 20
0.0
 30
0.0
  0
VERTEX
  8
1
 10
0.133767
 20
0.3353
 30
0.0
  0
VERTEX
  8
1
 10
0.133767
 20
0.395406
 30
0.0
  0
SEQEND
  8
1
  0
POLYLINE
  8
1
 66
     1
 10
0.0
 20
0.0
 30
0.0
  0
VERTEX
  8
1
 10
0.143786
 20
0.383032
 30
0.0
  0
VERTEX
  8
1
 10
0.143195
 20
0.384208
 30
0.0
  0
VERTEX
  8
1
 10
0.141427
 20
0.385388
 30
0.0
  0
VERTEX
  8
1
 10
0.14025
 20
0.385388
 30
0.0
  0
VERTEX
  8
1
 10
0.137891
 20
0.384799
 30
0.0
  0
VERTEX
  8
1
 10
0.136714
 20
0.38362
 30
0.0
  0
VERTEX
  8
1
 10
0.136123
 20
0.383032
 30
0.0
  0
VERTEX
  8
1
 10
0.137303
 20
0.381264
 30
0.0
  0
VERTEX
  8
1
 10
0.138482
 20
0.380084
 30
0.0
  0
VERTEX
  8
1
 10
0.139071
 20
0.380084
 30
0.0
  0
VERTEX
  8
1
 10
0.14025
 20
0.378905
 30
0.0
  0
VERTEX
  8
1
 10
0.141427
 20
0.378316
 30
0.0
  0
SEQEND
  8
1
  0
POLYLINE
  8
1
 66
     1
 10
0.0
 20
0.0
 30
0.0
  0
VERTEX
  8
1
 10
0.143786
 20
0.374781
 30
0.0
  0
VERTEX
  8
1
 10
0.143195
 20
0.376549
 30
0.0
  0
VERTEX
  8
1
 10
0.141427
 20
0.377728
 30
0.0
  0
VERTEX
  8
1
 10
0.141427
 20
0.378316
 30
0.0
  0
SEQEND
  8
1
  0
POLYLINE
  8
1
 66
     1
 10
0.0
 20
0.0
 30
0.0
  0
VERTEX
  8
1
 10
0.136123
 20
0.374781
 30
0.0
  0
VERTEX
  8
1
 10
0.137303
 20
0.373601
 30
0.0
  0
VERTEX
  8
1
 10
0.139071
 20
0.372425
 30
0.0
  0
VERTEX
  8
1
 10
0.139659
 20
0.372425
 30
0.0
  0
VERTEX
  8
1
 10
0.142018
 20
0.373013
 30
0.0
  0
VERTEX
  8
1
 10
0.143786
 20
0.374192
 30
0.0
  0
VERTEX
  8
1
 10
0.143786
 20
0.374781
 30
0.0
  0
SEQEND
  8
1
  0
POLYLINE
  8
1
 66
     1
 10
0.0
 20
0.0
 30
0.0
  0
VERTEX
  8
1
 10
0.150857
 20
0.385388
 30
0.0
  0
VERTEX
  8
1
 10
0.146142
 20
0.372425
 30
0.0
  0
SEQEND
  8
1
  0
POLYLINE
  8
1
 66
     1
 10
0.0
 20
0.0
 30
0.0
  0
VERTEX
  8
1
 10
0.148498
 20
0.378905
 30
0.0
  0
VERTEX
  8
1
 10
0.153213
 20
0.378905
 30
0.0
  0
SEQEND
  8
1
  0
POLYLINE
  8
1
 66
     1
 10
0.0
 20
0.0
 30
0.0
  0
VERTEX
  8
1
 10
0.150857
 20
0.385388
 30
0.0
  0
VERTEX
  8
1
 10
0.156161
 20
0.372425
 30
0.0
  0
SEQEND
  8
1
  0
POLYLINE
  8
1
 66
     1
 10
0.0
 20
0.0
 30
0.0
  0
VERTEX
  8
1
 10
0.136714
 20
0.343548
 30
0.0
  0
VERTEX
  8
1
 10
0.136714
 20
0.356514
 30
0.0
  0
VERTEX
  8
1
 10
0.14673
 20
0.343548
 30
0.0
  0
VERTEX
  8
1
 10
0.14673
 20
0.356514
 30
0.0
  0
SEQEND
  8
1
  0
POLYLINE
  8
1
 66
     1
 10
0.0
 20
0.0
 30
0.0
  0
VERTEX
  8
1
 10
0.149089
 20
0.356514
 30
0.0
  0
VERTEX
  8
1
 10
0.152034
 20
0.343548
 30
0.0
  0
VERTEX
  8
1
 10
0.154393
 20
0.350031
 30
0.0
  0
VERTEX
  8
1
 10
0.156161
 20
0.343548
 30
0.0
  0
VERTEX
  8
1
 10
0.159105
 20
0.356514
 30
0.0
  0
SEQEND
  8
1
  0
POLYLINE
  8
1
 66
     1
 10
0.0
 20
0.0
 30
0.0
  0
VERTEX
  8
1
 10
0.186802
 20
0.338836
 30
0.0
  0
VERTEX
  8
1
 10
0.186802
 20
0.356514
 30
0.0
  0
VERTEX
  8
1
 10
0.186802
 20
0.374781
 30
0.0
  0
VERTEX
  8
1
 10
0.186802
 20
0.392459
 30
0.0
  0
SEQEND
  8
1
  0
POLYLINE
  8
1
 66
     1
 10
0.0
 20
0.0
 30
0.0
  0
VERTEX
  8
1
 10
0.133767
 20
0.3353
 30
0.0
  0
VERTEX
  8
1
 10
0.206837
 20
0.3353
 30
0.0
  0
VERTEX
  8
1
 10
0.206837
 20
0.395406
 30
0.0
  0
SEQEND
  8
1
  0
ENDSEC
  0
EOF
