  0
SECTION
  2
HEADER
  9
$ACADVER
  1
AC1009
  9
$INSBASE
 10
0.0
 20
0.0
 30
0.0
  9
$EXTMIN
 10
-0.340912
 20
0.0
 30
0.0
  9
$EXTMAX
 10
0.340912
 20
1.181827
 30
0.0
  9
$LIMMIN
 10
0.054456
 20
0.342409
  9
$LIMMAX
 10
8.25
 20
10.073738
  9
$ORTHOMODE
 70
     1
  9
$REGENMODE
 70
     1
  9
$FILLMODE
 70
     1
  9
$QTEXTMODE
 70
     0
  9
$MIRRTEXT
 70
     1
  9
$DRAGMODE
 70
     1
  9
$LTSCALE
 40
1.0
  9
$OSMODE
 70
     0
  9
$ATTMODE
 70
     2
  9
$TEXTSIZE
 40
0.078
  9
$TRACEWID
 40
0.05
  9
$TEXTSTYLE
  7
STANDARD
  9
$CLAYER
  8
0
  9
$CELTYPE
  6
BYLAYER
  9
$CECOLOR
 62
   256
  9
$DIMSCALE
 40
1.0
  9
$DIMASZ
 40
0.18
  9
$DIMEXO
 40
0.0625
  9
$DIMDLI
 40
0.38
  9
$DIMRND
 40
0.0
  9
$DIMDLE
 40
0.0
  9
$DIMEXE
 40
0.18
  9
$DIMTP
 40
0.0
  9
$DIMTM
 40
0.0
  9
$DIMTXT
 40
0.18
  9
$DIMCEN
 40
0.09
  9
$DIMTSZ
 40
0.0
  9
$DIMTOL
 70
     0
  9
$DIMLIM
 70
     0
  9
$DIMTIH
 70
     1
  9
$DIMTOH
 70
     1
  9
$DIMSE1
 70
     0
  9
$DIMSE2
 70
     0
  9
$DIMTAD
 70
     0
  9
$DIMZIN
 70
     0
  9
$DIMBLK
  1

  9
$DIMASO
 70
     1
  9
$DIMSHO
 70
     1
  9
$DIMPOST
  1
"
  9
$DIMAPOST
  1

  9
$DIMALT
 70
     0
  9
$DIMALTD
 70
     2
  9
$DIMALTF
 40
25.4
  9
$DIMLFAC
 40
1.0
  9
$DIMTOFL
 70
     0
  9
$DIMTVP
 40
0.0
  9
$DIMTIX
 70
     0
  9
$DIMSOXD
 70
     0
  9
$DIMSAH
 70
     0
  9
$DIMBLK1
  1

  9
$DIMBLK2
  1

  9
$DIMSTYLE
  2
*UNNAMED
  9
$DIMCLRD
 70
     0
  9
$DIMCLRE
 70
     0
  9
$DIMCLRT
 70
     0
  9
$DIMTFAC
 40
1.0
  9
$DIMGAP
 40
0.09
  9
$LUNITS
 70
     2
  9
$LUPREC
 70
     4
  9
$SKETCHINC
 40
0.1
  9
$FILLETRAD
 40
0.0
  9
$AUNITS
 70
     0
  9
$AUPREC
 70
     4
  9
$MENU
  1
acad
  9
$ELEVATION
 40
0.0
  9
$PELEVATION
 40
0.0
  9
$THICKNESS
 40
0.0
  9
$LIMCHECK
 70
     0
  9
$BLIPMODE
 70
     0
  9
$CHAMFERA
 40
0.0
  9
$CHAMFERB
 40
0.0
  9
$SKPOLY
 70
     0
  9
$TDCREATE
 40
2450620.453200694
  9
$TDUPDATE
 40
2450620.453200694
  9
$TDINDWG
 40
0.0000000000
  9
$TDUSRTIMER
 40
0.0000000000
  9
$USRTIMER
 70
     1
  9
$ANGBASE
 50
0.0
  9
$ANGDIR
 70
     0
  9
$PDMODE
 70
     2
  9
$PDSIZE
 40
0.0
  9
$PLINEWID
 40
0.0
  9
$COORDS
 70
     1
  9
$SPLFRAME
 70
     0
  9
$SPLINETYPE
 70
     6
  9
$SPLINESEGS
 70
     8
  9
$ATTDIA
 70
     0
  9
$ATTREQ
 70
     1
  9
$HANDLING
 70
     0
  9
$HANDSEED
  5
0
  9
$SURFTAB1
 70
     6
  9
$SURFTAB2
 70
     6
  9
$SURFTYPE
 70
     6
  9
$SURFU
 70
     6
  9
$SURFV
 70
     6
  9
$UCSNAME
  2

  9
$UCSORG
 10
0.0
 20
0.0
 30
0.0
  9
$UCSXDIR
 10
1.0
 20
0.0
 30
0.0
  9
$UCSYDIR
 10
0.0
 20
1.0
 30
0.0
  9
$PUCSNAME
  2

  9
$PUCSORG
 10
0.0
 20
0.0
 30
0.0
  9
$PUCSXDIR
 10
1.0
 20
0.0
 30
0.0
  9
$PUCSYDIR
 10
0.0
 20
1.0
 30
0.0
  9
$USERI1
 70
     0
  9
$USERI2
 70
     0
  9
$USERI3
 70
     0
  9
$USERI4
 70
     0
  9
$USERI5
 70
     0
  9
$USERR1
 40
0.0
  9
$USERR2
 40
0.0
  9
$USERR3
 40
0.0
  9
$USERR4
 40
0.0
  9
$USERR5
 40
0.0
  9
$WORLDVIEW
 70
     1
  9
$SHADEDGE
 70
     3
  9
$SHADEDIF
 70
    70
  9
$TILEMODE
 70
     1
  9
$MAXACTVP
 70
    16
  9
$PINSBASE
 10
0.0
 20
0.0
 30
0.0
  9
$PLIMCHECK
 70
     0
  9
$PEXTMIN
 10
1.000000E+20
 20
1.000000E+20
 30
1.000000E+20
  9
$PEXTMAX
 10
-1.000000E+20
 20
-1.000000E+20
 30
-1.000000E+20
  9
$PLIMMIN
 10
0.0
 20
0.0
  9
$PLIMMAX
 10
12.0
 20
9.0
  9
$UNITMODE
 70
     0
  9
$VISRETAIN
 70
     0
  9
$PLINEGEN
 70
     0
  9
$PSLTSCALE
 70
     1
  9
$TREEDEPTH
 70
  3020
  9
$DWGCODEPAGE
  3
ascii
  0
ENDSEC
  0
SECTION
  2
TABLES
  0
TABLE
  2
VPORT
 70
     2
  0
VPORT
  2
*ACTIVE
 70
     0
 10
0.0
 20
0.0
 11
1.0
 21
1.0
 12
6.647287
 22
5.036869
 13
0.0
 23
0.0
 14
0.03125
 24
0.03125
 15
0.03125
 25
0.03125
 16
0.0
 26
0.0
 36
1.0
 17
0.0
 27
0.0
 37
0.0
 40
10.073738
 41
1.387409
 42
50.0
 43
0.0
 44
0.0
 50
0.0
 51
0.0
 71
     0
 72
   100
 73
     1
 74
     1
 75
     1
 76
     1
 77
     0
 78
     0
  0
ENDTAB
  0
TABLE
  2
LTYPE
 70
     1
  0
LTYPE
  2
CONTINUOUS
 70
    64
  3
SOLID LINE
 72
    65
 73
     0
 40
0.0
  0
ENDTAB
  0
TABLE
  2
LAYER
 70
     2
  0
LAYER
  2
0
 70
    64
 62
     4
  6
CONTINUOUS
  0
LAYER
  2
1
 70
    64
 62
     4
  6
CONTINUOUS
  0
ENDTAB
  0
TABLE
  2
STYLE
 70
     3
  0
STYLE
  2
STANDARD
 70
     0
 40
0.0
 41
1.0
 50
0.0
 71
     0
 42
0.2
  3
txt
  4

  0
STYLE
  2
SIMPLEX
 70
    64
 40
0.0
 41
1.0
 50
0.0
 71
     0
 42
1.0
  3
ROMANS.SHX
  4

  0
STYLE
  2
ROMANS
 70
     0
 40
0.0
 41
1.0
 50
0.0
 71
     0
 42
1.0
  3
TXT
  4

  0
ENDTAB
  0
TABLE
  2
VIEW
 70
     0
  0
ENDTAB
  0
TABLE
  2
UCS
 70
     0
  0
ENDTAB
  0
TABLE
  2
APPID
 70
     1
  0
APPID
  2
ACAD
 70
    64
  0
ENDTAB
  0
TABLE
  2
DIMSTYLE
 70
     0
  0
ENDTAB
  0
ENDSEC
  0
SECTION
  2
BLOCKS
  0
BLOCK
  8
0
  2
DONUT
 70
    64
 10
0.0
 20
0.0
 30
0.0
  0
CIRCLE
  8
0
  6
CONTINUOUS
 62
     4
 10
0.0
 20
0.0
 30
0.0
 40
0.03125
  0
CIRCLE
  8
0
  6
CONTINUOUS
 62
     4
 10
0.0
 20
0.0
 30
0.0
 40
0.02997
  0
CIRCLE
  8
0
  6
CONTINUOUS
 62
     4
 10
0.0
 20
0.0
 30
0.0
 40
0.028765
  0
CIRCLE
  8
0
  6
CONTINUOUS
 62
     4
 10
0.0
 20
0.0
 30
0.0
 40
0.027259
  0
CIRCLE
  8
0
  6
CONTINUOUS
 62
     4
 10
0.0
 20
0.0
 30
0.0
 40
0.026054
  0
CIRCLE
  8
0
  6
CONTINUOUS
 62
     4
 10
0.0
 20
0.0
 30
0.0
 40
0.024548
  0
CIRCLE
  8
0
  6
CONTINUOUS
 62
     4
 10
0.0
 20
0.0
 30
0.0
 40
0.022741
  0
CIRCLE
  8
0
  6
CONTINUOUS
 62
     4
 10
0.0
 20
0.0
 30
0.0
 40
0.020934
  0
CIRCLE
  8
0
  6
CONTINUOUS
 62
     4
 10
0.0
 20
0.0
 30
0.0
 40
0.019126
  0
CIRCLE
  8
0
  6
CONTINUOUS
 62
     4
 10
0.0
 20
0.0
 30
0.0
 40
0.017018
  0
CIRCLE
  8
0
  6
CONTINUOUS
 62
     4
 10
0.0
 20
0.0
 30
0.0
 40
0.015512
  0
CIRCLE
  8
0
  6
CONTINUOUS
 62
     4
 10
0.0
 20
0.0
 30
0.0
 40
0.014006
  0
ENDBLK
  8
0
  0
ENDSEC
  0
SECTION
  2
ENTITIES
  0
LINE
  8
0
  6
CONTINUOUS
 62
   250
 10
-0.340912
 20
0.09091
 30
0.0
 11
-0.340912
 21
1.090917
 31
0.0
  0
LINE
  8
0
  6
CONTINUOUS
 62
   250
 10
-0.340912
 20
1.090917
 30
0.0
 11
0.340912
 21
1.090917
 31
0.0
  0
LINE
  8
0
  6
CONTINUOUS
 62
   250
 10
0.340912
 20
1.090917
 30
0.0
 11
0.340912
 21
0.09091
 31
0.0
  0
LINE
  8
0
  6
CONTINUOUS
 62
   250
 10
0.340912
 20
0.09091
 30
0.0
 11
-0.340912
 21
0.09091
 31
0.0
  0
LINE
  8
0
  6
CONTINUOUS
 62
   250
 10
-0.250002
 20
1.181827
 30
0.0
 11
-0.340912
 21
1.090917
 31
0.0
  0
LINE
  8
0
  6
CONTINUOUS
 62
   250
 10
-0.250002
 20
1.181827
 30
0.0
 11
0.250002
 21
1.181827
 31
0.0
  0
LINE
  8
0
  6
CONTINUOUS
 62
   250
 10
0.250002
 20
1.181827
 30
0.0
 11
0.340912
 21
1.090917
 31
0.0
  0
LINE
  8
0
  6
CONTINUOUS
 62
   250
 10
0.340912
 20
0.09091
 30
0.0
 11
0.250002
 21
0.0
 31
0.0
  0
LINE
  8
0
  6
CONTINUOUS
 62
   250
 10
0.250002
 20
0.0
 30
0.0
 11
-0.250002
 21
0.0
 31
0.0
  0
LINE
  8
0
  6
CONTINUOUS
 62
   250
 10
-0.250002
 20
0.0
 30
0.0
 11
-0.340912
 21
0.09091
 31
0.0
  0
CIRCLE
  8
0
  6
CONTINUOUS
 62
   250
 10
0.0
 20
1.136372
 30
0.0
 40
0.017046
  0
CIRCLE
  8
0
  6
CONTINUOUS
 62
   250
 10
0.0
 20
0.045455
 30
0.0
 40
0.017046
  0
LINE
  8
0
  6
CONTINUOUS
 62
   250
 10
0.170456
 20
0.318184
 30
0.0
 11
0.170456
 21
0.204547
 31
0.0
  0
LINE
  8
0
  6
CONTINUOUS
 62
   250
 10
0.272729
 20
0.204547
 30
0.0
 11
0.170456
 21
0.204547
 31
0.0
  0
LINE
  8
0
  6
CONTINUOUS
 62
   250
 10
0.272729
 20
0.204547
 30
0.0
 11
0.272729
 21
0.318184
 31
0.0
  0
LINE
  8
0
  6
CONTINUOUS
 62
   250
 10
0.272729
 20
0.318184
 30
0.0
 11
0.170456
 21
0.318184
 31
0.0
  0
LINE
  8
0
  6
CONTINUOUS
 62
   250
 10
0.201706
 20
0.227274
 30
0.0
 11
0.201706
 21
0.238638
 31
0.0
  0
LINE
  8
0
  6
CONTINUOUS
 62
   250
 10
0.201706
 20
0.238638
 30
0.0
 11
0.190342
 21
0.238638
 31
0.0
  0
LINE
  8
0
  6
CONTINUOUS
 62
   250
 10
0.190342
 20
0.238638
 30
0.0
 11
0.190342
 21
0.24432
 31
0.0
  0
LINE
  8
0
  6
CONTINUOUS
 62
   250
 10
0.190342
 20
0.24432
 30
0.0
 11
0.18466
 21
0.24432
 31
0.0
  0
LINE
  8
0
  6
CONTINUOUS
 62
   250
 10
0.18466
 20
0.24432
 30
0.0
 11
0.18466
 21
0.267048
 31
0.0
  0
LINE
  8
0
  6
CONTINUOUS
 62
   250
 10
0.18466
 20
0.267048
 30
0.0
 11
0.190342
 21
0.267048
 31
0.0
  0
LINE
  8
0
  6
CONTINUOUS
 62
   250
 10
0.190342
 20
0.267048
 30
0.0
 11
0.190342
 21
0.289775
 31
0.0
  0
LINE
  8
0
  6
CONTINUOUS
 62
   250
 10
0.241479
 20
0.227274
 30
0.0
 11
0.241479
 21
0.238638
 31
0.0
  0
LINE
  8
0
  6
CONTINUOUS
 62
   250
 10
0.241479
 20
0.238638
 30
0.0
 11
0.252843
 21
0.238638
 31
0.0
  0
LINE
  8
0
  6
CONTINUOUS
 62
   250
 10
0.252843
 20
0.238638
 30
0.0
 11
0.252843
 21
0.24432
 31
0.0
  0
LINE
  8
0
  6
CONTINUOUS
 62
   250
 10
0.252843
 20
0.24432
 30
0.0
 11
0.258525
 21
0.24432
 31
0.0
  0
LINE
  8
0
  6
CONTINUOUS
 62
   250
 10
0.258525
 20
0.24432
 30
0.0
 11
0.258525
 21
0.267048
 31
0.0
  0
LINE
  8
0
  6
CONTINUOUS
 62
   250
 10
0.258525
 20
0.267048
 30
0.0
 11
0.252843
 21
0.267048
 31
0.0
  0
LINE
  8
0
  6
CONTINUOUS
 62
   250
 10
0.252843
 20
0.267048
 30
0.0
 11
0.252843
 21
0.289775
 31
0.0
  0
LINE
  8
0
  6
CONTINUOUS
 62
   250
 10
0.252843
 20
0.289775
 30
0.0
 11
0.24432
 21
0.289775
 31
0.0
  0
LINE
  8
0
  6
CONTINUOUS
 62
   250
 10
0.190342
 20
0.289775
 30
0.0
 11
0.198865
 21
0.289775
 31
0.0
  0
LINE
  8
0
  6
CONTINUOUS
 62
   250
 10
0.198865
 20
0.289775
 30
0.0
 11
0.198865
 21
0.301139
 31
0.0
  0
LINE
  8
0
  6
CONTINUOUS
 62
   250
 10
0.24432
 20
0.289775
 30
0.0
 11
0.24432
 21
0.301139
 31
0.0
  0
LINE
  8
0
  6
CONTINUOUS
 62
   250
 10
0.24432
 20
0.301139
 30
0.0
 11
0.198865
 21
0.301139
 31
0.0
  0
ARC
  8
0
  6
CONTINUOUS
 62
   250
 10
0.204547
 20
0.681824
 30
0.0
 40
0.034091
 50
44.999588
 51
333.434326
  0
LINE
  8
0
  6
CONTINUOUS
 62
   250
 10
0.235039
 20
0.666577
 30
0.0
 11
0.227416
 21
0.664036
 31
0.0
  0
LINE
  8
0
  6
CONTINUOUS
 62
   250
 10
0.235039
 20
0.666577
 30
0.0
 11
0.23758
 21
0.658954
 31
0.0
  0
LINE
  8
0
  6
CONTINUOUS
 62
   250
 10
0.051137
 20
0.715915
 30
0.0
 11
0.051137
 21
0.647732
 31
0.0
  0
LINE
  8
0
  6
CONTINUOUS
 62
   250
 10
0.051137
 20
0.647732
 30
0.0
 11
0.110184
 21
0.681823
 31
0.0
  0
LINE
  8
0
  6
CONTINUOUS
 62
   250
 10
0.110184
 20
0.681823
 30
0.0
 11
0.051137
 21
0.715915
 31
0.0
  0
LINE
  8
0
  6
CONTINUOUS
 62
   250
 10
-0.034091
 20
0.710233
 30
0.0
 11
-0.102274
 21
0.710233
 31
0.0
  0
LINE
  8
0
  6
CONTINUOUS
 62
   250
 10
-0.102274
 20
0.710233
 30
0.0
 11
-0.068182
 21
0.651185
 31
0.0
  0
LINE
  8
0
  6
CONTINUOUS
 62
   250
 10
-0.068182
 20
0.651185
 30
0.0
 11
-0.034091
 21
0.710233
 31
0.0
  0
LINE
  8
0
  6
CONTINUOUS
 62
   250
 10
-0.238638
 20
0.653414
 30
0.0
 11
-0.170456
 21
0.653414
 31
0.0
  0
LINE
  8
0
  6
CONTINUOUS
 62
   250
 10
-0.170456
 20
0.653414
 30
0.0
 11
-0.204547
 21
0.712462
 31
0.0
  0
LINE
  8
0
  6
CONTINUOUS
 62
   250
 10
-0.204547
 20
0.712462
 30
0.0
 11
-0.238638
 21
0.653414
 31
0.0
  0
CIRCLE
  8
0
  6
CONTINUOUS
 62
   250
 10
-0.068182
 20
0.272729
 30
0.0
 40
0.022727
  0
LINE
  8
0
  6
CONTINUOUS
 62
   250
 10
-0.052112
 20
0.2888
 30
0.0
 11
-0.044076
 21
0.296836
 31
0.0
  0
LINE
  8
0
  6
CONTINUOUS
 62
   250
 10
-0.084253
 20
0.256659
 30
0.0
 11
-0.092288
 21
0.248623
 31
0.0
  0
LINE
  8
0
  6
CONTINUOUS
 62
   250
 10
-0.084253
 20
0.2888
 30
0.0
 11
-0.092288
 21
0.296836
 31
0.0
  0
LINE
  8
0
  6
CONTINUOUS
 62
   250
 10
-0.052112
 20
0.256659
 30
0.0
 11
-0.044076
 21
0.248623
 31
0.0
  0
LINE
  8
0
  6
CONTINUOUS
 62
   250
 10
-0.045455
 20
0.272729
 30
0.0
 11
-0.034091
 21
0.272729
 31
0.0
  0
LINE
  8
0
  6
CONTINUOUS
 62
   250
 10
-0.068182
 20
0.295457
 30
0.0
 11
-0.068182
 21
0.30682
 31
0.0
  0
LINE
  8
0
  6
CONTINUOUS
 62
   250
 10
-0.09091
 20
0.272729
 30
0.0
 11
-0.102274
 21
0.272729
 31
0.0
  0
LINE
  8
0
  6
CONTINUOUS
 62
   250
 10
-0.068182
 20
0.250002
 30
0.0
 11
-0.068182
 21
0.238638
 31
0.0
  0
CIRCLE
  8
0
  6
CONTINUOUS
 62
   250
 10
-0.068182
 20
0.409094
 30
0.0
 40
0.022727
  0
LINE
  8
0
  6
CONTINUOUS
 62
   250
 10
-0.052112
 20
0.425165
 30
0.0
 11
-0.044076
 21
0.4332
 31
0.0
  0
LINE
  8
0
  6
CONTINUOUS
 62
   250
 10
-0.084253
 20
0.393023
 30
0.0
 11
-0.092288
 21
0.384988
 31
0.0
  0
LINE
  8
0
  6
CONTINUOUS
 62
   250
 10
-0.084253
 20
0.425165
 30
0.0
 11
-0.092288
 21
0.4332
 31
0.0
  0
LINE
  8
0
  6
CONTINUOUS
 62
   250
 10
-0.052112
 20
0.393023
 30
0.0
 11
-0.044076
 21
0.384988
 31
0.0
  0
LINE
  8
0
  6
CONTINUOUS
 62
   250
 10
-0.045455
 20
0.409094
 30
0.0
 11
-0.034091
 21
0.409094
 31
0.0
  0
LINE
  8
0
  6
CONTINUOUS
 62
   250
 10
-0.068182
 20
0.431821
 30
0.0
 11
-0.068182
 21
0.443185
 31
0.0
  0
LINE
  8
0
  6
CONTINUOUS
 62
   250
 10
-0.09091
 20
0.409094
 30
0.0
 11
-0.102274
 21
0.409094
 31
0.0
  0
LINE
  8
0
  6
CONTINUOUS
 62
   250
 10
-0.068182
 20
0.386367
 30
0.0
 11
-0.068182
 21
0.375003
 31
0.0
  0
ARC
  8
0
  6
CONTINUOUS
 62
   250
 10
-0.063037
 20
0.545459
 30
0.0
 40
0.017582
 50
320.83429
 51
39.165436
  0
ARC
  8
0
  6
CONTINUOUS
 62
   250
 10
-0.084692
 20
0.545459
 30
0.0
 40
0.017582
 50
140.835037
 51
219.165253
  0
ARC
  8
0
  6
CONTINUOUS
 62
   250
 10
-0.073864
 20
0.53664
 30
0.0
 40
0.031546
 50
39.164131
 51
140.836136
  0
ARC
  8
0
  6
CONTINUOUS
 62
   250
 10
-0.073864
 20
0.554278
 30
0.0
 40
0.031547
 50
219.16449
 51
320.83551
  0
LINE
  8
0
  6
CONTINUOUS
 62
   250
 10
-0.056407
 20
0.562916
 30
0.0
 11
-0.073864
 21
0.545459
 31
0.0
  0
LINE
  8
0
  6
CONTINUOUS
 62
   250
 10
-0.056407
 20
0.528002
 30
0.0
 11
-0.073864
 21
0.545459
 31
0.0
  0
LINE
  8
0
  6
CONTINUOUS
 62
   250
 10
-0.048291
 20
0.571032
 30
0.0
 11
-0.055337
 21
0.563986
 31
0.0
  0
LINE
  8
0
  6
CONTINUOUS
 62
   250
 10
-0.034091
 20
0.545459
 30
0.0
 11
-0.043885
 21
0.545459
 31
0.0
  0
LINE
  8
0
  6
CONTINUOUS
 62
   250
 10
-0.048291
 20
0.519886
 30
0.0
 11
-0.055337
 21
0.526931
 31
0.0
  0
LINE
  8
0
  6
CONTINUOUS
 62
   250
 10
0.232956
 20
0.210229
 30
0.0
 11
0.210229
 21
0.210229
 31
0.0
  0
LINE
  8
0
  6
CONTINUOUS
 62
   250
 10
0.232956
 20
0.210229
 30
0.0
 11
0.232956
 21
0.227274
 31
0.0
  0
LINE
  8
0
  6
CONTINUOUS
 62
   250
 10
0.232956
 20
0.227274
 30
0.0
 11
0.241479
 21
0.227274
 31
0.0
  0
LINE
  8
0
  6
CONTINUOUS
 62
   250
 10
0.210229
 20
0.210229
 30
0.0
 11
0.210229
 21
0.227274
 31
0.0
  0
LINE
  8
0
  6
CONTINUOUS
 62
   250
 10
0.210229
 20
0.227274
 30
0.0
 11
0.201706
 21
0.227274
 31
0.0
  0
LINE
  8
0
  6
CONTINUOUS
 62
   250
 10
-0.250002
 20
0.840916
 30
0.0
 11
-0.250002
 21
0.97728
 31
0.0
  0
LINE
  8
0
  6
CONTINUOUS
 62
   250
 10
-0.250002
 20
0.97728
 30
0.0
 11
0.250002
 21
0.97728
 31
0.0
  0
LINE
  8
0
  6
CONTINUOUS
 62
   250
 10
0.250002
 20
0.97728
 30
0.0
 11
0.250002
 21
0.840916
 31
0.0
  0
LINE
  8
0
  6
CONTINUOUS
 62
   250
 10
0.250002
 20
0.840916
 30
0.0
 11
-0.250002
 21
0.840916
 31
0.0
  0
LINE
  8
0
  6
CONTINUOUS
 62
   250
 10
-0.176151
 20
0.508152
 30
0.0
 11
-0.279661
 21
0.508152
 31
0.0
  0
LINE
  8
0
  6
CONTINUOUS
 62
   250
 10
-0.176151
 20
0.582766
 30
0.0
 11
-0.279661
 21
0.582766
 31
0.0
  0
LINE
  8
0
  6
CONTINUOUS
 62
   250
 10
-0.265546
 20
0.574004
 30
0.0
 11
-0.265546
 21
0.555186
 31
0.0
  0
CIRCLE
  8
0
  6
CONTINUOUS
 62
   250
 10
-0.265546
 20
0.564596
 30
0.0
 40
0.009411
  0
LINE
  8
0
  6
CONTINUOUS
 62
   250
 10
-0.265546
 20
0.536367
 30
0.0
 11
-0.265546
 21
0.517545
 31
0.0
  0
CIRCLE
  8
0
  6
CONTINUOUS
 62
   250
 10
-0.265546
 20
0.526956
 30
0.0
 40
0.009411
  0
LINE
  8
0
  6
CONTINUOUS
 62
   250
 10
-0.279661
 20
0.508152
 30
0.0
 11
-0.279661
 21
0.582766
 31
0.0
  0
LINE
  8
0
  6
CONTINUOUS
 62
   250
 10
-0.176151
 20
0.582766
 30
0.0
 11
-0.279661
 21
0.582766
 31
0.0
  0
LINE
  8
0
  6
CONTINUOUS
 62
   250
 10
-0.176151
 20
0.582766
 30
0.0
 11
-0.176151
 21
0.508152
 31
0.0
  0
LINE
  8
0
  6
CONTINUOUS
 62
   250
 10
-0.176151
 20
0.371787
 30
0.0
 11
-0.279661
 21
0.371787
 31
0.0
  0
LINE
  8
0
  6
CONTINUOUS
 62
   250
 10
-0.176151
 20
0.446401
 30
0.0
 11
-0.279661
 21
0.446401
 31
0.0
  0
LINE
  8
0
  6
CONTINUOUS
 62
   250
 10
-0.265546
 20
0.437639
 30
0.0
 11
-0.265546
 21
0.418821
 31
0.0
  0
CIRCLE
  8
0
  6
CONTINUOUS
 62
   250
 10
-0.265546
 20
0.428232
 30
0.0
 40
0.009411
  0
LINE
  8
0
  6
CONTINUOUS
 62
   250
 10
-0.265546
 20
0.400002
 30
0.0
 11
-0.265546
 21
0.381181
 31
0.0
  0
CIRCLE
  8
0
  6
CONTINUOUS
 62
   250
 10
-0.265546
 20
0.390591
 30
0.0
 40
0.009411
  0
LINE
  8
0
  6
CONTINUOUS
 62
   250
 10
-0.279661
 20
0.371787
 30
0.0
 11
-0.279661
 21
0.446401
 31
0.0
  0
LINE
  8
0
  6
CONTINUOUS
 62
   250
 10
-0.176151
 20
0.446401
 30
0.0
 11
-0.279661
 21
0.446401
 31
0.0
  0
LINE
  8
0
  6
CONTINUOUS
 62
   250
 10
-0.176151
 20
0.446401
 30
0.0
 11
-0.176151
 21
0.371787
 31
0.0
  0
LINE
  8
0
  6
CONTINUOUS
 62
   250
 10
-0.176151
 20
0.235423
 30
0.0
 11
-0.279661
 21
0.235423
 31
0.0
  0
LINE
  8
0
  6
CONTINUOUS
 62
   250
 10
-0.176151
 20
0.310036
 30
0.0
 11
-0.279661
 21
0.310036
 31
0.0
  0
LINE
  8
0
  6
CONTINUOUS
 62
   250
 10
-0.265546
 20
0.301275
 30
0.0
 11
-0.265546
 21
0.282456
 31
0.0
  0
CIRCLE
  8
0
  6
CONTINUOUS
 62
   250
 10
-0.265546
 20
0.291867
 30
0.0
 40
0.009411
  0
LINE
  8
0
  6
CONTINUOUS
 62
   250
 10
-0.265546
 20
0.263637
 30
0.0
 11
-0.265546
 21
0.244816
 31
0.0
  0
CIRCLE
  8
0
  6
CONTINUOUS
 62
   250
 10
-0.265546
 20
0.254227
 30
0.0
 40
0.009411
  0
LINE
  8
0
  6
CONTINUOUS
 62
   250
 10
-0.279661
 20
0.235423
 30
0.0
 11
-0.279661
 21
0.310036
 31
0.0
  0
LINE
  8
0
  6
CONTINUOUS
 62
   250
 10
-0.176151
 20
0.310036
 30
0.0
 11
-0.279661
 21
0.310036
 31
0.0
  0
LINE
  8
0
  6
CONTINUOUS
 62
   250
 10
-0.176151
 20
0.310036
 30
0.0
 11
-0.176151
 21
0.235423
 31
0.0
  0
LINE
  8
0
  6
CONTINUOUS
 62
   250
 10
0.277352
 20
0.582766
 30
0.0
 11
0.173843
 21
0.582766
 31
0.0
  0
LINE
  8
0
  6
CONTINUOUS
 62
   250
 10
0.277352
 20
0.582766
 30
0.0
 11
0.173843
 21
0.582766
 31
0.0
  0
LINE
  8
0
  6
CONTINUOUS
 62
   250
 10
0.277352
 20
0.470513
 30
0.0
 11
0.173843
 21
0.470513
 31
0.0
  0
LINE
  8
0
  6
CONTINUOUS
 62
   250
 10
0.173843
 20
0.395235
 30
0.0
 11
0.173843
 21
0.582766
 31
0.0
  0
LINE
  8
0
  6
CONTINUOUS
 62
   250
 10
0.277352
 20
0.582766
 30
0.0
 11
0.277352
 21
0.395235
 31
0.0
  0
LINE
  8
0
  6
CONTINUOUS
 62
   250
 10
0.277352
 20
0.395235
 30
0.0
 11
0.173843
 21
0.395235
 31
0.0
  0
LINE
  8
0
  6
CONTINUOUS
 62
   250
 10
0.263237
 20
0.574004
 30
0.0
 11
0.263237
 21
0.555186
 31
0.0
  0
CIRCLE
  8
0
  6
CONTINUOUS
 62
   250
 10
0.263237
 20
0.564596
 30
0.0
 40
0.009411
  0
LINE
  8
0
  6
CONTINUOUS
 62
   250
 10
0.263237
 20
0.536367
 30
0.0
 11
0.263237
 21
0.517545
 31
0.0
  0
CIRCLE
  8
0
  6
CONTINUOUS
 62
   250
 10
0.263237
 20
0.526956
 30
0.0
 40
0.009411
  0
LINE
  8
0
  6
CONTINUOUS
 62
   250
 10
0.263237
 20
0.498727
 30
0.0
 11
0.263237
 21
0.479906
 31
0.0
  0
CIRCLE
  8
0
  6
CONTINUOUS
 62
   250
 10
0.263237
 20
0.489317
 30
0.0
 40
0.009411
  0
LINE
  8
0
  6
CONTINUOUS
 62
   250
 10
0.263237
 20
0.461088
 30
0.0
 11
0.263237
 21
0.442267
 31
0.0
  0
CIRCLE
  8
0
  6
CONTINUOUS
 62
   250
 10
0.263237
 20
0.451678
 30
0.0
 40
0.009411
  0
LINE
  8
0
  6
CONTINUOUS
 62
   250
 10
0.263237
 20
0.423449
 30
0.0
 11
0.263237
 21
0.404628
 31
0.0
  0
CIRCLE
  8
0
  6
CONTINUOUS
 62
   250
 10
0.263237
 20
0.414039
 30
0.0
 40
0.009411
  0
CIRCLE
  8
1
  6
CONTINUOUS
 62
   250
 10
0.227528
 20
0.361764
 30
0.0
 40
0.001814
  0
CIRCLE
  8
1
  6
CONTINUOUS
 62
   250
 10
0.209387
 20
0.361764
 30
0.0
 40
0.001814
  0
LINE
  8
1
  6
CONTINUOUS
 62
   250
 10
0.200317
 20
0.352659
 30
0.0
 11
0.200317
 21
0.370834
 31
0.0
  0
CIRCLE
  8
1
  6
CONTINUOUS
 62
   250
 10
0.245578
 20
0.361764
 30
0.0
 40
0.001814
  0
LINE
  8
1
  6
CONTINUOUS
 62
   250
 10
0.200317
 20
0.370834
 30
0.0
 11
0.254647
 21
0.370834
 31
0.0
  0
LINE
  8
1
  6
CONTINUOUS
 62
   250
 10
0.254647
 20
0.370834
 30
0.0
 11
0.254647
 21
0.352659
 31
0.0
  0
LINE
  8
1
  6
CONTINUOUS
 62
   250
 10
0.254647
 20
0.352659
 30
0.0
 11
0.200317
 21
0.352659
 31
0.0
  0
LINE
  8
0
  6
CONTINUOUS
 62
   250
 10
-0.219193
 20
0.196518
 30
0.0
 11
-0.209115
 21
0.166285
 31
0.0
  0
LINE
  8
0
  6
CONTINUOUS
 62
   250
 10
-0.219193
 20
0.196518
 30
0.0
 11
-0.229271
 21
0.166285
 31
0.0
  0
TEXT
  8
0
  6
CONTINUOUS
 62
   250
 10
-0.238638
 20
0.920462
 30
0.0
 40
0.034091
  1
MON
 41
0.9
  7
ROMANS
  0
TEXT
  8
0
  6
CONTINUOUS
 62
   250
 10
-0.238638
 20
0.863643
 30
0.0
 40
0.034091
  1
12:00AM
 41
0.9
  7
ROMANS
  0
TEXT
  8
0
  6
CONTINUOUS
 62
   250
 10
0.028409
 20
0.920462
 30
0.0
 40
0.034091
  1
01-01-90
 41
0.9
  7
ROMANS
  0
TEXT
  8
0
  6
CONTINUOUS
 62
   250
 10
0.162325
 20
0.357547
 30
0.0
 40
0.01332
  1
NW
 41
0.889011
  7
ROMANS
  0
TEXT
  8
0
  6
CONTINUOUS
 62
   250
 10
0.268143
 20
0.357547
 30
0.0
 40
0.01332
  1
SA
 41
0.889011
  7
ROMANS
  0
TEXT
  8
0
  6
CONTINUOUS
 62
   250
 10
0.205071
 20
0.557061
 30
0.0
 40
0.01332
  1
C
 41
0.889011
  7
ROMANS
  0
TEXT
  8
0
  6
CONTINUOUS
 62
   250
 10
0.205071
 20
0.519422
 30
0.0
 40
0.01332
  1
DI1
 41
0.889011
  7
ROMANS
  0
TEXT
  8
0
  6
CONTINUOUS
 62
   250
 10
0.205071
 20
0.481783
 30
0.0
 40
0.01332
  1
DI2
 41
0.889011
  7
ROMANS
  0
TEXT
  8
0
  6
CONTINUOUS
 62
   250
 10
0.205071
 20
0.444144
 30
0.0
 40
0.01332
  1
A
 41
0.889011
  7
ROMANS
  0
TEXT
  8
0
  6
CONTINUOUS
 62
   250
 10
0.205071
 20
0.406505
 30
0.0
 40
0.01332
  1
B
 41
0.889011
  7
ROMANS
  0
TEXT
  8
0
  6
CONTINUOUS
 62
   250
 10
-0.225453
 20
0.519422
 30
0.0
 40
0.01332
  1
C
 41
0.889011
  7
ROMANS
  0
TEXT
  8
0
  6
CONTINUOUS
 62
   250
 10
-0.225453
 20
0.557061
 30
0.0
 40
0.01332
  1
R
 41
0.889011
  7
ROMANS
  0
TEXT
  8
0
  6
CONTINUOUS
 62
   250
 10
-0.225453
 20
0.420696
 30
0.0
 40
0.01332
  1
NO
 41
0.889011
  7
ROMANS
  0
TEXT
  8
0
  6
CONTINUOUS
 62
   250
 10
-0.225453
 20
0.383057
 30
0.0
 40
0.01332
  1
COM
 41
0.889011
  7
ROMANS
  0
TEXT
  8
0
  6
CONTINUOUS
 62
   250
 10
-0.225453
 20
0.284331
 30
0.0
 40
0.01332
  1
NO
 41
0.889011
  7
ROMANS
  0
TEXT
  8
0
  6
CONTINUOUS
 62
   250
 10
-0.225453
 20
0.246692
 30
0.0
 40
0.01332
  1
COM
 41
0.889011
  7
ROMANS
  0
TEXT
  8
0
  6
CONTINUOUS
 62
   250
 10
-0.323712
 20
0.481477
 30
0.0
 40
0.01332
  1
POWER
 41
0.889011
  7
ROMANS
  0
TEXT
  8
0
  6
CONTINUOUS
 62
   250
 10
-0.323712
 20
0.345112
 30
0.0
 40
0.01332
  1
CH1
 41
0.889011
  7
ROMANS
  0
TEXT
  8
0
  6
CONTINUOUS
 62
   250
 10
-0.323712
 20
0.208748
 30
0.0
 40
0.01332
  1
CH2
 41
0.889011
  7
ROMANS
  0
TEXT
  8
0
  6
CONTINUOUS
 62
   250
 10
0.130625
 20
0.557061
 30
0.0
 40
0.01332
  1
C
 41
0.889011
  7
ROMANS
  0
TEXT
  8
0
  6
CONTINUOUS
 62
   250
 10
0.130625
 20
0.519422
 30
0.0
 40
0.01332
  1
DI1
 41
0.889011
  7
ROMANS
  0
TEXT
  8
0
  6
CONTINUOUS
 62
   250
 10
0.130625
 20
0.481783
 30
0.0
 40
0.01332
  1
DI2
 41
0.889011
  7
ROMANS
  0
TEXT
  8
0
  6
CONTINUOUS
 62
   250
 10
0.130625
 20
0.444144
 30
0.0
 40
0.01332
  1
A
 41
0.889011
  7
ROMANS
  0
TEXT
  8
0
  6
CONTINUOUS
 62
   250
 10
0.130625
 20
0.406505
 30
0.0
 40
0.01332
  1
B
 41
0.889011
  7
ROMANS
  0
TEXT
  8
0
  6
CONTINUOUS
 62
   250
 10
-0.158762
 20
0.522614
 30
0.0
 40
0.01332
  1
C
 41
0.889011
  7
ROMANS
  0
TEXT
  8
0
  6
CONTINUOUS
 62
   250
 10
-0.158762
 20
0.560253
 30
0.0
 40
0.01332
  1
R
 41
0.889011
  7
ROMANS
  0
TEXT
  8
0
  6
CONTINUOUS
 62
   250
 10
-0.158762
 20
0.423888
 30
0.0
 40
0.01332
  1
NO
 41
0.889011
  7
ROMANS
  0
TEXT
  8
0
  6
CONTINUOUS
 62
   250
 10
-0.158762
 20
0.386249
 30
0.0
 40
0.01332
  1
COM
 41
0.889011
  7
ROMANS
  0
TEXT
  8
0
  6
CONTINUOUS
 62
   250
 10
-0.158762
 20
0.287524
 30
0.0
 40
0.01332
  1
NO
 41
0.889011
  7
ROMANS
  0
TEXT
  8
0
  6
CONTINUOUS
 62
   250
 10
-0.158762
 20
0.249885
 30
0.0
 40
0.01332
  1
COM
 41
0.889011
  7
ROMANS
  0
ENDSEC
  0
EOF
