  0
SECTION
  2
HEADER
  9
$ACADVER
  1
AC1009
  9
$INSBASE
 10
0.0
 20
0.0
 30
0.0
  9
$EXTMIN
 10
-0.77892
 20
-0.331731
 30
0.0
  9
$EXTMAX
 10
0.632214
 20
0.693003
 30
0.0
  9
$LIMMIN
 10
15.716026
 20
12.575916
  9
$LIMMAX
 10
17.127159
 20
13.456467
  9
$ORTHOMODE
 70
     1
  9
$REGENMODE
 70
     1
  9
$FILLMODE
 70
     1
  9
$QTEXTMODE
 70
     0
  9
$MIRRTEXT
 70
     1
  9
$DRAGMODE
 70
     2
  9
$LTSCALE
 40
1.0
  9
$OSMODE
 70
     0
  9
$ATTMODE
 70
     2
  9
$TEXTSIZE
 40
0.01502
  9
$TRACEWID
 40
0.05
  9
$TEXTSTYLE
  7
STANDARD
  9
$CLAYER
  8
0
  9
$CELTYPE
  6
BYLAYER
  9
$CECOLOR
 62
   256
  9
$DIMSCALE
 40
1.0
  9
$DIMASZ
 40
1.0
  9
$DIMEXO
 40
0.5
  9
$DIMDLI
 40
0.38
  9
$DIMRND
 40
0.0
  9
$DIMDLE
 40
0.0
  9
$DIMEXE
 40
0.5
  9
$DIMTP
 40
0.0
  9
$DIMTM
 40
0.0
  9
$DIMTXT
 40
0.18
  9
$DIMCEN
 40
0.09
  9
$DIMTSZ
 40
0.0
  9
$DIMTOL
 70
     0
  9
$DIMLIM
 70
     0
  9
$DIMTIH
 70
     1
  9
$DIMTOH
 70
     1
  9
$DIMSE1
 70
     0
  9
$DIMSE2
 70
     0
  9
$DIMTAD
 70
     0
  9
$DIMZIN
 70
     0
  9
$DIMBLK
  1

  9
$DIMASO
 70
     1
  9
$DIMSHO
 70
     1
  9
$DIMPOST
  1
"
  9
$DIMAPOST
  1

  9
$DIMALT
 70
     0
  9
$DIMALTD
 70
     2
  9
$DIMALTF
 40
25.4
  9
$DIMLFAC
 40
1.0
  9
$DIMTOFL
 70
     0
  9
$DIMTVP
 40
0.0
  9
$DIMTIX
 70
     0
  9
$DIMSOXD
 70
     0
  9
$DIMSAH
 70
     0
  9
$DIMBLK1
  1

  9
$DIMBLK2
  1

  9
$DIMSTYLE
  2
*UNNAMED
  9
$DIMCLRD
 70
     0
  9
$DIMCLRE
 70
     0
  9
$DIMCLRT
 70
     0
  9
$DIMTFAC
 40
1.0
  9
$DIMGAP
 40
0.09
  9
$LUNITS
 70
     2
  9
$LUPREC
 70
     3
  9
$SKETCHINC
 40
0.1
  9
$FILLETRAD
 40
0.0
  9
$AUNITS
 70
     0
  9
$AUPREC
 70
     3
  9
$MENU
  1
acad
  9
$ELEVATION
 40
0.0
  9
$PELEVATION
 40
0.0
  9
$THICKNESS
 40
0.0
  9
$LIMCHECK
 70
     0
  9
$BLIPMODE
 70
     0
  9
$CHAMFERA
 40
0.5
  9
$CHAMFERB
 40
0.5
  9
$SKPOLY
 70
     0
  9
$TDCREATE
 40
2450088.488748495
  9
$TDUPDATE
 40
2450088.488748495
  9
$TDINDWG
 40
0.0000000000
  9
$TDUSRTIMER
 40
0.0000000000
  9
$USRTIMER
 70
     1
  9
$ANGBASE
 50
0.0
  9
$ANGDIR
 70
     0
  9
$PDMODE
 70
     2
  9
$PDSIZE
 40
0.0
  9
$PLINEWID
 40
0.0
  9
$COORDS
 70
     1
  9
$SPLFRAME
 70
     0
  9
$SPLINETYPE
 70
     6
  9
$SPLINESEGS
 70
     8
  9
$ATTDIA
 70
     0
  9
$ATTREQ
 70
     1
  9
$HANDLING
 70
     0
  9
$HANDSEED
  5
0
  9
$SURFTAB1
 70
     6
  9
$SURFTAB2
 70
     6
  9
$SURFTYPE
 70
     6
  9
$SURFU
 70
     6
  9
$SURFV
 70
     6
  9
$UCSNAME
  2

  9
$UCSORG
 10
0.0
 20
0.0
 30
0.0
  9
$UCSXDIR
 10
1.0
 20
0.0
 30
0.0
  9
$UCSYDIR
 10
0.0
 20
1.0
 30
0.0
  9
$PUCSNAME
  2

  9
$PUCSORG
 10
0.0
 20
0.0
 30
0.0
  9
$PUCSXDIR
 10
1.0
 20
0.0
 30
0.0
  9
$PUCSYDIR
 10
0.0
 20
1.0
 30
0.0
  9
$USERI1
 70
     0
  9
$USERI2
 70
     0
  9
$USERI3
 70
     0
  9
$USERI4
 70
     0
  9
$USERI5
 70
     0
  9
$USERR1
 40
0.0
  9
$USERR2
 40
0.0
  9
$USERR3
 40
0.0
  9
$USERR4
 40
0.0
  9
$USERR5
 40
0.0
  9
$WORLDVIEW
 70
     1
  9
$SHADEDGE
 70
     3
  9
$SHADEDIF
 70
    70
  9
$TILEMODE
 70
     1
  9
$MAXACTVP
 70
    16
  9
$PINSBASE
 10
-0.326207
 20
50.0
 30
0.104266
  9
$PLIMCHECK
 70
     0
  9
$PEXTMIN
 10
1.000000E+20
 20
1.000000E+20
 30
1.000000E+20
  9
$PEXTMAX
 10
-1.000000E+20
 20
-1.000000E+20
 30
-1.000000E+20
  9
$PLIMMIN
 10
0.0
 20
0.0
  9
$PLIMMAX
 10
12.0
 20
9.0
  9
$UNITMODE
 70
     0
  9
$VISRETAIN
 70
     0
  9
$PLINEGEN
 70
     0
  9
$PSLTSCALE
 70
     1
  9
$TREEDEPTH
 70
  3020
  9
$DWGCODEPAGE
  3
ascii
  0
ENDSEC
  0
SECTION
  2
TABLES
  0
TABLE
  2
VPORT
 70
     1
  0
VPORT
  2
*ACTIVE
 70
     0
 10
0.0
 20
0.0
 11
1.0
 21
1.0
 12
8.786017
 22
6.562368
 13
0.0
 23
0.0
 14
1.0
 24
1.0
 15
1.0
 25
1.0
 16
0.0
 26
0.0
 36
1.0
 17
0.0
 27
0.0
 37
0.0
 40
13.788198
 41
1.387409
 42
50.0
 43
0.0
 44
0.0
 50
0.0
 51
0.0
 71
     0
 72
   100
 73
     1
 74
     1
 75
     0
 76
     0
 77
     0
 78
     0
  0
ENDTAB
  0
TABLE
  2
LTYPE
 70
     1
  0
LTYPE
  2
CONTINUOUS
 70
    64
  3
SOLID LINE
 72
    65
 73
     0
 40
0.0
  0
ENDTAB
  0
TABLE
  2
LAYER
 70
     3
  0
LAYER
  2
0
 70
    64
 62
     2
  6
CONTINUOUS
  0
LAYER
  2
1
 70
    64
 62
     4
  6
CONTINUOUS
  0
LAYER
  2
2
 70
    64
 62
     1
  6
CONTINUOUS
  0
ENDTAB
  0
TABLE
  2
STYLE
 70
     2
  0
STYLE
  2
STANDARD
 70
     0
 40
0.0
 41
1.0
 50
0.0
 71
     0
 42
0.2
  3
txt
  4

  0
STYLE
  2
SIMPLEX
 70
    64
 40
0.0
 41
1.0
 50
0.0
 71
     0
 42
1.0
  3
ROMANS.SHX
  4

  0
ENDTAB
  0
TABLE
  2
VIEW
 70
     0
  0
ENDTAB
  0
TABLE
  2
UCS
 70
     0
  0
ENDTAB
  0
TABLE
  2
APPID
 70
     1
  0
APPID
  2
ACAD
 70
    64
  0
ENDTAB
  0
TABLE
  2
DIMSTYLE
 70
     0
  0
ENDTAB
  0
ENDSEC
  0
SECTION
  2
BLOCKS
  0
ENDSEC
  0
SECTION
  2
ENTITIES
  0
LINE
  8
0
  6
CONTINUOUS
 62
   250
 10
0.613976
 20
0.0
 30
0.0
 11
-0.613976
 21
0.0
 31
0.0
  0
LINE
  8
0
  6
CONTINUOUS
 62
   250
 10
-0.613976
 20
0.693003
 30
0.0
 11
0.613976
 21
0.693003
 31
0.0
  0
LINE
  8
0
  6
CONTINUOUS
 62
   250
 10
-0.317696
 20
-0.157106
 30
0.0
 11
-0.122502
 21
-0.157106
 31
0.0
  0
LINE
  8
0
  6
CONTINUOUS
 62
   250
 10
-0.162978
 20
-0.106953
 30
0.0
 11
-0.317696
 21
-0.106953
 31
0.0
  0
LINE
  8
0
  6
CONTINUOUS
 62
   250
 10
-0.317696
 20
-0.059135
 30
0.0
 11
-0.201236
 21
-0.059135
 31
0.0
  0
LINE
  8
0
  6
CONTINUOUS
 62
   250
 10
-0.577504
 20
0.662607
 30
0.0
 11
0.254116
 21
0.662607
 31
0.0
  0
LINE
  8
0
  6
CONTINUOUS
 62
   250
 10
-0.601819
 20
0.018238
 30
0.0
 11
0.303337
 21
0.018238
 31
0.0
  0
LINE
  8
0
  6
CONTINUOUS
 62
   250
 10
0.254116
 20
0.674767
 30
0.0
 11
-0.601819
 21
0.674767
 31
0.0
  0
LINE
  8
0
  6
CONTINUOUS
 62
   250
 10
0.303337
 20
0.030396
 30
0.0
 11
-0.509419
 21
0.030396
 31
0.0
  0
LINE
  8
0
  6
CONTINUOUS
 62
   250
 10
-0.632214
 20
0.316071
 30
0.0
 11
-0.632214
 21
0.133736
 31
0.0
  0
LINE
  8
0
  6
CONTINUOUS
 62
   250
 10
-0.577504
 20
0.117931
 30
0.0
 11
-0.577504
 21
0.662607
 31
0.0
  0
LINE
  8
0
  6
CONTINUOUS
 62
   250
 10
-0.301328
 20
0.473419
 30
0.0
 11
-0.301328
 21
0.148518
 31
0.0
  0
LINE
  8
0
  6
CONTINUOUS
 62
   250
 10
-0.601819
 20
0.674767
 30
0.0
 11
-0.601819
 21
0.018238
 31
0.0
  0
LINE
  8
0
  6
CONTINUOUS
 62
   250
 10
-0.247794
 20
0.148518
 30
0.0
 11
-0.247794
 21
0.473419
 31
0.0
  0
LINE
  8
2
  6
CONTINUOUS
 62
   250
 10
-0.77892
 20
-0.02923
 30
0.0
 11
-0.317696
 21
-0.02923
 31
0.0
  0
TEXT
  8
0
  6
CONTINUOUS
 62
   250
 10
-0.631379
 20
-0.102133
 30
0.0
 40
0.017516
  1
POWER SUPPLY
 41
0.9
 51
20.0
  7
SIMPLEX
  0
TEXT
  8
0
  6
CONTINUOUS
 62
   250
 10
-0.597428
 20
-0.12874
 30
0.0
 40
0.017516
  1
MODULE
 41
0.9
 51
20.0
  7
SIMPLEX
  0
LINE
  8
2
  6
CONTINUOUS
 62
   250
 10
-0.77892
 20
-0.331731
 30
0.0
 11
-0.317696
 21
-0.331731
 31
0.0
  0
LINE
  8
0
  6
CONTINUOUS
 62
   250
 10
-0.519147
 20
0.117931
 30
0.0
 11
-0.577504
 21
0.117931
 31
0.0
  0
TEXT
  8
0
  6
CONTINUOUS
 62
   250
 10
-0.761776
 20
-0.164074
 30
0.0
 40
0.013617
  1
T2
 41
1.011111
  7
SIMPLEX
  0
TEXT
  8
0
  6
CONTINUOUS
 62
   250
 10
-0.762761
 20
-0.113899
 30
0.0
 40
0.013617
  1
T1
 41
1.011111
  7
SIMPLEX
  0
LINE
  8
2
  6
CONTINUOUS
 62
   250
 10
-0.77892
 20
-0.331731
 30
0.0
 11
-0.77892
 21
-0.02923
 31
0.0
  0
LINE
  8
0
  6
CONTINUOUS
 62
   250
 10
-0.613976
 20
0.0
 30
0.0
 11
-0.613976
 21
0.012157
 31
0.0
  0
LINE
  8
0
  6
CONTINUOUS
 62
   250
 10
-0.613976
 20
0.012157
 30
0.0
 11
-0.632214
 21
0.012157
 31
0.0
  0
LINE
  8
0
  6
CONTINUOUS
 62
   250
 10
-0.632214
 20
0.012157
 30
0.0
 11
-0.632214
 21
0.072948
 31
0.0
  0
LINE
  8
0
  6
CONTINUOUS
 62
   250
 10
-0.668687
 20
0.091185
 30
0.0
 11
-0.668687
 21
0.115501
 31
0.0
  0
LINE
  8
0
  6
CONTINUOUS
 62
   250
 10
-0.626134
 20
0.072948
 30
0.0
 11
-0.632214
 21
0.072948
 31
0.0
  0
LINE
  8
0
  6
CONTINUOUS
 62
   250
 10
-0.626134
 20
0.091185
 30
0.0
 11
-0.668687
 21
0.091185
 31
0.0
  0
LINE
  8
0
  6
CONTINUOUS
 62
   250
 10
-0.626134
 20
0.115501
 30
0.0
 11
-0.668687
 21
0.115501
 31
0.0
  0
LINE
  8
0
  6
CONTINUOUS
 62
   250
 10
-0.626134
 20
0.133736
 30
0.0
 11
-0.632214
 21
0.133736
 31
0.0
  0
LINE
  8
0
  6
CONTINUOUS
 62
   250
 10
-0.626134
 20
0.072948
 30
0.0
 11
-0.626134
 21
0.091185
 31
0.0
  0
LINE
  8
0
  6
CONTINUOUS
 62
   250
 10
-0.626134
 20
0.115501
 30
0.0
 11
-0.626134
 21
0.133736
 31
0.0
  0
TEXT
  8
0
  6
CONTINUOUS
 62
   250
 10
-0.366995
 20
-0.065691
 30
0.0
 40
0.013617
  1
T5
 41
1.011111
  7
SIMPLEX
  0
TEXT
  8
0
  6
CONTINUOUS
 62
   250
 10
-0.367979
 20
-0.111931
 30
0.0
 40
0.013617
  1
T4
 41
1.011111
  7
SIMPLEX
  0
TEXT
  8
0
  6
CONTINUOUS
 62
   250
 10
-0.367979
 20
-0.164074
 30
0.0
 40
0.013617
  1
T3
 41
1.011111
  7
SIMPLEX
  0
LINE
  8
2
  6
CONTINUOUS
 62
   250
 10
-0.317696
 20
-0.02923
 30
0.0
 11
-0.317696
 21
-0.331731
 31
0.0
  0
LINE
  8
0
  6
CONTINUOUS
 62
   250
 10
-0.509419
 20
0.030396
 30
0.0
 11
-0.509419
 21
0.108206
 31
0.0
  0
ARC
  8
0
  6
CONTINUOUS
 62
   250
 10
-0.519145
 20
0.108206
 30
0.0
 40
0.009726
 50
0.001448
 51
90.009834
  0
CIRCLE
  8
0
  6
CONTINUOUS
 62
   250
 10
-0.499691
 20
0.174215
 30
0.0
 40
0.04863
  0
ARC
  8
0
  6
CONTINUOUS
 62
   250
 10
-0.15532
 20
0.0
 30
0.0
 40
0.346791
 50
148.31987
 51
148.643982
  0
ARC
  8
0
  6
CONTINUOUS
 62
   250
 10
-0.515727
 20
0.193799
 30
0.0
 40
0.036404
 50
206.80246
 51
225.01384
  0
LINE
  8
0
  6
CONTINUOUS
 62
   250
 10
-0.466239
 20
0.183094
 30
0.0
 11
-0.492028
 21
0.208885
 31
0.0
  0
LINE
  8
0
  6
CONTINUOUS
 62
   250
 10
-0.530717
 20
0.1702
 30
0.0
 11
-0.504926
 21
0.144409
 31
0.0
  0
ARC
  8
0
  6
CONTINUOUS
 62
   250
 10
-0.511372
 20
0.189543
 30
0.0
 40
0.027356
 50
44.997219
 51
224.997131
  0
ARC
  8
0
  6
CONTINUOUS
 62
   250
 10
-0.485582
 20
0.163753
 30
0.0
 40
0.027356
 50
224.999954
 51
45.000046
  0
ARC
  8
0
  6
CONTINUOUS
 62
   250
 10
-0.481278
 20
0.159454
 30
0.0
 40
0.036476
 50
224.995193
 51
247.384995
  0
LINE
  8
0
  6
CONTINUOUS
 62
   250
 10
-0.541462
 20
0.168051
 30
0.0
 11
-0.507073
 21
0.133663
 31
0.0
  0
LINE
  8
0
  6
CONTINUOUS
 62
   250
 10
-0.455491
 20
0.185244
 30
0.0
 11
-0.48988
 21
0.219631
 31
0.0
  0
CIRCLE
  8
0
  6
CONTINUOUS
 62
   250
 10
-0.28527
 20
0.197147
 30
0.0
 40
0.001944
  0
CIRCLE
  8
0
  6
CONTINUOUS
 62
   250
 10
-0.28527
 20
0.167969
 30
0.0
 40
0.001944
  0
CIRCLE
  8
0
  6
CONTINUOUS
 62
   250
 10
-0.28527
 20
0.226326
 30
0.0
 40
0.001944
  0
LINE
  8
0
  6
CONTINUOUS
 62
   250
 10
-0.301328
 20
0.148518
 30
0.0
 11
-0.260955
 21
0.148518
 31
0.0
  0
LINE
  8
0
  6
CONTINUOUS
 62
   250
 10
-0.285329
 20
0.148518
 30
0.0
 11
-0.247794
 21
0.148518
 31
0.0
  0
CIRCLE
  8
0
  6
CONTINUOUS
 62
   250
 10
-0.261014
 20
0.226326
 30
0.0
 40
0.001945
  0
CIRCLE
  8
0
  6
CONTINUOUS
 62
   250
 10
-0.261014
 20
0.167969
 30
0.0
 40
0.001945
  0
CIRCLE
  8
0
  6
CONTINUOUS
 62
   250
 10
-0.261014
 20
0.197147
 30
0.0
 40
0.001945
  0
LINE
  8
0
  6
CONTINUOUS
 62
   250
 10
-0.632214
 20
0.376896
 30
0.0
 11
-0.632214
 21
0.559265
 31
0.0
  0
LINE
  8
0
  6
CONTINUOUS
 62
   250
 10
-0.626134
 20
0.316071
 30
0.0
 11
-0.632214
 21
0.316071
 31
0.0
  0
LINE
  8
0
  6
CONTINUOUS
 62
   250
 10
-0.626134
 20
0.334343
 30
0.0
 11
-0.626134
 21
0.316071
 31
0.0
  0
LINE
  8
0
  6
CONTINUOUS
 62
   250
 10
-0.668687
 20
0.334343
 30
0.0
 11
-0.668687
 21
0.35866
 31
0.0
  0
LINE
  8
0
  6
CONTINUOUS
 62
   250
 10
-0.626134
 20
0.376896
 30
0.0
 11
-0.632214
 21
0.376896
 31
0.0
  0
LINE
  8
0
  6
CONTINUOUS
 62
   250
 10
-0.626134
 20
0.35866
 30
0.0
 11
-0.668687
 21
0.35866
 31
0.0
  0
LINE
  8
0
  6
CONTINUOUS
 62
   250
 10
-0.626134
 20
0.334343
 30
0.0
 11
-0.668687
 21
0.334343
 31
0.0
  0
LINE
  8
0
  6
CONTINUOUS
 62
   250
 10
-0.626134
 20
0.35866
 30
0.0
 11
-0.626134
 21
0.376896
 31
0.0
  0
LINE
  8
0
  6
CONTINUOUS
 62
   250
 10
-0.613976
 20
0.693003
 30
0.0
 11
-0.613976
 21
0.680843
 31
0.0
  0
LINE
  8
0
  6
CONTINUOUS
 62
   250
 10
-0.613976
 20
0.680843
 30
0.0
 11
-0.632214
 21
0.680843
 31
0.0
  0
LINE
  8
0
  6
CONTINUOUS
 62
   250
 10
-0.632214
 20
0.620056
 30
0.0
 11
-0.632214
 21
0.680843
 31
0.0
  0
LINE
  8
0
  6
CONTINUOUS
 62
   250
 10
-0.668687
 20
0.577501
 30
0.0
 11
-0.668687
 21
0.601818
 31
0.0
  0
LINE
  8
0
  6
CONTINUOUS
 62
   250
 10
-0.626134
 20
0.620056
 30
0.0
 11
-0.632214
 21
0.620056
 31
0.0
  0
LINE
  8
0
  6
CONTINUOUS
 62
   250
 10
-0.626134
 20
0.601818
 30
0.0
 11
-0.668687
 21
0.601818
 31
0.0
  0
LINE
  8
0
  6
CONTINUOUS
 62
   250
 10
-0.626134
 20
0.577501
 30
0.0
 11
-0.668687
 21
0.577501
 31
0.0
  0
LINE
  8
0
  6
CONTINUOUS
 62
   250
 10
-0.626134
 20
0.559265
 30
0.0
 11
-0.632214
 21
0.559265
 31
0.0
  0
LINE
  8
0
  6
CONTINUOUS
 62
   250
 10
-0.626134
 20
0.559265
 30
0.0
 11
-0.626134
 21
0.577501
 31
0.0
  0
LINE
  8
0
  6
CONTINUOUS
 62
   250
 10
-0.626134
 20
0.601818
 30
0.0
 11
-0.626134
 21
0.620056
 31
0.0
  0
TEXT
  8
0
  6
CONTINUOUS
 62
   250
 10
-0.4987
 20
0.430155
 30
0.0
 40
0.012255
  1
RTD SELECT
 41
1.011111
  7
SIMPLEX
  0
LINE
  8
0
  6
CONTINUOUS
 62
   250
 10
-0.383166
 20
0.425076
 30
0.0
 11
-0.501208
 21
0.425076
 31
0.0
  0
LINE
  8
0
  6
CONTINUOUS
 62
   250
 10
-0.383166
 20
0.447657
 30
0.0
 11
-0.501208
 21
0.447657
 31
0.0
  0
LINE
  8
0
  6
CONTINUOUS
 62
   250
 10
-0.501208
 20
0.37991
 30
0.0
 11
-0.383166
 21
0.37991
 31
0.0
  0
LINE
  8
1
  6
CONTINUOUS
 62
   250
 10
-0.4606
 20
0.383657
 30
0.0
 11
-0.4606
 21
0.402443
 31
0.0
  0
LINE
  8
1
  6
CONTINUOUS
 62
   250
 10
-0.498101
 20
0.383657
 30
0.0
 11
-0.4606
 21
0.383657
 31
0.0
  0
LINE
  8
1
  6
CONTINUOUS
 62
   250
 10
-0.498101
 20
0.383657
 30
0.0
 11
-0.498101
 21
0.402443
 31
0.0
  0
LINE
  8
1
  6
CONTINUOUS
 62
   250
 10
-0.498101
 20
0.421297
 30
0.0
 11
-0.498101
 21
0.402548
 31
0.0
  0
LINE
  8
1
  6
CONTINUOUS
 62
   250
 10
-0.4606
 20
0.402548
 30
0.0
 11
-0.4606
 21
0.421297
 31
0.0
  0
LINE
  8
1
  6
CONTINUOUS
 62
   250
 10
-0.4606
 20
0.421297
 30
0.0
 11
-0.498101
 21
0.421297
 31
0.0
  0
CIRCLE
  8
1
  6
CONTINUOUS
 62
   250
 10
-0.469975
 20
0.411922
 30
0.0
 40
0.001875
  0
CIRCLE
  8
1
  6
CONTINUOUS
 62
   250
 10
-0.488726
 20
0.411922
 30
0.0
 40
0.001875
  0
LINE
  8
1
  6
CONTINUOUS
 62
   250
 10
-0.4606
 20
0.402443
 30
0.0
 11
-0.498101
 21
0.402443
 31
0.0
  0
CIRCLE
  8
1
  6
CONTINUOUS
 62
   250
 10
-0.469975
 20
0.393068
 30
0.0
 40
0.001875
  0
CIRCLE
  8
1
  6
CONTINUOUS
 62
   250
 10
-0.488726
 20
0.393068
 30
0.0
 40
0.001875
  0
TEXT
  8
0
  6
CONTINUOUS
 62
   250
 10
-0.458093
 20
0.386261
 30
0.0
 40
0.013617
  1
1000
 41
1.011111
  7
SIMPLEX
  0
TEXT
  8
0
  6
CONTINUOUS
 62
   250
 10
-0.454324
 20
0.405714
 30
0.0
 40
0.013617
  1
100
 41
1.011111
  7
SIMPLEX
  0
LINE
  8
0
  6
CONTINUOUS
 62
   250
 10
-0.501208
 20
0.447657
 30
0.0
 11
-0.501208
 21
0.37991
 31
0.0
  0
CIRCLE
  8
0
  6
CONTINUOUS
 62
   250
 10
-0.499654
 20
0.331913
 30
0.0
 40
0.018238
  0
LINE
  8
0
  6
CONTINUOUS
 62
   250
 10
-0.383166
 20
0.425076
 30
0.0
 11
-0.383166
 21
0.447657
 31
0.0
  0
LINE
  8
0
  6
CONTINUOUS
 62
   250
 10
-0.383166
 20
0.425076
 30
0.0
 11
-0.383166
 21
0.37991
 31
0.0
  0
CIRCLE
  8
0
  6
CONTINUOUS
 62
   250
 10
-0.28527
 20
0.255507
 30
0.0
 40
0.001944
  0
CIRCLE
  8
0
  6
CONTINUOUS
 62
   250
 10
-0.28527
 20
0.284685
 30
0.0
 40
0.001944
  0
TEXT
  8
0
  6
CONTINUOUS
 62
   250
 10
-0.307818
 20
0.455517
 30
0.0
 40
0.013617
  1
1
 41
1.011111
  7
SIMPLEX
 72
     1
 11
-0.302246
 21
0.455517
 31
0.0
  0
CIRCLE
  8
0
  6
CONTINUOUS
 62
   250
 10
-0.28527
 20
0.372223
 30
0.0
 40
0.001944
  0
CIRCLE
  8
0
  6
CONTINUOUS
 62
   250
 10
-0.28527
 20
0.313866
 30
0.0
 40
0.001944
  0
CIRCLE
  8
0
  6
CONTINUOUS
 62
   250
 10
-0.28527
 20
0.343044
 30
0.0
 40
0.001944
  0
CIRCLE
  8
0
  6
CONTINUOUS
 62
   250
 10
-0.28527
 20
0.459919
 30
0.0
 40
0.001944
  0
CIRCLE
  8
0
  6
CONTINUOUS
 62
   250
 10
-0.28527
 20
0.401562
 30
0.0
 40
0.001944
  0
CIRCLE
  8
0
  6
CONTINUOUS
 62
   250
 10
-0.28527
 20
0.43074
 30
0.0
 40
0.001944
  0
LINE
  8
0
  6
CONTINUOUS
 62
   250
 10
-0.301328
 20
0.473419
 30
0.0
 11
-0.260955
 21
0.473419
 31
0.0
  0
LINE
  8
0
  6
CONTINUOUS
 62
   250
 10
-0.285329
 20
0.473419
 30
0.0
 11
-0.247794
 21
0.473419
 31
0.0
  0
CIRCLE
  8
0
  6
CONTINUOUS
 62
   250
 10
-0.261014
 20
0.43074
 30
0.0
 40
0.001945
  0
CIRCLE
  8
0
  6
CONTINUOUS
 62
   250
 10
-0.261014
 20
0.401562
 30
0.0
 40
0.001945
  0
CIRCLE
  8
0
  6
CONTINUOUS
 62
   250
 10
-0.261014
 20
0.459919
 30
0.0
 40
0.001945
  0
CIRCLE
  8
0
  6
CONTINUOUS
 62
   250
 10
-0.261014
 20
0.343044
 30
0.0
 40
0.001945
  0
CIRCLE
  8
0
  6
CONTINUOUS
 62
   250
 10
-0.261014
 20
0.313866
 30
0.0
 40
0.001945
  0
CIRCLE
  8
0
  6
CONTINUOUS
 62
   250
 10
-0.261014
 20
0.372223
 30
0.0
 40
0.001945
  0
CIRCLE
  8
0
  6
CONTINUOUS
 62
   250
 10
-0.261014
 20
0.284685
 30
0.0
 40
0.001945
  0
CIRCLE
  8
0
  6
CONTINUOUS
 62
   250
 10
-0.261014
 20
0.255507
 30
0.0
 40
0.001945
  0
TEXT
  8
0
  6
CONTINUOUS
 62
   250
 10
-0.50701
 20
0.579653
 30
0.0
 40
0.013617
  1
+5V
 41
1.011111
  7
SIMPLEX
  0
LINE
  8
0
  6
CONTINUOUS
 62
   250
 10
-0.474015
 20
0.64205
 30
0.0
 11
-0.474015
 21
0.606806
 31
0.0
  0
LINE
  8
0
  6
CONTINUOUS
 62
   250
 10
-0.474015
 20
0.606806
 30
0.0
 11
-0.5092
 21
0.606806
 31
0.0
  0
LINE
  8
0
  6
CONTINUOUS
 62
   250
 10
-0.5092
 20
0.606806
 30
0.0
 11
-0.5092
 21
0.64205
 31
0.0
  0
LINE
  8
0
  6
CONTINUOUS
 62
   250
 10
-0.5092
 20
0.64205
 30
0.0
 11
-0.474015
 21
0.64205
 31
0.0
  0
CIRCLE
  8
0
  6
CONTINUOUS
 62
   250
 10
-0.491437
 20
0.623907
 30
0.0
 40
0.010178
  0
TEXT
  8
0
  6
CONTINUOUS
 62
   250
 10
-0.561591
 20
0.579653
 30
0.0
 40
0.013617
  1
RTD
 41
1.011111
  7
SIMPLEX
  0
CIRCLE
  8
0
  6
CONTINUOUS
 62
   250
 10
-0.542335
 20
0.623907
 30
0.0
 40
0.01018
  0
LINE
  8
0
  6
CONTINUOUS
 62
   250
 10
-0.560099
 20
0.64205
 30
0.0
 11
-0.524916
 21
0.64205
 31
0.0
  0
LINE
  8
0
  6
CONTINUOUS
 62
   250
 10
-0.560099
 20
0.606806
 30
0.0
 11
-0.560099
 21
0.64205
 31
0.0
  0
LINE
  8
0
  6
CONTINUOUS
 62
   250
 10
-0.524916
 20
0.606806
 30
0.0
 11
-0.560099
 21
0.606806
 31
0.0
  0
LINE
  8
0
  6
CONTINUOUS
 62
   250
 10
-0.524916
 20
0.64205
 30
0.0
 11
-0.524916
 21
0.606806
 31
0.0
  0
LINE
  8
0
  6
CONTINUOUS
 62
   250
 10
0.283852
 20
0.144953
 30
0.0
 11
0.283852
 21
0.251942
 31
0.0
  0
TEXT
  8
0
  6
CONTINUOUS
 62
   250
 10
0.270008
 20
0.171267
 30
0.0
 40
0.010894
  1
OVERRIDE
 50
90.0
 41
1.011111
  7
SIMPLEX
  0
LINE
  8
0
  6
CONTINUOUS
 62
   250
 10
0.589661
 20
0.662607
 30
0.0
 11
0.589661
 21
0.093616
 31
0.0
  0
LINE
  8
0
  6
CONTINUOUS
 62
   250
 10
0.613976
 20
0.133736
 30
0.0
 11
0.613976
 21
0.316105
 31
0.0
  0
LINE
  8
0
  6
CONTINUOUS
 62
   250
 10
0.595738
 20
0.674767
 30
0.0
 11
0.595738
 21
0.018238
 31
0.0
  0
TEXT
  8
0
  6
CONTINUOUS
 62
   250
 10
-0.114278
 20
0.173174
 30
0.0
 40
0.013617
  1
+5VDC
 50
90.0
 41
1.011111
  7
SIMPLEX
  0
TEXT
  8
0
  6
CONTINUOUS
 62
   250
 10
-0.192696
 20
0.173174
 30
0.0
 40
0.013617
  1
+20VDC
 50
90.0
 41
1.011111
  7
SIMPLEX
  0
LINE
  8
0
  6
CONTINUOUS
 62
   250
 10
0.128918
 20
0.251942
 30
0.0
 11
0.128918
 21
0.144953
 31
0.0
  0
LINE
  8
0
  6
CONTINUOUS
 62
   250
 10
0.244946
 20
0.251942
 30
0.0
 11
0.244946
 21
0.144953
 31
0.0
  0
LINE
  8
0
  6
CONTINUOUS
 62
   250
 10
0.128918
 20
0.251942
 30
0.0
 11
0.128918
 21
0.144953
 31
0.0
  0
LINE
  8
0
  6
CONTINUOUS
 62
   250
 10
0.01289
 20
0.251942
 30
0.0
 11
0.01289
 21
0.144953
 31
0.0
  0
LINE
  8
0
  6
CONTINUOUS
 62
   250
 10
0.01289
 20
0.251942
 30
0.0
 11
0.01289
 21
0.144953
 31
0.0
  0
LINE
  8
0
  6
CONTINUOUS
 62
   250
 10
-0.103141
 20
0.251942
 30
0.0
 11
-0.103141
 21
0.144953
 31
0.0
  0
LINE
  8
0
  6
CONTINUOUS
 62
   250
 10
-0.103141
 20
0.251942
 30
0.0
 11
-0.103141
 21
0.144953
 31
0.0
  0
LINE
  8
0
  6
CONTINUOUS
 62
   250
 10
-0.21917
 20
0.251942
 30
0.0
 11
-0.21917
 21
0.144953
 31
0.0
  0
LINE
  8
0
  6
CONTINUOUS
 62
   250
 10
0.589661
 20
0.030396
 30
0.0
 11
0.397213
 21
0.030396
 31
0.0
  0
LINE
  8
0
  6
CONTINUOUS
 62
   250
 10
0.443333
 20
0.185244
 30
0.0
 11
0.47772
 21
0.219631
 31
0.0
  0
ARC
  8
0
  6
CONTINUOUS
 62
   250
 10
0.473421
 20
0.163753
 30
0.0
 40
0.027355
 50
134.998581
 51
314.998596
  0
LINE
  8
0
  6
CONTINUOUS
 62
   250
 10
0.454079
 20
0.183094
 30
0.0
 11
0.47987
 21
0.208885
 31
0.0
  0
CIRCLE
  8
0
  6
CONTINUOUS
 62
   250
 10
0.487534
 20
0.174215
 30
0.0
 40
0.048632
  0
LINE
  8
0
  6
CONTINUOUS
 62
   250
 10
0.397213
 20
0.018238
 30
0.0
 11
0.595738
 21
0.018238
 31
0.0
  0
LINE
  8
0
  6
CONTINUOUS
 62
   250
 10
0.128918
 20
0.144953
 30
0.0
 11
0.01289
 21
0.144953
 31
0.0
  0
LINE
  8
0
  6
CONTINUOUS
 62
   250
 10
-0.122502
 20
-0.157106
 30
0.0
 11
-0.122502
 21
0.144953
 31
0.0
  0
LINE
  8
0
  6
CONTINUOUS
 62
   250
 10
-0.162978
 20
0.144953
 30
0.0
 11
-0.162978
 21
-0.106953
 31
0.0
  0
LINE
  8
0
  6
CONTINUOUS
 62
   250
 10
-0.201236
 20
-0.059135
 30
0.0
 11
-0.201236
 21
0.144953
 31
0.0
  0
CIRCLE
  8
0
  6
CONTINUOUS
 62
   250
 10
-0.045452
 20
0.159542
 30
0.0
 40
0.009727
  0
LINE
  8
0
  6
CONTINUOUS
 62
   250
 10
0.01289
 20
0.144953
 30
0.0
 11
-0.103141
 21
0.144953
 31
0.0
  0
LINE
  8
0
  6
CONTINUOUS
 62
   250
 10
-0.055179
 20
0.159542
 30
0.0
 11
-0.035724
 21
0.159542
 31
0.0
  0
TEXT
  8
0
  6
CONTINUOUS
 62
   250
 10
-0.075067
 20
0.208481
 30
0.0
 40
0.013617
  1
+P
 50
90.0
 41
1.011111
  7
SIMPLEX
  0
TEXT
  8
0
  6
CONTINUOUS
 62
   250
 10
-0.153485
 20
0.173174
 30
0.0
 40
0.013617
  1
GND
 50
90.0
 41
1.011111
  7
SIMPLEX
  0
CIRCLE
  8
0
  6
CONTINUOUS
 62
   250
 10
-0.084358
 20
0.159542
 30
0.0
 40
0.009727
  0
LINE
  8
0
  6
CONTINUOUS
 62
   250
 10
-0.094084
 20
0.159542
 30
0.0
 11
-0.074631
 21
0.159542
 31
0.0
  0
CIRCLE
  8
0
  6
CONTINUOUS
 62
   250
 10
-0.200387
 20
0.159542
 30
0.0
 40
0.009726
  0
LINE
  8
0
  6
CONTINUOUS
 62
   250
 10
-0.210114
 20
0.159542
 30
0.0
 11
-0.190661
 21
0.159542
 31
0.0
  0
CIRCLE
  8
0
  6
CONTINUOUS
 62
   250
 10
-0.161481
 20
0.159542
 30
0.0
 40
0.009726
  0
CIRCLE
  8
0
  6
CONTINUOUS
 62
   250
 10
-0.122577
 20
0.159542
 30
0.0
 40
0.009726
  0
LINE
  8
0
  6
CONTINUOUS
 62
   250
 10
-0.103141
 20
0.144953
 30
0.0
 11
-0.21917
 21
0.144953
 31
0.0
  0
LINE
  8
0
  6
CONTINUOUS
 62
   250
 10
-0.122577
 20
0.149817
 30
0.0
 11
-0.122577
 21
0.16927
 31
0.0
  0
LINE
  8
0
  6
CONTINUOUS
 62
   250
 10
-0.171208
 20
0.159542
 30
0.0
 11
-0.151755
 21
0.159542
 31
0.0
  0
TEXT
  8
0
  6
CONTINUOUS
 62
   250
 10
0.118946
 20
0.208481
 30
0.0
 40
0.013617
  1
AI5
 50
90.0
 41
1.011111
  7
SIMPLEX
  0
TEXT
  8
0
  6
CONTINUOUS
 62
   250
 10
-0.03622
 20
0.208481
 30
0.0
 40
0.013617
  1
AI1
 50
90.0
 41
1.011111
  7
SIMPLEX
  0
TEXT
  8
0
  6
CONTINUOUS
 62
   250
 10
0.002693
 20
0.208481
 30
0.0
 40
0.013617
  1
AI2
 50
90.0
 41
1.011111
  7
SIMPLEX
  0
TEXT
  8
0
  6
CONTINUOUS
 62
   250
 10
0.041744
 20
0.208481
 30
0.0
 40
0.013617
  1
AI3
 50
90.0
 41
1.011111
  7
SIMPLEX
  0
TEXT
  8
0
  6
CONTINUOUS
 62
   250
 10
0.079235
 20
0.208481
 30
0.0
 40
0.013617
  1
AI4
 50
90.0
 41
1.011111
  7
SIMPLEX
  0
CIRCLE
  8
0
  6
CONTINUOUS
 62
   250
 10
0.03167
 20
0.159542
 30
0.0
 40
0.009727
  0
LINE
  8
0
  6
CONTINUOUS
 62
   250
 10
0.021946
 20
0.159542
 30
0.0
 11
0.041397
 21
0.159542
 31
0.0
  0
CIRCLE
  8
0
  6
CONTINUOUS
 62
   250
 10
0.070576
 20
0.159542
 30
0.0
 40
0.009727
  0
CIRCLE
  8
0
  6
CONTINUOUS
 62
   250
 10
0.109482
 20
0.159542
 30
0.0
 40
0.009727
  0
LINE
  8
0
  6
CONTINUOUS
 62
   250
 10
0.109482
 20
0.149817
 30
0.0
 11
0.109482
 21
0.16927
 31
0.0
  0
LINE
  8
0
  6
CONTINUOUS
 62
   250
 10
0.06085
 20
0.159542
 30
0.0
 11
0.080303
 21
0.159542
 31
0.0
  0
CIRCLE
  8
0
  6
CONTINUOUS
 62
   250
 10
-0.006546
 20
0.159542
 30
0.0
 40
0.009726
  0
LINE
  8
0
  6
CONTINUOUS
 62
   250
 10
-0.006546
 20
0.149817
 30
0.0
 11
-0.006546
 21
0.16927
 31
0.0
  0
LINE
  8
0
  6
CONTINUOUS
 62
   250
 10
0.128918
 20
0.144953
 30
0.0
 11
0.283852
 21
0.144953
 31
0.0
  0
LINE
  8
0
  6
CONTINUOUS
 62
   250
 10
0.264418
 20
0.149817
 30
0.0
 11
0.264418
 21
0.16927
 31
0.0
  0
CIRCLE
  8
0
  6
CONTINUOUS
 62
   250
 10
0.264418
 20
0.159542
 30
0.0
 40
0.009726
  0
TEXT
  8
0
  6
CONTINUOUS
 62
   250
 10
0.157444
 20
0.208481
 30
0.0
 40
0.013617
  1
AI6
 50
90.0
 41
1.011111
  7
SIMPLEX
  0
TEXT
  8
0
  6
CONTINUOUS
 62
   250
 10
0.193453
 20
0.208481
 30
0.0
 40
0.013617
  1
DI1
 50
90.0
 41
1.011111
  7
SIMPLEX
  0
LINE
  8
0
  6
CONTINUOUS
 62
   250
 10
0.17688
 20
0.159542
 30
0.0
 11
0.196331
 21
0.159542
 31
0.0
  0
LINE
  8
0
  6
CONTINUOUS
 62
   250
 10
0.225512
 20
0.149817
 30
0.0
 11
0.225512
 21
0.16927
 31
0.0
  0
CIRCLE
  8
0
  6
CONTINUOUS
 62
   250
 10
0.225512
 20
0.159542
 30
0.0
 40
0.009726
  0
CIRCLE
  8
0
  6
CONTINUOUS
 62
   250
 10
0.186606
 20
0.159542
 30
0.0
 40
0.009726
  0
LINE
  8
0
  6
CONTINUOUS
 62
   250
 10
0.137974
 20
0.159542
 30
0.0
 11
0.157425
 21
0.159542
 31
0.0
  0
CIRCLE
  8
0
  6
CONTINUOUS
 62
   250
 10
0.147701
 20
0.159542
 30
0.0
 40
0.009724
  0
TEXT
  8
0
  6
CONTINUOUS
 62
   250
 10
0.232357
 20
0.208481
 30
0.0
 40
0.013617
  1
DI2
 50
90.0
 41
1.011111
  7
SIMPLEX
  0
ARC
  8
0
  6
CONTINUOUS
 62
   250
 10
-0.155319
 20
0.0
 30
0.0
 40
0.626657
 50
16.881811
 51
17.194046
  0
LINE
  8
0
  6
CONTINUOUS
 62
   250
 10
0.303337
 20
0.030396
 30
0.0
 11
0.397213
 21
0.030396
 31
0.0
  0
LINE
  8
0
  6
CONTINUOUS
 62
   250
 10
0.303337
 20
0.018238
 30
0.0
 11
0.397213
 21
0.018238
 31
0.0
  0
LINE
  8
0
  6
CONTINUOUS
 62
   250
 10
0.57507
 20
0.093616
 30
0.0
 11
0.589661
 21
0.093616
 31
0.0
  0
LINE
  8
0
  6
CONTINUOUS
 62
   250
 10
0.57507
 20
0.074163
 30
0.0
 11
0.589661
 21
0.074163
 31
0.0
  0
LINE
  8
0
  6
CONTINUOUS
 62
   250
 10
0.57507
 20
0.074163
 30
0.0
 11
0.57507
 21
0.093616
 31
0.0
  0
LINE
  8
0
  6
CONTINUOUS
 62
   250
 10
0.589661
 20
0.074163
 30
0.0
 11
0.589661
 21
0.030396
 31
0.0
  0
LINE
  8
0
  6
CONTINUOUS
 62
   250
 10
0.607895
 20
0.115501
 30
0.0
 11
0.607895
 21
0.133736
 31
0.0
  0
LINE
  8
0
  6
CONTINUOUS
 62
   250
 10
0.607895
 20
0.072948
 30
0.0
 11
0.607895
 21
0.091185
 31
0.0
  0
LINE
  8
0
  6
CONTINUOUS
 62
   250
 10
0.607895
 20
0.133736
 30
0.0
 11
0.613976
 21
0.133736
 31
0.0
  0
LINE
  8
0
  6
CONTINUOUS
 62
   250
 10
0.607895
 20
0.115501
 30
0.0
 11
0.632214
 21
0.115501
 31
0.0
  0
LINE
  8
0
  6
CONTINUOUS
 62
   250
 10
0.607895
 20
0.091185
 30
0.0
 11
0.632214
 21
0.091185
 31
0.0
  0
LINE
  8
0
  6
CONTINUOUS
 62
   250
 10
0.607895
 20
0.072948
 30
0.0
 11
0.613976
 21
0.072948
 31
0.0
  0
LINE
  8
0
  6
CONTINUOUS
 62
   250
 10
0.632214
 20
0.091185
 30
0.0
 11
0.632214
 21
0.115501
 31
0.0
  0
LINE
  8
0
  6
CONTINUOUS
 62
   250
 10
0.613976
 20
0.0
 30
0.0
 11
0.613976
 21
0.072948
 31
0.0
  0
LINE
  8
0
  6
CONTINUOUS
 62
   250
 10
0.529301
 20
0.168051
 30
0.0
 11
0.494915
 21
0.133663
 31
0.0
  0
ARC
  8
0
  6
CONTINUOUS
 62
   250
 10
-0.15532
 20
0.0
 30
0.0
 40
0.673866
 50
19.134069
 51
19.268953
  0
ARC
  8
0
  6
CONTINUOUS
 62
   250
 10
0.469083
 20
0.159516
 30
0.0
 40
0.036547
 50
292.625916
 51
314.976807
  0
ARC
  8
0
  6
CONTINUOUS
 62
   250
 10
0.499212
 20
0.189543
 30
0.0
 40
0.027354
 50
315.0
 51
135.0
  0
LINE
  8
0
  6
CONTINUOUS
 62
   250
 10
0.518555
 20
0.1702
 30
0.0
 11
0.492764
 21
0.144409
 31
0.0
  0
ARC
  8
0
  6
CONTINUOUS
 62
   250
 10
0.503562
 20
0.193815
 30
0.0
 40
0.036418
 50
314.972504
 51
333.180481
  0
LINE
  8
0
  6
CONTINUOUS
 62
   250
 10
0.595738
 20
0.674767
 30
0.0
 11
0.239029
 21
0.674767
 31
0.0
  0
LINE
  8
0
  6
CONTINUOUS
 62
   250
 10
0.239029
 20
0.662607
 30
0.0
 11
0.589661
 21
0.662607
 31
0.0
  0
TEXT
  8
0
  6
CONTINUOUS
 62
   250
 10
0.401736
 20
0.623968
 30
0.0
 40
0.017516
  1
BOTTOM PCB
 41
0.9
 51
20.0
  7
SIMPLEX
  0
LINE
  8
0
  6
CONTINUOUS
 62
   250
 10
-0.206246
 20
0.347538
 30
0.0
 11
0.233559
 21
0.347538
 31
0.0
  0
LINE
  8
0
  6
CONTINUOUS
 62
   250
 10
0.233559
 20
0.281353
 30
0.0
 11
-0.206246
 21
0.281353
 31
0.0
  0
LINE
  8
0
  6
CONTINUOUS
 62
   250
 10
0.128918
 20
0.251942
 30
0.0
 11
0.01289
 21
0.251942
 31
0.0
  0
LINE
  8
0
  6
CONTINUOUS
 62
   250
 10
0.128918
 20
0.483021
 30
0.0
 11
0.01289
 21
0.483021
 31
0.0
  0
LINE
  8
0
  6
CONTINUOUS
 62
   250
 10
0.128918
 20
0.37603
 30
0.0
 11
0.01289
 21
0.37603
 31
0.0
  0
LINE
  8
0
  6
CONTINUOUS
 62
   250
 10
0.01289
 20
0.251942
 30
0.0
 11
-0.103141
 21
0.251942
 31
0.0
  0
LINE
  8
0
  6
CONTINUOUS
 62
   250
 10
-0.055179
 20
0.468431
 30
0.0
 11
-0.035724
 21
0.468431
 31
0.0
  0
LINE
  8
0
  6
CONTINUOUS
 62
   250
 10
0.01289
 20
0.483021
 30
0.0
 11
-0.103141
 21
0.483021
 31
0.0
  0
CIRCLE
  8
0
  6
CONTINUOUS
 62
   250
 10
-0.045452
 20
0.468431
 30
0.0
 40
0.009727
  0
LINE
  8
0
  6
CONTINUOUS
 62
   250
 10
0.01289
 20
0.37603
 30
0.0
 11
-0.103141
 21
0.37603
 31
0.0
  0
TEXT
  8
0
  6
CONTINUOUS
 62
   250
 10
-0.059925
 20
0.355961
 30
0.0
 40
0.013617
  1
M2
 41
1.011111
  7
SIMPLEX
  0
LINE
  8
0
  6
CONTINUOUS
 62
   250
 10
-0.219168
 20
0.297241
 30
0.0
 11
-0.219168
 21
0.334614
 31
0.0
  0
ARC
  8
0
  6
CONTINUOUS
 62
   250
 10
-0.20625
 20
0.334618
 30
0.0
 40
0.01292
 50
89.981415
 51
180.018509
  0
LINE
  8
0
  6
CONTINUOUS
 62
   250
 10
-0.219168
 20
0.294277
 30
0.0
 11
-0.219168
 21
0.33165
 31
0.0
  0
ARC
  8
0
  6
CONTINUOUS
 62
   250
 10
-0.20625
 20
0.294273
 30
0.0
 40
0.01292
 50
179.981491
 51
270.018585
  0
TEXT
  8
0
  6
CONTINUOUS
 62
   250
 10
-0.207997
 20
0.257278
 30
0.0
 40
0.013617
  1
1
 41
1.011111
  7
SIMPLEX
  0
TEXT
  8
0
  6
CONTINUOUS
 62
   250
 10
-0.169083
 20
0.257278
 30
0.0
 40
0.013617
  1
2
 41
1.011111
  7
SIMPLEX
  0
TEXT
  8
0
  6
CONTINUOUS
 62
   250
 10
-0.128159
 20
0.257278
 30
0.0
 40
0.013617
  1
3
 41
1.011111
  7
SIMPLEX
  0
TEXT
  8
0
  6
CONTINUOUS
 62
   250
 10
-0.088867
 20
0.257278
 30
0.0
 40
0.013617
  1
4
 41
1.011111
  7
SIMPLEX
  0
LINE
  8
0
  6
CONTINUOUS
 62
   250
 10
-0.103141
 20
0.251942
 30
0.0
 11
-0.21917
 21
0.251942
 31
0.0
  0
LINE
  8
0
  6
CONTINUOUS
 62
   250
 10
-0.171208
 20
0.468431
 30
0.0
 11
-0.151755
 21
0.468431
 31
0.0
  0
LINE
  8
0
  6
CONTINUOUS
 62
   250
 10
-0.122577
 20
0.478157
 30
0.0
 11
-0.122577
 21
0.458704
 31
0.0
  0
LINE
  8
0
  6
CONTINUOUS
 62
   250
 10
-0.103141
 20
0.483021
 30
0.0
 11
-0.21917
 21
0.483021
 31
0.0
  0
CIRCLE
  8
0
  6
CONTINUOUS
 62
   250
 10
-0.122577
 20
0.468431
 30
0.0
 40
0.009726
  0
CIRCLE
  8
0
  6
CONTINUOUS
 62
   250
 10
-0.161481
 20
0.468431
 30
0.0
 40
0.009726
  0
LINE
  8
0
  6
CONTINUOUS
 62
   250
 10
-0.210114
 20
0.468431
 30
0.0
 11
-0.190661
 21
0.468431
 31
0.0
  0
CIRCLE
  8
0
  6
CONTINUOUS
 62
   250
 10
-0.200387
 20
0.468431
 30
0.0
 40
0.009726
  0
LINE
  8
0
  6
CONTINUOUS
 62
   250
 10
-0.21917
 20
0.37603
 30
0.0
 11
-0.21917
 21
0.483021
 31
0.0
  0
LINE
  8
0
  6
CONTINUOUS
 62
   250
 10
-0.103141
 20
0.37603
 30
0.0
 11
-0.103141
 21
0.483021
 31
0.0
  0
LINE
  8
0
  6
CONTINUOUS
 62
   250
 10
-0.103141
 20
0.37603
 30
0.0
 11
-0.21917
 21
0.37603
 31
0.0
  0
LINE
  8
0
  6
CONTINUOUS
 62
   250
 10
-0.094084
 20
0.468431
 30
0.0
 11
-0.074631
 21
0.468431
 31
0.0
  0
CIRCLE
  8
0
  6
CONTINUOUS
 62
   250
 10
-0.084358
 20
0.468431
 30
0.0
 40
0.009727
  0
LINE
  8
0
  6
CONTINUOUS
 62
   250
 10
-0.141589
 20
0.37603
 30
0.0
 11
-0.141589
 21
0.483021
 31
0.0
  0
TEXT
  8
0
  6
CONTINUOUS
 62
   250
 10
-0.09593
 20
0.355961
 30
0.0
 40
0.013617
  1
M1
 41
1.011111
  7
SIMPLEX
  0
TEXT
  8
0
  6
CONTINUOUS
 62
   250
 10
-0.127084
 20
0.355665
 30
0.0
 40
0.013617
  1
L
 41
1.011111
  7
SIMPLEX
  0
TEXT
  8
0
  6
CONTINUOUS
 62
   250
 10
-0.167064
 20
0.355665
 30
0.0
 40
0.013617
  1
B
 41
1.011111
  7
SIMPLEX
  0
TEXT
  8
0
  6
CONTINUOUS
 62
   250
 10
-0.20799
 20
0.355665
 30
0.0
 40
0.013617
  1
A
 41
1.011111
  7
SIMPLEX
  0
LINE
  8
0
  6
CONTINUOUS
 62
   250
 10
-0.065723
 20
0.37603
 30
0.0
 11
-0.065723
 21
0.483021
 31
0.0
  0
TEXT
  8
0
  6
CONTINUOUS
 62
   250
 10
-0.192696
 20
0.392372
 30
0.0
 40
0.013617
  1
A
 50
90.0
 41
1.011111
  7
SIMPLEX
  0
TEXT
  8
0
  6
CONTINUOUS
 62
   250
 10
-0.153485
 20
0.392372
 30
0.0
 40
0.013617
  1
B
 50
90.0
 41
1.011111
  7
SIMPLEX
  0
TEXT
  8
0
  6
CONTINUOUS
 62
   250
 10
-0.075067
 20
0.392372
 30
0.0
 40
0.013617
  1
N.O.
 50
90.0
 41
1.011111
  7
SIMPLEX
  0
TEXT
  8
0
  6
CONTINUOUS
 62
   250
 10
-0.114278
 20
0.392372
 30
0.0
 40
0.013617
  1
COM
 50
90.0
 41
1.011111
  7
SIMPLEX
  0
TEXT
  8
0
  6
CONTINUOUS
 62
   250
 10
-0.04974
 20
0.257572
 30
0.0
 40
0.013617
  1
5
 41
1.011111
  7
SIMPLEX
  0
TEXT
  8
0
  6
CONTINUOUS
 62
   250
 10
-0.015541
 20
0.257572
 30
0.0
 40
0.013617
  1
6
 41
1.011111
  7
SIMPLEX
  0
TEXT
  8
0
  6
CONTINUOUS
 62
   250
 10
0.023373
 20
0.257572
 30
0.0
 40
0.013617
  1
7
 41
1.011111
  7
SIMPLEX
  0
TEXT
  8
0
  6
CONTINUOUS
 62
   250
 10
0.064299
 20
0.257572
 30
0.0
 40
0.013617
  1
8
 41
1.011111
  7
SIMPLEX
  0
TEXT
  8
0
  6
CONTINUOUS
 62
   250
 10
0.105879
 20
0.257572
 30
0.0
 40
0.013617
  1
9
 41
1.011111
  7
SIMPLEX
  0
LINE
  8
0
  6
CONTINUOUS
 62
   250
 10
-0.006546
 20
0.478157
 30
0.0
 11
-0.006546
 21
0.458704
 31
0.0
  0
CIRCLE
  8
0
  6
CONTINUOUS
 62
   250
 10
-0.006546
 20
0.468431
 30
0.0
 40
0.009726
  0
LINE
  8
0
  6
CONTINUOUS
 62
   250
 10
0.01289
 20
0.37603
 30
0.0
 11
0.01289
 21
0.483021
 31
0.0
  0
LINE
  8
0
  6
CONTINUOUS
 62
   250
 10
0.06085
 20
0.468431
 30
0.0
 11
0.080303
 21
0.468431
 31
0.0
  0
LINE
  8
0
  6
CONTINUOUS
 62
   250
 10
0.109482
 20
0.478157
 30
0.0
 11
0.109482
 21
0.458704
 31
0.0
  0
CIRCLE
  8
0
  6
CONTINUOUS
 62
   250
 10
0.109482
 20
0.468431
 30
0.0
 40
0.009727
  0
CIRCLE
  8
0
  6
CONTINUOUS
 62
   250
 10
0.070576
 20
0.468431
 30
0.0
 40
0.009727
  0
LINE
  8
0
  6
CONTINUOUS
 62
   250
 10
0.021946
 20
0.468431
 30
0.0
 11
0.041397
 21
0.468431
 31
0.0
  0
CIRCLE
  8
0
  6
CONTINUOUS
 62
   250
 10
0.03167
 20
0.468431
 30
0.0
 40
0.009727
  0
LINE
  8
0
  6
CONTINUOUS
 62
   250
 10
0.050049
 20
0.37603
 30
0.0
 11
0.050049
 21
0.483021
 31
0.0
  0
TEXT
  8
0
  6
CONTINUOUS
 62
   250
 10
0.099007
 20
0.355961
 30
0.0
 40
0.013617
  1
L6
 41
1.011111
  7
SIMPLEX
  0
TEXT
  8
0
  6
CONTINUOUS
 62
   250
 10
0.058657
 20
0.355961
 30
0.0
 40
0.013617
  1
M5
 41
1.011111
  7
SIMPLEX
  0
TEXT
  8
0
  6
CONTINUOUS
 62
   250
 10
0.019915
 20
0.355961
 30
0.0
 40
0.013617
  1
M4
 41
1.011111
  7
SIMPLEX
  0
TEXT
  8
0
  6
CONTINUOUS
 62
   250
 10
-0.018947
 20
0.355961
 30
0.0
 40
0.013617
  1
M3
 41
1.011111
  7
SIMPLEX
  0
TEXT
  8
0
  6
CONTINUOUS
 62
   250
 10
0.079235
 20
0.392372
 30
0.0
 40
0.013617
  1
N.O.
 50
90.0
 41
1.011111
  7
SIMPLEX
  0
TEXT
  8
0
  6
CONTINUOUS
 62
   250
 10
0.041744
 20
0.392372
 30
0.0
 40
0.013617
  1
N.O.
 50
90.0
 41
1.011111
  7
SIMPLEX
  0
TEXT
  8
0
  6
CONTINUOUS
 62
   250
 10
0.002693
 20
0.392372
 30
0.0
 40
0.013617
  1
N.O.
 50
90.0
 41
1.011111
  7
SIMPLEX
  0
TEXT
  8
0
  6
CONTINUOUS
 62
   250
 10
-0.03622
 20
0.392372
 30
0.0
 40
0.013617
  1
N.O.
 50
90.0
 41
1.011111
  7
SIMPLEX
  0
TEXT
  8
0
  6
CONTINUOUS
 62
   250
 10
0.118946
 20
0.392372
 30
0.0
 40
0.013617
  1
COM
 50
90.0
 41
1.011111
  7
SIMPLEX
  0
CIRCLE
  8
0
  6
CONTINUOUS
 62
   250
 10
0.026318
 20
0.596035
 30
0.0
 40
0.028126
  0
LINE
  8
0
  6
CONTINUOUS
 62
   250
 10
0.287304
 20
0.263971
 30
0.0
 11
0.394295
 21
0.263971
 31
0.0
  0
LINE
  8
0
  6
CONTINUOUS
 62
   250
 10
0.287304
 20
0.341553
 30
0.0
 11
0.394295
 21
0.341553
 31
0.0
  0
TEXT
  8
0
  6
CONTINUOUS
 62
   250
 10
0.279927
 20
0.286032
 30
0.0
 40
0.013617
  1
RTD
 50
90.0
 41
1.011111
  7
SIMPLEX
  0
LINE
  8
0
  6
CONTINUOUS
 62
   250
 10
0.287304
 20
0.341553
 30
0.0
 11
0.287304
 21
0.263971
 31
0.0
  0
LINE
  8
0
  6
CONTINUOUS
 62
   250
 10
0.128918
 20
0.251942
 30
0.0
 11
0.283852
 21
0.251942
 31
0.0
  0
LINE
  8
0
  6
CONTINUOUS
 62
   250
 10
0.246483
 20
0.334614
 30
0.0
 11
0.246483
 21
0.297241
 31
0.0
  0
ARC
  8
0
  6
CONTINUOUS
 62
   250
 10
0.233563
 20
0.334618
 30
0.0
 40
0.01292
 50
359.981506
 51
90.018639
  0
LINE
  8
0
  6
CONTINUOUS
 62
   250
 10
0.246483
 20
0.33165
 30
0.0
 11
0.246483
 21
0.294277
 31
0.0
  0
ARC
  8
0
  6
CONTINUOUS
 62
   250
 10
0.233563
 20
0.294273
 30
0.0
 40
0.01292
 50
269.981506
 51
0.018503
  0
TEXT
  8
0
  6
CONTINUOUS
 62
   250
 10
0.134617
 20
0.257572
 30
0.0
 40
0.013617
  1
10
 41
1.011111
  7
SIMPLEX
  0
TEXT
  8
0
  6
CONTINUOUS
 62
   250
 10
0.174843
 20
0.258018
 30
0.0
 40
0.013617
  1
11
 41
1.011111
  7
SIMPLEX
  0
TEXT
  8
0
  6
CONTINUOUS
 62
   250
 10
0.213749
 20
0.258018
 30
0.0
 40
0.013617
  1
12
 41
1.011111
  7
SIMPLEX
  0
LINE
  8
0
  6
CONTINUOUS
 62
   250
 10
0.128918
 20
0.37603
 30
0.0
 11
0.128918
 21
0.483021
 31
0.0
  0
LINE
  8
0
  6
CONTINUOUS
 62
   250
 10
0.283852
 20
0.37603
 30
0.0
 11
0.128918
 21
0.37603
 31
0.0
  0
LINE
  8
0
  6
CONTINUOUS
 62
   250
 10
0.283852
 20
0.37603
 30
0.0
 11
0.283852
 21
0.483021
 31
0.0
  0
LINE
  8
0
  6
CONTINUOUS
 62
   250
 10
0.167107
 20
0.37603
 30
0.0
 11
0.167107
 21
0.483021
 31
0.0
  0
CIRCLE
  8
0
  6
CONTINUOUS
 62
   250
 10
0.147701
 20
0.468431
 30
0.0
 40
0.009724
  0
LINE
  8
0
  6
CONTINUOUS
 62
   250
 10
0.137974
 20
0.468431
 30
0.0
 11
0.157425
 21
0.468431
 31
0.0
  0
CIRCLE
  8
0
  6
CONTINUOUS
 62
   250
 10
0.186606
 20
0.468431
 30
0.0
 40
0.009726
  0
CIRCLE
  8
0
  6
CONTINUOUS
 62
   250
 10
0.225512
 20
0.468431
 30
0.0
 40
0.009726
  0
LINE
  8
0
  6
CONTINUOUS
 62
   250
 10
0.283852
 20
0.483021
 30
0.0
 11
0.128918
 21
0.483021
 31
0.0
  0
LINE
  8
0
  6
CONTINUOUS
 62
   250
 10
0.225512
 20
0.478157
 30
0.0
 11
0.225512
 21
0.458704
 31
0.0
  0
LINE
  8
0
  6
CONTINUOUS
 62
   250
 10
0.17688
 20
0.468431
 30
0.0
 11
0.196331
 21
0.468431
 31
0.0
  0
TEXT
  8
0
  6
CONTINUOUS
 62
   250
 10
0.213749
 20
0.356407
 30
0.0
 40
0.013617
  1
14
 41
1.011111
  7
SIMPLEX
  0
TEXT
  8
0
  6
CONTINUOUS
 62
   250
 10
0.136395
 20
0.356407
 30
0.0
 40
0.013617
  1
M6
 41
1.011111
  7
SIMPLEX
  0
LINE
  8
0
  6
CONTINUOUS
 62
   250
 10
0.264416
 20
0.478157
 30
0.0
 11
0.264416
 21
0.458704
 31
0.0
  0
CIRCLE
  8
0
  6
CONTINUOUS
 62
   250
 10
0.264416
 20
0.468431
 30
0.0
 40
0.009727
  0
TEXT
  8
0
  6
CONTINUOUS
 62
   250
 10
0.252655
 20
0.356407
 30
0.0
 40
0.013617
  1
13
 41
1.011111
  7
SIMPLEX
  0
TEXT
  8
0
  6
CONTINUOUS
 62
   250
 10
0.174843
 20
0.356407
 30
0.0
 40
0.013617
  1
15
 41
1.011111
  7
SIMPLEX
  0
TEXT
  8
0
  6
CONTINUOUS
 62
   250
 10
0.232357
 20
0.392372
 30
0.0
 40
0.013617
  1
AO2
 50
90.0
 41
1.011111
  7
SIMPLEX
  0
TEXT
  8
0
  6
CONTINUOUS
 62
   250
 10
0.193453
 20
0.392372
 30
0.0
 40
0.013617
  1
AO1
 50
90.0
 41
1.011111
  7
SIMPLEX
  0
TEXT
  8
0
  6
CONTINUOUS
 62
   250
 10
0.157444
 20
0.392372
 30
0.0
 40
0.013617
  1
N.O.
 50
90.0
 41
1.011111
  7
SIMPLEX
  0
TEXT
  8
0
  6
CONTINUOUS
 62
   250
 10
0.271263
 20
0.392372
 30
0.0
 40
0.013617
  1
AO3
 50
90.0
 41
1.011111
  7
SIMPLEX
  0
TEXT
  8
0
  6
CONTINUOUS
 62
   250
 10
0.330576
 20
0.286032
 30
0.0
 40
0.013617
  1
RTD
 50
90.0
 41
1.011111
  7
SIMPLEX
  0
LINE
  8
0
  6
CONTINUOUS
 62
   250
 10
0.394295
 20
0.341553
 30
0.0
 11
0.394295
 21
0.263971
 31
0.0
  0
LINE
  8
0
  6
CONTINUOUS
 62
   250
 10
0.379706
 20
0.293591
 30
0.0
 11
0.379706
 21
0.274137
 31
0.0
  0
CIRCLE
  8
0
  6
CONTINUOUS
 62
   250
 10
0.379706
 20
0.283863
 30
0.0
 40
0.009726
  0
LINE
  8
0
  6
CONTINUOUS
 62
   250
 10
0.379706
 20
0.332497
 30
0.0
 11
0.379706
 21
0.313044
 31
0.0
  0
CIRCLE
  8
0
  6
CONTINUOUS
 62
   250
 10
0.379706
 20
0.322769
 30
0.0
 40
0.009726
  0
LINE
  8
0
  6
CONTINUOUS
 62
   250
 10
0.613976
 20
0.376896
 30
0.0
 11
0.613976
 21
0.559265
 31
0.0
  0
LINE
  8
0
  6
CONTINUOUS
 62
   250
 10
0.607895
 20
0.35866
 30
0.0
 11
0.607895
 21
0.376896
 31
0.0
  0
LINE
  8
0
  6
CONTINUOUS
 62
   250
 10
0.607895
 20
0.316105
 30
0.0
 11
0.607895
 21
0.334343
 31
0.0
  0
LINE
  8
0
  6
CONTINUOUS
 62
   250
 10
0.607895
 20
0.316105
 30
0.0
 11
0.613976
 21
0.316105
 31
0.0
  0
LINE
  8
0
  6
CONTINUOUS
 62
   250
 10
0.607895
 20
0.334343
 30
0.0
 11
0.632214
 21
0.334343
 31
0.0
  0
LINE
  8
0
  6
CONTINUOUS
 62
   250
 10
0.607895
 20
0.35866
 30
0.0
 11
0.632214
 21
0.35866
 31
0.0
  0
LINE
  8
0
  6
CONTINUOUS
 62
   250
 10
0.607895
 20
0.376896
 30
0.0
 11
0.613976
 21
0.376896
 31
0.0
  0
LINE
  8
0
  6
CONTINUOUS
 62
   250
 10
0.632214
 20
0.334343
 30
0.0
 11
0.632214
 21
0.35866
 31
0.0
  0
LINE
  8
0
  6
CONTINUOUS
 62
   250
 10
0.607895
 20
0.601818
 30
0.0
 11
0.607895
 21
0.620056
 31
0.0
  0
LINE
  8
0
  6
CONTINUOUS
 62
   250
 10
0.607895
 20
0.559265
 30
0.0
 11
0.607895
 21
0.577501
 31
0.0
  0
LINE
  8
0
  6
CONTINUOUS
 62
   250
 10
0.607895
 20
0.559265
 30
0.0
 11
0.613976
 21
0.559265
 31
0.0
  0
LINE
  8
0
  6
CONTINUOUS
 62
   250
 10
0.607895
 20
0.577501
 30
0.0
 11
0.632214
 21
0.577501
 31
0.0
  0
LINE
  8
0
  6
CONTINUOUS
 62
   250
 10
0.607895
 20
0.601818
 30
0.0
 11
0.632214
 21
0.601818
 31
0.0
  0
LINE
  8
0
  6
CONTINUOUS
 62
   250
 10
0.607895
 20
0.620056
 30
0.0
 11
0.613976
 21
0.620056
 31
0.0
  0
LINE
  8
0
  6
CONTINUOUS
 62
   250
 10
0.632214
 20
0.577501
 30
0.0
 11
0.632214
 21
0.601818
 31
0.0
  0
LINE
  8
0
  6
CONTINUOUS
 62
   250
 10
0.613976
 20
0.620056
 30
0.0
 11
0.613976
 21
0.693003
 31
0.0
  0
ENDSEC
  0
EOF
