  0
SECTION
  2
HEADER
  9
$ACADVER
  1
AC1009
  9
$INSBASE
 10
0.0
 20
0.0
 30
0.0
  9
$EXTMIN
 10
-0.321807
 20
0.0
 30
0.0
  9
$EXTMAX
 10
0.321807
 20
0.643613
 30
0.0
  9
$LIMMIN
 10
15.099315
 20
12.181777
  9
$LIMMAX
 10
15.742929
 20
12.82539
  9
$ORTHOMODE
 70
     1
  9
$REGENMODE
 70
     1
  9
$FILLMODE
 70
     1
  9
$QTEXTMODE
 70
     0
  9
$MIRRTEXT
 70
     1
  9
$DRAGMODE
 70
     2
  9
$LTSCALE
 40
1.0
  9
$OSMODE
 70
     0
  9
$ATTMODE
 70
     2
  9
$TEXTSIZE
 40
0.01502
  9
$TRACEWID
 40
0.05
  9
$TEXTSTYLE
  7
STANDARD
  9
$CLAYER
  8
0
  9
$CELTYPE
  6
BYLAYER
  9
$CECOLOR
 62
   256
  9
$DIMSCALE
 40
1.0
  9
$DIMASZ
 40
1.0
  9
$DIMEXO
 40
0.5
  9
$DIMDLI
 40
0.38
  9
$DIMRND
 40
0.0
  9
$DIMDLE
 40
0.0
  9
$DIMEXE
 40
0.5
  9
$DIMTP
 40
0.0
  9
$DIMTM
 40
0.0
  9
$DIMTXT
 40
0.18
  9
$DIMCEN
 40
0.09
  9
$DIMTSZ
 40
0.0
  9
$DIMTOL
 70
     0
  9
$DIMLIM
 70
     0
  9
$DIMTIH
 70
     1
  9
$DIMTOH
 70
     1
  9
$DIMSE1
 70
     0
  9
$DIMSE2
 70
     0
  9
$DIMTAD
 70
     0
  9
$DIMZIN
 70
     0
  9
$DIMBLK
  1

  9
$DIMASO
 70
     1
  9
$DIMSHO
 70
     1
  9
$DIMPOST
  1
"
  9
$DIMAPOST
  1

  9
$DIMALT
 70
     0
  9
$DIMALTD
 70
     2
  9
$DIMALTF
 40
25.4
  9
$DIMLFAC
 40
1.0
  9
$DIMTOFL
 70
     0
  9
$DIMTVP
 40
0.0
  9
$DIMTIX
 70
     0
  9
$DIMSOXD
 70
     0
  9
$DIMSAH
 70
     0
  9
$DIMBLK1
  1

  9
$DIMBLK2
  1

  9
$DIMSTYLE
  2
*UNNAMED
  9
$DIMCLRD
 70
     0
  9
$DIMCLRE
 70
     0
  9
$DIMCLRT
 70
     0
  9
$DIMTFAC
 40
1.0
  9
$DIMGAP
 40
0.09
  9
$LUNITS
 70
     2
  9
$LUPREC
 70
     3
  9
$SKETCHINC
 40
0.1
  9
$FILLETRAD
 40
0.0
  9
$AUNITS
 70
     0
  9
$AUPREC
 70
     3
  9
$MENU
  1
acad
  9
$ELEVATION
 40
0.0
  9
$PELEVATION
 40
0.0
  9
$THICKNESS
 40
0.0
  9
$LIMCHECK
 70
     0
  9
$BLIPMODE
 70
     0
  9
$CHAMFERA
 40
0.5
  9
$CHAMFERB
 40
0.5
  9
$SKPOLY
 70
     0
  9
$TDCREATE
 40
2450088.468799884
  9
$TDUPDATE
 40
2450088.468799884
  9
$TDINDWG
 40
0.0000000000
  9
$TDUSRTIMER
 40
0.0000000000
  9
$USRTIMER
 70
     1
  9
$ANGBASE
 50
0.0
  9
$ANGDIR
 70
     0
  9
$PDMODE
 70
     2
  9
$PDSIZE
 40
0.0
  9
$PLINEWID
 40
0.0
  9
$COORDS
 70
     1
  9
$SPLFRAME
 70
     0
  9
$SPLINETYPE
 70
     6
  9
$SPLINESEGS
 70
     8
  9
$ATTDIA
 70
     0
  9
$ATTREQ
 70
     1
  9
$HANDLING
 70
     0
  9
$HANDSEED
  5
0
  9
$SURFTAB1
 70
     6
  9
$SURFTAB2
 70
     6
  9
$SURFTYPE
 70
     6
  9
$SURFU
 70
     6
  9
$SURFV
 70
     6
  9
$UCSNAME
  2

  9
$UCSORG
 10
0.0
 20
0.0
 30
0.0
  9
$UCSXDIR
 10
1.0
 20
0.0
 30
0.0
  9
$UCSYDIR
 10
0.0
 20
1.0
 30
0.0
  9
$PUCSNAME
  2

  9
$PUCSORG
 10
0.0
 20
0.0
 30
0.0
  9
$PUCSXDIR
 10
1.0
 20
0.0
 30
0.0
  9
$PUCSYDIR
 10
0.0
 20
1.0
 30
0.0
  9
$USERI1
 70
     0
  9
$USERI2
 70
     0
  9
$USERI3
 70
     0
  9
$USERI4
 70
     0
  9
$USERI5
 70
     0
  9
$USERR1
 40
0.0
  9
$USERR2
 40
0.0
  9
$USERR3
 40
0.0
  9
$USERR4
 40
0.0
  9
$USERR5
 40
0.0
  9
$WORLDVIEW
 70
     1
  9
$SHADEDGE
 70
     3
  9
$SHADEDIF
 70
    70
  9
$TILEMODE
 70
     1
  9
$MAXACTVP
 70
    16
  9
$PINSBASE
 10
-0.186226
 20
50.0
 30
0.439667
  9
$PLIMCHECK
 70
     0
  9
$PEXTMIN
 10
1.000000E+20
 20
1.000000E+20
 30
1.000000E+20
  9
$PEXTMAX
 10
-1.000000E+20
 20
-1.000000E+20
 30
-1.000000E+20
  9
$PLIMMIN
 10
0.0
 20
0.0
  9
$PLIMMAX
 10
12.0
 20
9.0
  9
$UNITMODE
 70
     0
  9
$VISRETAIN
 70
     0
  9
$PLINEGEN
 70
     0
  9
$PSLTSCALE
 70
     1
  9
$TREEDEPTH
 70
  3020
  9
$DWGCODEPAGE
  3
ascii
  0
ENDSEC
  0
SECTION
  2
TABLES
  0
TABLE
  2
VPORT
 70
     1
  0
VPORT
  2
*ACTIVE
 70
     0
 10
0.0
 20
0.0
 11
1.0
 21
1.0
 12
8.575225
 22
6.412695
 13
0.0
 23
0.0
 14
1.0
 24
1.0
 15
1.0
 25
1.0
 16
0.0
 26
0.0
 36
1.0
 17
0.0
 27
0.0
 37
0.0
 40
12.82539
 41
1.387409
 42
50.0
 43
0.0
 44
0.0
 50
0.0
 51
0.0
 71
     0
 72
   100
 73
     1
 74
     1
 75
     0
 76
     0
 77
     0
 78
     0
  0
ENDTAB
  0
TABLE
  2
LTYPE
 70
     1
  0
LTYPE
  2
CONTINUOUS
 70
    64
  3
SOLID LINE
 72
    65
 73
     0
 40
0.0
  0
ENDTAB
  0
TABLE
  2
LAYER
 70
     1
  0
LAYER
  2
0
 70
    64
 62
     4
  6
CONTINUOUS
  0
ENDTAB
  0
TABLE
  2
STYLE
 70
     2
  0
STYLE
  2
STANDARD
 70
     0
 40
0.0
 41
1.0
 50
0.0
 71
     0
 42
0.2
  3
txt
  4

  0
STYLE
  2
TEXT
 70
    64
 40
0.0
 41
1.0
 50
0.0
 71
     0
 42
1.0
  3
ROMANS.SHX
  4

  0
ENDTAB
  0
TABLE
  2
VIEW
 70
     0
  0
ENDTAB
  0
TABLE
  2
UCS
 70
     0
  0
ENDTAB
  0
TABLE
  2
APPID
 70
     1
  0
APPID
  2
ACAD
 70
    64
  0
ENDTAB
  0
TABLE
  2
DIMSTYLE
 70
     0
  0
ENDTAB
  0
ENDSEC
  0
SECTION
  2
BLOCKS
  0
ENDSEC
  0
SECTION
  2
ENTITIES
  0
LINE
  8
0
  6
CONTINUOUS
 62
   250
 10
0.321807
 20
0.643613
 30
0.0
 11
-0.321807
 21
0.643613
 31
0.0
  0
LINE
  8
0
  6
CONTINUOUS
 62
   250
 10
-0.321807
 20
0.0
 30
0.0
 11
0.321807
 21
0.0
 31
0.0
  0
TEXT
  8
0
  6
CONTINUOUS
 62
   250
 10
-0.127429
 20
0.322621
 30
0.0
 40
0.013518
  1
#
 41
1.111111
  7
TEXT
  0
LINE
  8
0
  6
CONTINUOUS
 62
   250
 10
-0.213674
 20
0.467828
 30
0.0
 11
-0.213674
 21
0.268099
 31
0.0
  0
LINE
  8
0
  6
CONTINUOUS
 62
   250
 10
-0.252264
 20
0.268099
 30
0.0
 11
-0.252264
 21
0.467828
 31
0.0
  0
LINE
  8
0
  6
CONTINUOUS
 62
   250
 10
-0.206829
 20
0.268884
 30
0.0
 11
-0.206829
 21
0.467828
 31
0.0
  0
LINE
  8
0
  6
CONTINUOUS
 62
   250
 10
-0.299467
 20
0.268099
 30
0.0
 11
-0.299467
 21
0.467828
 31
0.0
  0
CIRCLE
  8
0
  6
CONTINUOUS
 62
   250
 10
-0.23413
 20
0.330079
 30
0.0
 40
0.0091
  0
LINE
  8
0
  6
CONTINUOUS
 62
   250
 10
-0.321807
 20
0.0
 30
0.0
 11
-0.321807
 21
0.643613
 31
0.0
  0
LINE
  8
0
  6
CONTINUOUS
 62
   250
 10
-0.280096
 20
0.199855
 30
0.0
 11
-0.280096
 21
0.101116
 31
0.0
  0
LINE
  8
0
  6
CONTINUOUS
 62
   250
 10
-0.216473
 20
0.214034
 30
0.0
 11
-0.216473
 21
0.086937
 31
0.0
  0
LINE
  8
0
  6
CONTINUOUS
 62
   250
 10
-0.206507
 20
0.256883
 30
0.0
 11
-0.206507
 21
0.044088
 31
0.0
  0
LINE
  8
0
  6
CONTINUOUS
 62
   250
 10
-0.290062
 20
0.044088
 30
0.0
 11
-0.290062
 21
0.256883
 31
0.0
  0
CIRCLE
  8
0
  6
CONTINUOUS
 62
   250
 10
-0.302543
 20
0.017274
 30
0.0
 40
0.011927
  0
ARC
  8
0
  6
CONTINUOUS
 62
   250
 10
-0.302542
 20
0.017276
 30
0.0
 40
0.002478
 50
180.044113
 51
359.955872
  0
ARC
  8
0
  6
CONTINUOUS
 62
   250
 10
-0.302543
 20
0.017273
 30
0.0
 40
0.002477
 50
0.022062
 51
179.977936
  0
LINE
  8
0
  6
CONTINUOUS
 62
   250
 10
-0.227533
 20
0.079341
 30
0.0
 11
-0.268204
 21
0.086833
 31
0.0
  0
CIRCLE
  8
0
  6
CONTINUOUS
 62
   250
 10
-0.248285
 20
0.057908
 30
0.0
 40
0.013159
  0
CIRCLE
  8
0
  6
CONTINUOUS
 62
   250
 10
-0.248285
 20
0.057908
 30
0.0
 40
0.011091
  0
LINE
  8
0
  6
CONTINUOUS
 62
   250
 10
-0.206507
 20
0.044088
 30
0.0
 11
-0.290062
 21
0.044088
 31
0.0
  0
ARC
  8
0
  6
CONTINUOUS
 62
   250
 10
-0.265572
 20
0.101117
 30
0.0
 40
0.014524
 50
180.003769
 51
259.559204
  0
ARC
  8
0
  6
CONTINUOUS
 62
   250
 10
-0.261381
 20
0.115681
 30
0.0
 40
0.002249
 50
0.0
 51
180.0
  0
ARC
  8
0
  6
CONTINUOUS
 62
   250
 10
-0.261381
 20
0.115681
 30
0.0
 40
0.002249
 50
180.0
 51
0.0
  0
LINE
  8
0
  6
CONTINUOUS
 62
   250
 10
-0.227533
 20
0.079341
 30
0.0
 11
-0.224069
 21
0.079341
 31
0.0
  0
ARC
  8
0
  6
CONTINUOUS
 62
   250
 10
-0.235128
 20
0.103972
 30
0.0
 40
0.002248
 50
0.024309
 51
179.975708
  0
ARC
  8
0
  6
CONTINUOUS
 62
   250
 10
-0.23513
 20
0.103973
 30
0.0
 40
0.002248
 50
180.0
 51
0.0
  0
ARC
  8
0
  6
CONTINUOUS
 62
   250
 10
-0.224071
 20
0.086938
 30
0.0
 40
0.007597
 50
270.007202
 51
359.992798
  0
ARC
  8
0
  6
CONTINUOUS
 62
   250
 10
-0.22407
 20
0.214033
 30
0.0
 40
0.007597
 50
0.007193
 51
89.992813
  0
LINE
  8
0
  6
CONTINUOUS
 62
   250
 10
-0.227533
 20
0.22163
 30
0.0
 11
-0.268204
 21
0.214138
 31
0.0
  0
ARC
  8
0
  6
CONTINUOUS
 62
   250
 10
-0.261381
 20
0.138913
 30
0.0
 40
0.002249
 50
0.024298
 51
179.975708
  0
ARC
  8
0
  6
CONTINUOUS
 62
   250
 10
-0.261381
 20
0.138914
 30
0.0
 40
0.002249
 50
180.0
 51
0.0
  0
ARC
  8
0
  6
CONTINUOUS
 62
   250
 10
-0.261381
 20
0.162148
 30
0.0
 40
0.002249
 50
0.0
 51
180.0
  0
ARC
  8
0
  6
CONTINUOUS
 62
   250
 10
-0.261381
 20
0.162148
 30
0.0
 40
0.002249
 50
180.024292
 51
359.975708
  0
ARC
  8
0
  6
CONTINUOUS
 62
   250
 10
-0.265574
 20
0.199856
 30
0.0
 40
0.014522
 50
100.434753
 51
180.003769
  0
ARC
  8
0
  6
CONTINUOUS
 62
   250
 10
-0.261381
 20
0.185381
 30
0.0
 40
0.002249
 50
359.975708
 51
180.024292
  0
ARC
  8
0
  6
CONTINUOUS
 62
   250
 10
-0.261381
 20
0.185381
 30
0.0
 40
0.002249
 50
180.024292
 51
359.975708
  0
ARC
  8
0
  6
CONTINUOUS
 62
   250
 10
-0.235128
 20
0.127207
 30
0.0
 40
0.002248
 50
0.0
 51
180.0
  0
ARC
  8
0
  6
CONTINUOUS
 62
   250
 10
-0.235128
 20
0.127207
 30
0.0
 40
0.00225
 50
180.0
 51
0.0
  0
ARC
  8
0
  6
CONTINUOUS
 62
   250
 10
-0.23513
 20
0.150439
 30
0.0
 40
0.00225
 50
0.024288
 51
179.975693
  0
ARC
  8
0
  6
CONTINUOUS
 62
   250
 10
-0.235128
 20
0.15044
 30
0.0
 40
0.00225
 50
180.0
 51
0.0
  0
ARC
  8
0
  6
CONTINUOUS
 62
   250
 10
-0.235128
 20
0.196908
 30
0.0
 40
0.00225
 50
180.048569
 51
359.951385
  0
ARC
  8
0
  6
CONTINUOUS
 62
   250
 10
-0.235128
 20
0.173673
 30
0.0
 40
0.002248
 50
0.0
 51
180.0
  0
ARC
  8
0
  6
CONTINUOUS
 62
   250
 10
-0.235128
 20
0.173674
 30
0.0
 40
0.00225
 50
180.024292
 51
359.975677
  0
ARC
  8
0
  6
CONTINUOUS
 62
   250
 10
-0.235128
 20
0.196905
 30
0.0
 40
0.002248
 50
0.024309
 51
179.975708
  0
LINE
  8
0
  6
CONTINUOUS
 62
   250
 10
-0.213674
 20
0.268099
 30
0.0
 11
-0.299467
 21
0.268099
 31
0.0
  0
CIRCLE
  8
0
  6
CONTINUOUS
 62
   250
 10
-0.248285
 20
0.243063
 30
0.0
 40
0.011091
  0
CIRCLE
  8
0
  6
CONTINUOUS
 62
   250
 10
-0.248285
 20
0.243063
 30
0.0
 40
0.013159
  0
LINE
  8
0
  6
CONTINUOUS
 62
   250
 10
-0.290062
 20
0.256883
 30
0.0
 11
-0.206507
 21
0.256883
 31
0.0
  0
LINE
  8
0
  6
CONTINUOUS
 62
   250
 10
-0.299467
 20
0.275204
 30
0.0
 11
-0.252264
 21
0.275204
 31
0.0
  0
ARC
  8
0
  6
CONTINUOUS
 62
   250
 10
-0.277475
 20
0.290308
 30
0.0
 40
0.006615
 50
0.008261
 51
179.99173
  0
ARC
  8
0
  6
CONTINUOUS
 62
   250
 10
-0.277472
 20
0.290308
 30
0.0
 40
0.006615
 50
179.991745
 51
0.008264
  0
LINE
  8
0
  6
CONTINUOUS
 62
   250
 10
-0.227533
 20
0.22163
 30
0.0
 11
-0.224069
 21
0.22163
 31
0.0
  0
LINE
  8
0
  6
CONTINUOUS
 62
   250
 10
-0.21441
 20
0.268884
 30
0.0
 11
-0.206829
 21
0.268884
 31
0.0
  0
CIRCLE
  8
0
  6
CONTINUOUS
 62
   250
 10
-0.23413
 20
0.289328
 30
0.0
 40
0.0091
  0
LINE
  8
0
  6
CONTINUOUS
 62
   250
 10
-0.240566
 20
0.295763
 30
0.0
 11
-0.227696
 21
0.282892
 31
0.0
  0
TEXT
  8
0
  6
CONTINUOUS
 62
   250
 10
-0.193464
 20
0.184223
 30
0.0
 40
0.013518
  1
RS232
 50
270.0
 41
1.011111
  7
TEXT
  0
TEXT
  8
0
  6
CONTINUOUS
 62
   250
 10
-0.187511
 20
0.282065
 30
0.0
 40
0.013518
  1
B
 41
1.111111
  7
TEXT
  0
TEXT
  8
0
  6
CONTINUOUS
 62
   250
 10
-0.130546
 20
0.280282
 30
0.0
 40
0.013518
  1
#
 41
1.111111
  7
TEXT
  0
TEXT
  8
0
  6
CONTINUOUS
 62
   250
 10
-0.115526
 20
0.280282
 30
0.0
 40
0.013518
  1
1
 41
1.111111
  7
TEXT
  0
TEXT
  8
0
  6
CONTINUOUS
 62
   250
 10
-0.100505
 20
0.280282
 30
0.0
 40
0.013518
  1
9
 41
1.111111
  7
TEXT
  0
LINE
  8
0
  6
CONTINUOUS
 62
   250
 10
-0.252264
 20
0.471626
 30
0.0
 11
-0.252264
 21
0.589933
 31
0.0
  0
LINE
  8
0
  6
CONTINUOUS
 62
   250
 10
-0.213674
 20
0.471626
 30
0.0
 11
-0.213674
 21
0.589933
 31
0.0
  0
LINE
  8
0
  6
CONTINUOUS
 62
   250
 10
-0.299467
 20
0.589933
 30
0.0
 11
-0.299467
 21
0.471626
 31
0.0
  0
LINE
  8
0
  6
CONTINUOUS
 62
   250
 10
-0.206829
 20
0.589933
 30
0.0
 11
-0.206829
 21
0.471626
 31
0.0
  0
LINE
  8
0
  6
CONTINUOUS
 62
   250
 10
-0.299467
 20
0.34952
 30
0.0
 11
-0.206829
 21
0.34952
 31
0.0
  0
ARC
  8
0
  6
CONTINUOUS
 62
   250
 10
-0.277473
 20
0.37173
 30
0.0
 40
0.006613
 50
0.0
 51
180.0
  0
ARC
  8
0
  6
CONTINUOUS
 62
   250
 10
-0.277472
 20
0.371729
 30
0.0
 40
0.006615
 50
179.991745
 51
0.008264
  0
ARC
  8
0
  6
CONTINUOUS
 62
   250
 10
-0.277475
 20
0.328649
 30
0.0
 40
0.006615
 50
0.016521
 51
179.983475
  0
ARC
  8
0
  6
CONTINUOUS
 62
   250
 10
-0.277472
 20
0.32865
 30
0.0
 40
0.006615
 50
180.0
 51
0.0
  0
LINE
  8
0
  6
CONTINUOUS
 62
   250
 10
-0.252264
 20
0.356625
 30
0.0
 11
-0.299467
 21
0.356625
 31
0.0
  0
ARC
  8
0
  6
CONTINUOUS
 62
   250
 10
-0.277473
 20
0.41007
 30
0.0
 40
0.006613
 50
0.008263
 51
179.991745
  0
ARC
  8
0
  6
CONTINUOUS
 62
   250
 10
-0.277474
 20
0.410069
 30
0.0
 40
0.006613
 50
179.983475
 51
0.016524
  0
LINE
  8
0
  6
CONTINUOUS
 62
   250
 10
-0.240566
 20
0.377184
 30
0.0
 11
-0.227696
 21
0.364313
 31
0.0
  0
CIRCLE
  8
0
  6
CONTINUOUS
 62
   250
 10
-0.23413
 20
0.370749
 30
0.0
 40
0.0091
  0
LINE
  8
0
  6
CONTINUOUS
 62
   250
 10
-0.240565
 20
0.336514
 30
0.0
 11
-0.227695
 21
0.323643
 31
0.0
  0
CIRCLE
  8
0
  6
CONTINUOUS
 62
   250
 10
-0.23413
 20
0.4115
 30
0.0
 40
0.0091
  0
LINE
  8
0
  6
CONTINUOUS
 62
   250
 10
-0.240565
 20
0.417935
 30
0.0
 11
-0.227695
 21
0.405065
 31
0.0
  0
LINE
  8
0
  6
CONTINUOUS
 62
   250
 10
-0.206829
 20
0.467828
 30
0.0
 11
-0.299467
 21
0.467828
 31
0.0
  0
LINE
  8
0
  6
CONTINUOUS
 62
   250
 10
-0.299467
 20
0.471626
 30
0.0
 11
-0.206829
 21
0.471626
 31
0.0
  0
LINE
  8
0
  6
CONTINUOUS
 62
   250
 10
-0.252264
 20
0.460725
 30
0.0
 11
-0.299467
 21
0.460725
 31
0.0
  0
ARC
  8
0
  6
CONTINUOUS
 62
   250
 10
-0.277473
 20
0.447404
 30
0.0
 40
0.006613
 50
0.016526
 51
179.983475
  0
ARC
  8
0
  6
CONTINUOUS
 62
   250
 10
-0.277473
 20
0.447406
 30
0.0
 40
0.006614
 50
180.0
 51
0.0
  0
ARC
  8
0
  6
CONTINUOUS
 62
   250
 10
-0.277473
 20
0.493835
 30
0.0
 40
0.006613
 50
0.0
 51
180.0
  0
ARC
  8
0
  6
CONTINUOUS
 62
   250
 10
-0.277472
 20
0.493836
 30
0.0
 40
0.006615
 50
180.008255
 51
359.99173
  0
LINE
  8
0
  6
CONTINUOUS
 62
   250
 10
-0.252264
 20
0.47873
 30
0.0
 11
-0.299467
 21
0.47873
 31
0.0
  0
CIRCLE
  8
0
  6
CONTINUOUS
 62
   250
 10
-0.23413
 20
0.449627
 30
0.0
 40
0.0091
  0
LINE
  8
0
  6
CONTINUOUS
 62
   250
 10
-0.23413
 20
0.458727
 30
0.0
 11
-0.23413
 21
0.440526
 31
0.0
  0
CIRCLE
  8
0
  6
CONTINUOUS
 62
   250
 10
-0.23413
 20
0.492854
 30
0.0
 40
0.0091
  0
LINE
  8
0
  6
CONTINUOUS
 62
   250
 10
-0.240566
 20
0.49929
 30
0.0
 11
-0.227696
 21
0.486419
 31
0.0
  0
CIRCLE
  8
0
  6
CONTINUOUS
 62
   250
 10
-0.304534
 20
0.624351
 30
0.0
 40
0.011928
  0
ARC
  8
0
  6
CONTINUOUS
 62
   250
 10
-0.304536
 20
0.624349
 30
0.0
 40
0.002477
 50
89.955872
 51
270.044128
  0
ARC
  8
0
  6
CONTINUOUS
 62
   250
 10
-0.304532
 20
0.624349
 30
0.0
 40
0.002476
 50
269.955872
 51
90.044128
  0
LINE
  8
0
  6
CONTINUOUS
 62
   250
 10
-0.206829
 20
0.589933
 30
0.0
 11
-0.299467
 21
0.589933
 31
0.0
  0
ARC
  8
0
  6
CONTINUOUS
 62
   250
 10
-0.277472
 20
0.569512
 30
0.0
 40
0.006612
 50
359.99173
 51
180.008255
  0
ARC
  8
0
  6
CONTINUOUS
 62
   250
 10
-0.277474
 20
0.532179
 30
0.0
 40
0.006614
 50
359.99173
 51
180.00827
  0
ARC
  8
0
  6
CONTINUOUS
 62
   250
 10
-0.277473
 20
0.532178
 30
0.0
 40
0.006614
 50
180.0
 51
0.0
  0
ARC
  8
0
  6
CONTINUOUS
 62
   250
 10
-0.277473
 20
0.569511
 30
0.0
 40
0.006614
 50
180.0
 51
0.0
  0
LINE
  8
0
  6
CONTINUOUS
 62
   250
 10
-0.252264
 20
0.58283
 30
0.0
 11
-0.299467
 21
0.58283
 31
0.0
  0
LINE
  8
0
  6
CONTINUOUS
 62
   250
 10
-0.23413
 20
0.580833
 30
0.0
 11
-0.23413
 21
0.562633
 31
0.0
  0
CIRCLE
  8
0
  6
CONTINUOUS
 62
   250
 10
-0.23413
 20
0.571733
 30
0.0
 40
0.0091
  0
CIRCLE
  8
0
  6
CONTINUOUS
 62
   250
 10
-0.23413
 20
0.533606
 30
0.0
 40
0.0091
  0
LINE
  8
0
  6
CONTINUOUS
 62
   250
 10
-0.240565
 20
0.540041
 30
0.0
 11
-0.227695
 21
0.527171
 31
0.0
  0
TEXT
  8
0
  6
CONTINUOUS
 62
   250
 10
-0.12726
 20
0.485555
 30
0.0
 40
0.013518
  1
#14
 41
1.011111
  7
TEXT
  0
TEXT
  8
0
  6
CONTINUOUS
 62
   250
 10
-0.12726
 20
0.443469
 30
0.0
 40
0.013518
  1
#15
 41
1.011111
  7
TEXT
  0
TEXT
  8
0
  6
CONTINUOUS
 62
   250
 10
-0.126542
 20
0.40511
 30
0.0
 40
0.013518
  1
#16
 41
1.011111
  7
TEXT
  0
TEXT
  8
0
  6
CONTINUOUS
 62
   250
 10
-0.126085
 20
0.36491
 30
0.0
 40
0.013518
  1
#17
 41
1.011111
  7
TEXT
  0
TEXT
  8
0
  6
CONTINUOUS
 62
   250
 10
-0.186348
 20
0.364514
 30
0.0
 40
0.013518
  1
AI2
 41
1.011111
  7
TEXT
  0
TEXT
  8
0
  6
CONTINUOUS
 62
   250
 10
-0.187511
 20
0.322621
 30
0.0
 40
0.013518
  1
A
 41
1.111111
  7
TEXT
  0
TEXT
  8
0
  6
CONTINUOUS
 62
   250
 10
-0.186348
 20
0.404715
 30
0.0
 40
0.013518
  1
AI1
 41
1.011111
  7
TEXT
  0
TEXT
  8
0
  6
CONTINUOUS
 62
   250
 10
-0.112409
 20
0.322621
 30
0.0
 40
0.013518
  1
1
 41
1.111111
  7
TEXT
  0
TEXT
  8
0
  6
CONTINUOUS
 62
   250
 10
-0.186348
 20
0.443072
 30
0.0
 40
0.013518
  1
P+
 41
1.011111
  7
TEXT
  0
TEXT
  8
0
  6
CONTINUOUS
 62
   250
 10
-0.186348
 20
0.487125
 30
0.0
 40
0.013518
  1
DI2
 41
1.011111
  7
TEXT
  0
TEXT
  8
0
  6
CONTINUOUS
 62
   250
 10
-0.097389
 20
0.322621
 30
0.0
 40
0.013518
  1
8
 41
1.111111
  7
TEXT
  0
TEXT
  8
0
  6
CONTINUOUS
 62
   250
 10
-0.125668
 20
0.565321
 30
0.0
 40
0.013518
  1
#12
 41
1.011111
  7
TEXT
  0
TEXT
  8
0
  6
CONTINUOUS
 62
   250
 10
-0.126623
 20
0.527597
 30
0.0
 40
0.013518
  1
#13
 41
1.011111
  7
TEXT
  0
TEXT
  8
0
  6
CONTINUOUS
 62
   250
 10
-0.186348
 20
0.566199
 30
0.0
 40
0.013518
  1
GND
 41
1.011111
  7
TEXT
  0
TEXT
  8
0
  6
CONTINUOUS
 62
   250
 10
-0.186348
 20
0.527507
 30
0.0
 40
0.013518
  1
DI1
 41
1.011111
  7
TEXT
  0
LINE
  8
0
  6
CONTINUOUS
 62
   250
 10
0.321807
 20
0.0
 30
0.0
 11
0.321807
 21
0.643613
 31
0.0
  0
LINE
  8
0
  6
CONTINUOUS
 62
   250
 10
0.25527
 20
0.204784
 30
0.0
 11
0.25527
 21
0.323092
 31
0.0
  0
LINE
  8
0
  6
CONTINUOUS
 62
   250
 10
0.21668
 20
0.204784
 30
0.0
 11
0.21668
 21
0.323092
 31
0.0
  0
LINE
  8
0
  6
CONTINUOUS
 62
   250
 10
0.302472
 20
0.323092
 30
0.0
 11
0.302472
 21
0.204784
 31
0.0
  0
LINE
  8
0
  6
CONTINUOUS
 62
   250
 10
0.209835
 20
0.323092
 30
0.0
 11
0.209835
 21
0.204784
 31
0.0
  0
TEXT
  8
0
  6
CONTINUOUS
 62
   250
 10
0.065358
 20
0.176032
 30
0.0
 40
0.013518
  1
#10
 41
1.011111
  7
TEXT
  0
TEXT
  8
0
  6
CONTINUOUS
 62
   250
 10
0.065487
 20
0.219916
 30
0.0
 40
0.013518
  1
#9
 41
1.011111
  7
TEXT
  0
TEXT
  8
0
  6
CONTINUOUS
 62
   250
 10
0.06545
 20
0.139516
 30
0.0
 40
0.013518
  1
#11
 41
1.011111
  7
TEXT
  0
TEXT
  8
0
  6
CONTINUOUS
 62
   250
 10
0.067399
 20
0.260161
 30
0.0
 40
0.013518
  1
#8
 41
1.011111
  7
TEXT
  0
TEXT
  8
0
  6
CONTINUOUS
 62
   250
 10
0.063482
 20
0.298519
 30
0.0
 40
0.013518
  1
#7
 41
1.011111
  7
TEXT
  0
TEXT
  8
0
  6
CONTINUOUS
 62
   250
 10
0.119237
 20
0.219916
 30
0.0
 40
0.013518
  1
AO2 
 41
1.011111
  7
TEXT
  0
TEXT
  8
0
  6
CONTINUOUS
 62
   250
 10
0.119199
 20
0.139516
 30
0.0
 40
0.013518
  1
AC
 41
1.011111
  7
TEXT
  0
TEXT
  8
0
  6
CONTINUOUS
 62
   250
 10
0.119107
 20
0.176032
 30
0.0
 40
0.013518
  1
AC
 41
1.011111
  7
TEXT
  0
CIRCLE
  8
0
  6
CONTINUOUS
 62
   250
 10
0.173068
 20
0.182813
 30
0.0
 40
0.014251
  0
CIRCLE
  8
0
  6
CONTINUOUS
 62
   250
 10
0.173068
 20
0.146597
 30
0.0
 40
0.014251
  0
ARC
  8
0
  6
CONTINUOUS
 62
   250
 10
0.177893
 20
0.14645
 30
0.0
 40
0.004924
 50
340.954498
 51
191.505783
  0
ARC
  8
0
  6
CONTINUOUS
 62
   250
 10
0.16824
 20
0.14645
 30
0.0
 40
0.004924
 50
160.940384
 51
348.498657
  0
ARC
  8
0
  6
CONTINUOUS
 62
   250
 10
0.177892
 20
0.182666
 30
0.0
 40
0.004925
 50
340.95813
 51
191.497116
  0
ARC
  8
0
  6
CONTINUOUS
 62
   250
 10
0.16824
 20
0.182665
 30
0.0
 40
0.004924
 50
160.929901
 51
348.520386
  0
TEXT
  8
0
  6
CONTINUOUS
 62
   250
 10
0.121148
 20
0.260161
 30
0.0
 40
0.013518
  1
AO1 
 41
1.011111
  7
TEXT
  0
TEXT
  8
0
  6
CONTINUOUS
 62
   250
 10
0.117231
 20
0.298519
 30
0.0
 40
0.013518
  1
GND 
 41
1.011111
  7
TEXT
  0
CIRCLE
  8
0
  6
CONTINUOUS
 62
   250
 10
0.304532
 20
0.019264
 30
0.0
 40
0.011928
  0
ARC
  8
0
  6
CONTINUOUS
 62
   250
 10
0.304532
 20
0.019263
 30
0.0
 40
0.002476
 50
270.0
 51
90.0
  0
ARC
  8
0
  6
CONTINUOUS
 62
   250
 10
0.304533
 20
0.019264
 30
0.0
 40
0.002477
 50
90.022057
 51
269.977936
  0
LINE
  8
0
  6
CONTINUOUS
 62
   250
 10
0.210093
 20
0.200986
 30
0.0
 11
0.30273
 21
0.200986
 31
0.0
  0
LINE
  8
0
  6
CONTINUOUS
 62
   250
 10
0.30273
 20
0.125223
 30
0.0
 11
0.210093
 21
0.125223
 31
0.0
  0
LINE
  8
0
  6
CONTINUOUS
 62
   250
 10
0.255529
 20
0.193882
 30
0.0
 11
0.30273
 21
0.193882
 31
0.0
  0
LINE
  8
0
  6
CONTINUOUS
 62
   250
 10
0.255529
 20
0.132326
 30
0.0
 11
0.30273
 21
0.132326
 31
0.0
  0
LINE
  8
0
  6
CONTINUOUS
 62
   250
 10
0.25527
 20
0.211888
 30
0.0
 11
0.302472
 21
0.211888
 31
0.0
  0
LINE
  8
0
  6
CONTINUOUS
 62
   250
 10
0.25527
 20
0.315989
 30
0.0
 11
0.302472
 21
0.315989
 31
0.0
  0
LINE
  8
0
  6
CONTINUOUS
 62
   250
 10
0.302472
 20
0.204784
 30
0.0
 11
0.209835
 21
0.204784
 31
0.0
  0
ARC
  8
0
  6
CONTINUOUS
 62
   250
 10
0.280478
 20
0.226995
 30
0.0
 40
0.006614
 50
359.98349
 51
180.016525
  0
ARC
  8
0
  6
CONTINUOUS
 62
   250
 10
0.280479
 20
0.226994
 30
0.0
 40
0.006614
 50
180.008255
 51
359.99173
  0
CIRCLE
  8
0
  6
CONTINUOUS
 62
   250
 10
0.237136
 20
0.226012
 30
0.0
 40
0.009101
  0
LINE
  8
0
  6
CONTINUOUS
 62
   250
 10
0.243572
 20
0.232448
 30
0.0
 11
0.230701
 21
0.219578
 31
0.0
  0
LINE
  8
0
  6
CONTINUOUS
 62
   250
 10
0.210093
 20
0.200986
 30
0.0
 11
0.210093
 21
0.125223
 31
0.0
  0
LINE
  8
0
  6
CONTINUOUS
 62
   250
 10
0.216939
 20
0.125223
 30
0.0
 11
0.216939
 21
0.200986
 31
0.0
  0
LINE
  8
0
  6
CONTINUOUS
 62
   250
 10
0.24383
 20
0.152885
 30
0.0
 11
0.230959
 21
0.140016
 31
0.0
  0
CIRCLE
  8
0
  6
CONTINUOUS
 62
   250
 10
0.237395
 20
0.146451
 30
0.0
 40
0.009101
  0
CIRCLE
  8
0
  6
CONTINUOUS
 62
   250
 10
0.237395
 20
0.182785
 30
0.0
 40
0.009101
  0
LINE
  8
0
  6
CONTINUOUS
 62
   250
 10
0.237395
 20
0.191886
 30
0.0
 11
0.237395
 21
0.173684
 31
0.0
  0
LINE
  8
0
  6
CONTINUOUS
 62
   250
 10
0.255529
 20
0.125223
 30
0.0
 11
0.255529
 21
0.200986
 31
0.0
  0
ARC
  8
0
  6
CONTINUOUS
 62
   250
 10
0.280737
 20
0.14743
 30
0.0
 40
0.006613
 50
0.008263
 51
179.991745
  0
ARC
  8
0
  6
CONTINUOUS
 62
   250
 10
0.280736
 20
0.147432
 30
0.0
 40
0.006612
 50
180.00827
 51
359.99173
  0
ARC
  8
0
  6
CONTINUOUS
 62
   250
 10
0.280737
 20
0.180562
 30
0.0
 40
0.006613
 50
0.008263
 51
179.991745
  0
ARC
  8
0
  6
CONTINUOUS
 62
   250
 10
0.280737
 20
0.180564
 30
0.0
 40
0.006614
 50
180.008255
 51
359.99173
  0
LINE
  8
0
  6
CONTINUOUS
 62
   250
 10
0.243571
 20
0.273199
 30
0.0
 11
0.2307
 21
0.260329
 31
0.0
  0
CIRCLE
  8
0
  6
CONTINUOUS
 62
   250
 10
0.237136
 20
0.266764
 30
0.0
 40
0.009101
  0
LINE
  8
0
  6
CONTINUOUS
 62
   250
 10
0.237136
 20
0.313992
 30
0.0
 11
0.237136
 21
0.295791
 31
0.0
  0
CIRCLE
  8
0
  6
CONTINUOUS
 62
   250
 10
0.237136
 20
0.304891
 30
0.0
 40
0.009101
  0
ARC
  8
0
  6
CONTINUOUS
 62
   250
 10
0.280478
 20
0.265335
 30
0.0
 40
0.006614
 50
0.008262
 51
179.99173
  0
ARC
  8
0
  6
CONTINUOUS
 62
   250
 10
0.280478
 20
0.265335
 30
0.0
 40
0.006613
 50
180.0
 51
0.0
  0
ARC
  8
0
  6
CONTINUOUS
 62
   250
 10
0.280478
 20
0.302669
 30
0.0
 40
0.006614
 50
0.008262
 51
179.99173
  0
ARC
  8
0
  6
CONTINUOUS
 62
   250
 10
0.280478
 20
0.302669
 30
0.0
 40
0.006613
 50
180.0
 51
0.0
  0
LINE
  8
0
  6
CONTINUOUS
 62
   250
 10
0.30273
 20
0.200986
 30
0.0
 11
0.30273
 21
0.125223
 31
0.0
  0
TEXT
  8
0
  6
CONTINUOUS
 62
   250
 10
0.062499
 20
0.420671
 30
0.0
 40
0.013518
  1
#4
 41
1.011111
  7
TEXT
  0
TEXT
  8
0
  6
CONTINUOUS
 62
   250
 10
0.063673
 20
0.342113
 30
0.0
 40
0.013518
  1
#6
 41
1.011111
  7
TEXT
  0
TEXT
  8
0
  6
CONTINUOUS
 62
   250
 10
0.063216
 20
0.382313
 30
0.0
 40
0.013518
  1
#5
 41
1.011111
  7
TEXT
  0
TEXT
  8
0
  6
CONTINUOUS
 62
   250
 10
0.062499
 20
0.462757
 30
0.0
 40
0.013518
  1
#3
 41
1.011111
  7
TEXT
  0
TEXT
  8
0
  6
CONTINUOUS
 62
   250
 10
0.063136
 20
0.5048
 30
0.0
 40
0.013518
  1
#2
 41
1.011111
  7
TEXT
  0
TEXT
  8
0
  6
CONTINUOUS
 62
   250
 10
0.116248
 20
0.420671
 30
0.0
 40
0.013518
  1
NO-2
 41
1.011111
  7
TEXT
  0
TEXT
  8
0
  6
CONTINUOUS
 62
   250
 10
0.116965
 20
0.382313
 30
0.0
 40
0.013518
  1
COM-2
 41
1.011111
  7
TEXT
  0
TEXT
  8
0
  6
CONTINUOUS
 62
   250
 10
0.117423
 20
0.342113
 30
0.0
 40
0.013518
  1
NC-2
 41
1.011111
  7
TEXT
  0
TEXT
  8
0
  6
CONTINUOUS
 62
   250
 10
0.116886
 20
0.5048
 30
0.0
 40
0.013518
  1
COM-1
 41
1.011111
  7
TEXT
  0
TEXT
  8
0
  6
CONTINUOUS
 62
   250
 10
0.116248
 20
0.462757
 30
0.0
 40
0.013518
  1
NC-1
 41
1.011111
  7
TEXT
  0
TEXT
  8
0
  6
CONTINUOUS
 62
   250
 10
0.064091
 20
0.542523
 30
0.0
 40
0.013518
  1
#1
 41
1.011111
  7
TEXT
  0
TEXT
  8
0
  6
CONTINUOUS
 62
   250
 10
0.11784
 20
0.542523
 30
0.0
 40
0.013518
  1
NO-1
 41
1.011111
  7
TEXT
  0
LINE
  8
0
  6
CONTINUOUS
 62
   250
 10
0.209835
 20
0.567136
 30
0.0
 11
0.209835
 21
0.448829
 31
0.0
  0
LINE
  8
0
  6
CONTINUOUS
 62
   250
 10
0.302472
 20
0.567136
 30
0.0
 11
0.302472
 21
0.448829
 31
0.0
  0
LINE
  8
0
  6
CONTINUOUS
 62
   250
 10
0.21668
 20
0.448829
 30
0.0
 11
0.21668
 21
0.567136
 31
0.0
  0
LINE
  8
0
  6
CONTINUOUS
 62
   250
 10
0.25527
 20
0.448829
 30
0.0
 11
0.25527
 21
0.567136
 31
0.0
  0
LINE
  8
0
  6
CONTINUOUS
 62
   250
 10
0.302472
 20
0.448829
 30
0.0
 11
0.209835
 21
0.448829
 31
0.0
  0
LINE
  8
0
  6
CONTINUOUS
 62
   250
 10
0.25527
 20
0.455933
 30
0.0
 11
0.302472
 21
0.455933
 31
0.0
  0
LINE
  8
0
  6
CONTINUOUS
 62
   250
 10
0.25527
 20
0.333827
 30
0.0
 11
0.302472
 21
0.333827
 31
0.0
  0
LINE
  8
0
  6
CONTINUOUS
 62
   250
 10
0.25527
 20
0.437927
 30
0.0
 11
0.302472
 21
0.437927
 31
0.0
  0
LINE
  8
0
  6
CONTINUOUS
 62
   250
 10
0.302472
 20
0.326722
 30
0.0
 11
0.209835
 21
0.326722
 31
0.0
  0
LINE
  8
0
  6
CONTINUOUS
 62
   250
 10
0.209835
 20
0.44503
 30
0.0
 11
0.302472
 21
0.44503
 31
0.0
  0
LINE
  8
0
  6
CONTINUOUS
 62
   250
 10
0.209835
 20
0.323092
 30
0.0
 11
0.302472
 21
0.323092
 31
0.0
  0
ARC
  8
0
  6
CONTINUOUS
 62
   250
 10
0.280478
 20
0.424609
 30
0.0
 40
0.006613
 50
180.00827
 51
359.99173
  0
LINE
  8
0
  6
CONTINUOUS
 62
   250
 10
0.25527
 20
0.326722
 30
0.0
 11
0.25527
 21
0.44503
 31
0.0
  0
LINE
  8
0
  6
CONTINUOUS
 62
   250
 10
0.21668
 20
0.326722
 30
0.0
 11
0.21668
 21
0.44503
 31
0.0
  0
LINE
  8
0
  6
CONTINUOUS
 62
   250
 10
0.237136
 20
0.435929
 30
0.0
 11
0.237136
 21
0.417728
 31
0.0
  0
CIRCLE
  8
0
  6
CONTINUOUS
 62
   250
 10
0.237136
 20
0.426829
 30
0.0
 40
0.009101
  0
LINE
  8
0
  6
CONTINUOUS
 62
   250
 10
0.209835
 20
0.44503
 30
0.0
 11
0.209835
 21
0.326722
 31
0.0
  0
CIRCLE
  8
0
  6
CONTINUOUS
 62
   250
 10
0.237136
 20
0.347951
 30
0.0
 40
0.009101
  0
LINE
  8
0
  6
CONTINUOUS
 62
   250
 10
0.243572
 20
0.354386
 30
0.0
 11
0.230701
 21
0.341516
 31
0.0
  0
CIRCLE
  8
0
  6
CONTINUOUS
 62
   250
 10
0.237136
 20
0.388702
 30
0.0
 40
0.009101
  0
LINE
  8
0
  6
CONTINUOUS
 62
   250
 10
0.243571
 20
0.395138
 30
0.0
 11
0.2307
 21
0.382266
 31
0.0
  0
ARC
  8
0
  6
CONTINUOUS
 62
   250
 10
0.280478
 20
0.348931
 30
0.0
 40
0.006614
 50
0.008262
 51
179.99173
  0
ARC
  8
0
  6
CONTINUOUS
 62
   250
 10
0.280478
 20
0.348932
 30
0.0
 40
0.006613
 50
180.0
 51
0.0
  0
ARC
  8
0
  6
CONTINUOUS
 62
   250
 10
0.280478
 20
0.387273
 30
0.0
 40
0.006614
 50
0.008262
 51
179.99173
  0
ARC
  8
0
  6
CONTINUOUS
 62
   250
 10
0.28048
 20
0.387274
 30
0.0
 40
0.006615
 50
180.0
 51
0.0
  0
LINE
  8
0
  6
CONTINUOUS
 62
   250
 10
0.243572
 20
0.476492
 30
0.0
 11
0.230701
 21
0.463621
 31
0.0
  0
CIRCLE
  8
0
  6
CONTINUOUS
 62
   250
 10
0.237136
 20
0.470057
 30
0.0
 40
0.009101
  0
LINE
  8
0
  6
CONTINUOUS
 62
   250
 10
0.243571
 20
0.517243
 30
0.0
 11
0.2307
 21
0.504373
 31
0.0
  0
CIRCLE
  8
0
  6
CONTINUOUS
 62
   250
 10
0.237136
 20
0.510808
 30
0.0
 40
0.009101
  0
ARC
  8
0
  6
CONTINUOUS
 62
   250
 10
0.280478
 20
0.471038
 30
0.0
 40
0.006614
 50
0.0
 51
180.0
  0
ARC
  8
0
  6
CONTINUOUS
 62
   250
 10
0.280478
 20
0.471037
 30
0.0
 40
0.006613
 50
179.99173
 51
0.008262
  0
ARC
  8
0
  6
CONTINUOUS
 62
   250
 10
0.280478
 20
0.424606
 30
0.0
 40
0.006614
 50
0.008262
 51
179.99173
  0
ARC
  8
0
  6
CONTINUOUS
 62
   250
 10
0.28048
 20
0.509382
 30
0.0
 40
0.006612
 50
359.983459
 51
180.016525
  0
ARC
  8
0
  6
CONTINUOUS
 62
   250
 10
0.280478
 20
0.50938
 30
0.0
 40
0.006613
 50
180.0
 51
0.0
  0
LINE
  8
0
  6
CONTINUOUS
 62
   250
 10
0.302472
 20
0.44503
 30
0.0
 11
0.302472
 21
0.326722
 31
0.0
  0
LINE
  8
0
  6
CONTINUOUS
 62
   250
 10
0.209835
 20
0.567136
 30
0.0
 11
0.302472
 21
0.567136
 31
0.0
  0
LINE
  8
0
  6
CONTINUOUS
 62
   250
 10
0.25527
 20
0.560033
 30
0.0
 11
0.302472
 21
0.560033
 31
0.0
  0
ARC
  8
0
  6
CONTINUOUS
 62
   250
 10
0.302541
 20
0.626341
 30
0.0
 40
0.002477
 50
359.977936
 51
180.022064
  0
ARC
  8
0
  6
CONTINUOUS
 62
   250
 10
0.302541
 20
0.626341
 30
0.0
 40
0.002476
 50
180.022064
 51
359.977936
  0
CIRCLE
  8
0
  6
CONTINUOUS
 62
   250
 10
0.302541
 20
0.62634
 30
0.0
 40
0.011928
  0
CIRCLE
  8
0
  6
CONTINUOUS
 62
   250
 10
0.237136
 20
0.548935
 30
0.0
 40
0.009101
  0
LINE
  8
0
  6
CONTINUOUS
 62
   250
 10
0.237136
 20
0.558036
 30
0.0
 11
0.237136
 21
0.539835
 31
0.0
  0
ARC
  8
0
  6
CONTINUOUS
 62
   250
 10
0.280478
 20
0.546716
 30
0.0
 40
0.006614
 50
359.98349
 51
180.016525
  0
ARC
  8
0
  6
CONTINUOUS
 62
   250
 10
0.280478
 20
0.546714
 30
0.0
 40
0.006613
 50
180.0
 51
0.0
  0
ENDSEC
  0
EOF
