  0
SECTION
  2
HEADER
  9
$ACADVER
  1
AC1009
  9
$INSBASE
 10
0.0
 20
0.0
 30
0.0
  9
$EXTMIN
 10
4.36084
 20
2.3672
 30
0.0
  9
$EXTMAX
 10
4.80128
 20
3.15568
 30
0.0
  9
$LIMMIN
 10
0.0
 20
0.0
  9
$LIMMAX
 10
12.0
 20
9.0
  9
$ORTHOMODE
 70
     0
  9
$REGENMODE
 70
     1
  9
$FILLMODE
 70
     1
  9
$QTEXTMODE
 70
     0
  9
$MIRRTEXT
 70
     1
  9
$DRAGMODE
 70
     2
  9
$LTSCALE
 40
0.044
  9
$OSMODE
 70
     0
  9
$ATTMODE
 70
     1
  9
$TEXTSIZE
 40
0.2
  9
$TRACEWID
 40
0.05
  9
$TEXTSTYLE
  7
STANDARD
  9
$CLAYER
  8
0
  9
$CELTYPE
  6
BYLAYER
  9
$CECOLOR
 62
   256
  9
$DIMSCALE
 40
1.0
  9
$DIMASZ
 40
0.18
  9
$DIMEXO
 40
0.0625
  9
$DIMDLI
 40
0.38
  9
$DIMRND
 40
0.0
  9
$DIMDLE
 40
0.0
  9
$DIMEXE
 40
0.18
  9
$DIMTP
 40
0.0
  9
$DIMTM
 40
0.0
  9
$DIMTXT
 40
0.18
  9
$DIMCEN
 40
0.09
  9
$DIMTSZ
 40
0.0
  9
$DIMTOL
 70
     0
  9
$DIMLIM
 70
     0
  9
$DIMTIH
 70
     1
  9
$DIMTOH
 70
     1
  9
$DIMSE1
 70
     0
  9
$DIMSE2
 70
     0
  9
$DIMTAD
 70
     0
  9
$DIMZIN
 70
     0
  9
$DIMBLK
  1

  9
$DIMASO
 70
     1
  9
$DIMSHO
 70
     1
  9
$DIMPOST
  1

  9
$DIMAPOST
  1

  9
$DIMALT
 70
     0
  9
$DIMALTD
 70
     2
  9
$DIMALTF
 40
25.4
  9
$DIMLFAC
 40
1.0
  9
$DIMTOFL
 70
     0
  9
$DIMTVP
 40
0.0
  9
$DIMTIX
 70
     0
  9
$DIMSOXD
 70
     0
  9
$DIMSAH
 70
     0
  9
$DIMBLK1
  1

  9
$DIMBLK2
  1

  9
$DIMSTYLE
  2
*UNNAMED
  9
$DIMCLRD
 70
     0
  9
$DIMCLRE
 70
     0
  9
$DIMCLRT
 70
     0
  9
$DIMTFAC
 40
1.0
  9
$DIMGAP
 40
0.09
  9
$LUNITS
 70
     2
  9
$LUPREC
 70
     4
  9
$SKETCHINC
 40
0.1
  9
$FILLETRAD
 40
0.0
  9
$AUNITS
 70
     0
  9
$AUPREC
 70
     0
  9
$MENU
  1
acad
  9
$ELEVATION
 40
0.0
  9
$PELEVATION
 40
0.0
  9
$THICKNESS
 40
0.0
  9
$LIMCHECK
 70
     0
  9
$BLIPMODE
 70
     0
  9
$CHAMFERA
 40
0.0
  9
$CHAMFERB
 40
0.0
  9
$SKPOLY
 70
     0
  9
$TDCREATE
 40
2451092.599362268
  9
$TDUPDATE
 40
2451092.599362268
  9
$TDINDWG
 40
0.0000000000
  9
$TDUSRTIMER
 40
0.0000000000
  9
$USRTIMER
 70
     1
  9
$ANGBASE
 50
0.0
  9
$ANGDIR
 70
     0
  9
$PDMODE
 70
    35
  9
$PDSIZE
 40
0.0352
  9
$PLINEWID
 40
0.0
  9
$COORDS
 70
     1
  9
$SPLFRAME
 70
     0
  9
$SPLINETYPE
 70
     6
  9
$SPLINESEGS
 70
     8
  9
$ATTDIA
 70
     0
  9
$ATTREQ
 70
     1
  9
$HANDLING
 70
     0
  9
$HANDSEED
  5
0
  9
$SURFTAB1
 70
     6
  9
$SURFTAB2
 70
     6
  9
$SURFTYPE
 70
     6
  9
$SURFU
 70
     6
  9
$SURFV
 70
     6
  9
$UCSNAME
  2

  9
$UCSORG
 10
0.0
 20
0.0
 30
0.0
  9
$UCSXDIR
 10
1.0
 20
0.0
 30
0.0
  9
$UCSYDIR
 10
0.0
 20
1.0
 30
0.0
  9
$PUCSNAME
  2

  9
$PUCSORG
 10
0.0
 20
0.0
 30
0.0
  9
$PUCSXDIR
 10
1.0
 20
0.0
 30
0.0
  9
$PUCSYDIR
 10
0.0
 20
1.0
 30
0.0
  9
$USERI1
 70
     0
  9
$USERI2
 70
     0
  9
$USERI3
 70
     0
  9
$USERI4
 70
     0
  9
$USERI5
 70
     0
  9
$USERR1
 40
0.0
  9
$USERR2
 40
0.0
  9
$USERR3
 40
0.0
  9
$USERR4
 40
0.0
  9
$USERR5
 40
0.0
  9
$WORLDVIEW
 70
     1
  9
$SHADEDGE
 70
     3
  9
$SHADEDIF
 70
    70
  9
$TILEMODE
 70
     1
  9
$MAXACTVP
 70
    16
  9
$PINSBASE
 10
0.0
 20
0.0
 30
0.0
  9
$PLIMCHECK
 70
     0
  9
$PEXTMIN
 10
1.000000E+20
 20
1.000000E+20
 30
1.000000E+20
  9
$PEXTMAX
 10
-1.000000E+20
 20
-1.000000E+20
 30
-1.000000E+20
  9
$PLIMMIN
 10
0.0
 20
0.0
  9
$PLIMMAX
 10
12.0
 20
9.0
  9
$UNITMODE
 70
     0
  9
$VISRETAIN
 70
     0
  9
$PLINEGEN
 70
     0
  9
$PSLTSCALE
 70
     1
  9
$TREEDEPTH
 70
  3020
  9
$DWGCODEPAGE
  3
ascii
  0
ENDSEC
  0
SECTION
  2
TABLES
  0
TABLE
  2
VPORT
 70
     2
  0
VPORT
  2
*ACTIVE
 70
     0
 10
0.0
 20
0.0
 11
1.0
 21
1.0
 12
6.243341
 22
4.5
 13
0.0
 23
0.0
 14
1.0
 24
1.0
 15
0.0
 25
0.0
 16
0.0
 26
0.0
 36
1.0
 17
0.0
 27
0.0
 37
0.0
 40
9.0
 41
1.387409
 42
50.0
 43
0.0
 44
0.0
 50
0.0
 51
0.0
 71
     0
 72
   100
 73
     1
 74
     1
 75
     0
 76
     0
 77
     0
 78
     0
  0
ENDTAB
  0
TABLE
  2
LTYPE
 70
    10
  0
LTYPE
  2
CONTINUOUS
 70
    64
  3
Solid line
 72
    65
 73
     0
 40
0.0
  0
LTYPE
  2
DASHED
 70
    64
  3
__ __ __ __ __ __ __ __ __ __ __ __ __ __ __
 72
    65
 73
     2
 40
0.00033
 49
0.00022
 49
-0.00011
  0
LTYPE
  2
HIDDEN
 70
    64
  3
 _ _ _ _ _ _ _ _ _ _ _ _ _ _ _ _ _ _ _ _ _ _
 72
    65
 73
     2
 40
0.000165
 49
0.00011
 49
-0.000055
  0
LTYPE
  2
CENTER
 70
    64
  3
____ _ ____ _ ____ _ ____ _ ____ _ ____ _ ____
 72
    65
 73
     4
 40
0.00088
 49
0.00055
 49
-0.00011
 49
0.00011
 49
-0.00011
  0
LTYPE
  2
PHANTOM
 70
    64
  3
_____ _ _ _____ _ _ _____ _ _ _____ _ _ ____
 72
    65
 73
     6
 40
0.0011
 49
0.00055
 49
-0.00011
 49
0.00011
 49
-0.00011
 49
0.00011
 49
-0.00011
  0
LTYPE
  2
DOT
 70
    64
  3
...............................................
 72
    65
 73
     2
 40
0.00011
 49
0.0
 49
-0.00011
  0
LTYPE
  2
DASHDOT
 70
    64
  3
__ . __ . __ . __ . __ . __ . __ . __ . __ . __
 72
    65
 73
     4
 40
0.00044
 49
0.00022
 49
-0.00011
 49
0.0
 49
-0.00011
  0
LTYPE
  2
BORDER
 70
    64
  3
__ __ . __ __ . __ __ . __ __ . __ __ . __ __
 72
    65
 73
     6
 40
0.00077
 49
0.00022
 49
-0.00011
 49
0.00022
 49
-0.00011
 49
0.0
 49
-0.00011
  0
LTYPE
  2
DIVIDE
 70
    64
  3
__ . . __ . . __ . . __ . . __ . . __ . . __
 72
    65
 73
     6
 40
0.00055
 49
0.00022
 49
-0.00011
 49
0.0
 49
-0.00011
 49
0.0
 49
-0.00011
  0
LTYPE
  2
DOTDOT
 70
    64
  3
 . .  . .  . .  . .  . .  . . 
 72
    65
 73
     5
 40
0.000242
 49
-0.00011
 49
0.0
 49
-0.00011
 49
0.0
 49
-0.00011
  0
ENDTAB
  0
TABLE
  2
LAYER
 70
     3
  0
LAYER
  2
0
 70
    64
 62
     7
  6
CONTINUOUS
  0
LAYER
  2
FOREGROUND
 70
    64
 62
     7
  6
CONTINUOUS
  0
LAYER
  2
BACKGROUND
 70
    65
 62
    -7
  6
CONTINUOUS
  0
ENDTAB
  0
TABLE
  2
STYLE
 70
     1
  0
STYLE
  2
STANDARD
 70
     0
 40
0.0
 41
1.0
 50
0.0
 71
     0
 42
0.2
  3
txt
  4

  0
ENDTAB
  0
TABLE
  2
VIEW
 70
     0
  0
ENDTAB
  0
TABLE
  2
UCS
 70
     0
  0
ENDTAB
  0
TABLE
  2
APPID
 70
     1
  0
APPID
  2
ACAD
 70
    64
  0
ENDTAB
  0
TABLE
  2
DIMSTYLE
 70
     0
  0
ENDTAB
  0
ENDSEC
  0
SECTION
  2
BLOCKS
  0
ENDSEC
  0
SECTION
  2
ENTITIES
  0
LINE
  8
0
  6
CONTINUOUS
 62
   250
 10
4.38372
 20
3.06284
 30
0.0
 11
4.7784
 21
3.06284
 31
0.0
  0
LINE
  8
0
  6
CONTINUOUS
 62
   250
 10
4.80128
 20
3.03996
 30
0.0
 11
4.80128
 21
2.48336
 31
0.0
  0
LINE
  8
0
  6
CONTINUOUS
 62
   250
 10
4.79468
 20
2.46708
 30
0.0
 11
4.70404
 21
2.37424
 31
0.0
  0
LINE
  8
0
  6
CONTINUOUS
 62
   250
 10
4.68732
 20
2.3672
 30
0.0
 11
4.4748
 21
2.3672
 31
0.0
  0
LINE
  8
0
  6
CONTINUOUS
 62
   250
 10
4.45852
 20
2.37424
 30
0.0
 11
4.36744
 21
2.46708
 31
0.0
  0
LINE
  8
0
  6
CONTINUOUS
 62
   250
 10
4.36084
 20
2.48336
 30
0.0
 11
4.36084
 21
3.03996
 31
0.0
  0
LINE
  8
0
  6
CONTINUOUS
 62
   250
 10
4.56764
 20
3.09848
 30
0.0
 11
4.57028
 21
3.09584
 31
0.0
  0
LINE
  8
0
  6
CONTINUOUS
 62
   250
 10
4.57028
 20
3.09584
 30
0.0
 11
4.57336
 21
3.09364
 31
0.0
  0
LINE
  8
0
  6
CONTINUOUS
 62
   250
 10
4.57336
 20
3.09364
 30
0.0
 11
4.57732
 21
3.09232
 31
0.0
  0
LINE
  8
0
  6
CONTINUOUS
 62
   250
 10
4.57732
 20
3.09232
 30
0.0
 11
4.58084
 21
3.09188
 31
0.0
  0
LINE
  8
0
  6
CONTINUOUS
 62
   250
 10
4.58084
 20
3.09188
 30
0.0
 11
4.5848
 21
3.09232
 31
0.0
  0
LINE
  8
0
  6
CONTINUOUS
 62
   250
 10
4.5848
 20
3.09232
 30
0.0
 11
4.58876
 21
3.09364
 31
0.0
  0
LINE
  8
0
  6
CONTINUOUS
 62
   250
 10
4.58876
 20
3.09364
 30
0.0
 11
4.59184
 21
3.09584
 31
0.0
  0
LINE
  8
0
  6
CONTINUOUS
 62
   250
 10
4.59184
 20
3.09584
 30
0.0
 11
4.59448
 21
3.09848
 31
0.0
  0
LINE
  8
0
  6
CONTINUOUS
 62
   250
 10
4.59448
 20
3.09848
 30
0.0
 11
4.59668
 21
3.102
 31
0.0
  0
LINE
  8
0
  6
CONTINUOUS
 62
   250
 10
4.59668
 20
3.102
 30
0.0
 11
4.598
 21
3.10552
 31
0.0
  0
LINE
  8
0
  6
CONTINUOUS
 62
   250
 10
4.598
 20
3.10552
 30
0.0
 11
4.59844
 21
3.10948
 31
0.0
  0
LINE
  8
0
  6
CONTINUOUS
 62
   250
 10
4.59844
 20
3.10948
 30
0.0
 11
4.598
 21
3.11344
 31
0.0
  0
LINE
  8
0
  6
CONTINUOUS
 62
   250
 10
4.598
 20
3.11344
 30
0.0
 11
4.59668
 21
3.11696
 31
0.0
  0
LINE
  8
0
  6
CONTINUOUS
 62
   250
 10
4.59668
 20
3.11696
 30
0.0
 11
4.59448
 21
3.12048
 31
0.0
  0
LINE
  8
0
  6
CONTINUOUS
 62
   250
 10
4.59448
 20
3.12048
 30
0.0
 11
4.59184
 21
3.12312
 31
0.0
  0
LINE
  8
0
  6
CONTINUOUS
 62
   250
 10
4.59184
 20
3.12312
 30
0.0
 11
4.58876
 21
3.12532
 31
0.0
  0
LINE
  8
0
  6
CONTINUOUS
 62
   250
 10
4.58876
 20
3.12532
 30
0.0
 11
4.5848
 21
3.12664
 31
0.0
  0
LINE
  8
0
  6
CONTINUOUS
 62
   250
 10
4.5848
 20
3.12664
 30
0.0
 11
4.58084
 21
3.12708
 31
0.0
  0
LINE
  8
0
  6
CONTINUOUS
 62
   250
 10
4.58084
 20
3.12708
 30
0.0
 11
4.57732
 21
3.12664
 31
0.0
  0
LINE
  8
0
  6
CONTINUOUS
 62
   250
 10
4.57732
 20
3.12664
 30
0.0
 11
4.57336
 21
3.12532
 31
0.0
  0
LINE
  8
0
  6
CONTINUOUS
 62
   250
 10
4.57336
 20
3.12532
 30
0.0
 11
4.57028
 21
3.12312
 31
0.0
  0
LINE
  8
0
  6
CONTINUOUS
 62
   250
 10
4.57028
 20
3.12312
 30
0.0
 11
4.56764
 21
3.12048
 31
0.0
  0
LINE
  8
0
  6
CONTINUOUS
 62
   250
 10
4.56764
 20
3.12048
 30
0.0
 11
4.56544
 21
3.11696
 31
0.0
  0
LINE
  8
0
  6
CONTINUOUS
 62
   250
 10
4.56544
 20
3.11696
 30
0.0
 11
4.56412
 21
3.11344
 31
0.0
  0
LINE
  8
0
  6
CONTINUOUS
 62
   250
 10
4.56412
 20
3.11344
 30
0.0
 11
4.56368
 21
3.10948
 31
0.0
  0
LINE
  8
0
  6
CONTINUOUS
 62
   250
 10
4.56368
 20
3.10948
 30
0.0
 11
4.56412
 21
3.10552
 31
0.0
  0
LINE
  8
0
  6
CONTINUOUS
 62
   250
 10
4.56412
 20
3.10552
 30
0.0
 11
4.56544
 21
3.102
 31
0.0
  0
LINE
  8
0
  6
CONTINUOUS
 62
   250
 10
4.56544
 20
3.102
 30
0.0
 11
4.56764
 21
3.09848
 31
0.0
  0
LINE
  8
0
  6
CONTINUOUS
 62
   250
 10
4.57028
 20
2.42748
 30
0.0
 11
4.56764
 21
2.4244
 31
0.0
  0
LINE
  8
0
  6
CONTINUOUS
 62
   250
 10
4.56764
 20
2.4244
 30
0.0
 11
4.56544
 21
2.42132
 31
0.0
  0
LINE
  8
0
  6
CONTINUOUS
 62
   250
 10
4.56544
 20
2.42132
 30
0.0
 11
4.56412
 21
2.41736
 31
0.0
  0
LINE
  8
0
  6
CONTINUOUS
 62
   250
 10
4.56412
 20
2.41736
 30
0.0
 11
4.56368
 21
2.41384
 31
0.0
  0
LINE
  8
0
  6
CONTINUOUS
 62
   250
 10
4.56368
 20
2.41384
 30
0.0
 11
4.56412
 21
2.40988
 31
0.0
  0
LINE
  8
0
  6
CONTINUOUS
 62
   250
 10
4.56412
 20
2.40988
 30
0.0
 11
4.56544
 21
2.40592
 31
0.0
  0
LINE
  8
0
  6
CONTINUOUS
 62
   250
 10
4.56544
 20
2.40592
 30
0.0
 11
4.56764
 21
2.40284
 31
0.0
  0
LINE
  8
0
  6
CONTINUOUS
 62
   250
 10
4.56764
 20
2.40284
 30
0.0
 11
4.57028
 21
2.4002
 31
0.0
  0
LINE
  8
0
  6
CONTINUOUS
 62
   250
 10
4.57028
 20
2.4002
 30
0.0
 11
4.57336
 21
2.398
 31
0.0
  0
LINE
  8
0
  6
CONTINUOUS
 62
   250
 10
4.57336
 20
2.398
 30
0.0
 11
4.57732
 21
2.39668
 31
0.0
  0
LINE
  8
0
  6
CONTINUOUS
 62
   250
 10
4.57732
 20
2.39668
 30
0.0
 11
4.58084
 21
2.39624
 31
0.0
  0
LINE
  8
0
  6
CONTINUOUS
 62
   250
 10
4.58084
 20
2.39624
 30
0.0
 11
4.5848
 21
2.39668
 31
0.0
  0
LINE
  8
0
  6
CONTINUOUS
 62
   250
 10
4.5848
 20
2.39668
 30
0.0
 11
4.58876
 21
2.398
 31
0.0
  0
LINE
  8
0
  6
CONTINUOUS
 62
   250
 10
4.58876
 20
2.398
 30
0.0
 11
4.59184
 21
2.4002
 31
0.0
  0
LINE
  8
0
  6
CONTINUOUS
 62
   250
 10
4.59184
 20
2.4002
 30
0.0
 11
4.59448
 21
2.40284
 31
0.0
  0
LINE
  8
0
  6
CONTINUOUS
 62
   250
 10
4.59448
 20
2.40284
 30
0.0
 11
4.59668
 21
2.40592
 31
0.0
  0
LINE
  8
0
  6
CONTINUOUS
 62
   250
 10
4.59668
 20
2.40592
 30
0.0
 11
4.598
 21
2.40988
 31
0.0
  0
LINE
  8
0
  6
CONTINUOUS
 62
   250
 10
4.598
 20
2.40988
 30
0.0
 11
4.59844
 21
2.41384
 31
0.0
  0
LINE
  8
0
  6
CONTINUOUS
 62
   250
 10
4.59844
 20
2.41384
 30
0.0
 11
4.598
 21
2.41736
 31
0.0
  0
LINE
  8
0
  6
CONTINUOUS
 62
   250
 10
4.598
 20
2.41736
 30
0.0
 11
4.59668
 21
2.42132
 31
0.0
  0
LINE
  8
0
  6
CONTINUOUS
 62
   250
 10
4.59668
 20
2.42132
 30
0.0
 11
4.59448
 21
2.4244
 31
0.0
  0
LINE
  8
0
  6
CONTINUOUS
 62
   250
 10
4.59448
 20
2.4244
 30
0.0
 11
4.59184
 21
2.42748
 31
0.0
  0
LINE
  8
0
  6
CONTINUOUS
 62
   250
 10
4.59184
 20
2.42748
 30
0.0
 11
4.58876
 21
2.42924
 31
0.0
  0
LINE
  8
0
  6
CONTINUOUS
 62
   250
 10
4.58876
 20
2.42924
 30
0.0
 11
4.5848
 21
2.43056
 31
0.0
  0
LINE
  8
0
  6
CONTINUOUS
 62
   250
 10
4.5848
 20
2.43056
 30
0.0
 11
4.58084
 21
2.431
 31
0.0
  0
LINE
  8
0
  6
CONTINUOUS
 62
   250
 10
4.58084
 20
2.431
 30
0.0
 11
4.57732
 21
2.43056
 31
0.0
  0
LINE
  8
0
  6
CONTINUOUS
 62
   250
 10
4.57732
 20
2.43056
 30
0.0
 11
4.57336
 21
2.42924
 31
0.0
  0
LINE
  8
0
  6
CONTINUOUS
 62
   250
 10
4.57336
 20
2.42924
 30
0.0
 11
4.57028
 21
2.42748
 31
0.0
  0
LINE
  8
0
  6
CONTINUOUS
 62
   250
 10
4.38372
 20
2.46004
 30
0.0
 11
4.7784
 21
2.46004
 31
0.0
  0
LINE
  8
0
  6
CONTINUOUS
 62
   250
 10
4.45852
 20
2.37424
 30
0.0
 11
4.46116
 21
2.3716
 31
0.0
  0
LINE
  8
0
  6
CONTINUOUS
 62
   250
 10
4.46116
 20
2.3716
 30
0.0
 11
4.46424
 21
2.36984
 31
0.0
  0
LINE
  8
0
  6
CONTINUOUS
 62
   250
 10
4.46424
 20
2.36984
 30
0.0
 11
4.46776
 21
2.36852
 31
0.0
  0
LINE
  8
0
  6
CONTINUOUS
 62
   250
 10
4.46776
 20
2.36852
 30
0.0
 11
4.47128
 21
2.36764
 31
0.0
  0
LINE
  8
0
  6
CONTINUOUS
 62
   250
 10
4.47128
 20
2.36764
 30
0.0
 11
4.4748
 21
2.3672
 31
0.0
  0
LINE
  8
0
  6
CONTINUOUS
 62
   250
 10
4.68732
 20
2.3672
 30
0.0
 11
4.69084
 21
2.36764
 31
0.0
  0
LINE
  8
0
  6
CONTINUOUS
 62
   250
 10
4.69084
 20
2.36764
 30
0.0
 11
4.69436
 21
2.36852
 31
0.0
  0
LINE
  8
0
  6
CONTINUOUS
 62
   250
 10
4.69436
 20
2.36852
 30
0.0
 11
4.69788
 21
2.36984
 31
0.0
  0
LINE
  8
0
  6
CONTINUOUS
 62
   250
 10
4.69788
 20
2.36984
 30
0.0
 11
4.7014
 21
2.3716
 31
0.0
  0
LINE
  8
0
  6
CONTINUOUS
 62
   250
 10
4.7014
 20
2.3716
 30
0.0
 11
4.70404
 21
2.37424
 31
0.0
  0
LINE
  8
0
  6
CONTINUOUS
 62
   250
 10
4.79468
 20
3.05624
 30
0.0
 11
4.70404
 21
3.14864
 31
0.0
  0
LINE
  8
0
  6
CONTINUOUS
 62
   250
 10
4.45852
 20
3.14864
 30
0.0
 11
4.36744
 21
3.05624
 31
0.0
  0
LINE
  8
0
  6
CONTINUOUS
 62
   250
 10
4.36084
 20
2.99332
 30
0.0
 11
4.80128
 21
2.99332
 31
0.0
  0
LINE
  8
0
  6
CONTINUOUS
 62
   250
 10
4.7784
 20
2.95856
 30
0.0
 11
4.70888
 21
2.95856
 31
0.0
  0
LINE
  8
0
  6
CONTINUOUS
 62
   250
 10
4.70888
 20
2.80808
 30
0.0
 11
4.7784
 21
2.80808
 31
0.0
  0
LINE
  8
0
  6
CONTINUOUS
 62
   250
 10
4.7784
 20
2.63384
 30
0.0
 11
4.70888
 21
2.63384
 31
0.0
  0
LINE
  8
0
  6
CONTINUOUS
 62
   250
 10
4.45192
 20
2.82128
 30
0.0
 11
4.45324
 21
2.82304
 31
0.0
  0
LINE
  8
0
  6
CONTINUOUS
 62
   250
 10
4.45324
 20
2.82304
 30
0.0
 11
4.45368
 21
2.82524
 31
0.0
  0
LINE
  8
0
  6
CONTINUOUS
 62
   250
 10
4.45368
 20
2.82524
 30
0.0
 11
4.45368
 21
2.96472
 31
0.0
  0
LINE
  8
0
  6
CONTINUOUS
 62
   250
 10
4.45368
 20
2.96472
 30
0.0
 11
4.45324
 21
2.96648
 31
0.0
  0
LINE
  8
0
  6
CONTINUOUS
 62
   250
 10
4.45324
 20
2.96648
 30
0.0
 11
4.45192
 21
2.96868
 31
0.0
  0
LINE
  8
0
  6
CONTINUOUS
 62
   250
 10
4.45192
 20
2.96868
 30
0.0
 11
4.45016
 21
2.97
 31
0.0
  0
LINE
  8
0
  6
CONTINUOUS
 62
   250
 10
4.45016
 20
2.97
 30
0.0
 11
4.44752
 21
2.97044
 31
0.0
  0
LINE
  8
0
  6
CONTINUOUS
 62
   250
 10
4.44752
 20
2.97044
 30
0.0
 11
4.38988
 21
2.97044
 31
0.0
  0
LINE
  8
0
  6
CONTINUOUS
 62
   250
 10
4.38988
 20
2.97044
 30
0.0
 11
4.38768
 21
2.97
 31
0.0
  0
LINE
  8
0
  6
CONTINUOUS
 62
   250
 10
4.38768
 20
2.97
 30
0.0
 11
4.38548
 21
2.96868
 31
0.0
  0
LINE
  8
0
  6
CONTINUOUS
 62
   250
 10
4.38548
 20
2.96868
 30
0.0
 11
4.38416
 21
2.96648
 31
0.0
  0
LINE
  8
0
  6
CONTINUOUS
 62
   250
 10
4.38416
 20
2.96648
 30
0.0
 11
4.38372
 21
2.96472
 31
0.0
  0
LINE
  8
0
  6
CONTINUOUS
 62
   250
 10
4.38372
 20
2.96472
 30
0.0
 11
4.38372
 21
2.82524
 31
0.0
  0
LINE
  8
0
  6
CONTINUOUS
 62
   250
 10
4.38372
 20
2.82524
 30
0.0
 11
4.38416
 21
2.82304
 31
0.0
  0
LINE
  8
0
  6
CONTINUOUS
 62
   250
 10
4.38416
 20
2.82304
 30
0.0
 11
4.38548
 21
2.82128
 31
0.0
  0
LINE
  8
0
  6
CONTINUOUS
 62
   250
 10
4.38548
 20
2.82128
 30
0.0
 11
4.38768
 21
2.81996
 31
0.0
  0
LINE
  8
0
  6
CONTINUOUS
 62
   250
 10
4.38768
 20
2.81996
 30
0.0
 11
4.38988
 21
2.81952
 31
0.0
  0
LINE
  8
0
  6
CONTINUOUS
 62
   250
 10
4.38988
 20
2.81952
 30
0.0
 11
4.44752
 21
2.81952
 31
0.0
  0
LINE
  8
0
  6
CONTINUOUS
 62
   250
 10
4.44752
 20
2.81952
 30
0.0
 11
4.45016
 21
2.81996
 31
0.0
  0
LINE
  8
0
  6
CONTINUOUS
 62
   250
 10
4.45016
 20
2.81996
 30
0.0
 11
4.45192
 21
2.82128
 31
0.0
  0
LINE
  8
0
  6
CONTINUOUS
 62
   250
 10
4.4418
 20
2.8314
 30
0.0
 11
4.3956
 21
2.8314
 31
0.0
  0
LINE
  8
0
  6
CONTINUOUS
 62
   250
 10
4.3956
 20
2.8314
 30
0.0
 11
4.3956
 21
2.95856
 31
0.0
  0
LINE
  8
0
  6
CONTINUOUS
 62
   250
 10
4.3956
 20
2.95856
 30
0.0
 11
4.4418
 21
2.95856
 31
0.0
  0
LINE
  8
0
  6
CONTINUOUS
 62
   250
 10
4.4418
 20
2.95856
 30
0.0
 11
4.4418
 21
2.8314
 31
0.0
  0
LINE
  8
0
  6
CONTINUOUS
 62
   250
 10
4.43608
 20
2.83668
 30
0.0
 11
4.40132
 21
2.83668
 31
0.0
  0
LINE
  8
0
  6
CONTINUOUS
 62
   250
 10
4.40132
 20
2.83668
 30
0.0
 11
4.40132
 21
2.84284
 31
0.0
  0
LINE
  8
0
  6
CONTINUOUS
 62
   250
 10
4.40132
 20
2.84284
 30
0.0
 11
4.43608
 21
2.84284
 31
0.0
  0
LINE
  8
0
  6
CONTINUOUS
 62
   250
 10
4.43608
 20
2.84284
 30
0.0
 11
4.43608
 21
2.83668
 31
0.0
  0
LINE
  8
0
  6
CONTINUOUS
 62
   250
 10
4.43608
 20
2.94712
 30
0.0
 11
4.40132
 21
2.94712
 31
0.0
  0
LINE
  8
0
  6
CONTINUOUS
 62
   250
 10
4.40132
 20
2.94712
 30
0.0
 11
4.40132
 21
2.95284
 31
0.0
  0
LINE
  8
0
  6
CONTINUOUS
 62
   250
 10
4.40132
 20
2.95284
 30
0.0
 11
4.43608
 21
2.95284
 31
0.0
  0
LINE
  8
0
  6
CONTINUOUS
 62
   250
 10
4.43608
 20
2.95284
 30
0.0
 11
4.43608
 21
2.94712
 31
0.0
  0
LINE
  8
0
  6
CONTINUOUS
 62
   250
 10
4.45852
 20
3.14864
 30
0.0
 11
4.46116
 21
3.15128
 31
0.0
  0
LINE
  8
0
  6
CONTINUOUS
 62
   250
 10
4.46116
 20
3.15128
 30
0.0
 11
4.46424
 21
3.15304
 31
0.0
  0
LINE
  8
0
  6
CONTINUOUS
 62
   250
 10
4.46424
 20
3.15304
 30
0.0
 11
4.46776
 21
3.15436
 31
0.0
  0
LINE
  8
0
  6
CONTINUOUS
 62
   250
 10
4.46776
 20
3.15436
 30
0.0
 11
4.47128
 21
3.15568
 31
0.0
  0
LINE
  8
0
  6
CONTINUOUS
 62
   250
 10
4.47128
 20
3.15568
 30
0.0
 11
4.4748
 21
3.15568
 31
0.0
  0
LINE
  8
0
  6
CONTINUOUS
 62
   250
 10
4.4748
 20
3.15568
 30
0.0
 11
4.68732
 21
3.15568
 31
0.0
  0
LINE
  8
0
  6
CONTINUOUS
 62
   250
 10
4.68732
 20
3.15568
 30
0.0
 11
4.69084
 21
3.15568
 31
0.0
  0
LINE
  8
0
  6
CONTINUOUS
 62
   250
 10
4.69084
 20
3.15568
 30
0.0
 11
4.69436
 21
3.15436
 31
0.0
  0
LINE
  8
0
  6
CONTINUOUS
 62
   250
 10
4.69436
 20
3.15436
 30
0.0
 11
4.69788
 21
3.15304
 31
0.0
  0
LINE
  8
0
  6
CONTINUOUS
 62
   250
 10
4.69788
 20
3.15304
 30
0.0
 11
4.7014
 21
3.15128
 31
0.0
  0
LINE
  8
0
  6
CONTINUOUS
 62
   250
 10
4.7014
 20
3.15128
 30
0.0
 11
4.70404
 21
3.14864
 31
0.0
  0
LINE
  8
0
  6
CONTINUOUS
 62
   250
 10
4.72032
 20
2.88332
 30
0.0
 11
4.76652
 21
2.88332
 31
0.0
  0
LINE
  8
0
  6
CONTINUOUS
 62
   250
 10
4.76652
 20
2.93524
 30
0.0
 11
4.72032
 21
2.93524
 31
0.0
  0
LINE
  8
0
  6
CONTINUOUS
 62
   250
 10
4.72032
 20
2.8314
 30
0.0
 11
4.76652
 21
2.8314
 31
0.0
  0
LINE
  8
0
  6
CONTINUOUS
 62
   250
 10
4.76652
 20
2.76144
 30
0.0
 11
4.72032
 21
2.76144
 31
0.0
  0
LINE
  8
0
  6
CONTINUOUS
 62
   250
 10
4.72032
 20
2.70952
 30
0.0
 11
4.76652
 21
2.70952
 31
0.0
  0
LINE
  8
0
  6
CONTINUOUS
 62
   250
 10
4.76652
 20
2.65716
 30
0.0
 11
4.72032
 21
2.65716
 31
0.0
  0
LINE
  8
0
  6
CONTINUOUS
 62
   250
 10
4.3692
 20
3.05756
 30
0.0
 11
4.36612
 21
3.05492
 31
0.0
  0
LINE
  8
0
  6
CONTINUOUS
 62
   250
 10
4.36612
 20
3.05492
 30
0.0
 11
4.36392
 21
3.0514
 31
0.0
  0
LINE
  8
0
  6
CONTINUOUS
 62
   250
 10
4.36392
 20
3.0514
 30
0.0
 11
4.36216
 21
3.04788
 31
0.0
  0
LINE
  8
0
  6
CONTINUOUS
 62
   250
 10
4.36216
 20
3.04788
 30
0.0
 11
4.36084
 21
3.04392
 31
0.0
  0
LINE
  8
0
  6
CONTINUOUS
 62
   250
 10
4.36084
 20
3.04392
 30
0.0
 11
4.36084
 21
3.03996
 31
0.0
  0
LINE
  8
0
  6
CONTINUOUS
 62
   250
 10
4.37272
 20
3.03776
 30
0.0
 11
4.37228
 21
3.0338
 31
0.0
  0
LINE
  8
0
  6
CONTINUOUS
 62
   250
 10
4.37228
 20
3.0338
 30
0.0
 11
4.37272
 21
3.03028
 31
0.0
  0
LINE
  8
0
  6
CONTINUOUS
 62
   250
 10
4.37272
 20
3.03028
 30
0.0
 11
4.37404
 21
3.02632
 31
0.0
  0
LINE
  8
0
  6
CONTINUOUS
 62
   250
 10
4.37404
 20
3.02632
 30
0.0
 11
4.37624
 21
3.02324
 31
0.0
  0
LINE
  8
0
  6
CONTINUOUS
 62
   250
 10
4.37624
 20
3.02324
 30
0.0
 11
4.37888
 21
3.0206
 31
0.0
  0
LINE
  8
0
  6
CONTINUOUS
 62
   250
 10
4.37888
 20
3.0206
 30
0.0
 11
4.3824
 21
3.0184
 31
0.0
  0
LINE
  8
0
  6
CONTINUOUS
 62
   250
 10
4.3824
 20
3.0184
 30
0.0
 11
4.38592
 21
3.01708
 31
0.0
  0
LINE
  8
0
  6
CONTINUOUS
 62
   250
 10
4.38592
 20
3.01708
 30
0.0
 11
4.38988
 21
3.01664
 31
0.0
  0
LINE
  8
0
  6
CONTINUOUS
 62
   250
 10
4.38988
 20
3.01664
 30
0.0
 11
4.3934
 21
3.01708
 31
0.0
  0
LINE
  8
0
  6
CONTINUOUS
 62
   250
 10
4.3934
 20
3.01708
 30
0.0
 11
4.39736
 21
3.0184
 31
0.0
  0
LINE
  8
0
  6
CONTINUOUS
 62
   250
 10
4.39736
 20
3.0184
 30
0.0
 11
4.40088
 21
3.0206
 31
0.0
  0
LINE
  8
0
  6
CONTINUOUS
 62
   250
 10
4.40088
 20
3.0206
 30
0.0
 11
4.40352
 21
3.02324
 31
0.0
  0
LINE
  8
0
  6
CONTINUOUS
 62
   250
 10
4.40352
 20
3.02324
 30
0.0
 11
4.40528
 21
3.02632
 31
0.0
  0
LINE
  8
0
  6
CONTINUOUS
 62
   250
 10
4.40528
 20
3.02632
 30
0.0
 11
4.40704
 21
3.03028
 31
0.0
  0
LINE
  8
0
  6
CONTINUOUS
 62
   250
 10
4.40704
 20
3.03028
 30
0.0
 11
4.40704
 21
3.0338
 31
0.0
  0
LINE
  8
0
  6
CONTINUOUS
 62
   250
 10
4.40704
 20
3.0338
 30
0.0
 11
4.37228
 21
3.0338
 31
0.0
  0
LINE
  8
0
  6
CONTINUOUS
 62
   250
 10
4.37272
 20
3.03776
 30
0.0
 11
4.37404
 21
3.04172
 31
0.0
  0
LINE
  8
0
  6
CONTINUOUS
 62
   250
 10
4.37404
 20
3.04172
 30
0.0
 11
4.37624
 21
3.0448
 31
0.0
  0
LINE
  8
0
  6
CONTINUOUS
 62
   250
 10
4.37624
 20
3.0448
 30
0.0
 11
4.37888
 21
3.04744
 31
0.0
  0
LINE
  8
0
  6
CONTINUOUS
 62
   250
 10
4.37888
 20
3.04744
 30
0.0
 11
4.3824
 21
3.04964
 31
0.0
  0
LINE
  8
0
  6
CONTINUOUS
 62
   250
 10
4.3824
 20
3.04964
 30
0.0
 11
4.38592
 21
3.05096
 31
0.0
  0
LINE
  8
0
  6
CONTINUOUS
 62
   250
 10
4.38592
 20
3.05096
 30
0.0
 11
4.38988
 21
3.0514
 31
0.0
  0
LINE
  8
0
  6
CONTINUOUS
 62
   250
 10
4.38988
 20
3.0514
 30
0.0
 11
4.38988
 21
3.01664
 31
0.0
  0
LINE
  8
0
  6
CONTINUOUS
 62
   250
 10
4.38988
 20
3.0338
 30
0.0
 11
4.40704
 21
3.0338
 31
0.0
  0
LINE
  8
0
  6
CONTINUOUS
 62
   250
 10
4.40704
 20
3.0338
 30
0.0
 11
4.40704
 21
3.03776
 31
0.0
  0
LINE
  8
0
  6
CONTINUOUS
 62
   250
 10
4.40704
 20
3.03776
 30
0.0
 11
4.40528
 21
3.04172
 31
0.0
  0
LINE
  8
0
  6
CONTINUOUS
 62
   250
 10
4.40528
 20
3.04172
 30
0.0
 11
4.40352
 21
3.0448
 31
0.0
  0
LINE
  8
0
  6
CONTINUOUS
 62
   250
 10
4.40352
 20
3.0448
 30
0.0
 11
4.40088
 21
3.04744
 31
0.0
  0
LINE
  8
0
  6
CONTINUOUS
 62
   250
 10
4.40088
 20
3.04744
 30
0.0
 11
4.39736
 21
3.04964
 31
0.0
  0
LINE
  8
0
  6
CONTINUOUS
 62
   250
 10
4.39736
 20
3.04964
 30
0.0
 11
4.3934
 21
3.05096
 31
0.0
  0
LINE
  8
0
  6
CONTINUOUS
 62
   250
 10
4.3934
 20
3.05096
 30
0.0
 11
4.38988
 21
3.0514
 31
0.0
  0
LINE
  8
0
  6
CONTINUOUS
 62
   250
 10
4.38372
 20
3.06284
 30
0.0
 11
4.37976
 21
3.0624
 31
0.0
  0
LINE
  8
0
  6
CONTINUOUS
 62
   250
 10
4.37976
 20
3.0624
 30
0.0
 11
4.37624
 21
3.06152
 31
0.0
  0
LINE
  8
0
  6
CONTINUOUS
 62
   250
 10
4.37624
 20
3.06152
 30
0.0
 11
4.37228
 21
3.0602
 31
0.0
  0
LINE
  8
0
  6
CONTINUOUS
 62
   250
 10
4.37228
 20
3.0602
 30
0.0
 11
4.3692
 21
3.05756
 31
0.0
  0
LINE
  8
0
  6
CONTINUOUS
 62
   250
 10
4.76168
 20
3.04744
 30
0.0
 11
4.75904
 21
3.0448
 31
0.0
  0
LINE
  8
0
  6
CONTINUOUS
 62
   250
 10
4.75904
 20
3.0448
 30
0.0
 11
4.75684
 21
3.04172
 31
0.0
  0
LINE
  8
0
  6
CONTINUOUS
 62
   250
 10
4.75684
 20
3.04172
 30
0.0
 11
4.75552
 21
3.03776
 31
0.0
  0
LINE
  8
0
  6
CONTINUOUS
 62
   250
 10
4.75552
 20
3.03776
 30
0.0
 11
4.75508
 21
3.0338
 31
0.0
  0
LINE
  8
0
  6
CONTINUOUS
 62
   250
 10
4.75508
 20
3.0338
 30
0.0
 11
4.75552
 21
3.03028
 31
0.0
  0
LINE
  8
0
  6
CONTINUOUS
 62
   250
 10
4.75552
 20
3.03028
 30
0.0
 11
4.75684
 21
3.02632
 31
0.0
  0
LINE
  8
0
  6
CONTINUOUS
 62
   250
 10
4.75684
 20
3.02632
 30
0.0
 11
4.75904
 21
3.02324
 31
0.0
  0
LINE
  8
0
  6
CONTINUOUS
 62
   250
 10
4.75904
 20
3.02324
 30
0.0
 11
4.76168
 21
3.0206
 31
0.0
  0
LINE
  8
0
  6
CONTINUOUS
 62
   250
 10
4.76168
 20
3.0206
 30
0.0
 11
4.76476
 21
3.0184
 31
0.0
  0
LINE
  8
0
  6
CONTINUOUS
 62
   250
 10
4.76476
 20
3.0184
 30
0.0
 11
4.76872
 21
3.01708
 31
0.0
  0
LINE
  8
0
  6
CONTINUOUS
 62
   250
 10
4.76872
 20
3.01708
 30
0.0
 11
4.77268
 21
3.01664
 31
0.0
  0
LINE
  8
0
  6
CONTINUOUS
 62
   250
 10
4.77268
 20
3.01664
 30
0.0
 11
4.7762
 21
3.01708
 31
0.0
  0
LINE
  8
0
  6
CONTINUOUS
 62
   250
 10
4.7762
 20
3.01708
 30
0.0
 11
4.78016
 21
3.0184
 31
0.0
  0
LINE
  8
0
  6
CONTINUOUS
 62
   250
 10
4.78016
 20
3.0184
 30
0.0
 11
4.78324
 21
3.0206
 31
0.0
  0
LINE
  8
0
  6
CONTINUOUS
 62
   250
 10
4.78324
 20
3.0206
 30
0.0
 11
4.78632
 21
3.02324
 31
0.0
  0
LINE
  8
0
  6
CONTINUOUS
 62
   250
 10
4.78632
 20
3.02324
 30
0.0
 11
4.78808
 21
3.02632
 31
0.0
  0
LINE
  8
0
  6
CONTINUOUS
 62
   250
 10
4.78808
 20
3.02632
 30
0.0
 11
4.7894
 21
3.03028
 31
0.0
  0
LINE
  8
0
  6
CONTINUOUS
 62
   250
 10
4.7894
 20
3.03028
 30
0.0
 11
4.78984
 21
3.0338
 31
0.0
  0
LINE
  8
0
  6
CONTINUOUS
 62
   250
 10
4.78984
 20
3.0338
 30
0.0
 11
4.75508
 21
3.0338
 31
0.0
  0
LINE
  8
0
  6
CONTINUOUS
 62
   250
 10
4.76168
 20
3.04744
 30
0.0
 11
4.76476
 21
3.04964
 31
0.0
  0
LINE
  8
0
  6
CONTINUOUS
 62
   250
 10
4.76476
 20
3.04964
 30
0.0
 11
4.76872
 21
3.05096
 31
0.0
  0
LINE
  8
0
  6
CONTINUOUS
 62
   250
 10
4.76872
 20
3.05096
 30
0.0
 11
4.77268
 21
3.0514
 31
0.0
  0
LINE
  8
0
  6
CONTINUOUS
 62
   250
 10
4.77268
 20
3.0514
 30
0.0
 11
4.77268
 21
3.01664
 31
0.0
  0
LINE
  8
0
  6
CONTINUOUS
 62
   250
 10
4.78984
 20
3.0338
 30
0.0
 11
4.7894
 21
3.03776
 31
0.0
  0
LINE
  8
0
  6
CONTINUOUS
 62
   250
 10
4.7894
 20
3.03776
 30
0.0
 11
4.78808
 21
3.04172
 31
0.0
  0
LINE
  8
0
  6
CONTINUOUS
 62
   250
 10
4.78808
 20
3.04172
 30
0.0
 11
4.78632
 21
3.0448
 31
0.0
  0
LINE
  8
0
  6
CONTINUOUS
 62
   250
 10
4.78632
 20
3.0448
 30
0.0
 11
4.78324
 21
3.04744
 31
0.0
  0
LINE
  8
0
  6
CONTINUOUS
 62
   250
 10
4.78324
 20
3.04744
 30
0.0
 11
4.78016
 21
3.04964
 31
0.0
  0
LINE
  8
0
  6
CONTINUOUS
 62
   250
 10
4.78016
 20
3.04964
 30
0.0
 11
4.7762
 21
3.05096
 31
0.0
  0
LINE
  8
0
  6
CONTINUOUS
 62
   250
 10
4.7762
 20
3.05096
 30
0.0
 11
4.77268
 21
3.0514
 31
0.0
  0
LINE
  8
0
  6
CONTINUOUS
 62
   250
 10
4.7784
 20
3.06284
 30
0.0
 11
4.78236
 21
3.0624
 31
0.0
  0
LINE
  8
0
  6
CONTINUOUS
 62
   250
 10
4.78236
 20
3.0624
 30
0.0
 11
4.78632
 21
3.06152
 31
0.0
  0
LINE
  8
0
  6
CONTINUOUS
 62
   250
 10
4.78632
 20
3.06152
 30
0.0
 11
4.78984
 21
3.0602
 31
0.0
  0
LINE
  8
0
  6
CONTINUOUS
 62
   250
 10
4.78984
 20
3.0602
 30
0.0
 11
4.79292
 21
3.05756
 31
0.0
  0
LINE
  8
0
  6
CONTINUOUS
 62
   250
 10
4.79292
 20
3.05756
 30
0.0
 11
4.796
 21
3.05492
 31
0.0
  0
LINE
  8
0
  6
CONTINUOUS
 62
   250
 10
4.796
 20
3.05492
 30
0.0
 11
4.7982
 21
3.0514
 31
0.0
  0
LINE
  8
0
  6
CONTINUOUS
 62
   250
 10
4.7982
 20
3.0514
 30
0.0
 11
4.79996
 21
3.04788
 31
0.0
  0
LINE
  8
0
  6
CONTINUOUS
 62
   250
 10
4.79996
 20
3.04788
 30
0.0
 11
4.80084
 21
3.04392
 31
0.0
  0
LINE
  8
0
  6
CONTINUOUS
 62
   250
 10
4.80084
 20
3.04392
 30
0.0
 11
4.80128
 21
3.03996
 31
0.0
  0
LINE
  8
0
  6
CONTINUOUS
 62
   250
 10
4.78632
 20
2.49964
 30
0.0
 11
4.78324
 21
2.50272
 31
0.0
  0
LINE
  8
0
  6
CONTINUOUS
 62
   250
 10
4.78324
 20
2.50272
 30
0.0
 11
4.78016
 21
2.50448
 31
0.0
  0
LINE
  8
0
  6
CONTINUOUS
 62
   250
 10
4.78016
 20
2.50448
 30
0.0
 11
4.7762
 21
2.5058
 31
0.0
  0
LINE
  8
0
  6
CONTINUOUS
 62
   250
 10
4.7762
 20
2.5058
 30
0.0
 11
4.77268
 21
2.50624
 31
0.0
  0
LINE
  8
0
  6
CONTINUOUS
 62
   250
 10
4.77268
 20
2.50624
 30
0.0
 11
4.76872
 21
2.5058
 31
0.0
  0
LINE
  8
0
  6
CONTINUOUS
 62
   250
 10
4.76872
 20
2.5058
 30
0.0
 11
4.76476
 21
2.50448
 31
0.0
  0
LINE
  8
0
  6
CONTINUOUS
 62
   250
 10
4.76476
 20
2.50448
 30
0.0
 11
4.76168
 21
2.50272
 31
0.0
  0
LINE
  8
0
  6
CONTINUOUS
 62
   250
 10
4.76168
 20
2.50272
 30
0.0
 11
4.75904
 21
2.49964
 31
0.0
  0
LINE
  8
0
  6
CONTINUOUS
 62
   250
 10
4.75904
 20
2.49964
 30
0.0
 11
4.75684
 21
2.49656
 31
0.0
  0
LINE
  8
0
  6
CONTINUOUS
 62
   250
 10
4.75684
 20
2.49656
 30
0.0
 11
4.75552
 21
2.49304
 31
0.0
  0
LINE
  8
0
  6
CONTINUOUS
 62
   250
 10
4.75552
 20
2.49304
 30
0.0
 11
4.75508
 21
2.48908
 31
0.0
  0
LINE
  8
0
  6
CONTINUOUS
 62
   250
 10
4.75508
 20
2.48908
 30
0.0
 11
4.75552
 21
2.48512
 31
0.0
  0
LINE
  8
0
  6
CONTINUOUS
 62
   250
 10
4.75552
 20
2.48512
 30
0.0
 11
4.75684
 21
2.48116
 31
0.0
  0
LINE
  8
0
  6
CONTINUOUS
 62
   250
 10
4.75684
 20
2.48116
 30
0.0
 11
4.75904
 21
2.47808
 31
0.0
  0
LINE
  8
0
  6
CONTINUOUS
 62
   250
 10
4.75904
 20
2.47808
 30
0.0
 11
4.76168
 21
2.47544
 31
0.0
  0
LINE
  8
0
  6
CONTINUOUS
 62
   250
 10
4.76168
 20
2.47544
 30
0.0
 11
4.76476
 21
2.47324
 31
0.0
  0
LINE
  8
0
  6
CONTINUOUS
 62
   250
 10
4.76476
 20
2.47324
 30
0.0
 11
4.76872
 21
2.47192
 31
0.0
  0
LINE
  8
0
  6
CONTINUOUS
 62
   250
 10
4.76872
 20
2.47192
 30
0.0
 11
4.77268
 21
2.47148
 31
0.0
  0
LINE
  8
0
  6
CONTINUOUS
 62
   250
 10
4.77268
 20
2.47148
 30
0.0
 11
4.7762
 21
2.47192
 31
0.0
  0
LINE
  8
0
  6
CONTINUOUS
 62
   250
 10
4.7762
 20
2.47192
 30
0.0
 11
4.78016
 21
2.47324
 31
0.0
  0
LINE
  8
0
  6
CONTINUOUS
 62
   250
 10
4.78016
 20
2.47324
 30
0.0
 11
4.78324
 21
2.47544
 31
0.0
  0
LINE
  8
0
  6
CONTINUOUS
 62
   250
 10
4.78324
 20
2.47544
 30
0.0
 11
4.78632
 21
2.47808
 31
0.0
  0
LINE
  8
0
  6
CONTINUOUS
 62
   250
 10
4.78632
 20
2.47808
 30
0.0
 11
4.78808
 21
2.48116
 31
0.0
  0
LINE
  8
0
  6
CONTINUOUS
 62
   250
 10
4.78808
 20
2.48116
 30
0.0
 11
4.7894
 21
2.48512
 31
0.0
  0
LINE
  8
0
  6
CONTINUOUS
 62
   250
 10
4.7894
 20
2.48512
 30
0.0
 11
4.78984
 21
2.48908
 31
0.0
  0
LINE
  8
0
  6
CONTINUOUS
 62
   250
 10
4.78984
 20
2.48908
 30
0.0
 11
4.7894
 21
2.49304
 31
0.0
  0
LINE
  8
0
  6
CONTINUOUS
 62
   250
 10
4.7894
 20
2.49304
 30
0.0
 11
4.78808
 21
2.49656
 31
0.0
  0
LINE
  8
0
  6
CONTINUOUS
 62
   250
 10
4.78808
 20
2.49656
 30
0.0
 11
4.78632
 21
2.49964
 31
0.0
  0
LINE
  8
0
  6
CONTINUOUS
 62
   250
 10
4.78984
 20
2.48908
 30
0.0
 11
4.75508
 21
2.48908
 31
0.0
  0
LINE
  8
0
  6
CONTINUOUS
 62
   250
 10
4.77268
 20
2.47148
 30
0.0
 11
4.77268
 21
2.50624
 31
0.0
  0
LINE
  8
0
  6
CONTINUOUS
 62
   250
 10
4.7784
 20
2.46004
 30
0.0
 11
4.78236
 21
2.46048
 31
0.0
  0
LINE
  8
0
  6
CONTINUOUS
 62
   250
 10
4.78236
 20
2.46048
 30
0.0
 11
4.78632
 21
2.46136
 31
0.0
  0
LINE
  8
0
  6
CONTINUOUS
 62
   250
 10
4.78632
 20
2.46136
 30
0.0
 11
4.78984
 21
2.46312
 31
0.0
  0
LINE
  8
0
  6
CONTINUOUS
 62
   250
 10
4.78984
 20
2.46312
 30
0.0
 11
4.79292
 21
2.46532
 31
0.0
  0
LINE
  8
0
  6
CONTINUOUS
 62
   250
 10
4.79292
 20
2.46532
 30
0.0
 11
4.796
 21
2.4684
 31
0.0
  0
LINE
  8
0
  6
CONTINUOUS
 62
   250
 10
4.796
 20
2.4684
 30
0.0
 11
4.7982
 21
2.47148
 31
0.0
  0
LINE
  8
0
  6
CONTINUOUS
 62
   250
 10
4.7982
 20
2.47148
 30
0.0
 11
4.79996
 21
2.47544
 31
0.0
  0
LINE
  8
0
  6
CONTINUOUS
 62
   250
 10
4.79996
 20
2.47544
 30
0.0
 11
4.80084
 21
2.4794
 31
0.0
  0
LINE
  8
0
  6
CONTINUOUS
 62
   250
 10
4.80084
 20
2.4794
 30
0.0
 11
4.80128
 21
2.48336
 31
0.0
  0
LINE
  8
0
  6
CONTINUOUS
 62
   250
 10
4.40704
 20
2.48512
 30
0.0
 11
4.40704
 21
2.48908
 31
0.0
  0
LINE
  8
0
  6
CONTINUOUS
 62
   250
 10
4.40704
 20
2.48908
 30
0.0
 11
4.40704
 21
2.49304
 31
0.0
  0
LINE
  8
0
  6
CONTINUOUS
 62
   250
 10
4.40704
 20
2.49304
 30
0.0
 11
4.40528
 21
2.49656
 31
0.0
  0
LINE
  8
0
  6
CONTINUOUS
 62
   250
 10
4.40528
 20
2.49656
 30
0.0
 11
4.40352
 21
2.49964
 31
0.0
  0
LINE
  8
0
  6
CONTINUOUS
 62
   250
 10
4.40352
 20
2.49964
 30
0.0
 11
4.40088
 21
2.50272
 31
0.0
  0
LINE
  8
0
  6
CONTINUOUS
 62
   250
 10
4.40088
 20
2.50272
 30
0.0
 11
4.39736
 21
2.50448
 31
0.0
  0
LINE
  8
0
  6
CONTINUOUS
 62
   250
 10
4.39736
 20
2.50448
 30
0.0
 11
4.3934
 21
2.5058
 31
0.0
  0
LINE
  8
0
  6
CONTINUOUS
 62
   250
 10
4.3934
 20
2.5058
 30
0.0
 11
4.38988
 21
2.50624
 31
0.0
  0
LINE
  8
0
  6
CONTINUOUS
 62
   250
 10
4.38988
 20
2.50624
 30
0.0
 11
4.38592
 21
2.5058
 31
0.0
  0
LINE
  8
0
  6
CONTINUOUS
 62
   250
 10
4.38592
 20
2.5058
 30
0.0
 11
4.3824
 21
2.50448
 31
0.0
  0
LINE
  8
0
  6
CONTINUOUS
 62
   250
 10
4.3824
 20
2.50448
 30
0.0
 11
4.37888
 21
2.50272
 31
0.0
  0
LINE
  8
0
  6
CONTINUOUS
 62
   250
 10
4.37888
 20
2.50272
 30
0.0
 11
4.37624
 21
2.49964
 31
0.0
  0
LINE
  8
0
  6
CONTINUOUS
 62
   250
 10
4.37624
 20
2.49964
 30
0.0
 11
4.37404
 21
2.49656
 31
0.0
  0
LINE
  8
0
  6
CONTINUOUS
 62
   250
 10
4.37404
 20
2.49656
 30
0.0
 11
4.37272
 21
2.49304
 31
0.0
  0
LINE
  8
0
  6
CONTINUOUS
 62
   250
 10
4.37272
 20
2.49304
 30
0.0
 11
4.37228
 21
2.48908
 31
0.0
  0
LINE
  8
0
  6
CONTINUOUS
 62
   250
 10
4.37228
 20
2.48908
 30
0.0
 11
4.37272
 21
2.48512
 31
0.0
  0
LINE
  8
0
  6
CONTINUOUS
 62
   250
 10
4.37272
 20
2.48512
 30
0.0
 11
4.37404
 21
2.48116
 31
0.0
  0
LINE
  8
0
  6
CONTINUOUS
 62
   250
 10
4.37404
 20
2.48116
 30
0.0
 11
4.37624
 21
2.47808
 31
0.0
  0
LINE
  8
0
  6
CONTINUOUS
 62
   250
 10
4.37624
 20
2.47808
 30
0.0
 11
4.37888
 21
2.47544
 31
0.0
  0
LINE
  8
0
  6
CONTINUOUS
 62
   250
 10
4.37888
 20
2.47544
 30
0.0
 11
4.3824
 21
2.47324
 31
0.0
  0
LINE
  8
0
  6
CONTINUOUS
 62
   250
 10
4.3824
 20
2.47324
 30
0.0
 11
4.38592
 21
2.47192
 31
0.0
  0
LINE
  8
0
  6
CONTINUOUS
 62
   250
 10
4.38592
 20
2.47192
 30
0.0
 11
4.38988
 21
2.47148
 31
0.0
  0
LINE
  8
0
  6
CONTINUOUS
 62
   250
 10
4.38988
 20
2.47148
 30
0.0
 11
4.3934
 21
2.47192
 31
0.0
  0
LINE
  8
0
  6
CONTINUOUS
 62
   250
 10
4.3934
 20
2.47192
 30
0.0
 11
4.39736
 21
2.47324
 31
0.0
  0
LINE
  8
0
  6
CONTINUOUS
 62
   250
 10
4.39736
 20
2.47324
 30
0.0
 11
4.40088
 21
2.47544
 31
0.0
  0
LINE
  8
0
  6
CONTINUOUS
 62
   250
 10
4.40088
 20
2.47544
 30
0.0
 11
4.40352
 21
2.47808
 31
0.0
  0
LINE
  8
0
  6
CONTINUOUS
 62
   250
 10
4.40352
 20
2.47808
 30
0.0
 11
4.40528
 21
2.48116
 31
0.0
  0
LINE
  8
0
  6
CONTINUOUS
 62
   250
 10
4.40528
 20
2.48116
 30
0.0
 11
4.40704
 21
2.48512
 31
0.0
  0
LINE
  8
0
  6
CONTINUOUS
 62
   250
 10
4.40704
 20
2.48908
 30
0.0
 11
4.37228
 21
2.48908
 31
0.0
  0
LINE
  8
0
  6
CONTINUOUS
 62
   250
 10
4.36084
 20
2.48336
 30
0.0
 11
4.36084
 21
2.4794
 31
0.0
  0
LINE
  8
0
  6
CONTINUOUS
 62
   250
 10
4.36084
 20
2.4794
 30
0.0
 11
4.36216
 21
2.47544
 31
0.0
  0
LINE
  8
0
  6
CONTINUOUS
 62
   250
 10
4.36216
 20
2.47544
 30
0.0
 11
4.36392
 21
2.47148
 31
0.0
  0
LINE
  8
0
  6
CONTINUOUS
 62
   250
 10
4.36392
 20
2.47148
 30
0.0
 11
4.36612
 21
2.4684
 31
0.0
  0
LINE
  8
0
  6
CONTINUOUS
 62
   250
 10
4.36612
 20
2.4684
 30
0.0
 11
4.3692
 21
2.46532
 31
0.0
  0
LINE
  8
0
  6
CONTINUOUS
 62
   250
 10
4.3692
 20
2.46532
 30
0.0
 11
4.37228
 21
2.46312
 31
0.0
  0
LINE
  8
0
  6
CONTINUOUS
 62
   250
 10
4.37228
 20
2.46312
 30
0.0
 11
4.37624
 21
2.46136
 31
0.0
  0
LINE
  8
0
  6
CONTINUOUS
 62
   250
 10
4.37624
 20
2.46136
 30
0.0
 11
4.37976
 21
2.46048
 31
0.0
  0
LINE
  8
0
  6
CONTINUOUS
 62
   250
 10
4.37976
 20
2.46048
 30
0.0
 11
4.38372
 21
2.46004
 31
0.0
  0
LINE
  8
0
  6
CONTINUOUS
 62
   250
 10
4.38988
 20
2.47148
 30
0.0
 11
4.38988
 21
2.50624
 31
0.0
  0
LINE
  8
0
  6
CONTINUOUS
 62
   250
 10
4.38988
 20
2.48908
 30
0.0
 11
4.38988
 21
2.47148
 31
0.0
  0
LINE
  8
0
  6
CONTINUOUS
 62
   250
 10
4.66796
 20
2.9392
 30
0.0
 11
4.66972
 21
2.9414
 31
0.0
  0
LINE
  8
0
  6
CONTINUOUS
 62
   250
 10
4.66972
 20
2.9414
 30
0.0
 11
4.67412
 21
2.9414
 31
0.0
  0
LINE
  8
0
  6
CONTINUOUS
 62
   250
 10
4.67412
 20
2.9414
 30
0.0
 11
4.67588
 21
2.9392
 31
0.0
  0
LINE
  8
0
  6
CONTINUOUS
 62
   250
 10
4.6794
 20
2.9414
 30
0.0
 11
4.6838
 21
2.92952
 31
0.0
  0
LINE
  8
0
  6
CONTINUOUS
 62
   250
 10
4.6838
 20
2.92952
 30
0.0
 11
4.68556
 21
2.93524
 31
0.0
  0
LINE
  8
0
  6
CONTINUOUS
 62
   250
 10
4.68556
 20
2.93524
 30
0.0
 11
4.68732
 21
2.92952
 31
0.0
  0
LINE
  8
0
  6
CONTINUOUS
 62
   250
 10
4.68732
 20
2.92952
 30
0.0
 11
4.69128
 21
2.9414
 31
0.0
  0
LINE
  8
0
  6
CONTINUOUS
 62
   250
 10
4.70272
 20
2.95284
 30
0.0
 11
4.70272
 21
2.8138
 31
0.0
  0
LINE
  8
0
  6
CONTINUOUS
 62
   250
 10
4.70272
 20
2.8138
 30
0.0
 11
4.70316
 21
2.8116
 31
0.0
  0
LINE
  8
0
  6
CONTINUOUS
 62
   250
 10
4.70316
 20
2.8116
 30
0.0
 11
4.70448
 21
2.8094
 31
0.0
  0
LINE
  8
0
  6
CONTINUOUS
 62
   250
 10
4.70448
 20
2.8094
 30
0.0
 11
4.70668
 21
2.80852
 31
0.0
  0
LINE
  8
0
  6
CONTINUOUS
 62
   250
 10
4.70668
 20
2.80852
 30
0.0
 11
4.70888
 21
2.80808
 31
0.0
  0
LINE
  8
0
  6
CONTINUOUS
 62
   250
 10
4.72296
 20
2.80192
 30
0.0
 11
4.72692
 21
2.79048
 31
0.0
  0
LINE
  8
0
  6
CONTINUOUS
 62
   250
 10
4.72692
 20
2.79048
 30
0.0
 11
4.73088
 21
2.80192
 31
0.0
  0
LINE
  8
0
  6
CONTINUOUS
 62
   250
 10
4.73572
 20
2.80192
 30
0.0
 11
4.73836
 21
2.79444
 31
0.0
  0
LINE
  8
0
  6
CONTINUOUS
 62
   250
 10
4.73836
 20
2.79444
 30
0.0
 11
4.73836
 21
2.79048
 31
0.0
  0
LINE
  8
0
  6
CONTINUOUS
 62
   250
 10
4.741
 20
2.79048
 30
0.0
 11
4.74628
 21
2.79048
 31
0.0
  0
LINE
  8
0
  6
CONTINUOUS
 62
   250
 10
4.741
 20
2.79048
 30
0.0
 11
4.741
 21
2.80192
 31
0.0
  0
LINE
  8
0
  6
CONTINUOUS
 62
   250
 10
4.73572
 20
2.80192
 30
0.0
 11
4.73308
 21
2.79444
 31
0.0
  0
LINE
  8
0
  6
CONTINUOUS
 62
   250
 10
4.73308
 20
2.79444
 30
0.0
 11
4.73836
 21
2.79444
 31
0.0
  0
LINE
  8
0
  6
CONTINUOUS
 62
   250
 10
4.73308
 20
2.79444
 30
0.0
 11
4.73308
 21
2.79048
 31
0.0
  0
LINE
  8
0
  6
CONTINUOUS
 62
   250
 10
4.75244
 20
2.79048
 30
0.0
 11
4.75596
 21
2.80192
 31
0.0
  0
LINE
  8
0
  6
CONTINUOUS
 62
   250
 10
4.7586
 20
2.80192
 30
0.0
 11
4.76388
 21
2.80192
 31
0.0
  0
LINE
  8
0
  6
CONTINUOUS
 62
   250
 10
4.7586
 20
2.80192
 30
0.0
 11
4.7586
 21
2.79048
 31
0.0
  0
LINE
  8
0
  6
CONTINUOUS
 62
   250
 10
4.7586
 20
2.79048
 30
0.0
 11
4.76388
 21
2.79048
 31
0.0
  0
LINE
  8
0
  6
CONTINUOUS
 62
   250
 10
4.76124
 20
2.7962
 30
0.0
 11
4.7586
 21
2.7962
 31
0.0
  0
LINE
  8
0
  6
CONTINUOUS
 62
   250
 10
4.75244
 20
2.79048
 30
0.0
 11
4.74848
 21
2.80192
 31
0.0
  0
LINE
  8
0
  6
CONTINUOUS
 62
   250
 10
4.7784
 20
2.80808
 30
0.0
 11
4.7806
 21
2.80852
 31
0.0
  0
LINE
  8
0
  6
CONTINUOUS
 62
   250
 10
4.7806
 20
2.80852
 30
0.0
 11
4.78236
 21
2.8094
 31
0.0
  0
LINE
  8
0
  6
CONTINUOUS
 62
   250
 10
4.78236
 20
2.8094
 30
0.0
 11
4.78368
 21
2.8116
 31
0.0
  0
LINE
  8
0
  6
CONTINUOUS
 62
   250
 10
4.78368
 20
2.8116
 30
0.0
 11
4.78412
 21
2.8138
 31
0.0
  0
LINE
  8
0
  6
CONTINUOUS
 62
   250
 10
4.78412
 20
2.8138
 30
0.0
 11
4.78412
 21
2.95284
 31
0.0
  0
LINE
  8
0
  6
CONTINUOUS
 62
   250
 10
4.78412
 20
2.95284
 30
0.0
 11
4.78412
 21
2.8138
 31
0.0
  0
LINE
  8
0
  6
CONTINUOUS
 62
   250
 10
4.78412
 20
2.8138
 30
0.0
 11
4.78412
 21
2.95284
 31
0.0
  0
LINE
  8
0
  6
CONTINUOUS
 62
   250
 10
4.78412
 20
2.95284
 30
0.0
 11
4.78368
 21
2.95504
 31
0.0
  0
LINE
  8
0
  6
CONTINUOUS
 62
   250
 10
4.78368
 20
2.95504
 30
0.0
 11
4.78236
 21
2.9568
 31
0.0
  0
LINE
  8
0
  6
CONTINUOUS
 62
   250
 10
4.78236
 20
2.9568
 30
0.0
 11
4.7806
 21
2.95812
 31
0.0
  0
LINE
  8
0
  6
CONTINUOUS
 62
   250
 10
4.7806
 20
2.95812
 30
0.0
 11
4.7784
 21
2.95856
 31
0.0
  0
LINE
  8
0
  6
CONTINUOUS
 62
   250
 10
4.77268
 20
2.96472
 30
0.0
 11
4.7674
 21
2.97044
 31
0.0
  0
LINE
  8
0
  6
CONTINUOUS
 62
   250
 10
4.7674
 20
2.97044
 30
0.0
 11
4.76564
 21
2.97044
 31
0.0
  0
LINE
  8
0
  6
CONTINUOUS
 62
   250
 10
4.76564
 20
2.97044
 30
0.0
 11
4.77092
 21
2.97044
 31
0.0
  0
LINE
  8
0
  6
CONTINUOUS
 62
   250
 10
4.77092
 20
2.97044
 30
0.0
 11
4.77268
 21
2.9722
 31
0.0
  0
LINE
  8
0
  6
CONTINUOUS
 62
   250
 10
4.77268
 20
2.9722
 30
0.0
 11
4.77268
 21
2.9744
 31
0.0
  0
LINE
  8
0
  6
CONTINUOUS
 62
   250
 10
4.77268
 20
2.9744
 30
0.0
 11
4.77092
 21
2.97616
 31
0.0
  0
LINE
  8
0
  6
CONTINUOUS
 62
   250
 10
4.77092
 20
2.97616
 30
0.0
 11
4.76564
 21
2.97616
 31
0.0
  0
LINE
  8
0
  6
CONTINUOUS
 62
   250
 10
4.76564
 20
2.97616
 30
0.0
 11
4.76564
 21
2.96472
 31
0.0
  0
LINE
  8
0
  6
CONTINUOUS
 62
   250
 10
4.76212
 20
2.96472
 30
0.0
 11
4.75552
 21
2.96472
 31
0.0
  0
LINE
  8
0
  6
CONTINUOUS
 62
   250
 10
4.75552
 20
2.96472
 30
0.0
 11
4.75552
 21
2.97616
 31
0.0
  0
LINE
  8
0
  6
CONTINUOUS
 62
   250
 10
4.75552
 20
2.97616
 30
0.0
 11
4.76212
 21
2.97616
 31
0.0
  0
LINE
  8
0
  6
CONTINUOUS
 62
   250
 10
4.75904
 20
2.97044
 30
0.0
 11
4.75552
 21
2.97044
 31
0.0
  0
LINE
  8
0
  6
CONTINUOUS
 62
   250
 10
4.75024
 20
2.97044
 30
0.0
 11
4.7454
 21
2.97044
 31
0.0
  0
LINE
  8
0
  6
CONTINUOUS
 62
   250
 10
4.75024
 20
2.97044
 30
0.0
 11
4.752
 21
2.9722
 31
0.0
  0
LINE
  8
0
  6
CONTINUOUS
 62
   250
 10
4.752
 20
2.9722
 30
0.0
 11
4.752
 21
2.9744
 31
0.0
  0
LINE
  8
0
  6
CONTINUOUS
 62
   250
 10
4.752
 20
2.9744
 30
0.0
 11
4.75024
 21
2.97616
 31
0.0
  0
LINE
  8
0
  6
CONTINUOUS
 62
   250
 10
4.75024
 20
2.97616
 30
0.0
 11
4.7454
 21
2.97616
 31
0.0
  0
LINE
  8
0
  6
CONTINUOUS
 62
   250
 10
4.7454
 20
2.97616
 30
0.0
 11
4.7454
 21
2.96472
 31
0.0
  0
LINE
  8
0
  6
CONTINUOUS
 62
   250
 10
4.74144
 20
2.96472
 30
0.0
 11
4.74144
 21
2.97616
 31
0.0
  0
LINE
  8
0
  6
CONTINUOUS
 62
   250
 10
4.74144
 20
2.97616
 30
0.0
 11
4.73836
 21
2.96824
 31
0.0
  0
LINE
  8
0
  6
CONTINUOUS
 62
   250
 10
4.73836
 20
2.96824
 30
0.0
 11
4.73484
 21
2.97616
 31
0.0
  0
LINE
  8
0
  6
CONTINUOUS
 62
   250
 10
4.73484
 20
2.97616
 30
0.0
 11
4.73484
 21
2.96472
 31
0.0
  0
LINE
  8
0
  6
CONTINUOUS
 62
   250
 10
4.73176
 20
2.96472
 30
0.0
 11
4.73176
 21
2.96824
 31
0.0
  0
LINE
  8
0
  6
CONTINUOUS
 62
   250
 10
4.73176
 20
2.96824
 30
0.0
 11
4.72472
 21
2.96824
 31
0.0
  0
LINE
  8
0
  6
CONTINUOUS
 62
   250
 10
4.72472
 20
2.96824
 30
0.0
 11
4.7278
 21
2.97616
 31
0.0
  0
LINE
  8
0
  6
CONTINUOUS
 62
   250
 10
4.7278
 20
2.97616
 30
0.0
 11
4.73176
 21
2.96824
 31
0.0
  0
LINE
  8
0
  6
CONTINUOUS
 62
   250
 10
4.72472
 20
2.96824
 30
0.0
 11
4.72472
 21
2.96472
 31
0.0
  0
LINE
  8
0
  6
CONTINUOUS
 62
   250
 10
4.71944
 20
2.96472
 30
0.0
 11
4.7212
 21
2.96648
 31
0.0
  0
LINE
  8
0
  6
CONTINUOUS
 62
   250
 10
4.7212
 20
2.96648
 30
0.0
 11
4.7212
 21
2.9744
 31
0.0
  0
LINE
  8
0
  6
CONTINUOUS
 62
   250
 10
4.7212
 20
2.9744
 30
0.0
 11
4.71944
 21
2.97616
 31
0.0
  0
LINE
  8
0
  6
CONTINUOUS
 62
   250
 10
4.71944
 20
2.97616
 30
0.0
 11
4.71416
 21
2.97616
 31
0.0
  0
LINE
  8
0
  6
CONTINUOUS
 62
   250
 10
4.71416
 20
2.97616
 30
0.0
 11
4.71592
 21
2.97616
 31
0.0
  0
LINE
  8
0
  6
CONTINUOUS
 62
   250
 10
4.71592
 20
2.97616
 30
0.0
 11
4.71592
 21
2.96472
 31
0.0
  0
LINE
  8
0
  6
CONTINUOUS
 62
   250
 10
4.71592
 20
2.96472
 30
0.0
 11
4.71416
 21
2.96472
 31
0.0
  0
LINE
  8
0
  6
CONTINUOUS
 62
   250
 10
4.71416
 20
2.96472
 30
0.0
 11
4.71944
 21
2.96472
 31
0.0
  0
LINE
  8
0
  6
CONTINUOUS
 62
   250
 10
4.70888
 20
2.95856
 30
0.0
 11
4.70668
 21
2.95812
 31
0.0
  0
LINE
  8
0
  6
CONTINUOUS
 62
   250
 10
4.70668
 20
2.95812
 30
0.0
 11
4.70448
 21
2.9568
 31
0.0
  0
LINE
  8
0
  6
CONTINUOUS
 62
   250
 10
4.70448
 20
2.9568
 30
0.0
 11
4.70316
 21
2.95504
 31
0.0
  0
LINE
  8
0
  6
CONTINUOUS
 62
   250
 10
4.70316
 20
2.95504
 30
0.0
 11
4.70272
 21
2.95284
 31
0.0
  0
LINE
  8
0
  6
CONTINUOUS
 62
   250
 10
4.67588
 20
2.93172
 30
0.0
 11
4.67412
 21
2.92952
 31
0.0
  0
LINE
  8
0
  6
CONTINUOUS
 62
   250
 10
4.67412
 20
2.92952
 30
0.0
 11
4.66972
 21
2.92952
 31
0.0
  0
LINE
  8
0
  6
CONTINUOUS
 62
   250
 10
4.66972
 20
2.92952
 30
0.0
 11
4.66796
 21
2.93172
 31
0.0
  0
LINE
  8
0
  6
CONTINUOUS
 62
   250
 10
4.66796
 20
2.93172
 30
0.0
 11
4.66796
 21
2.9392
 31
0.0
  0
LINE
  8
0
  6
CONTINUOUS
 62
   250
 10
4.6662
 20
2.88904
 30
0.0
 11
4.66796
 21
2.88728
 31
0.0
  0
LINE
  8
0
  6
CONTINUOUS
 62
   250
 10
4.6662
 20
2.88904
 30
0.0
 11
4.66224
 21
2.88904
 31
0.0
  0
LINE
  8
0
  6
CONTINUOUS
 62
   250
 10
4.66224
 20
2.88904
 30
0.0
 11
4.66048
 21
2.88728
 31
0.0
  0
LINE
  8
0
  6
CONTINUOUS
 62
   250
 10
4.66048
 20
2.88728
 30
0.0
 11
4.66048
 21
2.87936
 31
0.0
  0
LINE
  8
0
  6
CONTINUOUS
 62
   250
 10
4.66048
 20
2.87936
 30
0.0
 11
4.66224
 21
2.8776
 31
0.0
  0
LINE
  8
0
  6
CONTINUOUS
 62
   250
 10
4.66224
 20
2.8776
 30
0.0
 11
4.6662
 21
2.8776
 31
0.0
  0
LINE
  8
0
  6
CONTINUOUS
 62
   250
 10
4.6662
 20
2.8776
 30
0.0
 11
4.66796
 21
2.87936
 31
0.0
  0
LINE
  8
0
  6
CONTINUOUS
 62
   250
 10
4.67192
 20
2.8776
 30
0.0
 11
4.67192
 21
2.88904
 31
0.0
  0
LINE
  8
0
  6
CONTINUOUS
 62
   250
 10
4.67192
 20
2.88904
 30
0.0
 11
4.6794
 21
2.88904
 31
0.0
  0
LINE
  8
0
  6
CONTINUOUS
 62
   250
 10
4.6794
 20
2.88904
 30
0.0
 11
4.6794
 21
2.8776
 31
0.0
  0
LINE
  8
0
  6
CONTINUOUS
 62
   250
 10
4.6794
 20
2.8776
 30
0.0
 11
4.67192
 21
2.8776
 31
0.0
  0
LINE
  8
0
  6
CONTINUOUS
 62
   250
 10
4.6838
 20
2.8776
 30
0.0
 11
4.6838
 21
2.88904
 31
0.0
  0
LINE
  8
0
  6
CONTINUOUS
 62
   250
 10
4.6838
 20
2.88904
 30
0.0
 11
4.68732
 21
2.88112
 31
0.0
  0
LINE
  8
0
  6
CONTINUOUS
 62
   250
 10
4.68732
 20
2.88112
 30
0.0
 11
4.69128
 21
2.88904
 31
0.0
  0
LINE
  8
0
  6
CONTINUOUS
 62
   250
 10
4.69128
 20
2.88904
 30
0.0
 11
4.69128
 21
2.8776
 31
0.0
  0
LINE
  8
0
  6
CONTINUOUS
 62
   250
 10
4.69128
 20
2.8776
 30
0.0
 11
4.69128
 21
2.88904
 31
0.0
  0
LINE
  8
0
  6
CONTINUOUS
 62
   250
 10
4.69128
 20
2.83668
 30
0.0
 11
4.68732
 21
2.82524
 31
0.0
  0
LINE
  8
0
  6
CONTINUOUS
 62
   250
 10
4.68732
 20
2.82524
 30
0.0
 11
4.68556
 21
2.8314
 31
0.0
  0
LINE
  8
0
  6
CONTINUOUS
 62
   250
 10
4.68556
 20
2.8314
 30
0.0
 11
4.6838
 21
2.82524
 31
0.0
  0
LINE
  8
0
  6
CONTINUOUS
 62
   250
 10
4.6838
 20
2.82524
 30
0.0
 11
4.6794
 21
2.83668
 31
0.0
  0
LINE
  8
0
  6
CONTINUOUS
 62
   250
 10
4.67412
 20
2.83668
 30
0.0
 11
4.67588
 21
2.83492
 31
0.0
  0
LINE
  8
0
  6
CONTINUOUS
 62
   250
 10
4.67412
 20
2.83668
 30
0.0
 11
4.66972
 21
2.83668
 31
0.0
  0
LINE
  8
0
  6
CONTINUOUS
 62
   250
 10
4.66972
 20
2.83668
 30
0.0
 11
4.66796
 21
2.83492
 31
0.0
  0
LINE
  8
0
  6
CONTINUOUS
 62
   250
 10
4.66796
 20
2.83492
 30
0.0
 11
4.66796
 21
2.82744
 31
0.0
  0
LINE
  8
0
  6
CONTINUOUS
 62
   250
 10
4.66796
 20
2.82744
 30
0.0
 11
4.66972
 21
2.82524
 31
0.0
  0
LINE
  8
0
  6
CONTINUOUS
 62
   250
 10
4.66972
 20
2.82524
 30
0.0
 11
4.67412
 21
2.82524
 31
0.0
  0
LINE
  8
0
  6
CONTINUOUS
 62
   250
 10
4.67412
 20
2.82524
 30
0.0
 11
4.67588
 21
2.82744
 31
0.0
  0
LINE
  8
0
  6
CONTINUOUS
 62
   250
 10
4.66444
 20
2.82744
 30
0.0
 11
4.66224
 21
2.82524
 31
0.0
  0
LINE
  8
0
  6
CONTINUOUS
 62
   250
 10
4.66224
 20
2.82524
 30
0.0
 11
4.65828
 21
2.82524
 31
0.0
  0
LINE
  8
0
  6
CONTINUOUS
 62
   250
 10
4.65828
 20
2.82524
 30
0.0
 11
4.65652
 21
2.82744
 31
0.0
  0
LINE
  8
0
  6
CONTINUOUS
 62
   250
 10
4.65652
 20
2.82744
 30
0.0
 11
4.65652
 21
2.83492
 31
0.0
  0
LINE
  8
0
  6
CONTINUOUS
 62
   250
 10
4.65652
 20
2.83492
 30
0.0
 11
4.65828
 21
2.83668
 31
0.0
  0
LINE
  8
0
  6
CONTINUOUS
 62
   250
 10
4.65828
 20
2.83668
 30
0.0
 11
4.66224
 21
2.83668
 31
0.0
  0
LINE
  8
0
  6
CONTINUOUS
 62
   250
 10
4.66224
 20
2.83668
 30
0.0
 11
4.66444
 21
2.83492
 31
0.0
  0
LINE
  8
0
  6
CONTINUOUS
 62
   250
 10
4.66972
 20
2.76716
 30
0.0
 11
4.67412
 21
2.76716
 31
0.0
  0
LINE
  8
0
  6
CONTINUOUS
 62
   250
 10
4.67412
 20
2.76716
 30
0.0
 11
4.67588
 21
2.7654
 31
0.0
  0
LINE
  8
0
  6
CONTINUOUS
 62
   250
 10
4.6794
 20
2.76716
 30
0.0
 11
4.6838
 21
2.75572
 31
0.0
  0
LINE
  8
0
  6
CONTINUOUS
 62
   250
 10
4.6838
 20
2.75572
 30
0.0
 11
4.68556
 21
2.76144
 31
0.0
  0
LINE
  8
0
  6
CONTINUOUS
 62
   250
 10
4.68556
 20
2.76144
 30
0.0
 11
4.68732
 21
2.75572
 31
0.0
  0
LINE
  8
0
  6
CONTINUOUS
 62
   250
 10
4.68732
 20
2.75572
 30
0.0
 11
4.69128
 21
2.76716
 31
0.0
  0
LINE
  8
0
  6
CONTINUOUS
 62
   250
 10
4.66972
 20
2.76716
 30
0.0
 11
4.66796
 21
2.7654
 31
0.0
  0
LINE
  8
0
  6
CONTINUOUS
 62
   250
 10
4.66796
 20
2.7654
 30
0.0
 11
4.66796
 21
2.75748
 31
0.0
  0
LINE
  8
0
  6
CONTINUOUS
 62
   250
 10
4.66796
 20
2.75748
 30
0.0
 11
4.66972
 21
2.75572
 31
0.0
  0
LINE
  8
0
  6
CONTINUOUS
 62
   250
 10
4.66972
 20
2.75572
 30
0.0
 11
4.67412
 21
2.75572
 31
0.0
  0
LINE
  8
0
  6
CONTINUOUS
 62
   250
 10
4.67412
 20
2.75572
 30
0.0
 11
4.67588
 21
2.75748
 31
0.0
  0
LINE
  8
0
  6
CONTINUOUS
 62
   250
 10
4.6794
 20
2.71524
 30
0.0
 11
4.6794
 21
2.70336
 31
0.0
  0
LINE
  8
0
  6
CONTINUOUS
 62
   250
 10
4.6794
 20
2.70336
 30
0.0
 11
4.67192
 21
2.70336
 31
0.0
  0
LINE
  8
0
  6
CONTINUOUS
 62
   250
 10
4.67192
 20
2.70336
 30
0.0
 11
4.67192
 21
2.71524
 31
0.0
  0
LINE
  8
0
  6
CONTINUOUS
 62
   250
 10
4.67192
 20
2.71524
 30
0.0
 11
4.6794
 21
2.71524
 31
0.0
  0
LINE
  8
0
  6
CONTINUOUS
 62
   250
 10
4.6838
 20
2.71524
 30
0.0
 11
4.68732
 21
2.70732
 31
0.0
  0
LINE
  8
0
  6
CONTINUOUS
 62
   250
 10
4.68732
 20
2.70732
 30
0.0
 11
4.69128
 21
2.71524
 31
0.0
  0
LINE
  8
0
  6
CONTINUOUS
 62
   250
 10
4.69128
 20
2.71524
 30
0.0
 11
4.69128
 21
2.70336
 31
0.0
  0
LINE
  8
0
  6
CONTINUOUS
 62
   250
 10
4.69128
 20
2.70336
 30
0.0
 11
4.69128
 21
2.71524
 31
0.0
  0
LINE
  8
0
  6
CONTINUOUS
 62
   250
 10
4.6838
 20
2.71524
 30
0.0
 11
4.6838
 21
2.70336
 31
0.0
  0
LINE
  8
0
  6
CONTINUOUS
 62
   250
 10
4.6662
 20
2.70336
 30
0.0
 11
4.66224
 21
2.70336
 31
0.0
  0
LINE
  8
0
  6
CONTINUOUS
 62
   250
 10
4.66224
 20
2.70336
 30
0.0
 11
4.66048
 21
2.70556
 31
0.0
  0
LINE
  8
0
  6
CONTINUOUS
 62
   250
 10
4.66048
 20
2.70556
 30
0.0
 11
4.66048
 21
2.71348
 31
0.0
  0
LINE
  8
0
  6
CONTINUOUS
 62
   250
 10
4.66048
 20
2.71348
 30
0.0
 11
4.66224
 21
2.71524
 31
0.0
  0
LINE
  8
0
  6
CONTINUOUS
 62
   250
 10
4.66224
 20
2.71524
 30
0.0
 11
4.6662
 21
2.71524
 31
0.0
  0
LINE
  8
0
  6
CONTINUOUS
 62
   250
 10
4.6662
 20
2.71524
 30
0.0
 11
4.66796
 21
2.71348
 31
0.0
  0
LINE
  8
0
  6
CONTINUOUS
 62
   250
 10
4.66796
 20
2.70556
 30
0.0
 11
4.6662
 21
2.70336
 31
0.0
  0
LINE
  8
0
  6
CONTINUOUS
 62
   250
 10
4.66796
 20
2.66112
 30
0.0
 11
4.66972
 21
2.66288
 31
0.0
  0
LINE
  8
0
  6
CONTINUOUS
 62
   250
 10
4.66972
 20
2.66288
 30
0.0
 11
4.67412
 21
2.66288
 31
0.0
  0
LINE
  8
0
  6
CONTINUOUS
 62
   250
 10
4.67412
 20
2.66288
 30
0.0
 11
4.67588
 21
2.66112
 31
0.0
  0
LINE
  8
0
  6
CONTINUOUS
 62
   250
 10
4.6794
 20
2.66288
 30
0.0
 11
4.6838
 21
2.65144
 31
0.0
  0
LINE
  8
0
  6
CONTINUOUS
 62
   250
 10
4.6838
 20
2.65144
 30
0.0
 11
4.68556
 21
2.65716
 31
0.0
  0
LINE
  8
0
  6
CONTINUOUS
 62
   250
 10
4.68556
 20
2.65716
 30
0.0
 11
4.68732
 21
2.65144
 31
0.0
  0
LINE
  8
0
  6
CONTINUOUS
 62
   250
 10
4.68732
 20
2.65144
 30
0.0
 11
4.69128
 21
2.66288
 31
0.0
  0
LINE
  8
0
  6
CONTINUOUS
 62
   250
 10
4.67588
 20
2.6532
 30
0.0
 11
4.67412
 21
2.65144
 31
0.0
  0
LINE
  8
0
  6
CONTINUOUS
 62
   250
 10
4.67412
 20
2.65144
 30
0.0
 11
4.66972
 21
2.65144
 31
0.0
  0
LINE
  8
0
  6
CONTINUOUS
 62
   250
 10
4.66972
 20
2.65144
 30
0.0
 11
4.66796
 21
2.6532
 31
0.0
  0
LINE
  8
0
  6
CONTINUOUS
 62
   250
 10
4.66796
 20
2.6532
 30
0.0
 11
4.66796
 21
2.66112
 31
0.0
  0
LINE
  8
0
  6
CONTINUOUS
 62
   250
 10
4.66444
 20
2.66112
 30
0.0
 11
4.66224
 21
2.66288
 31
0.0
  0
LINE
  8
0
  6
CONTINUOUS
 62
   250
 10
4.66224
 20
2.66288
 30
0.0
 11
4.65828
 21
2.66288
 31
0.0
  0
LINE
  8
0
  6
CONTINUOUS
 62
   250
 10
4.65828
 20
2.66288
 30
0.0
 11
4.65652
 21
2.66112
 31
0.0
  0
LINE
  8
0
  6
CONTINUOUS
 62
   250
 10
4.65652
 20
2.66112
 30
0.0
 11
4.65652
 21
2.6532
 31
0.0
  0
LINE
  8
0
  6
CONTINUOUS
 62
   250
 10
4.65652
 20
2.6532
 30
0.0
 11
4.65828
 21
2.65144
 31
0.0
  0
LINE
  8
0
  6
CONTINUOUS
 62
   250
 10
4.65828
 20
2.65144
 30
0.0
 11
4.66224
 21
2.65144
 31
0.0
  0
LINE
  8
0
  6
CONTINUOUS
 62
   250
 10
4.66224
 20
2.65144
 30
0.0
 11
4.66444
 21
2.6532
 31
0.0
  0
LINE
  8
0
  6
CONTINUOUS
 62
   250
 10
4.70272
 20
2.63956
 30
0.0
 11
4.70316
 21
2.6378
 31
0.0
  0
LINE
  8
0
  6
CONTINUOUS
 62
   250
 10
4.70316
 20
2.6378
 30
0.0
 11
4.70448
 21
2.6356
 31
0.0
  0
LINE
  8
0
  6
CONTINUOUS
 62
   250
 10
4.70448
 20
2.6356
 30
0.0
 11
4.70668
 21
2.63428
 31
0.0
  0
LINE
  8
0
  6
CONTINUOUS
 62
   250
 10
4.70668
 20
2.63428
 30
0.0
 11
4.70888
 21
2.63384
 31
0.0
  0
LINE
  8
0
  6
CONTINUOUS
 62
   250
 10
4.70272
 20
2.63956
 30
0.0
 11
4.70272
 21
2.77904
 31
0.0
  0
LINE
  8
0
  6
CONTINUOUS
 62
   250
 10
4.70272
 20
2.77904
 30
0.0
 11
4.70316
 21
2.78124
 31
0.0
  0
LINE
  8
0
  6
CONTINUOUS
 62
   250
 10
4.70316
 20
2.78124
 30
0.0
 11
4.70448
 21
2.783
 31
0.0
  0
LINE
  8
0
  6
CONTINUOUS
 62
   250
 10
4.70448
 20
2.783
 30
0.0
 11
4.70668
 21
2.78432
 31
0.0
  0
LINE
  8
0
  6
CONTINUOUS
 62
   250
 10
4.70668
 20
2.78432
 30
0.0
 11
4.70888
 21
2.78476
 31
0.0
  0
LINE
  8
0
  6
CONTINUOUS
 62
   250
 10
4.70888
 20
2.78476
 30
0.0
 11
4.7784
 21
2.78476
 31
0.0
  0
LINE
  8
0
  6
CONTINUOUS
 62
   250
 10
4.7784
 20
2.78476
 30
0.0
 11
4.7806
 21
2.78432
 31
0.0
  0
LINE
  8
0
  6
CONTINUOUS
 62
   250
 10
4.7806
 20
2.78432
 30
0.0
 11
4.78236
 21
2.783
 31
0.0
  0
LINE
  8
0
  6
CONTINUOUS
 62
   250
 10
4.78236
 20
2.783
 30
0.0
 11
4.78368
 21
2.78124
 31
0.0
  0
LINE
  8
0
  6
CONTINUOUS
 62
   250
 10
4.78368
 20
2.78124
 30
0.0
 11
4.78412
 21
2.77904
 31
0.0
  0
LINE
  8
0
  6
CONTINUOUS
 62
   250
 10
4.78412
 20
2.77904
 30
0.0
 11
4.78412
 21
2.63956
 31
0.0
  0
LINE
  8
0
  6
CONTINUOUS
 62
   250
 10
4.78412
 20
2.63956
 30
0.0
 11
4.78368
 21
2.6378
 31
0.0
  0
LINE
  8
0
  6
CONTINUOUS
 62
   250
 10
4.78368
 20
2.6378
 30
0.0
 11
4.78236
 21
2.6356
 31
0.0
  0
LINE
  8
0
  6
CONTINUOUS
 62
   250
 10
4.78236
 20
2.6356
 30
0.0
 11
4.7806
 21
2.63428
 31
0.0
  0
LINE
  8
0
  6
CONTINUOUS
 62
   250
 10
4.7806
 20
2.63428
 30
0.0
 11
4.7784
 21
2.63384
 31
0.0
  0
LINE
  8
0
  6
CONTINUOUS
 62
   250
 10
4.80128
 20
2.9876
 30
0.0
 11
4.36084
 21
2.9876
 31
0.0
  0
LINE
  8
0
  6
CONTINUOUS
 62
   250
 10
4.42068
 20
2.99948
 30
0.0
 11
4.41848
 21
3.00124
 31
0.0
  0
LINE
  8
0
  6
CONTINUOUS
 62
   250
 10
4.41848
 20
3.00124
 30
0.0
 11
4.41848
 21
3.00916
 31
0.0
  0
LINE
  8
0
  6
CONTINUOUS
 62
   250
 10
4.41848
 20
3.00916
 30
0.0
 11
4.42068
 21
3.01092
 31
0.0
  0
LINE
  8
0
  6
CONTINUOUS
 62
   250
 10
4.42068
 20
3.01092
 30
0.0
 11
4.42464
 21
3.01092
 31
0.0
  0
LINE
  8
0
  6
CONTINUOUS
 62
   250
 10
4.42464
 20
3.01092
 30
0.0
 11
4.4264
 21
3.00916
 31
0.0
  0
LINE
  8
0
  6
CONTINUOUS
 62
   250
 10
4.4264
 20
3.00916
 30
0.0
 11
4.4264
 21
3.003
 31
0.0
  0
LINE
  8
0
  6
CONTINUOUS
 62
   250
 10
4.4264
 20
3.003
 30
0.0
 11
4.42464
 21
3.00124
 31
0.0
  0
LINE
  8
0
  6
CONTINUOUS
 62
   250
 10
4.42464
 20
3.00124
 30
0.0
 11
4.4264
 21
2.99948
 31
0.0
  0
LINE
  8
0
  6
CONTINUOUS
 62
   250
 10
4.42464
 20
3.00124
 30
0.0
 11
4.42244
 21
2.99948
 31
0.0
  0
LINE
  8
0
  6
CONTINUOUS
 62
   250
 10
4.42244
 20
2.99948
 30
0.0
 11
4.42068
 21
2.99948
 31
0.0
  0
LINE
  8
0
  6
CONTINUOUS
 62
   250
 10
4.42244
 20
3.003
 30
0.0
 11
4.42464
 21
3.00124
 31
0.0
  0
LINE
  8
0
  6
CONTINUOUS
 62
   250
 10
4.43036
 20
2.99948
 30
0.0
 11
4.43036
 21
3.01092
 31
0.0
  0
LINE
  8
0
  6
CONTINUOUS
 62
   250
 10
4.43036
 20
3.01092
 30
0.0
 11
4.43784
 21
3.01092
 31
0.0
  0
LINE
  8
0
  6
CONTINUOUS
 62
   250
 10
4.4418
 20
3.00916
 30
0.0
 11
4.444
 21
3.01092
 31
0.0
  0
LINE
  8
0
  6
CONTINUOUS
 62
   250
 10
4.444
 20
3.01092
 30
0.0
 11
4.44752
 21
3.01092
 31
0.0
  0
LINE
  8
0
  6
CONTINUOUS
 62
   250
 10
4.44752
 20
3.01092
 30
0.0
 11
4.44972
 21
3.00916
 31
0.0
  0
LINE
  8
0
  6
CONTINUOUS
 62
   250
 10
4.44972
 20
3.00916
 30
0.0
 11
4.44972
 21
3.00696
 31
0.0
  0
LINE
  8
0
  6
CONTINUOUS
 62
   250
 10
4.44972
 20
3.00696
 30
0.0
 11
4.44752
 21
3.0052
 31
0.0
  0
LINE
  8
0
  6
CONTINUOUS
 62
   250
 10
4.44752
 20
3.0052
 30
0.0
 11
4.444
 21
3.0052
 31
0.0
  0
LINE
  8
0
  6
CONTINUOUS
 62
   250
 10
4.444
 20
3.0052
 30
0.0
 11
4.4418
 21
3.003
 31
0.0
  0
LINE
  8
0
  6
CONTINUOUS
 62
   250
 10
4.4418
 20
3.003
 30
0.0
 11
4.4418
 21
2.99948
 31
0.0
  0
LINE
  8
0
  6
CONTINUOUS
 62
   250
 10
4.4418
 20
2.99948
 30
0.0
 11
4.44972
 21
2.99948
 31
0.0
  0
LINE
  8
0
  6
CONTINUOUS
 62
   250
 10
4.45368
 20
3.00124
 30
0.0
 11
4.45544
 21
2.99948
 31
0.0
  0
LINE
  8
0
  6
CONTINUOUS
 62
   250
 10
4.45544
 20
2.99948
 30
0.0
 11
4.4594
 21
2.99948
 31
0.0
  0
LINE
  8
0
  6
CONTINUOUS
 62
   250
 10
4.4594
 20
2.99948
 30
0.0
 11
4.46116
 21
3.00124
 31
0.0
  0
LINE
  8
0
  6
CONTINUOUS
 62
   250
 10
4.46116
 20
3.00124
 30
0.0
 11
4.46116
 21
3.0052
 31
0.0
  0
LINE
  8
0
  6
CONTINUOUS
 62
   250
 10
4.46116
 20
3.0052
 30
0.0
 11
4.4594
 21
3.00696
 31
0.0
  0
LINE
  8
0
  6
CONTINUOUS
 62
   250
 10
4.4594
 20
3.00696
 30
0.0
 11
4.45368
 21
3.00696
 31
0.0
  0
LINE
  8
0
  6
CONTINUOUS
 62
   250
 10
4.45368
 20
3.00696
 30
0.0
 11
4.45368
 21
3.01092
 31
0.0
  0
LINE
  8
0
  6
CONTINUOUS
 62
   250
 10
4.45368
 20
3.01092
 30
0.0
 11
4.46116
 21
3.01092
 31
0.0
  0
LINE
  8
0
  6
CONTINUOUS
 62
   250
 10
4.43432
 20
3.0052
 30
0.0
 11
4.43036
 21
3.0052
 31
0.0
  0
LINE
  8
0
  6
CONTINUOUS
 62
   250
 10
4.43036
 20
2.99948
 30
0.0
 11
4.43784
 21
2.99948
 31
0.0
  0
LINE
  8
0
  6
CONTINUOUS
 62
   250
 10
4.52408
 20
2.99948
 30
0.0
 11
4.52408
 21
3.01092
 31
0.0
  0
LINE
  8
0
  6
CONTINUOUS
 62
   250
 10
4.52804
 20
3.01092
 30
0.0
 11
4.52012
 21
3.01092
 31
0.0
  0
LINE
  8
0
  6
CONTINUOUS
 62
   250
 10
4.53156
 20
3.01092
 30
0.0
 11
4.53772
 21
3.01092
 31
0.0
  0
LINE
  8
0
  6
CONTINUOUS
 62
   250
 10
4.53772
 20
3.01092
 30
0.0
 11
4.53948
 21
3.00916
 31
0.0
  0
LINE
  8
0
  6
CONTINUOUS
 62
   250
 10
4.53948
 20
3.00916
 30
0.0
 11
4.53948
 21
3.00696
 31
0.0
  0
LINE
  8
0
  6
CONTINUOUS
 62
   250
 10
4.53948
 20
3.00696
 30
0.0
 11
4.53772
 21
3.0052
 31
0.0
  0
LINE
  8
0
  6
CONTINUOUS
 62
   250
 10
4.53772
 20
3.0052
 30
0.0
 11
4.53156
 21
3.0052
 31
0.0
  0
LINE
  8
0
  6
CONTINUOUS
 62
   250
 10
4.53156
 20
3.0052
 30
0.0
 11
4.53376
 21
3.0052
 31
0.0
  0
LINE
  8
0
  6
CONTINUOUS
 62
   250
 10
4.53376
 20
3.0052
 30
0.0
 11
4.53948
 21
2.99948
 31
0.0
  0
LINE
  8
0
  6
CONTINUOUS
 62
   250
 10
4.54344
 20
2.99948
 30
0.0
 11
4.5474
 21
2.99948
 31
0.0
  0
LINE
  8
0
  6
CONTINUOUS
 62
   250
 10
4.5474
 20
2.99948
 30
0.0
 11
4.54564
 21
2.99948
 31
0.0
  0
LINE
  8
0
  6
CONTINUOUS
 62
   250
 10
4.54564
 20
2.99948
 30
0.0
 11
4.54564
 21
3.01092
 31
0.0
  0
LINE
  8
0
  6
CONTINUOUS
 62
   250
 10
4.54564
 20
3.01092
 30
0.0
 11
4.54344
 21
3.01092
 31
0.0
  0
LINE
  8
0
  6
CONTINUOUS
 62
   250
 10
4.54344
 20
3.01092
 30
0.0
 11
4.5474
 21
3.01092
 31
0.0
  0
LINE
  8
0
  6
CONTINUOUS
 62
   250
 10
4.55136
 20
3.0052
 30
0.0
 11
4.55884
 21
3.0052
 31
0.0
  0
LINE
  8
0
  6
CONTINUOUS
 62
   250
 10
4.5628
 20
3.00124
 30
0.0
 11
4.56456
 21
2.99948
 31
0.0
  0
LINE
  8
0
  6
CONTINUOUS
 62
   250
 10
4.56456
 20
2.99948
 30
0.0
 11
4.56852
 21
2.99948
 31
0.0
  0
LINE
  8
0
  6
CONTINUOUS
 62
   250
 10
4.56852
 20
2.99948
 30
0.0
 11
4.57028
 21
3.00124
 31
0.0
  0
LINE
  8
0
  6
CONTINUOUS
 62
   250
 10
4.57028
 20
3.00124
 30
0.0
 11
4.5628
 21
3.00916
 31
0.0
  0
LINE
  8
0
  6
CONTINUOUS
 62
   250
 10
4.5628
 20
3.00916
 30
0.0
 11
4.56456
 21
3.01092
 31
0.0
  0
LINE
  8
0
  6
CONTINUOUS
 62
   250
 10
4.56456
 20
3.01092
 30
0.0
 11
4.56852
 21
3.01092
 31
0.0
  0
LINE
  8
0
  6
CONTINUOUS
 62
   250
 10
4.56852
 20
3.01092
 30
0.0
 11
4.57028
 21
3.00916
 31
0.0
  0
LINE
  8
0
  6
CONTINUOUS
 62
   250
 10
4.57424
 20
3.01092
 30
0.0
 11
4.58216
 21
3.01092
 31
0.0
  0
LINE
  8
0
  6
CONTINUOUS
 62
   250
 10
4.5782
 20
3.01092
 30
0.0
 11
4.5782
 21
2.99948
 31
0.0
  0
LINE
  8
0
  6
CONTINUOUS
 62
   250
 10
4.58568
 20
2.99948
 30
0.0
 11
4.58568
 21
3.003
 31
0.0
  0
LINE
  8
0
  6
CONTINUOUS
 62
   250
 10
4.58568
 20
3.003
 30
0.0
 11
4.58964
 21
3.01092
 31
0.0
  0
LINE
  8
0
  6
CONTINUOUS
 62
   250
 10
4.58964
 20
3.01092
 30
0.0
 11
4.5936
 21
3.003
 31
0.0
  0
LINE
  8
0
  6
CONTINUOUS
 62
   250
 10
4.5936
 20
3.003
 30
0.0
 11
4.5936
 21
2.99948
 31
0.0
  0
LINE
  8
0
  6
CONTINUOUS
 62
   250
 10
4.5936
 20
3.003
 30
0.0
 11
4.58568
 21
3.003
 31
0.0
  0
LINE
  8
0
  6
CONTINUOUS
 62
   250
 10
4.60152
 20
2.99948
 30
0.0
 11
4.60152
 21
3.01092
 31
0.0
  0
LINE
  8
0
  6
CONTINUOUS
 62
   250
 10
4.59756
 20
3.01092
 30
0.0
 11
4.60548
 21
3.01092
 31
0.0
  0
LINE
  8
0
  6
CONTINUOUS
 62
   250
 10
4.609
 20
3.01092
 30
0.0
 11
4.61692
 21
3.01092
 31
0.0
  0
LINE
  8
0
  6
CONTINUOUS
 62
   250
 10
4.609
 20
3.01092
 30
0.0
 11
4.609
 21
2.99948
 31
0.0
  0
LINE
  8
0
  6
CONTINUOUS
 62
   250
 10
4.609
 20
2.99948
 30
0.0
 11
4.61692
 21
2.99948
 31
0.0
  0
LINE
  8
0
  6
CONTINUOUS
 62
   250
 10
4.61296
 20
3.0052
 30
0.0
 11
4.609
 21
3.0052
 31
0.0
  0
LINE
  8
0
  6
CONTINUOUS
 62
   250
 10
4.63232
 20
2.99948
 30
0.0
 11
4.63628
 21
2.99948
 31
0.0
  0
LINE
  8
0
  6
CONTINUOUS
 62
   250
 10
4.63628
 20
2.99948
 30
0.0
 11
4.63408
 21
2.99948
 31
0.0
  0
LINE
  8
0
  6
CONTINUOUS
 62
   250
 10
4.63408
 20
2.99948
 30
0.0
 11
4.63408
 21
3.01092
 31
0.0
  0
LINE
  8
0
  6
CONTINUOUS
 62
   250
 10
4.63408
 20
3.01092
 30
0.0
 11
4.63232
 21
3.01092
 31
0.0
  0
LINE
  8
0
  6
CONTINUOUS
 62
   250
 10
4.63232
 20
3.01092
 30
0.0
 11
4.63628
 21
3.01092
 31
0.0
  0
LINE
  8
0
  6
CONTINUOUS
 62
   250
 10
4.6398
 20
3.01092
 30
0.0
 11
4.64772
 21
2.99948
 31
0.0
  0
LINE
  8
0
  6
CONTINUOUS
 62
   250
 10
4.64772
 20
2.99948
 30
0.0
 11
4.64772
 21
3.01092
 31
0.0
  0
LINE
  8
0
  6
CONTINUOUS
 62
   250
 10
4.65168
 20
3.01092
 30
0.0
 11
4.6596
 21
3.01092
 31
0.0
  0
LINE
  8
0
  6
CONTINUOUS
 62
   250
 10
4.66312
 20
3.01092
 30
0.0
 11
4.67104
 21
3.01092
 31
0.0
  0
LINE
  8
0
  6
CONTINUOUS
 62
   250
 10
4.67456
 20
3.01092
 30
0.0
 11
4.68072
 21
3.01092
 31
0.0
  0
LINE
  8
0
  6
CONTINUOUS
 62
   250
 10
4.68072
 20
3.01092
 30
0.0
 11
4.68248
 21
3.00916
 31
0.0
  0
LINE
  8
0
  6
CONTINUOUS
 62
   250
 10
4.68248
 20
3.00916
 30
0.0
 11
4.68248
 21
3.00696
 31
0.0
  0
LINE
  8
0
  6
CONTINUOUS
 62
   250
 10
4.68248
 20
3.00696
 30
0.0
 11
4.68072
 21
3.0052
 31
0.0
  0
LINE
  8
0
  6
CONTINUOUS
 62
   250
 10
4.68072
 20
3.0052
 30
0.0
 11
4.67456
 21
3.0052
 31
0.0
  0
LINE
  8
0
  6
CONTINUOUS
 62
   250
 10
4.67456
 20
3.0052
 30
0.0
 11
4.67676
 21
3.0052
 31
0.0
  0
LINE
  8
0
  6
CONTINUOUS
 62
   250
 10
4.67676
 20
3.0052
 30
0.0
 11
4.68248
 21
2.99948
 31
0.0
  0
LINE
  8
0
  6
CONTINUOUS
 62
   250
 10
4.68644
 20
2.99948
 30
0.0
 11
4.68644
 21
3.01092
 31
0.0
  0
LINE
  8
0
  6
CONTINUOUS
 62
   250
 10
4.68644
 20
3.01092
 30
0.0
 11
4.69392
 21
3.01092
 31
0.0
  0
LINE
  8
0
  6
CONTINUOUS
 62
   250
 10
4.70184
 20
3.01092
 30
0.0
 11
4.7058
 21
3.003
 31
0.0
  0
LINE
  8
0
  6
CONTINUOUS
 62
   250
 10
4.7058
 20
3.003
 30
0.0
 11
4.7058
 21
2.99948
 31
0.0
  0
LINE
  8
0
  6
CONTINUOUS
 62
   250
 10
4.7058
 20
3.003
 30
0.0
 11
4.69788
 21
3.003
 31
0.0
  0
LINE
  8
0
  6
CONTINUOUS
 62
   250
 10
4.69788
 20
3.003
 30
0.0
 11
4.70184
 21
3.01092
 31
0.0
  0
LINE
  8
0
  6
CONTINUOUS
 62
   250
 10
4.70976
 20
3.00916
 30
0.0
 11
4.71152
 21
3.01092
 31
0.0
  0
LINE
  8
0
  6
CONTINUOUS
 62
   250
 10
4.71152
 20
3.01092
 30
0.0
 11
4.71548
 21
3.01092
 31
0.0
  0
LINE
  8
0
  6
CONTINUOUS
 62
   250
 10
4.71548
 20
3.01092
 30
0.0
 11
4.71724
 21
3.00916
 31
0.0
  0
LINE
  8
0
  6
CONTINUOUS
 62
   250
 10
4.7212
 20
3.01092
 30
0.0
 11
4.72868
 21
3.01092
 31
0.0
  0
LINE
  8
0
  6
CONTINUOUS
 62
   250
 10
4.7212
 20
3.01092
 30
0.0
 11
4.7212
 21
2.99948
 31
0.0
  0
LINE
  8
0
  6
CONTINUOUS
 62
   250
 10
4.7212
 20
2.99948
 30
0.0
 11
4.72868
 21
2.99948
 31
0.0
  0
LINE
  8
0
  6
CONTINUOUS
 62
   250
 10
4.72516
 20
3.0052
 30
0.0
 11
4.7212
 21
3.0052
 31
0.0
  0
LINE
  8
0
  6
CONTINUOUS
 62
   250
 10
4.71724
 20
3.00124
 30
0.0
 11
4.71548
 21
2.99948
 31
0.0
  0
LINE
  8
0
  6
CONTINUOUS
 62
   250
 10
4.71548
 20
2.99948
 30
0.0
 11
4.71152
 21
2.99948
 31
0.0
  0
LINE
  8
0
  6
CONTINUOUS
 62
   250
 10
4.71152
 20
2.99948
 30
0.0
 11
4.70976
 21
3.00124
 31
0.0
  0
LINE
  8
0
  6
CONTINUOUS
 62
   250
 10
4.70976
 20
3.00124
 30
0.0
 11
4.70976
 21
3.00916
 31
0.0
  0
LINE
  8
0
  6
CONTINUOUS
 62
   250
 10
4.69788
 20
3.003
 30
0.0
 11
4.69788
 21
2.99948
 31
0.0
  0
LINE
  8
0
  6
CONTINUOUS
 62
   250
 10
4.6904
 20
3.0052
 30
0.0
 11
4.68644
 21
3.0052
 31
0.0
  0
LINE
  8
0
  6
CONTINUOUS
 62
   250
 10
4.67456
 20
2.99948
 30
0.0
 11
4.67456
 21
3.01092
 31
0.0
  0
LINE
  8
0
  6
CONTINUOUS
 62
   250
 10
4.66312
 20
3.01092
 30
0.0
 11
4.66312
 21
2.99948
 31
0.0
  0
LINE
  8
0
  6
CONTINUOUS
 62
   250
 10
4.66312
 20
2.99948
 30
0.0
 11
4.67104
 21
2.99948
 31
0.0
  0
LINE
  8
0
  6
CONTINUOUS
 62
   250
 10
4.66708
 20
3.0052
 30
0.0
 11
4.66312
 21
3.0052
 31
0.0
  0
LINE
  8
0
  6
CONTINUOUS
 62
   250
 10
4.65564
 20
2.99948
 30
0.0
 11
4.65564
 21
3.01092
 31
0.0
  0
LINE
  8
0
  6
CONTINUOUS
 62
   250
 10
4.6398
 20
3.01092
 30
0.0
 11
4.6398
 21
2.99948
 31
0.0
  0
LINE
  8
0
  6
CONTINUOUS
 62
   250
 10
4.53156
 20
2.99948
 30
0.0
 11
4.53156
 21
3.01092
 31
0.0
  0
ENDSEC
  0
EOF
