  0
SECTION
  2
HEADER
  9
$ACADVER
  1
AC1009
  9
$INSBASE
 10
0.0
 20
0.0
 30
0.0
  9
$EXTMIN
 10
-0.314147
 20
-0.000001
 30
0.0
  9
$EXTMAX
 10
0.322213
 20
0.999355
 30
0.0
  9
$LIMMIN
 10
14.612395
 20
14.072258
  9
$LIMMAX
 10
15.248755
 20
15.071614
  9
$ORTHOMODE
 70
     1
  9
$REGENMODE
 70
     1
  9
$FILLMODE
 70
     1
  9
$QTEXTMODE
 70
     0
  9
$MIRRTEXT
 70
     1
  9
$DRAGMODE
 70
     1
  9
$LTSCALE
 40
1.0
  9
$OSMODE
 70
     0
  9
$ATTMODE
 70
     2
  9
$TEXTSIZE
 40
1.0
  9
$TRACEWID
 40
0.05
  9
$TEXTSTYLE
  7
STANDARD
  9
$CLAYER
  8
0
  9
$CELTYPE
  6
BYLAYER
  9
$CECOLOR
 62
   256
  9
$DIMSCALE
 40
1.0
  9
$DIMASZ
 40
1.0
  9
$DIMEXO
 40
0.5
  9
$DIMDLI
 40
0.38
  9
$DIMRND
 40
0.0
  9
$DIMDLE
 40
0.0
  9
$DIMEXE
 40
0.5
  9
$DIMTP
 40
0.0
  9
$DIMTM
 40
0.0
  9
$DIMTXT
 40
0.18
  9
$DIMCEN
 40
0.09
  9
$DIMTSZ
 40
0.0
  9
$DIMTOL
 70
     0
  9
$DIMLIM
 70
     0
  9
$DIMTIH
 70
     1
  9
$DIMTOH
 70
     1
  9
$DIMSE1
 70
     0
  9
$DIMSE2
 70
     0
  9
$DIMTAD
 70
     0
  9
$DIMZIN
 70
     0
  9
$DIMBLK
  1

  9
$DIMASO
 70
     1
  9
$DIMSHO
 70
     1
  9
$DIMPOST
  1
"
  9
$DIMAPOST
  1

  9
$DIMALT
 70
     0
  9
$DIMALTD
 70
     2
  9
$DIMALTF
 40
25.4
  9
$DIMLFAC
 40
1.0
  9
$DIMTOFL
 70
     0
  9
$DIMTVP
 40
0.0
  9
$DIMTIX
 70
     0
  9
$DIMSOXD
 70
     0
  9
$DIMSAH
 70
     0
  9
$DIMBLK1
  1

  9
$DIMBLK2
  1

  9
$DIMSTYLE
  2
*UNNAMED
  9
$DIMCLRD
 70
     0
  9
$DIMCLRE
 70
     0
  9
$DIMCLRT
 70
     0
  9
$DIMTFAC
 40
1.0
  9
$DIMGAP
 40
0.09
  9
$LUNITS
 70
     2
  9
$LUPREC
 70
     3
  9
$SKETCHINC
 40
0.1
  9
$FILLETRAD
 40
0.0
  9
$AUNITS
 70
     0
  9
$AUPREC
 70
     3
  9
$MENU
  1
acad
  9
$ELEVATION
 40
0.0
  9
$PELEVATION
 40
0.0
  9
$THICKNESS
 40
0.0
  9
$LIMCHECK
 70
     0
  9
$BLIPMODE
 70
     0
  9
$CHAMFERA
 40
0.5
  9
$CHAMFERB
 40
0.5
  9
$SKPOLY
 70
     0
  9
$TDCREATE
 40
2450620.395507986
  9
$TDUPDATE
 40
2450620.395507986
  9
$TDINDWG
 40
0.0000000000
  9
$TDUSRTIMER
 40
0.0000000000
  9
$USRTIMER
 70
     1
  9
$ANGBASE
 50
0.0
  9
$ANGDIR
 70
     0
  9
$PDMODE
 70
     2
  9
$PDSIZE
 40
0.0
  9
$PLINEWID
 40
0.0
  9
$COORDS
 70
     1
  9
$SPLFRAME
 70
     0
  9
$SPLINETYPE
 70
     6
  9
$SPLINESEGS
 70
     8
  9
$ATTDIA
 70
     0
  9
$ATTREQ
 70
     1
  9
$HANDLING
 70
     0
  9
$HANDSEED
  5
0
  9
$SURFTAB1
 70
     6
  9
$SURFTAB2
 70
     6
  9
$SURFTYPE
 70
     6
  9
$SURFU
 70
     6
  9
$SURFV
 70
     6
  9
$UCSNAME
  2

  9
$UCSORG
 10
0.0
 20
0.0
 30
0.0
  9
$UCSXDIR
 10
1.0
 20
0.0
 30
0.0
  9
$UCSYDIR
 10
0.0
 20
1.0
 30
0.0
  9
$PUCSNAME
  2

  9
$PUCSORG
 10
0.0
 20
0.0
 30
0.0
  9
$PUCSXDIR
 10
1.0
 20
0.0
 30
0.0
  9
$PUCSYDIR
 10
0.0
 20
1.0
 30
0.0
  9
$USERI1
 70
     0
  9
$USERI2
 70
     0
  9
$USERI3
 70
     0
  9
$USERI4
 70
     0
  9
$USERI5
 70
     0
  9
$USERR1
 40
0.0
  9
$USERR2
 40
0.0
  9
$USERR3
 40
0.0
  9
$USERR4
 40
0.0
  9
$USERR5
 40
0.0
  9
$WORLDVIEW
 70
     1
  9
$SHADEDGE
 70
     3
  9
$SHADEDIF
 70
    70
  9
$TILEMODE
 70
     1
  9
$MAXACTVP
 70
    16
  9
$PINSBASE
 10
0.0
 20
0.0
 30
0.0
  9
$PLIMCHECK
 70
     0
  9
$PEXTMIN
 10
1.000000E+20
 20
1.000000E+20
 30
1.000000E+20
  9
$PEXTMAX
 10
-1.000000E+20
 20
-1.000000E+20
 30
-1.000000E+20
  9
$PLIMMIN
 10
0.0
 20
0.0
  9
$PLIMMAX
 10
12.0
 20
9.0
  9
$UNITMODE
 70
     0
  9
$VISRETAIN
 70
     0
  9
$PLINEGEN
 70
     0
  9
$PSLTSCALE
 70
     1
  9
$TREEDEPTH
 70
  3020
  9
$DWGCODEPAGE
  3
ascii
  0
ENDSEC
  0
SECTION
  2
TABLES
  0
TABLE
  2
VPORT
 70
     2
  0
VPORT
  2
*ACTIVE
 70
     0
 10
0.0
 20
0.0
 11
1.0
 21
1.0
 12
10.141102
 22
7.535807
 13
0.0
 23
0.0
 14
1.0
 24
1.0
 15
1.0
 25
1.0
 16
0.0
 26
0.0
 36
1.0
 17
0.0
 27
0.0
 37
0.0
 40
15.071615
 41
1.387409
 42
50.0
 43
0.0
 44
0.0
 50
0.0
 51
0.0
 71
     0
 72
   100
 73
     1
 74
     1
 75
     0
 76
     0
 77
     0
 78
     0
  0
ENDTAB
  0
TABLE
  2
LTYPE
 70
     1
  0
LTYPE
  2
CONTINUOUS
 70
    64
  3
SOLID LINE
 72
    65
 73
     0
 40
0.0
  0
ENDTAB
  0
TABLE
  2
LAYER
 70
     1
  0
LAYER
  2
0
 70
    64
 62
     2
  6
CONTINUOUS
  0
ENDTAB
  0
TABLE
  2
STYLE
 70
     3
  0
STYLE
  2
STANDARD
 70
     0
 40
0.0
 41
1.0
 50
0.0
 71
     0
 42
0.2
  3
txt
  4

  0
STYLE
  2
MAIN
 70
    64
 40
0.0
 41
1.0
 50
0.0
 71
     0
 42
1.0
  3
ROMANS.SHX
  4

  0
STYLE
  2
SIMPLEX
 70
    64
 40
0.0
 41
1.0
 50
0.0
 71
     0
 42
1.0
  3
ROMANS.SHX
  4

  0
ENDTAB
  0
TABLE
  2
VIEW
 70
     0
  0
ENDTAB
  0
TABLE
  2
UCS
 70
     0
  0
ENDTAB
  0
TABLE
  2
APPID
 70
     1
  0
APPID
  2
ACAD
 70
    64
  0
ENDTAB
  0
TABLE
  2
DIMSTYLE
 70
     0
  0
ENDTAB
  0
ENDSEC
  0
SECTION
  2
BLOCKS
  0
BLOCK
  8
0
  2
STRIP2
 70
    64
 10
0.0
 20
0.0
 30
0.0
  0
CIRCLE
  8
0
  6
CONTINUOUS
 62
     7
 10
0.05
 20
-0.05
 30
0.0
 40
0.01
  0
CIRCLE
  8
0
  6
CONTINUOUS
 62
     7
 10
0.15
 20
-0.05
 30
0.0
 40
0.01
  0
LINE
  8
0
  6
CONTINUOUS
 62
     7
 10
0.2
 20
0.0
 30
0.0
 11
0.0
 21
0.0
 31
0.0
  0
LINE
  8
0
  6
CONTINUOUS
 62
     7
 10
0.2
 20
-0.1
 30
0.0
 11
0.2
 21
0.0
 31
0.0
  0
LINE
  8
0
  6
CONTINUOUS
 62
     7
 10
0.0
 20
0.0
 30
0.0
 11
0.0
 21
-0.1
 31
0.0
  0
ENDBLK
  8
0
  0
BLOCK
  8
0
  2
POTT
 70
    64
 10
0.0
 20
0.0
 30
0.0
  0
LINE
  8
0
  6
CONTINUOUS
 62
     7
 10
0.19846
 20
0.000575
 30
0.0
 11
0.19846
 21
0.027575
 31
0.0
  0
LINE
  8
0
  6
CONTINUOUS
 62
     7
 10
0.17146
 20
0.000575
 30
0.0
 11
0.19846
 21
0.000575
 31
0.0
  0
LINE
  8
0
  6
CONTINUOUS
 62
     7
 10
0.17146
 20
0.027575
 30
0.0
 11
0.17146
 21
0.000575
 31
0.0
  0
LINE
  8
0
  6
CONTINUOUS
 62
     7
 10
-0.15254
 20
0.000575
 30
0.0
 11
-0.15254
 21
0.027575
 31
0.0
  0
LINE
  8
0
  6
CONTINUOUS
 62
     7
 10
-0.17954
 20
0.000575
 30
0.0
 11
-0.15254
 21
0.000575
 31
0.0
  0
LINE
  8
0
  6
CONTINUOUS
 62
     7
 10
-0.17954
 20
0.027575
 30
0.0
 11
-0.17954
 21
0.000575
 31
0.0
  0
LINE
  8
0
  6
CONTINUOUS
 62
     7
 10
-0.167053
 20
0.140118
 30
0.0
 11
-0.079651
 21
0.140118
 31
0.0
  0
LINE
  8
0
  6
CONTINUOUS
 62
     7
 10
-0.167053
 20
0.150361
 30
0.0
 11
-0.079651
 21
0.150361
 31
0.0
  0
CIRCLE
  8
0
  6
CONTINUOUS
 62
     7
 10
-0.123352
 20
0.14524
 30
0.0
 40
0.044
  0
LINE
  8
0
  6
CONTINUOUS
 62
     7
 10
-0.17954
 20
0.027575
 30
0.0
 11
-0.17954
 21
0.202575
 31
0.0
  0
LINE
  8
0
  6
CONTINUOUS
 62
     7
 10
-0.17954
 20
0.202575
 30
0.0
 11
0.19846
 21
0.202575
 31
0.0
  0
LINE
  8
0
  6
CONTINUOUS
 62
     7
 10
0.19846
 20
0.202575
 30
0.0
 11
0.19846
 21
0.027575
 31
0.0
  0
LINE
  8
0
  6
CONTINUOUS
 62
     7
 10
0.17146
 20
0.027575
 30
0.0
 11
-0.15254
 21
0.027575
 31
0.0
  0
ENDBLK
  8
0
  0
BLOCK
  8
0
  2
IW1011
 70
    64
 10
0.0
 20
0.0
 30
0.0
  0
LINE
  8
0
  6
CONTINUOUS
 62
     4
 10
0.207937
 20
0.914208
 30
0.0
 11
0.203456
 21
0.914208
 31
0.0
  0
LINE
  8
0
  6
CONTINUOUS
 62
     4
 10
-0.267092
 20
0.085147
 30
0.0
 11
-0.267092
 21
0.56645
 31
0.0
  0
LINE
  8
0
  6
CONTINUOUS
 62
     4
 10
0.270677
 20
0.914208
 30
0.0
 11
0.270677
 21
0.835335
 31
0.0
  0
LINE
  8
0
  6
CONTINUOUS
 62
     4
 10
-0.267092
 20
0.085147
 30
0.0
 11
-0.199871
 21
0.085147
 31
0.0
  0
LINE
  8
0
  6
CONTINUOUS
 62
     4
 10
-0.199871
 20
0.085147
 30
0.0
 11
-0.199871
 21
0.017925
 31
0.0
  0
LINE
  8
0
  6
CONTINUOUS
 62
     4
 10
-0.199871
 20
0.981429
 30
0.0
 11
-0.199871
 21
0.914208
 31
0.0
  0
LINE
  8
0
  6
CONTINUOUS
 62
     4
 10
-0.199871
 20
0.914208
 30
0.0
 11
-0.267092
 21
0.914208
 31
0.0
  0
LINE
  8
0
  6
CONTINUOUS
 62
     4
 10
0.270677
 20
0.914208
 30
0.0
 11
0.203456
 21
0.914208
 31
0.0
  0
LINE
  8
0
  6
CONTINUOUS
 62
     4
 10
0.203456
 20
0.981429
 30
0.0
 11
0.203456
 21
0.918689
 31
0.0
  0
LINE
  8
0
  6
CONTINUOUS
 62
     4
 10
0.203456
 20
0.981429
 30
0.0
 11
0.203456
 21
0.914208
 31
0.0
  0
LINE
  8
0
  6
CONTINUOUS
 62
     4
 10
0.203456
 20
0.085147
 30
0.0
 11
0.270677
 21
0.085147
 31
0.0
  0
LINE
  8
0
  6
CONTINUOUS
 62
     4
 10
0.203456
 20
0.085147
 30
0.0
 11
0.203456
 21
0.017925
 31
0.0
  0
LINE
  8
0
  6
CONTINUOUS
 62
     4
 10
-0.267092
 20
0.499677
 30
0.0
 11
-0.267092
 21
0.365235
 31
0.0
  0
TEXT
  8
0
  6
CONTINUOUS
 62
     4
 10
0.252751
 20
0.779765
 30
0.0
 40
0.008963
  1
Female DIN Connector
 50
270.0
 41
0.9
  7
SIMPLEX
  0
TEXT
  8
0
  6
CONTINUOUS
 62
     4
 10
-0.256711
 20
0.771765
 30
0.0
 40
0.008963
  1
Male DIN Connector
 50
270.0
 41
0.9
  7
SIMPLEX
  0
CIRCLE
  8
0
  6
CONTINUOUS
 62
     4
 10
0.250511
 20
0.582135
 30
0.0
 40
0.008515
  0
CIRCLE
  8
0
  6
CONTINUOUS
 62
     4
 10
0.250511
 20
0.81965
 30
0.0
 40
0.008515
  0
LINE
  8
0
  6
CONTINUOUS
 62
     4
 10
0.28188
 20
0.835335
 30
0.0
 11
0.28188
 21
0.56645
 31
0.0
  0
LINE
  8
0
  6
CONTINUOUS
 62
     4
 10
0.28188
 20
0.56645
 30
0.0
 11
0.214659
 21
0.56645
 31
0.0
  0
LINE
  8
0
  6
CONTINUOUS
 62
     4
 10
0.28188
 20
0.835335
 30
0.0
 11
0.214659
 21
0.835335
 31
0.0
  0
LINE
  8
0
  6
CONTINUOUS
 62
     4
 10
0.214659
 20
0.835335
 30
0.0
 11
0.214659
 21
0.786039
 31
0.0
  0
LINE
  8
0
  6
CONTINUOUS
 62
     4
 10
0.214659
 20
0.786039
 30
0.0
 11
0.241548
 21
0.786039
 31
0.0
  0
LINE
  8
0
  6
CONTINUOUS
 62
     4
 10
0.214659
 20
0.56645
 30
0.0
 11
0.214659
 21
0.615746
 31
0.0
  0
LINE
  8
0
  6
CONTINUOUS
 62
     4
 10
0.214659
 20
0.615746
 30
0.0
 11
0.241548
 21
0.615746
 31
0.0
  0
LINE
  8
0
  6
CONTINUOUS
 62
     4
 10
0.241548
 20
0.615746
 30
0.0
 11
0.241548
 21
0.786039
 31
0.0
  0
LINE
  8
0
  6
CONTINUOUS
 62
     4
 10
0.28188
 20
0.615746
 30
0.0
 11
0.322213
 21
0.615746
 31
0.0
  0
LINE
  8
0
  6
CONTINUOUS
 62
     4
 10
0.322213
 20
0.615746
 30
0.0
 11
0.322213
 21
0.786039
 31
0.0
  0
LINE
  8
0
  6
CONTINUOUS
 62
     4
 10
0.322213
 20
0.786039
 30
0.0
 11
0.28188
 21
0.786039
 31
0.0
  0
LINE
  8
0
  6
CONTINUOUS
 62
     4
 10
-0.233482
 20
0.835335
 30
0.0
 11
-0.278296
 21
0.835335
 31
0.0
  0
LINE
  8
0
  6
CONTINUOUS
 62
     4
 10
-0.278296
 20
0.835335
 30
0.0
 11
-0.278296
 21
0.56645
 31
0.0
  0
LINE
  8
0
  6
CONTINUOUS
 62
     4
 10
-0.278296
 20
0.56645
 30
0.0
 11
-0.234154
 21
0.56645
 31
0.0
  0
LINE
  8
0
  6
CONTINUOUS
 62
     4
 10
-0.233482
 20
0.56645
 30
0.0
 11
-0.233482
 21
0.600061
 31
0.0
  0
LINE
  8
0
  6
CONTINUOUS
 62
     4
 10
-0.233482
 20
0.600061
 30
0.0
 11
-0.240204
 21
0.600061
 31
0.0
  0
LINE
  8
0
  6
CONTINUOUS
 62
     4
 10
-0.233482
 20
0.835335
 30
0.0
 11
-0.233482
 21
0.801724
 31
0.0
  0
LINE
  8
0
  6
CONTINUOUS
 62
     4
 10
-0.233482
 20
0.801724
 30
0.0
 11
-0.240204
 21
0.801724
 31
0.0
  0
LINE
  8
0
  6
CONTINUOUS
 62
     4
 10
-0.240204
 20
0.801724
 30
0.0
 11
-0.240204
 21
0.600061
 31
0.0
  0
LINE
  8
0
  6
CONTINUOUS
 62
     4
 10
-0.278296
 20
0.81965
 30
0.0
 11
-0.314147
 21
0.81965
 31
0.0
  0
LINE
  8
0
  6
CONTINUOUS
 62
     4
 10
-0.314147
 20
0.81965
 30
0.0
 11
-0.314147
 21
0.582135
 31
0.0
  0
LINE
  8
0
  6
CONTINUOUS
 62
     4
 10
-0.314147
 20
0.582135
 30
0.0
 11
-0.278296
 21
0.582135
 31
0.0
  0
CIRCLE
  8
0
  6
CONTINUOUS
 62
     4
 10
-0.246926
 20
0.81965
 30
0.0
 40
0.008515
  0
CIRCLE
  8
0
  6
CONTINUOUS
 62
     4
 10
-0.246926
 20
0.582135
 30
0.0
 40
0.008515
  0
LINE
  8
0
  6
CONTINUOUS
 62
     4
 10
-0.267092
 20
0.241724
 30
0.0
 11
-0.267092
 21
0.207666
 31
0.0
  0
ARC
  8
0
  6
CONTINUOUS
 62
     4
 10
-0.273366
 20
0.017925
 30
0.0
 40
0.017926
 50
180.000626
 51
270.000183
  0
ARC
  8
0
  6
CONTINUOUS
 62
     4
 10
-0.273366
 20
0.981429
 30
0.0
 40
0.017926
 50
89.999908
 51
180.000381
  0
LINE
  8
0
  6
CONTINUOUS
 62
     4
 10
-0.291292
 20
0.981429
 30
0.0
 11
-0.291292
 21
0.81965
 31
0.0
  0
LINE
  8
0
  6
CONTINUOUS
 62
     4
 10
-0.276951
 20
0.918689
 30
0.0
 11
-0.276951
 21
0.835335
 31
0.0
  0
LINE
  8
0
  6
CONTINUOUS
 62
     4
 10
-0.291292
 20
0.582135
 30
0.0
 11
-0.291292
 21
0.017925
 31
0.0
  0
LINE
  8
0
  6
CONTINUOUS
 62
     4
 10
0.291291
 20
0.615746
 30
0.0
 11
0.291291
 21
0.017925
 31
0.0
  0
LINE
  8
0
  6
CONTINUOUS
 62
     4
 10
0.291291
 20
0.815617
 30
0.0
 11
0.287706
 21
0.815617
 31
0.0
  0
LINE
  8
0
  6
CONTINUOUS
 62
     4
 10
0.291291
 20
0.815617
 30
0.0
 11
0.28188
 21
0.815617
 31
0.0
  0
LINE
  8
0
  6
CONTINUOUS
 62
     4
 10
0.291291
 20
0.582583
 30
0.0
 11
0.28188
 21
0.582583
 31
0.0
  0
LINE
  8
0
  6
CONTINUOUS
 62
     4
 10
0.276951
 20
0.918689
 30
0.0
 11
0.276951
 21
0.835335
 31
0.0
  0
LINE
  8
0
  6
CONTINUOUS
 62
     4
 10
0.291291
 20
0.981429
 30
0.0
 11
0.291291
 21
0.786039
 31
0.0
  0
ARC
  8
0
  6
CONTINUOUS
 62
     4
 10
0.273366
 20
0.981429
 30
0.0
 40
0.017926
 50
359.999634
 51
90.000092
  0
ARC
  8
0
  6
CONTINUOUS
 62
     4
 10
0.273366
 20
0.017925
 30
0.0
 40
0.017926
 50
269.999817
 51
359.99939
  0
LINE
  8
0
  6
CONTINUOUS
 62
     4
 10
0.273366
 20
0.999355
 30
0.0
 11
-0.273366
 21
0.999355
 31
0.0
  0
LINE
  8
0
  6
CONTINUOUS
 62
     4
 10
0.210626
 20
0.981429
 30
0.0
 11
-0.210627
 21
0.981429
 31
0.0
  0
LINE
  8
0
  6
CONTINUOUS
 62
     4
 10
0.273366
 20
0.0
 30
0.0
 11
-0.273366
 21
0.0
 31
0.0
  0
LINE
  8
0
  6
CONTINUOUS
 62
     4
 10
-0.210627
 20
0.017925
 30
0.0
 11
0.210626
 21
0.017925
 31
0.0
  0
LINE
  8
0
  6
CONTINUOUS
 62
     4
 10
0.210626
 20
0.017925
 30
0.0
 11
0.210626
 21
0.040333
 31
0.0
  0
LINE
  8
0
  6
CONTINUOUS
 62
     4
 10
-0.276951
 20
0.080665
 30
0.0
 11
-0.250959
 21
0.080665
 31
0.0
  0
LINE
  8
0
  6
CONTINUOUS
 62
     4
 10
-0.210627
 20
0.981429
 30
0.0
 11
-0.210627
 21
0.959022
 31
0.0
  0
LINE
  8
0
  6
CONTINUOUS
 62
     4
 10
0.276951
 20
0.918689
 30
0.0
 11
0.250959
 21
0.918689
 31
0.0
  0
LINE
  8
0
  6
CONTINUOUS
 62
     4
 10
0.250959
 20
0.080665
 30
0.0
 11
0.276951
 21
0.080665
 31
0.0
  0
LINE
  8
0
  6
CONTINUOUS
 62
     4
 10
-0.210627
 20
0.040333
 30
0.0
 11
-0.210627
 21
0.017925
 31
0.0
  0
LINE
  8
0
  6
CONTINUOUS
 62
     4
 10
-0.250959
 20
0.918689
 30
0.0
 11
-0.276951
 21
0.918689
 31
0.0
  0
LINE
  8
0
  6
CONTINUOUS
 62
     4
 10
0.210626
 20
0.959022
 30
0.0
 11
0.210626
 21
0.981429
 31
0.0
  0
CIRCLE
  8
0
  6
CONTINUOUS
 62
     4
 10
0.250959
 20
0.959022
 30
0.0
 40
0.017567
  0
CIRCLE
  8
0
  6
CONTINUOUS
 62
     4
 10
0.250959
 20
0.040333
 30
0.0
 40
0.017567
  0
CIRCLE
  8
0
  6
CONTINUOUS
 62
     4
 10
-0.250959
 20
0.040333
 30
0.0
 40
0.017567
  0
CIRCLE
  8
0
  6
CONTINUOUS
 62
     4
 10
-0.250959
 20
0.959022
 30
0.0
 40
0.017567
  0
ARC
  8
0
  6
CONTINUOUS
 62
     4
 10
-0.250959
 20
0.959022
 30
0.0
 40
0.040333
 50
269.999786
 51
0.000254
  0
CIRCLE
  8
0
  6
CONTINUOUS
 62
     4
 10
-0.250959
 20
0.959022
 30
0.0
 40
0.028233
  0
ARC
  8
0
  6
CONTINUOUS
 62
     4
 10
0.250959
 20
0.959022
 30
0.0
 40
0.040333
 50
179.999741
 51
270.000214
  0
CIRCLE
  8
0
  6
CONTINUOUS
 62
     4
 10
0.250959
 20
0.959022
 30
0.0
 40
0.028233
  0
ARC
  8
0
  6
CONTINUOUS
 62
     4
 10
0.250959
 20
0.040333
 30
0.0
 40
0.040333
 50
90.000381
 51
179.999954
  0
CIRCLE
  8
0
  6
CONTINUOUS
 62
     4
 10
0.250959
 20
0.040333
 30
0.0
 40
0.028233
  0
ARC
  8
0
  6
CONTINUOUS
 62
     4
 10
-0.250959
 20
0.040333
 30
0.0
 40
0.040333
 50
0.000048
 51
89.999619
  0
CIRCLE
  8
0
  6
CONTINUOUS
 62
     4
 10
-0.250959
 20
0.040333
 30
0.0
 40
0.028233
  0
LINE
  8
0
  6
CONTINUOUS
 62
     4
 10
-0.276951
 20
0.56645
 30
0.0
 11
-0.276951
 21
0.080665
 31
0.0
  0
LINE
  8
0
  6
CONTINUOUS
 62
     4
 10
0.276951
 20
0.56645
 30
0.0
 11
0.276951
 21
0.080665
 31
0.0
  0
LINE
  8
0
  6
CONTINUOUS
 62
     4
 10
-0.267092
 20
0.835335
 30
0.0
 11
-0.267092
 21
0.914208
 31
0.0
  0
LINE
  8
0
  6
CONTINUOUS
 62
     4
 10
0.270677
 20
0.56645
 30
0.0
 11
0.270677
 21
0.085147
 31
0.0
  0
LINE
  8
0
  6
CONTINUOUS
 62
     4
 10
0.089022
 20
0.790539
 30
0.0
 11
-0.049902
 21
0.790539
 31
0.0
  0
LINE
  8
0
  6
CONTINUOUS
 62
     4
 10
0.089022
 20
0.854411
 30
0.0
 11
-0.049902
 21
0.854411
 31
0.0
  0
LINE
  8
0
  6
CONTINUOUS
 62
     4
 10
-0.049902
 20
0.790539
 30
0.0
 11
-0.049902
 21
0.854411
 31
0.0
  0
LINE
  8
0
  6
CONTINUOUS
 62
     4
 10
0.035024
 20
0.85991
 30
0.0
 11
0.176567
 21
0.85991
 31
0.0
  0
TEXT
  8
0
  6
CONTINUOUS
 62
     4
 10
-0.217797
 20
0.878356
 30
0.0
 40
0.012548
  1
L
  7
SIMPLEX
  0
LINE
  8
0
  6
CONTINUOUS
 62
     4
 10
-0.25813
 20
0.873875
 30
0.0
 11
-0.222278
 21
0.873875
 31
0.0
  0
INSERT
  8
0
  2
STRIP2
 10
-0.25813
 20
0.891801
 30
0.0
 41
0.179256
 42
0.179256
  0
LINE
  8
0
  6
CONTINUOUS
 62
     4
 10
-0.049902
 20
0.83555
 30
0.0
 11
0.089022
 21
0.83555
 31
0.0
  0
LINE
  8
0
  6
CONTINUOUS
 62
     4
 10
0.089022
 20
0.854411
 30
0.0
 11
0.089022
 21
0.790539
 31
0.0
  0
TEXT
  8
0
  6
CONTINUOUS
 62
     4
 10
-0.029513
 20
0.839177
 30
0.0
 40
0.007528
  1
SUPPLY VOLTAGE
 41
1.328571
  7
MAIN
  0
LINE
  8
0
  6
CONTINUOUS
 62
     4
 10
-0.045421
 20
0.795217
 30
0.0
 11
-0.009569
 21
0.795217
 31
0.0
  0
TEXT
  8
0
  6
CONTINUOUS
 62
     4
 10
0.013128
 20
0.816298
 30
0.0
 40
0.009411
  1
24VDC
 41
1.233333
  7
SIMPLEX
  0
TEXT
  8
0
  6
CONTINUOUS
 62
     4
 10
0.013128
 20
0.798372
 30
0.0
 40
0.009411
  1
24VAC
 41
1.233333
  7
SIMPLEX
  0
INSERT
  8
0
  2
STRIP2
 10
-0.045421
 20
0.813143
 30
0.0
 41
0.179256
 42
0.179256
  0
INSERT
  8
0
  2
STRIP2
 10
-0.045421
 20
0.831069
 30
0.0
 41
0.179256
 42
0.179256
  0
TEXT
  8
0
  6
CONTINUOUS
 62
     4
 10
-0.141613
 20
0.715699
 30
0.0
 40
0.009411
  1
SETPOINT3
 41
1.233333
  7
SIMPLEX
  0
TEXT
  8
0
  6
CONTINUOUS
 62
     4
 10
-0.141613
 20
0.769476
 30
0.0
 40
0.009411
  1
CONTROL 3
 41
1.233333
  7
SIMPLEX
  0
INSERT
  8
0
  2
STRIP2
 10
-0.186427
 20
0.820098
 30
0.0
 41
0.179256
 42
0.179256
  0
TEXT
  8
0
  6
CONTINUOUS
 62
     4
 10
0.118309
 20
0.944614
 30
0.0
 40
0.012548
  1
GND
 50
270.0
 41
0.9
  7
SIMPLEX
  0
TEXT
  8
0
  6
CONTINUOUS
 62
     4
 10
0.15416
 20
0.958003
 30
0.0
 40
0.012548
  1
+24V
 50
270.0
 41
0.9
  7
SIMPLEX
  0
TEXT
  8
0
  6
CONTINUOUS
 62
     4
 10
0.044814
 20
0.963145
 30
0.0
 40
0.012548
  1
4
  7
SIMPLEX
  0
CIRCLE
  8
0
  6
CONTINUOUS
 62
     4
 10
0.051088
 20
0.888702
 30
0.0
 40
0.008963
  0
LINE
  8
0
  6
CONTINUOUS
 62
     4
 10
0.051088
 20
0.879739
 30
0.0
 11
0.051088
 21
0.897665
 31
0.0
  0
LINE
  8
0
  6
CONTINUOUS
 62
     4
 10
0.158642
 20
0.879739
 30
0.0
 11
0.158642
 21
0.897665
 31
0.0
  0
LINE
  8
0
  6
CONTINUOUS
 62
     4
 10
0.095902
 20
0.888702
 30
0.0
 11
0.077976
 21
0.888702
 31
0.0
  0
LINE
  8
0
  6
CONTINUOUS
 62
     4
 10
0.116453
 20
0.895039
 30
0.0
 11
0.129128
 21
0.882364
 31
0.0
  0
LINE
  8
0
  6
CONTINUOUS
 62
     4
 10
0.176567
 20
0.85991
 30
0.0
 11
0.176567
 21
0.958501
 31
0.0
  0
LINE
  8
0
  6
CONTINUOUS
 62
     4
 10
0.035024
 20
0.958501
 30
0.0
 11
0.176567
 21
0.958501
 31
0.0
  0
LINE
  8
0
  6
CONTINUOUS
 62
     4
 10
0.035024
 20
0.958501
 30
0.0
 11
0.035024
 21
0.85991
 31
0.0
  0
CIRCLE
  8
0
  6
CONTINUOUS
 62
     4
 10
0.086939
 20
0.888702
 30
0.0
 40
0.008963
  0
CIRCLE
  8
0
  6
CONTINUOUS
 62
     4
 10
0.158642
 20
0.888702
 30
0.0
 40
0.008963
  0
CIRCLE
  8
0
  6
CONTINUOUS
 62
     4
 10
0.12279
 20
0.888702
 30
0.0
 40
0.008963
  0
LINE
  8
0
  6
CONTINUOUS
 62
     4
 10
0.095902
 20
0.138924
 30
0.0
 11
0.176567
 21
0.138924
 31
0.0
  0
TEXT
  8
0
  6
CONTINUOUS
 62
     4
 10
0.111801
 20
0.083425
 30
0.0
 40
0.007528
  1
GND
 50
270.0
 41
1.328571
  7
MAIN
  0
LINE
  8
0
  6
CONTINUOUS
 62
     4
 10
0.127272
 20
0.114982
 30
0.0
 11
0.109346
 21
0.114982
 31
0.0
  0
LINE
  8
0
  6
CONTINUOUS
 62
     4
 10
0.152304
 20
0.108644
 30
0.0
 11
0.164979
 21
0.121319
 31
0.0
  0
LINE
  8
0
  6
CONTINUOUS
 62
     4
 10
0.176567
 20
0.138924
 30
0.0
 11
0.176567
 21
0.040333
 31
0.0
  0
LINE
  8
0
  6
CONTINUOUS
 62
     4
 10
0.095902
 20
0.040333
 30
0.0
 11
0.176567
 21
0.040333
 31
0.0
  0
LINE
  8
0
  6
CONTINUOUS
 62
     4
 10
0.095902
 20
0.040333
 30
0.0
 11
0.095902
 21
0.138924
 31
0.0
  0
CIRCLE
  8
0
  6
CONTINUOUS
 62
     4
 10
0.118309
 20
0.114982
 30
0.0
 40
0.008963
  0
CIRCLE
  8
0
  6
CONTINUOUS
 62
     4
 10
0.158642
 20
0.114982
 30
0.0
 40
0.008963
  0
TEXT
  8
0
  6
CONTINUOUS
 62
     4
 10
0.112931
 20
0.021848
 30
0.0
 40
0.012548
  1
A
  7
SIMPLEX
  0
TEXT
  8
0
  6
CONTINUOUS
 62
     4
 10
0.152069
 20
0.021848
 30
0.0
 40
0.012548
  1
B
  7
SIMPLEX
  0
TEXT
  8
0
  6
CONTINUOUS
 62
     4
 10
0.153563
 20
0.963145
 30
0.0
 40
0.012548
  1
1
  7
SIMPLEX
  0
TEXT
  8
0
  6
CONTINUOUS
 62
     4
 10
0.116815
 20
0.963145
 30
0.0
 40
0.012548
  1
2
  7
SIMPLEX
  0
TEXT
  8
0
  6
CONTINUOUS
 62
     4
 10
0.080964
 20
0.963145
 30
0.0
 40
0.012548
  1
3
  7
SIMPLEX
  0
TEXT
  8
0
  6
CONTINUOUS
 62
     4
 10
-0.141613
 20
0.894955
 30
0.0
 40
0.009411
  1
OFF
 41
1.233333
  7
SIMPLEX
  0
TEXT
  8
0
  6
CONTINUOUS
 62
     4
 10
-0.141613
 20
0.87703
 30
0.0
 40
0.009411
  1
SENSOR 1
 41
1.233333
  7
SIMPLEX
  0
TEXT
  8
0
  6
CONTINUOUS
 62
     4
 10
-0.141613
 20
0.859104
 30
0.0
 40
0.009411
  1
SENSOR 2
 41
1.233333
  7
SIMPLEX
  0
TEXT
  8
0
  6
CONTINUOUS
 62
     4
 10
-0.141613
 20
0.841178
 30
0.0
 40
0.009411
  1
SENSOR 3
 41
1.233333
  7
SIMPLEX
  0
TEXT
  8
0
  6
CONTINUOUS
 62
     4
 10
-0.141613
 20
0.823253
 30
0.0
 40
0.009411
  1
SENSOR 4
 41
1.233333
  7
SIMPLEX
  0
TEXT
  8
0
  6
CONTINUOUS
 62
     4
 10
-0.141613
 20
0.805327
 30
0.0
 40
0.009411
  1
CONTROL 1
 41
1.233333
  7
SIMPLEX
  0
TEXT
  8
0
  6
CONTINUOUS
 62
     4
 10
-0.141613
 20
0.787401
 30
0.0
 40
0.009411
  1
CONTROL 2
 41
1.233333
  7
SIMPLEX
  0
TEXT
  8
0
  6
CONTINUOUS
 62
     4
 10
-0.141613
 20
0.75155
 30
0.0
 40
0.009411
  1
SETPOINT1
 41
1.233333
  7
SIMPLEX
  0
TEXT
  8
0
  6
CONTINUOUS
 62
     4
 10
-0.141613
 20
0.733625
 30
0.0
 40
0.009411
  1
SETPOINT2
 41
1.233333
  7
SIMPLEX
  0
LINE
  8
0
  6
CONTINUOUS
 62
     4
 10
-0.190908
 20
0.950059
 30
0.0
 11
-0.056466
 21
0.950059
 31
0.0
  0
LINE
  8
0
  6
CONTINUOUS
 62
     4
 10
-0.190908
 20
0.706851
 30
0.0
 11
-0.056466
 21
0.706851
 31
0.0
  0
TEXT
  8
0
  6
CONTINUOUS
 62
     4
 10
-0.189913
 20
0.927652
 30
0.0
 40
0.012548
  1
INPUT SELECT
 41
0.9
  7
SIMPLEX
  0
LINE
  8
0
  6
CONTINUOUS
 62
     4
 10
-0.190908
 20
0.914208
 30
0.0
 11
-0.056466
 21
0.914208
 31
0.0
  0
LINE
  8
0
  6
CONTINUOUS
 62
     4
 10
-0.190908
 20
0.706851
 30
0.0
 11
-0.190908
 21
0.950059
 31
0.0
  0
LINE
  8
0
  6
CONTINUOUS
 62
     4
 10
-0.056466
 20
0.706851
 30
0.0
 11
-0.056466
 21
0.950059
 31
0.0
  0
INSERT
  8
0
  2
STRIP2
 10
-0.186427
 20
0.73047
 30
0.0
 41
0.179256
 42
0.179256
  0
INSERT
  8
0
  2
STRIP2
 10
-0.186427
 20
0.748395
 30
0.0
 41
0.179256
 42
0.179256
  0
INSERT
  8
0
  2
STRIP2
 10
-0.186427
 20
0.766321
 30
0.0
 41
0.179256
 42
0.179256
  0
INSERT
  8
0
  2
STRIP2
 10
-0.186427
 20
0.784247
 30
0.0
 41
0.179256
 42
0.179256
  0
INSERT
  8
0
  2
STRIP2
 10
-0.186427
 20
0.802172
 30
0.0
 41
0.179256
 42
0.179256
  0
INSERT
  8
0
  2
STRIP2
 10
-0.186427
 20
0.838024
 30
0.0
 41
0.179256
 42
0.179256
  0
INSERT
  8
0
  2
STRIP2
 10
-0.186427
 20
0.855949
 30
0.0
 41
0.179256
 42
0.179256
  0
INSERT
  8
0
  2
STRIP2
 10
-0.186427
 20
0.873875
 30
0.0
 41
0.179256
 42
0.179256
  0
INSERT
  8
0
  2
STRIP2
 10
-0.186427
 20
0.891801
 30
0.0
 41
0.179256
 42
0.179256
  0
INSERT
  8
0
  2
STRIP2
 10
-0.186427
 20
0.909726
 30
0.0
 41
0.179256
 42
0.179256
  0
LINE
  8
0
  6
CONTINUOUS
 62
     4
 10
0.104401
 20
0.958501
 30
0.0
 11
0.104401
 21
0.85991
 31
0.0
  0
TEXT
  8
0
  6
CONTINUOUS
 62
     4
 10
0.123553
 20
0.862862
 30
0.0
 40
0.012548
  1
TB2
 41
0.9
  7
SIMPLEX
 72
     1
 11
0.138342
 21
0.862862
 31
0.0
  0
TEXT
  8
0
  6
CONTINUOUS
 62
     4
 10
0.054225
 20
0.862862
 30
0.0
 40
0.012548
  1
TB1
 41
0.9
  7
SIMPLEX
 72
     1
 11
0.0674
 21
0.862862
 31
0.0
  0
LINE
  8
0
  6
CONTINUOUS
 62
     4
 10
-0.186427
 20
0.712544
 30
0.0
 11
-0.150576
 21
0.712544
 31
0.0
  0
TEXT
  8
0
  6
CONTINUOUS
 62
     4
 10
0.160436
 20
0.083059
 30
0.0
 40
0.007528
  1
VOUT/
 50
270.0
 41
1.328571
  7
MAIN
  0
TEXT
  8
0
  6
CONTINUOUS
 62
     4
 10
0.143927
 20
0.083059
 30
0.0
 40
0.007528
  1
IOUT
 50
270.0
 41
1.328571
  7
MAIN
  0
INSERT
  8
0
  2
STRIP2
 10
-0.045421
 20
0.764061
 30
0.0
 41
0.179256
 42
0.179256
  0
INSERT
  8
0
  2
STRIP2
 10
-0.045421
 20
0.746135
 30
0.0
 41
0.179256
 42
0.179256
  0
TEXT
  8
0
  6
CONTINUOUS
 62
     4
 10
0.023005
 20
0.738981
 30
0.0
 40
0.009411
  1
NO
 41
1.233333
  7
SIMPLEX
  0
LINE
  8
0
  6
CONTINUOUS
 62
     4
 10
-0.045421
 20
0.728209
 30
0.0
 11
-0.009569
 21
0.728209
 31
0.0
  0
TEXT
  8
0
  6
CONTINUOUS
 62
     4
 10
-0.029513
 20
0.77217
 30
0.0
 40
0.007528
  1
CONTACT MODE
 41
1.328571
  7
MAIN
  0
LINE
  8
0
  6
CONTINUOUS
 62
     4
 10
0.089022
 20
0.787403
 30
0.0
 11
0.089022
 21
0.688792
 31
0.0
  0
LINE
  8
0
  6
CONTINUOUS
 62
     4
 10
-0.049902
 20
0.768542
 30
0.0
 11
0.089022
 21
0.768542
 31
0.0
  0
LINE
  8
0
  6
CONTINUOUS
 62
     4
 10
-0.049902
 20
0.688792
 30
0.0
 11
-0.049902
 21
0.787403
 31
0.0
  0
LINE
  8
0
  6
CONTINUOUS
 62
     4
 10
0.089022
 20
0.787403
 30
0.0
 11
-0.049902
 21
0.787403
 31
0.0
  0
LINE
  8
0
  6
CONTINUOUS
 62
     4
 10
0.089022
 20
0.688792
 30
0.0
 11
-0.049902
 21
0.688792
 31
0.0
  0
LINE
  8
0
  6
CONTINUOUS
 62
     4
 10
-0.045421
 20
0.692358
 30
0.0
 11
-0.009569
 21
0.692358
 31
0.0
  0
TEXT
  8
0
  6
CONTINUOUS
 62
     4
 10
0.023005
 20
0.70313
 30
0.0
 40
0.009411
  1
NC
 41
1.233333
  7
SIMPLEX
  0
INSERT
  8
0
  2
STRIP2
 10
-0.045421
 20
0.710284
 30
0.0
 41
0.179256
 42
0.179256
  0
INSERT
  8
0
  2
STRIP2
 10
-0.045421
 20
0.728209
 30
0.0
 41
0.179256
 42
0.179256
  0
LINE
  8
0
  6
CONTINUOUS
 62
     4
 10
-0.009569
 20
0.755098
 30
0.0
 11
-0.002588
 21
0.755098
 31
0.0
  0
LINE
  8
0
  6
CONTINUOUS
 62
     4
 10
-0.002588
 20
0.755098
 30
0.0
 11
-0.002588
 21
0.736126
 31
0.0
  0
LINE
  8
0
  6
CONTINUOUS
 62
     4
 10
-0.002588
 20
0.736126
 30
0.0
 11
-0.009569
 21
0.736126
 31
0.0
  0
LINE
  8
0
  6
CONTINUOUS
 62
     4
 10
-0.009569
 20
0.719444
 30
0.0
 11
-0.002588
 21
0.719444
 31
0.0
  0
LINE
  8
0
  6
CONTINUOUS
 62
     4
 10
-0.002588
 20
0.719444
 30
0.0
 11
-0.002588
 21
0.700472
 31
0.0
  0
LINE
  8
0
  6
CONTINUOUS
 62
     4
 10
-0.002588
 20
0.700472
 30
0.0
 11
-0.009569
 21
0.700472
 31
0.0
  0
LINE
  8
0
  6
CONTINUOUS
 62
     4
 10
-0.009569
 20
0.61791
 30
0.0
 11
-0.002588
 21
0.61791
 31
0.0
  0
LINE
  8
0
  6
CONTINUOUS
 62
     4
 10
-0.002588
 20
0.61791
 30
0.0
 11
-0.002588
 21
0.598939
 31
0.0
  0
LINE
  8
0
  6
CONTINUOUS
 62
     4
 10
-0.002588
 20
0.598939
 30
0.0
 11
-0.009569
 21
0.598939
 31
0.0
  0
LINE
  8
0
  6
CONTINUOUS
 62
     4
 10
-0.009569
 20
0.653564
 30
0.0
 11
-0.002588
 21
0.653564
 31
0.0
  0
LINE
  8
0
  6
CONTINUOUS
 62
     4
 10
-0.002588
 20
0.653564
 30
0.0
 11
-0.002588
 21
0.634593
 31
0.0
  0
LINE
  8
0
  6
CONTINUOUS
 62
     4
 10
-0.002588
 20
0.634593
 30
0.0
 11
-0.009569
 21
0.634593
 31
0.0
  0
INSERT
  8
0
  2
STRIP2
 10
-0.045421
 20
0.626676
 30
0.0
 41
0.179256
 42
0.179256
  0
INSERT
  8
0
  2
STRIP2
 10
-0.045421
 20
0.60875
 30
0.0
 41
0.179256
 42
0.179256
  0
LINE
  8
0
  6
CONTINUOUS
 62
     4
 10
-0.045421
 20
0.590824
 30
0.0
 11
-0.009569
 21
0.590824
 31
0.0
  0
LINE
  8
0
  6
CONTINUOUS
 62
     4
 10
0.089022
 20
0.587258
 30
0.0
 11
-0.049902
 21
0.587258
 31
0.0
  0
LINE
  8
0
  6
CONTINUOUS
 62
     4
 10
0.089022
 20
0.685869
 30
0.0
 11
-0.049902
 21
0.685869
 31
0.0
  0
LINE
  8
0
  6
CONTINUOUS
 62
     4
 10
-0.049902
 20
0.587258
 30
0.0
 11
-0.049902
 21
0.685869
 31
0.0
  0
LINE
  8
0
  6
CONTINUOUS
 62
     4
 10
-0.049902
 20
0.667008
 30
0.0
 11
0.089022
 21
0.667008
 31
0.0
  0
LINE
  8
0
  6
CONTINUOUS
 62
     4
 10
0.089022
 20
0.685869
 30
0.0
 11
0.089022
 21
0.587258
 31
0.0
  0
TEXT
  8
0
  6
CONTINUOUS
 62
     4
 10
-0.019165
 20
0.670636
 30
0.0
 40
0.007528
  1
INPUT MODE
 41
1.328571
  7
MAIN
  0
LINE
  8
0
  6
CONTINUOUS
 62
     4
 10
-0.045421
 20
0.626676
 30
0.0
 11
-0.009569
 21
0.626676
 31
0.0
  0
INSERT
  8
0
  2
STRIP2
 10
-0.045421
 20
0.644601
 30
0.0
 41
0.179256
 42
0.179256
  0
INSERT
  8
0
  2
STRIP2
 10
-0.045421
 20
0.662527
 30
0.0
 41
0.179256
 42
0.179256
  0
INSERT
  8
0
  2
STRIP2
 10
-0.045421
 20
0.560993
 30
0.0
 41
0.179256
 42
0.179256
  0
INSERT
  8
0
  2
STRIP2
 10
-0.045421
 20
0.543068
 30
0.0
 41
0.179256
 42
0.179256
  0
LINE
  8
0
  6
CONTINUOUS
 62
     4
 10
-0.045421
 20
0.525142
 30
0.0
 11
-0.009569
 21
0.525142
 31
0.0
  0
TEXT
  8
0
  6
CONTINUOUS
 62
     4
 10
-0.019165
 20
0.569102
 30
0.0
 40
0.007528
  1
PULSE RANGE
 41
1.328571
  7
MAIN
  0
LINE
  8
0
  6
CONTINUOUS
 62
     4
 10
0.089022
 20
0.584336
 30
0.0
 11
0.089022
 21
0.467852
 31
0.0
  0
LINE
  8
0
  6
CONTINUOUS
 62
     4
 10
-0.049902
 20
0.565475
 30
0.0
 11
0.089022
 21
0.565475
 31
0.0
  0
LINE
  8
0
  6
CONTINUOUS
 62
     4
 10
-0.049902
 20
0.467852
 30
0.0
 11
-0.049902
 21
0.584336
 31
0.0
  0
LINE
  8
0
  6
CONTINUOUS
 62
     4
 10
0.089022
 20
0.584336
 30
0.0
 11
-0.049902
 21
0.584336
 31
0.0
  0
LINE
  8
0
  6
CONTINUOUS
 62
     4
 10
0.089022
 20
0.467852
 30
0.0
 11
-0.049902
 21
0.467852
 31
0.0
  0
LINE
  8
0
  6
CONTINUOUS
 62
     4
 10
-0.045421
 20
0.489291
 30
0.0
 11
-0.009569
 21
0.489291
 31
0.0
  0
TEXT
  8
0
  6
CONTINUOUS
 62
     4
 10
-0.006627
 20
0.546147
 30
0.0
 40
0.009411
  1
02-5 SEC
 41
1.233333
  7
SIMPLEX
  0
INSERT
  8
0
  2
STRIP2
 10
-0.045421
 20
0.507216
 30
0.0
 41
0.179256
 42
0.179256
  0
INSERT
  8
0
  2
STRIP2
 10
-0.045421
 20
0.525142
 30
0.0
 41
0.179256
 42
0.179256
  0
LINE
  8
0
  6
CONTINUOUS
 62
     4
 10
-0.045421
 20
0.471365
 30
0.0
 11
-0.009569
 21
0.471365
 31
0.0
  0
INSERT
  8
0
  2
STRIP2
 10
-0.045421
 20
0.489291
 30
0.0
 41
0.179256
 42
0.179256
  0
TEXT
  8
0
  6
CONTINUOUS
 62
     4
 10
-0.006627
 20
0.528275
 30
0.0
 40
0.009411
  1
1-25.5 SEC
 41
1.233333
  7
SIMPLEX
  0
TEXT
  8
0
  6
CONTINUOUS
 62
     4
 10
-0.006627
 20
0.509944
 30
0.0
 40
0.009411
  1
1-255 SEC
 41
1.233333
  7
SIMPLEX
  0
LINE
  8
0
  6
CONTINUOUS
 62
     4
 10
-0.009569
 20
0.497589
 30
0.0
 11
-0.002588
 21
0.497589
 31
0.0
  0
LINE
  8
0
  6
CONTINUOUS
 62
     4
 10
-0.002588
 20
0.497589
 30
0.0
 11
-0.002588
 21
0.478617
 31
0.0
  0
LINE
  8
0
  6
CONTINUOUS
 62
     4
 10
-0.002588
 20
0.478617
 30
0.0
 11
-0.009569
 21
0.478617
 31
0.0
  0
TEXT
  8
0
  6
CONTINUOUS
 62
     4
 10
0.00183
 20
0.482151
 30
0.0
 40
0.007623
  1
COUNT PULSE
 41
1.233333
  7
SIMPLEX
  0
INSERT
  8
0
  2
STRIP2
 10
-0.173217
 20
0.149099
 30
0.0
 41
0.179256
 42
0.179256
  0
INSERT
  8
0
  2
STRIP2
 10
-0.173217
 20
0.131173
 30
0.0
 41
0.179256
 42
0.179256
  0
TEXT
  8
0
  6
CONTINUOUS
 62
     4
 10
-0.132613
 20
0.116402
 30
0.0
 40
0.009411
  1
REVERSE
 41
1.233333
  7
SIMPLEX
  0
TEXT
  8
0
  6
CONTINUOUS
 62
     4
 10
-0.132613
 20
0.134328
 30
0.0
 40
0.009411
  1
DIRECT
 41
1.233333
  7
SIMPLEX
  0
LINE
  8
0
  6
CONTINUOUS
 62
     4
 10
-0.173217
 20
0.113247
 30
0.0
 11
-0.137366
 21
0.113247
 31
0.0
  0
TEXT
  8
0
  6
CONTINUOUS
 62
     4
 10
-0.157309
 20
0.157208
 30
0.0
 40
0.007528
  1
ACTION
 41
1.328571
  7
MAIN
  0
LINE
  8
0
  6
CONTINUOUS
 62
     4
 10
-0.061327
 20
0.172441
 30
0.0
 11
-0.061327
 21
0.108569
 31
0.0
  0
LINE
  8
0
  6
CONTINUOUS
 62
     4
 10
-0.177698
 20
0.15358
 30
0.0
 11
-0.061327
 21
0.15358
 31
0.0
  0
LINE
  8
0
  6
CONTINUOUS
 62
     4
 10
-0.177698
 20
0.108569
 30
0.0
 11
-0.177698
 21
0.172441
 31
0.0
  0
LINE
  8
0
  6
CONTINUOUS
 62
     4
 10
-0.061327
 20
0.172441
 30
0.0
 11
-0.177698
 21
0.172441
 31
0.0
  0
LINE
  8
0
  6
CONTINUOUS
 62
     4
 10
-0.061327
 20
0.108569
 30
0.0
 11
-0.177698
 21
0.108569
 31
0.0
  0
LINE
  8
0
  6
CONTINUOUS
 62
     4
 10
-0.061327
 20
0.040168
 30
0.0
 11
-0.177698
 21
0.040168
 31
0.0
  0
LINE
  8
0
  6
CONTINUOUS
 62
     4
 10
-0.061327
 20
0.10404
 30
0.0
 11
-0.177698
 21
0.10404
 31
0.0
  0
LINE
  8
0
  6
CONTINUOUS
 62
     4
 10
-0.177698
 20
0.040168
 30
0.0
 11
-0.177698
 21
0.10404
 31
0.0
  0
LINE
  8
0
  6
CONTINUOUS
 62
     4
 10
-0.177698
 20
0.085179
 30
0.0
 11
-0.061327
 21
0.085179
 31
0.0
  0
LINE
  8
0
  6
CONTINUOUS
 62
     4
 10
-0.061327
 20
0.10404
 30
0.0
 11
-0.061327
 21
0.040168
 31
0.0
  0
TEXT
  8
0
  6
CONTINUOUS
 62
     4
 10
-0.157309
 20
0.088806
 30
0.0
 40
0.007528
  1
OUTPUT TYPE
 41
1.328571
  7
MAIN
  0
LINE
  8
0
  6
CONTINUOUS
 62
     4
 10
-0.173217
 20
0.044846
 30
0.0
 11
-0.137366
 21
0.044846
 31
0.0
  0
TEXT
  8
0
  6
CONTINUOUS
 62
     4
 10
-0.132613
 20
0.065926
 30
0.0
 40
0.009411
  1
VOUT
 41
1.233333
  7
SIMPLEX
  0
TEXT
  8
0
  6
CONTINUOUS
 62
     4
 10
-0.132613
 20
0.048001
 30
0.0
 40
0.009411
  1
IOUT
 41
1.233333
  7
SIMPLEX
  0
INSERT
  8
0
  2
STRIP2
 10
-0.173217
 20
0.062772
 30
0.0
 41
0.179256
 42
0.179256
  0
INSERT
  8
0
  2
STRIP2
 10
-0.173217
 20
0.080697
 30
0.0
 41
0.179256
 42
0.179256
  0
LINE
  8
0
  6
CONTINUOUS
 62
     4
 10
-0.056934
 20
0.136755
 30
0.0
 11
0.011907
 21
0.136755
 31
0.0
  0
LINE
  8
0
  6
CONTINUOUS
 62
     4
 10
0.011907
 20
0.040325
 30
0.0
 11
-0.056934
 21
0.040325
 31
0.0
  0
LINE
  8
0
  6
CONTINUOUS
 62
     4
 10
0.011907
 20
0.172441
 30
0.0
 11
-0.056934
 21
0.172441
 31
0.0
  0
LINE
  8
0
  6
CONTINUOUS
 62
     4
 10
-0.056934
 20
0.040325
 30
0.0
 11
-0.056934
 21
0.172441
 31
0.0
  0
LINE
  8
0
  6
CONTINUOUS
 62
     4
 10
0.011907
 20
0.172441
 30
0.0
 11
0.011907
 21
0.040325
 31
0.0
  0
TEXT
  8
0
  6
CONTINUOUS
 62
     4
 10
-0.039698
 20
0.142269
 30
0.0
 40
0.007528
  1
RANGE
 41
1.328571
  7
MAIN
  0
LINE
  8
0
  6
CONTINUOUS
 62
     4
 10
-0.052453
 20
0.096422
 30
0.0
 11
-0.016602
 21
0.096422
 31
0.0
  0
TEXT
  8
0
  6
CONTINUOUS
 62
     4
 10
-0.011849
 20
0.117503
 30
0.0
 40
0.009411
  1
A
 41
1.333333
  7
SIMPLEX
  0
TEXT
  8
0
  6
CONTINUOUS
 62
     4
 10
-0.011849
 20
0.099577
 30
0.0
 40
0.009411
  1
B
 41
1.333333
  7
SIMPLEX
  0
INSERT
  8
0
  2
STRIP2
 10
-0.052453
 20
0.114348
 30
0.0
 41
0.179256
 42
0.179256
  0
INSERT
  8
0
  2
STRIP2
 10
-0.052453
 20
0.132274
 30
0.0
 41
0.179256
 42
0.179256
  0
TEXT
  8
0
  6
CONTINUOUS
 62
     4
 10
-0.011849
 20
0.063726
 30
0.0
 40
0.009411
  1
D
 41
1.333333
  7
SIMPLEX
  0
TEXT
  8
0
  6
CONTINUOUS
 62
     4
 10
-0.011849
 20
0.081651
 30
0.0
 40
0.009411
  1
C
 41
1.333333
  7
SIMPLEX
  0
CIRCLE
  8
0
  6
CONTINUOUS
 62
     4
 10
-0.04349
 20
0.087459
 30
0.0
 40
0.001793
  0
CIRCLE
  8
0
  6
CONTINUOUS
 62
     4
 10
-0.025565
 20
0.087459
 30
0.0
 40
0.001793
  0
LINE
  8
0
  6
CONTINUOUS
 62
     4
 10
-0.016602
 20
0.096422
 30
0.0
 11
-0.052453
 21
0.096422
 31
0.0
  0
LINE
  8
0
  6
CONTINUOUS
 62
     4
 10
-0.016602
 20
0.078497
 30
0.0
 11
-0.016602
 21
0.096422
 31
0.0
  0
LINE
  8
0
  6
CONTINUOUS
 62
     4
 10
-0.052453
 20
0.096422
 30
0.0
 11
-0.052453
 21
0.078497
 31
0.0
  0
CIRCLE
  8
0
  6
CONTINUOUS
 62
     4
 10
-0.025565
 20
0.06859
 30
0.0
 40
0.001793
  0
CIRCLE
  8
0
  6
CONTINUOUS
 62
     4
 10
-0.04349
 20
0.06859
 30
0.0
 40
0.001793
  0
CIRCLE
  8
0
  6
CONTINUOUS
 62
     4
 10
-0.04349
 20
0.050664
 30
0.0
 40
0.001793
  0
CIRCLE
  8
0
  6
CONTINUOUS
 62
     4
 10
-0.025565
 20
0.050664
 30
0.0
 40
0.001793
  0
TEXT
  8
0
  6
CONTINUOUS
 62
     4
 10
-0.011849
 20
0.0458
 30
0.0
 40
0.009411
  1
E
 41
1.333333
  7
SIMPLEX
  0
LINE
  8
0
  6
CONTINUOUS
 62
     4
 10
-0.052453
 20
0.078497
 30
0.0
 11
-0.016602
 21
0.078497
 31
0.0
  0
TEXT
  8
0
  6
CONTINUOUS
 62
     4
 10
-0.041638
 20
0.15705
 30
0.0
 40
0.007528
  1
OUTPUT
 41
1.328571
  7
MAIN
  0
CIRCLE
  8
0
  6
CONTINUOUS
 62
     4
 10
0.064645
 20
0.081327
 30
0.0
 40
0.001793
  0
CIRCLE
  8
0
  6
CONTINUOUS
 62
     4
 10
0.046719
 20
0.081327
 30
0.0
 40
0.001793
  0
CIRCLE
  8
0
  6
CONTINUOUS
 62
     4
 10
0.046719
 20
0.052551
 30
0.0
 40
0.001793
  0
CIRCLE
  8
0
  6
CONTINUOUS
 62
     4
 10
0.064645
 20
0.052551
 30
0.0
 40
0.001793
  0
TEXT
  8
0
  6
CONTINUOUS
 62
     4
 10
0.038387
 20
0.090693
 30
0.0
 40
0.007528
  1
RESET
 41
1.328571
  7
MAIN
  0
TEXT
  8
0
  6
CONTINUOUS
 62
     4
 10
0.046593
 20
0.059951
 30
0.0
 40
0.009411
  1
S1
 41
1.233333
  7
SIMPLEX
  0
LINE
  8
0
  6
CONTINUOUS
 62
     4
 10
0.064645
 20
0.081327
 30
0.0
 11
0.037596
 21
0.081327
 31
0.0
  0
LINE
  8
0
  6
CONTINUOUS
 62
     4
 10
0.037596
 20
0.081327
 30
0.0
 11
0.037596
 21
0.052974
 31
0.0
  0
LINE
  8
0
  6
CONTINUOUS
 62
     4
 10
0.037596
 20
0.052974
 30
0.0
 11
0.070333
 21
0.052974
 31
0.0
  0
LINE
  8
0
  6
CONTINUOUS
 62
     4
 10
0.070333
 20
0.052974
 30
0.0
 11
0.070333
 21
0.081593
 31
0.0
  0
LINE
  8
0
  6
CONTINUOUS
 62
     4
 10
0.070333
 20
0.081593
 30
0.0
 11
0.064645
 21
0.081327
 31
0.0
  0
INSERT
  8
0
  2
POTT
 10
0.207541
 20
0.28747
 30
0.0
 41
0.161382
 42
0.161382
 50
90.0
  0
INSERT
  8
0
  2
POTT
 10
0.243673
 20
0.28747
 30
0.0
 41
0.161382
 42
0.161382
 50
90.0
  0
TEXT
  8
0
  6
CONTINUOUS
 62
     4
 10
0.159253
 20
0.303483
 30
0.0
 40
0.007528
  1
POT2
 50
270.0
 41
1.328571
  7
MAIN
  0
TEXT
  8
0
  6
CONTINUOUS
 62
     4
 10
0.212926
 20
0.243378
 30
0.0
 40
0.007528
  1
OFFSET
 41
1.328571
  7
MAIN
  0
TEXT
  8
0
  6
CONTINUOUS
 62
     4
 10
0.169519
 20
0.243378
 30
0.0
 40
0.007528
  1
GAIN
 41
1.328571
  7
MAIN
  0
TEXT
  8
0
  6
CONTINUOUS
 62
     4
 10
0.246067
 20
0.303483
 30
0.0
 40
0.007528
  1
POT1
 50
270.0
 41
1.328571
  7
MAIN
  0
CIRCLE
  8
0
  6
CONTINUOUS
 62
     4
 10
0.098887
 20
0.290099
 30
0.0
 40
0.014467
  0
CIRCLE
  8
0
  6
CONTINUOUS
 62
     4
 10
-0.115663
 20
0.290099
 30
0.0
 40
0.014467
  0
TEXT
  8
0
  6
CONTINUOUS
 62
     4
 10
0.090948
 20
0.259888
 30
0.0
 40
0.007528
  1
NC
 41
1.328571
  7
MAIN
  0
TEXT
  8
0
  6
CONTINUOUS
 62
     4
 10
-0.123602
 20
0.259888
 30
0.0
 40
0.007528
  1
NO
 41
1.328571
  7
MAIN
  0
TEXT
  8
0
  6
CONTINUOUS
 62
     4
 10
0.067585
 20
0.297742
 30
0.0
 40
0.007528
  1
D3
 50
270.0
 41
1.328571
  7
MAIN
  0
TEXT
  8
0
  6
CONTINUOUS
 62
     4
 10
-0.146965
 20
0.297742
 30
0.0
 40
0.007528
  1
D2
 50
270.0
 41
1.328571
  7
MAIN
  0
LINE
  8
0
  6
CONTINUOUS
 62
     4
 10
-0.098445
 20
0.295917
 30
0.0
 11
-0.102418
 21
0.295917
 31
0.0
  0
LINE
  8
0
  6
CONTINUOUS
 62
     4
 10
-0.13288
 20
0.295917
 30
0.0
 11
-0.13288
 21
0.283337
 31
0.0
  0
LINE
  8
0
  6
CONTINUOUS
 62
     4
 10
-0.13288
 20
0.283337
 30
0.0
 11
-0.128452
 21
0.283337
 31
0.0
  0
LINE
  8
0
  6
CONTINUOUS
 62
     4
 10
-0.098445
 20
0.283337
 30
0.0
 11
-0.098445
 21
0.295917
 31
0.0
  0
LINE
  8
0
  6
CONTINUOUS
 62
     4
 10
0.081669
 20
0.283337
 30
0.0
 11
0.086098
 21
0.283337
 31
0.0
  0
LINE
  8
0
  6
CONTINUOUS
 62
     4
 10
0.116104
 20
0.283337
 30
0.0
 11
0.116104
 21
0.295917
 31
0.0
  0
LINE
  8
0
  6
CONTINUOUS
 62
     4
 10
0.116104
 20
0.295917
 30
0.0
 11
0.112132
 21
0.295917
 31
0.0
  0
LINE
  8
0
  6
CONTINUOUS
 62
     4
 10
0.081669
 20
0.295917
 30
0.0
 11
0.081669
 21
0.283337
 31
0.0
  0
LINE
  8
0
  6
CONTINUOUS
 62
     4
 10
0.111676
 20
0.283337
 30
0.0
 11
0.116104
 21
0.283337
 31
0.0
  0
LINE
  8
0
  6
CONTINUOUS
 62
     4
 10
0.085642
 20
0.295917
 30
0.0
 11
0.081669
 21
0.295917
 31
0.0
  0
LINE
  8
0
  6
CONTINUOUS
 62
     4
 10
-0.128908
 20
0.295917
 30
0.0
 11
-0.13288
 21
0.295917
 31
0.0
  0
LINE
  8
0
  6
CONTINUOUS
 62
     4
 10
-0.102874
 20
0.283337
 30
0.0
 11
-0.098445
 21
0.283337
 31
0.0
  0
LINE
  8
0
  6
CONTINUOUS
 62
     4
 10
0.146958
 20
0.786192
 30
0.0
 11
0.187893
 21
0.786192
 31
0.0
  0
LINE
  8
0
  6
CONTINUOUS
 62
     4
 10
0.187893
 20
0.786192
 30
0.0
 11
0.187893
 21
0.60077
 31
0.0
  0
LINE
  8
0
  6
CONTINUOUS
 62
     4
 10
0.187893
 20
0.60077
 30
0.0
 11
0.146958
 21
0.60077
 31
0.0
  0
LINE
  8
0
  6
CONTINUOUS
 62
     4
 10
0.146958
 20
0.60077
 30
0.0
 11
0.146958
 21
0.786192
 31
0.0
  0
TEXT
  8
0
  6
CONTINUOUS
 62
     4
 10
0.00711
 20
0.601596
 30
0.0
 40
0.009411
  1
ISOLATED
 41
1.233333
  7
SIMPLEX
  0
TEXT
  8
0
  6
CONTINUOUS
 62
     4
 10
0.000119
 20
0.63987
 30
0.0
 40
0.006588
  1
NOT ISOLATED
 41
1.233333
  7
SIMPLEX
  0
ENDBLK
  8
0
  0
ENDSEC
  0
SECTION
  2
ENTITIES
  0
LINE
  8
0
  6
CONTINUOUS
 62
   250
 10
0.207937
 20
0.914208
 30
0.0
 11
0.203456
 21
0.914208
 31
0.0
  0
LINE
  8
0
  6
CONTINUOUS
 62
   250
 10
-0.267092
 20
0.085147
 30
0.0
 11
-0.267092
 21
0.56645
 31
0.0
  0
LINE
  8
0
  6
CONTINUOUS
 62
   250
 10
0.270677
 20
0.914208
 30
0.0
 11
0.270677
 21
0.835335
 31
0.0
  0
LINE
  8
0
  6
CONTINUOUS
 62
   250
 10
-0.267092
 20
0.085147
 30
0.0
 11
-0.199871
 21
0.085147
 31
0.0
  0
LINE
  8
0
  6
CONTINUOUS
 62
   250
 10
-0.199871
 20
0.085147
 30
0.0
 11
-0.199871
 21
0.017925
 31
0.0
  0
LINE
  8
0
  6
CONTINUOUS
 62
   250
 10
-0.199871
 20
0.981429
 30
0.0
 11
-0.199871
 21
0.914208
 31
0.0
  0
LINE
  8
0
  6
CONTINUOUS
 62
   250
 10
-0.199871
 20
0.914208
 30
0.0
 11
-0.267092
 21
0.914208
 31
0.0
  0
LINE
  8
0
  6
CONTINUOUS
 62
   250
 10
0.270677
 20
0.914208
 30
0.0
 11
0.203456
 21
0.914208
 31
0.0
  0
LINE
  8
0
  6
CONTINUOUS
 62
   250
 10
0.203456
 20
0.981429
 30
0.0
 11
0.203456
 21
0.918689
 31
0.0
  0
LINE
  8
0
  6
CONTINUOUS
 62
   250
 10
0.203456
 20
0.981429
 30
0.0
 11
0.203456
 21
0.914208
 31
0.0
  0
LINE
  8
0
  6
CONTINUOUS
 62
   250
 10
0.203456
 20
0.085147
 30
0.0
 11
0.270677
 21
0.085147
 31
0.0
  0
LINE
  8
0
  6
CONTINUOUS
 62
   250
 10
0.203456
 20
0.085147
 30
0.0
 11
0.203456
 21
0.017925
 31
0.0
  0
LINE
  8
0
  6
CONTINUOUS
 62
   250
 10
-0.267092
 20
0.499677
 30
0.0
 11
-0.267092
 21
0.365235
 31
0.0
  0
TEXT
  8
0
  6
CONTINUOUS
 62
   250
 10
0.252751
 20
0.779765
 30
0.0
 40
0.008963
  1
Female DIN Connector
 50
270.0
 41
0.9
  7
SIMPLEX
  0
TEXT
  8
0
  6
CONTINUOUS
 62
   250
 10
-0.256711
 20
0.771765
 30
0.0
 40
0.008963
  1
Male DIN Connector
 50
270.0
 41
0.9
  7
SIMPLEX
  0
CIRCLE
  8
0
  6
CONTINUOUS
 62
   250
 10
0.250511
 20
0.582135
 30
0.0
 40
0.008515
  0
CIRCLE
  8
0
  6
CONTINUOUS
 62
   250
 10
0.250511
 20
0.81965
 30
0.0
 40
0.008515
  0
LINE
  8
0
  6
CONTINUOUS
 62
   250
 10
0.28188
 20
0.835335
 30
0.0
 11
0.28188
 21
0.56645
 31
0.0
  0
LINE
  8
0
  6
CONTINUOUS
 62
   250
 10
0.28188
 20
0.56645
 30
0.0
 11
0.214659
 21
0.56645
 31
0.0
  0
LINE
  8
0
  6
CONTINUOUS
 62
   250
 10
0.28188
 20
0.835335
 30
0.0
 11
0.214659
 21
0.835335
 31
0.0
  0
LINE
  8
0
  6
CONTINUOUS
 62
   250
 10
0.214659
 20
0.835335
 30
0.0
 11
0.214659
 21
0.786039
 31
0.0
  0
LINE
  8
0
  6
CONTINUOUS
 62
   250
 10
0.214659
 20
0.786039
 30
0.0
 11
0.241548
 21
0.786039
 31
0.0
  0
LINE
  8
0
  6
CONTINUOUS
 62
   250
 10
0.214659
 20
0.56645
 30
0.0
 11
0.214659
 21
0.615746
 31
0.0
  0
LINE
  8
0
  6
CONTINUOUS
 62
   250
 10
0.214659
 20
0.615746
 30
0.0
 11
0.241548
 21
0.615746
 31
0.0
  0
LINE
  8
0
  6
CONTINUOUS
 62
   250
 10
0.241548
 20
0.615746
 30
0.0
 11
0.241548
 21
0.786039
 31
0.0
  0
LINE
  8
0
  6
CONTINUOUS
 62
   250
 10
0.28188
 20
0.615746
 30
0.0
 11
0.322213
 21
0.615746
 31
0.0
  0
LINE
  8
0
  6
CONTINUOUS
 62
   250
 10
0.322213
 20
0.615746
 30
0.0
 11
0.322213
 21
0.786039
 31
0.0
  0
LINE
  8
0
  6
CONTINUOUS
 62
   250
 10
0.322213
 20
0.786039
 30
0.0
 11
0.28188
 21
0.786039
 31
0.0
  0
LINE
  8
0
  6
CONTINUOUS
 62
   250
 10
-0.233482
 20
0.835335
 30
0.0
 11
-0.278296
 21
0.835335
 31
0.0
  0
LINE
  8
0
  6
CONTINUOUS
 62
   250
 10
-0.278296
 20
0.835335
 30
0.0
 11
-0.278296
 21
0.56645
 31
0.0
  0
LINE
  8
0
  6
CONTINUOUS
 62
   250
 10
-0.278296
 20
0.56645
 30
0.0
 11
-0.234154
 21
0.56645
 31
0.0
  0
LINE
  8
0
  6
CONTINUOUS
 62
   250
 10
-0.233482
 20
0.56645
 30
0.0
 11
-0.233482
 21
0.600061
 31
0.0
  0
LINE
  8
0
  6
CONTINUOUS
 62
   250
 10
-0.233482
 20
0.600061
 30
0.0
 11
-0.240204
 21
0.600061
 31
0.0
  0
LINE
  8
0
  6
CONTINUOUS
 62
   250
 10
-0.233482
 20
0.835335
 30
0.0
 11
-0.233482
 21
0.801724
 31
0.0
  0
LINE
  8
0
  6
CONTINUOUS
 62
   250
 10
-0.233482
 20
0.801724
 30
0.0
 11
-0.240204
 21
0.801724
 31
0.0
  0
LINE
  8
0
  6
CONTINUOUS
 62
   250
 10
-0.240204
 20
0.801724
 30
0.0
 11
-0.240204
 21
0.600061
 31
0.0
  0
LINE
  8
0
  6
CONTINUOUS
 62
   250
 10
-0.278296
 20
0.81965
 30
0.0
 11
-0.314147
 21
0.81965
 31
0.0
  0
LINE
  8
0
  6
CONTINUOUS
 62
   250
 10
-0.314147
 20
0.81965
 30
0.0
 11
-0.314147
 21
0.582135
 31
0.0
  0
LINE
  8
0
  6
CONTINUOUS
 62
   250
 10
-0.314147
 20
0.582135
 30
0.0
 11
-0.278296
 21
0.582135
 31
0.0
  0
CIRCLE
  8
0
  6
CONTINUOUS
 62
   250
 10
-0.246926
 20
0.81965
 30
0.0
 40
0.008515
  0
CIRCLE
  8
0
  6
CONTINUOUS
 62
   250
 10
-0.246926
 20
0.582135
 30
0.0
 40
0.008515
  0
LINE
  8
0
  6
CONTINUOUS
 62
   250
 10
-0.267092
 20
0.241724
 30
0.0
 11
-0.267092
 21
0.207666
 31
0.0
  0
ARC
  8
0
  6
CONTINUOUS
 62
   250
 10
-0.273366
 20
0.017925
 30
0.0
 40
0.017926
 50
180.000626
 51
270.000183
  0
ARC
  8
0
  6
CONTINUOUS
 62
   250
 10
-0.273366
 20
0.981429
 30
0.0
 40
0.017926
 50
89.999908
 51
180.000381
  0
LINE
  8
0
  6
CONTINUOUS
 62
   250
 10
-0.291292
 20
0.981429
 30
0.0
 11
-0.291292
 21
0.81965
 31
0.0
  0
LINE
  8
0
  6
CONTINUOUS
 62
   250
 10
-0.276951
 20
0.918689
 30
0.0
 11
-0.276951
 21
0.835335
 31
0.0
  0
LINE
  8
0
  6
CONTINUOUS
 62
   250
 10
-0.291292
 20
0.582135
 30
0.0
 11
-0.291292
 21
0.017925
 31
0.0
  0
LINE
  8
0
  6
CONTINUOUS
 62
   250
 10
0.291291
 20
0.615746
 30
0.0
 11
0.291291
 21
0.017925
 31
0.0
  0
LINE
  8
0
  6
CONTINUOUS
 62
   250
 10
0.291291
 20
0.815617
 30
0.0
 11
0.287706
 21
0.815617
 31
0.0
  0
LINE
  8
0
  6
CONTINUOUS
 62
   250
 10
0.291291
 20
0.815617
 30
0.0
 11
0.28188
 21
0.815617
 31
0.0
  0
LINE
  8
0
  6
CONTINUOUS
 62
   250
 10
0.291291
 20
0.582583
 30
0.0
 11
0.28188
 21
0.582583
 31
0.0
  0
LINE
  8
0
  6
CONTINUOUS
 62
   250
 10
0.276951
 20
0.918689
 30
0.0
 11
0.276951
 21
0.835335
 31
0.0
  0
LINE
  8
0
  6
CONTINUOUS
 62
   250
 10
0.291291
 20
0.981429
 30
0.0
 11
0.291291
 21
0.786039
 31
0.0
  0
ARC
  8
0
  6
CONTINUOUS
 62
   250
 10
0.273366
 20
0.981429
 30
0.0
 40
0.017926
 50
359.999634
 51
90.000092
  0
ARC
  8
0
  6
CONTINUOUS
 62
   250
 10
0.273366
 20
0.017925
 30
0.0
 40
0.017926
 50
269.999817
 51
359.99939
  0
LINE
  8
0
  6
CONTINUOUS
 62
   250
 10
0.273366
 20
0.999355
 30
0.0
 11
-0.273366
 21
0.999355
 31
0.0
  0
LINE
  8
0
  6
CONTINUOUS
 62
   250
 10
0.210626
 20
0.981429
 30
0.0
 11
-0.210627
 21
0.981429
 31
0.0
  0
LINE
  8
0
  6
CONTINUOUS
 62
   250
 10
0.273366
 20
0.0
 30
0.0
 11
-0.273366
 21
0.0
 31
0.0
  0
LINE
  8
0
  6
CONTINUOUS
 62
   250
 10
-0.210627
 20
0.017925
 30
0.0
 11
0.210626
 21
0.017925
 31
0.0
  0
LINE
  8
0
  6
CONTINUOUS
 62
   250
 10
0.210626
 20
0.017925
 30
0.0
 11
0.210626
 21
0.040333
 31
0.0
  0
LINE
  8
0
  6
CONTINUOUS
 62
   250
 10
-0.276951
 20
0.080665
 30
0.0
 11
-0.250959
 21
0.080665
 31
0.0
  0
LINE
  8
0
  6
CONTINUOUS
 62
   250
 10
-0.210627
 20
0.981429
 30
0.0
 11
-0.210627
 21
0.959022
 31
0.0
  0
LINE
  8
0
  6
CONTINUOUS
 62
   250
 10
0.276951
 20
0.918689
 30
0.0
 11
0.250959
 21
0.918689
 31
0.0
  0
LINE
  8
0
  6
CONTINUOUS
 62
   250
 10
0.250959
 20
0.080665
 30
0.0
 11
0.276951
 21
0.080665
 31
0.0
  0
LINE
  8
0
  6
CONTINUOUS
 62
   250
 10
-0.210627
 20
0.040333
 30
0.0
 11
-0.210627
 21
0.017925
 31
0.0
  0
LINE
  8
0
  6
CONTINUOUS
 62
   250
 10
-0.250959
 20
0.918689
 30
0.0
 11
-0.276951
 21
0.918689
 31
0.0
  0
LINE
  8
0
  6
CONTINUOUS
 62
   250
 10
0.210626
 20
0.959022
 30
0.0
 11
0.210626
 21
0.981429
 31
0.0
  0
CIRCLE
  8
0
  6
CONTINUOUS
 62
   250
 10
0.250959
 20
0.959022
 30
0.0
 40
0.017567
  0
CIRCLE
  8
0
  6
CONTINUOUS
 62
   250
 10
0.250959
 20
0.040333
 30
0.0
 40
0.017567
  0
CIRCLE
  8
0
  6
CONTINUOUS
 62
   250
 10
-0.250959
 20
0.040333
 30
0.0
 40
0.017567
  0
CIRCLE
  8
0
  6
CONTINUOUS
 62
   250
 10
-0.250959
 20
0.959022
 30
0.0
 40
0.017567
  0
ARC
  8
0
  6
CONTINUOUS
 62
   250
 10
-0.250959
 20
0.959022
 30
0.0
 40
0.040333
 50
269.999786
 51
0.000254
  0
CIRCLE
  8
0
  6
CONTINUOUS
 62
   250
 10
-0.250959
 20
0.959022
 30
0.0
 40
0.028233
  0
ARC
  8
0
  6
CONTINUOUS
 62
   250
 10
0.250959
 20
0.959022
 30
0.0
 40
0.040333
 50
179.999741
 51
270.000214
  0
CIRCLE
  8
0
  6
CONTINUOUS
 62
   250
 10
0.250959
 20
0.959022
 30
0.0
 40
0.028233
  0
ARC
  8
0
  6
CONTINUOUS
 62
   250
 10
0.250959
 20
0.040333
 30
0.0
 40
0.040333
 50
90.000381
 51
179.999954
  0
CIRCLE
  8
0
  6
CONTINUOUS
 62
   250
 10
0.250959
 20
0.040333
 30
0.0
 40
0.028233
  0
ARC
  8
0
  6
CONTINUOUS
 62
   250
 10
-0.250959
 20
0.040333
 30
0.0
 40
0.040333
 50
0.000048
 51
89.999619
  0
CIRCLE
  8
0
  6
CONTINUOUS
 62
   250
 10
-0.250959
 20
0.040333
 30
0.0
 40
0.028233
  0
LINE
  8
0
  6
CONTINUOUS
 62
   250
 10
-0.276951
 20
0.56645
 30
0.0
 11
-0.276951
 21
0.080665
 31
0.0
  0
LINE
  8
0
  6
CONTINUOUS
 62
   250
 10
0.276951
 20
0.56645
 30
0.0
 11
0.276951
 21
0.080665
 31
0.0
  0
LINE
  8
0
  6
CONTINUOUS
 62
   250
 10
-0.267092
 20
0.835335
 30
0.0
 11
-0.267092
 21
0.914208
 31
0.0
  0
LINE
  8
0
  6
CONTINUOUS
 62
   250
 10
0.270677
 20
0.56645
 30
0.0
 11
0.270677
 21
0.085147
 31
0.0
  0
LINE
  8
0
  6
CONTINUOUS
 62
   250
 10
0.089022
 20
0.790539
 30
0.0
 11
-0.049902
 21
0.790539
 31
0.0
  0
LINE
  8
0
  6
CONTINUOUS
 62
   250
 10
0.089022
 20
0.854411
 30
0.0
 11
-0.049902
 21
0.854411
 31
0.0
  0
LINE
  8
0
  6
CONTINUOUS
 62
   250
 10
-0.049902
 20
0.790539
 30
0.0
 11
-0.049902
 21
0.854411
 31
0.0
  0
LINE
  8
0
  6
CONTINUOUS
 62
   250
 10
0.035024
 20
0.85991
 30
0.0
 11
0.176567
 21
0.85991
 31
0.0
  0
TEXT
  8
0
  6
CONTINUOUS
 62
   250
 10
-0.217797
 20
0.878356
 30
0.0
 40
0.012548
  1
L
  7
SIMPLEX
  0
LINE
  8
0
  6
CONTINUOUS
 62
   250
 10
-0.25813
 20
0.873875
 30
0.0
 11
-0.222278
 21
0.873875
 31
0.0
  0
INSERT
  8
0
 62
   250
  2
STRIP2
 10
-0.25813
 20
0.891801
 30
0.0
 41
0.179256
 42
0.179256
  0
LINE
  8
0
  6
CONTINUOUS
 62
   250
 10
-0.049902
 20
0.83555
 30
0.0
 11
0.089022
 21
0.83555
 31
0.0
  0
LINE
  8
0
  6
CONTINUOUS
 62
   250
 10
0.089022
 20
0.854411
 30
0.0
 11
0.089022
 21
0.790539
 31
0.0
  0
TEXT
  8
0
  6
CONTINUOUS
 62
   250
 10
-0.029513
 20
0.839177
 30
0.0
 40
0.007528
  1
SUPPLY VOLTAGE
 41
1.328571
  7
MAIN
  0
LINE
  8
0
  6
CONTINUOUS
 62
   250
 10
-0.045421
 20
0.795217
 30
0.0
 11
-0.009569
 21
0.795217
 31
0.0
  0
TEXT
  8
0
  6
CONTINUOUS
 62
   250
 10
0.013128
 20
0.816298
 30
0.0
 40
0.009411
  1
24VDC
 41
1.233333
  7
SIMPLEX
  0
TEXT
  8
0
  6
CONTINUOUS
 62
   250
 10
0.013128
 20
0.798372
 30
0.0
 40
0.009411
  1
24VAC
 41
1.233333
  7
SIMPLEX
  0
INSERT
  8
0
 62
   250
  2
STRIP2
 10
-0.045421
 20
0.813143
 30
0.0
 41
0.179256
 42
0.179256
  0
INSERT
  8
0
 62
   250
  2
STRIP2
 10
-0.045421
 20
0.831069
 30
0.0
 41
0.179256
 42
0.179256
  0
TEXT
  8
0
  6
CONTINUOUS
 62
   250
 10
-0.141613
 20
0.715699
 30
0.0
 40
0.009411
  1
SETPOINT3
 41
1.233333
  7
SIMPLEX
  0
TEXT
  8
0
  6
CONTINUOUS
 62
   250
 10
-0.141613
 20
0.769476
 30
0.0
 40
0.009411
  1
CONTROL 3
 41
1.233333
  7
SIMPLEX
  0
INSERT
  8
0
 62
   250
  2
STRIP2
 10
-0.186427
 20
0.820098
 30
0.0
 41
0.179256
 42
0.179256
  0
TEXT
  8
0
  6
CONTINUOUS
 62
   250
 10
0.118309
 20
0.944614
 30
0.0
 40
0.012548
  1
GND
 50
270.0
 41
0.9
  7
SIMPLEX
  0
TEXT
  8
0
  6
CONTINUOUS
 62
   250
 10
0.15416
 20
0.958003
 30
0.0
 40
0.012548
  1
+24V
 50
270.0
 41
0.9
  7
SIMPLEX
  0
TEXT
  8
0
  6
CONTINUOUS
 62
   250
 10
0.044814
 20
0.963145
 30
0.0
 40
0.012548
  1
4
  7
SIMPLEX
  0
CIRCLE
  8
0
  6
CONTINUOUS
 62
   250
 10
0.051088
 20
0.888702
 30
0.0
 40
0.008963
  0
LINE
  8
0
  6
CONTINUOUS
 62
   250
 10
0.051088
 20
0.879739
 30
0.0
 11
0.051088
 21
0.897665
 31
0.0
  0
LINE
  8
0
  6
CONTINUOUS
 62
   250
 10
0.158642
 20
0.879739
 30
0.0
 11
0.158642
 21
0.897665
 31
0.0
  0
LINE
  8
0
  6
CONTINUOUS
 62
   250
 10
0.095902
 20
0.888702
 30
0.0
 11
0.077976
 21
0.888702
 31
0.0
  0
LINE
  8
0
  6
CONTINUOUS
 62
   250
 10
0.116453
 20
0.895039
 30
0.0
 11
0.129128
 21
0.882364
 31
0.0
  0
LINE
  8
0
  6
CONTINUOUS
 62
   250
 10
0.176567
 20
0.85991
 30
0.0
 11
0.176567
 21
0.958501
 31
0.0
  0
LINE
  8
0
  6
CONTINUOUS
 62
   250
 10
0.035024
 20
0.958501
 30
0.0
 11
0.176567
 21
0.958501
 31
0.0
  0
LINE
  8
0
  6
CONTINUOUS
 62
   250
 10
0.035024
 20
0.958501
 30
0.0
 11
0.035024
 21
0.85991
 31
0.0
  0
CIRCLE
  8
0
  6
CONTINUOUS
 62
   250
 10
0.086939
 20
0.888702
 30
0.0
 40
0.008963
  0
CIRCLE
  8
0
  6
CONTINUOUS
 62
   250
 10
0.158642
 20
0.888702
 30
0.0
 40
0.008963
  0
CIRCLE
  8
0
  6
CONTINUOUS
 62
   250
 10
0.12279
 20
0.888702
 30
0.0
 40
0.008963
  0
LINE
  8
0
  6
CONTINUOUS
 62
   250
 10
0.095902
 20
0.138924
 30
0.0
 11
0.176567
 21
0.138924
 31
0.0
  0
TEXT
  8
0
  6
CONTINUOUS
 62
   250
 10
0.111801
 20
0.083425
 30
0.0
 40
0.007528
  1
GND
 50
270.0
 41
1.328571
  7
MAIN
  0
LINE
  8
0
  6
CONTINUOUS
 62
   250
 10
0.127272
 20
0.114982
 30
0.0
 11
0.109346
 21
0.114982
 31
0.0
  0
LINE
  8
0
  6
CONTINUOUS
 62
   250
 10
0.152304
 20
0.108644
 30
0.0
 11
0.164979
 21
0.121319
 31
0.0
  0
LINE
  8
0
  6
CONTINUOUS
 62
   250
 10
0.176567
 20
0.138924
 30
0.0
 11
0.176567
 21
0.040333
 31
0.0
  0
LINE
  8
0
  6
CONTINUOUS
 62
   250
 10
0.095902
 20
0.040333
 30
0.0
 11
0.176567
 21
0.040333
 31
0.0
  0
LINE
  8
0
  6
CONTINUOUS
 62
   250
 10
0.095902
 20
0.040333
 30
0.0
 11
0.095902
 21
0.138924
 31
0.0
  0
CIRCLE
  8
0
  6
CONTINUOUS
 62
   250
 10
0.118309
 20
0.114982
 30
0.0
 40
0.008963
  0
CIRCLE
  8
0
  6
CONTINUOUS
 62
   250
 10
0.158642
 20
0.114982
 30
0.0
 40
0.008963
  0
TEXT
  8
0
  6
CONTINUOUS
 62
   250
 10
0.112931
 20
0.021848
 30
0.0
 40
0.012548
  1
A
  7
SIMPLEX
  0
TEXT
  8
0
  6
CONTINUOUS
 62
   250
 10
0.152069
 20
0.021848
 30
0.0
 40
0.012548
  1
B
  7
SIMPLEX
  0
TEXT
  8
0
  6
CONTINUOUS
 62
   250
 10
0.153563
 20
0.963145
 30
0.0
 40
0.012548
  1
1
  7
SIMPLEX
  0
TEXT
  8
0
  6
CONTINUOUS
 62
   250
 10
0.116815
 20
0.963145
 30
0.0
 40
0.012548
  1
2
  7
SIMPLEX
  0
TEXT
  8
0
  6
CONTINUOUS
 62
   250
 10
0.080964
 20
0.963145
 30
0.0
 40
0.012548
  1
3
  7
SIMPLEX
  0
TEXT
  8
0
  6
CONTINUOUS
 62
   250
 10
-0.141613
 20
0.894955
 30
0.0
 40
0.009411
  1
OFF
 41
1.233333
  7
SIMPLEX
  0
TEXT
  8
0
  6
CONTINUOUS
 62
   250
 10
-0.141613
 20
0.87703
 30
0.0
 40
0.009411
  1
SENSOR 1
 41
1.233333
  7
SIMPLEX
  0
TEXT
  8
0
  6
CONTINUOUS
 62
   250
 10
-0.141613
 20
0.859104
 30
0.0
 40
0.009411
  1
SENSOR 2
 41
1.233333
  7
SIMPLEX
  0
TEXT
  8
0
  6
CONTINUOUS
 62
   250
 10
-0.141613
 20
0.841178
 30
0.0
 40
0.009411
  1
SENSOR 3
 41
1.233333
  7
SIMPLEX
  0
TEXT
  8
0
  6
CONTINUOUS
 62
   250
 10
-0.141613
 20
0.823253
 30
0.0
 40
0.009411
  1
SENSOR 4
 41
1.233333
  7
SIMPLEX
  0
TEXT
  8
0
  6
CONTINUOUS
 62
   250
 10
-0.141613
 20
0.805327
 30
0.0
 40
0.009411
  1
CONTROL 1
 41
1.233333
  7
SIMPLEX
  0
TEXT
  8
0
  6
CONTINUOUS
 62
   250
 10
-0.141613
 20
0.787401
 30
0.0
 40
0.009411
  1
CONTROL 2
 41
1.233333
  7
SIMPLEX
  0
TEXT
  8
0
  6
CONTINUOUS
 62
   250
 10
-0.141613
 20
0.75155
 30
0.0
 40
0.009411
  1
SETPOINT1
 41
1.233333
  7
SIMPLEX
  0
TEXT
  8
0
  6
CONTINUOUS
 62
   250
 10
-0.141613
 20
0.733625
 30
0.0
 40
0.009411
  1
SETPOINT2
 41
1.233333
  7
SIMPLEX
  0
LINE
  8
0
  6
CONTINUOUS
 62
   250
 10
-0.190908
 20
0.950059
 30
0.0
 11
-0.056466
 21
0.950059
 31
0.0
  0
LINE
  8
0
  6
CONTINUOUS
 62
   250
 10
-0.190908
 20
0.706851
 30
0.0
 11
-0.056466
 21
0.706851
 31
0.0
  0
TEXT
  8
0
  6
CONTINUOUS
 62
   250
 10
-0.189913
 20
0.927652
 30
0.0
 40
0.012548
  1
INPUT SELECT
 41
0.9
  7
SIMPLEX
  0
LINE
  8
0
  6
CONTINUOUS
 62
   250
 10
-0.190908
 20
0.914208
 30
0.0
 11
-0.056466
 21
0.914208
 31
0.0
  0
LINE
  8
0
  6
CONTINUOUS
 62
   250
 10
-0.190908
 20
0.706851
 30
0.0
 11
-0.190908
 21
0.950059
 31
0.0
  0
LINE
  8
0
  6
CONTINUOUS
 62
   250
 10
-0.056466
 20
0.706851
 30
0.0
 11
-0.056466
 21
0.950059
 31
0.0
  0
INSERT
  8
0
 62
   250
  2
STRIP2
 10
-0.186427
 20
0.73047
 30
0.0
 41
0.179256
 42
0.179256
  0
INSERT
  8
0
 62
   250
  2
STRIP2
 10
-0.186427
 20
0.748395
 30
0.0
 41
0.179256
 42
0.179256
  0
INSERT
  8
0
 62
   250
  2
STRIP2
 10
-0.186427
 20
0.766321
 30
0.0
 41
0.179256
 42
0.179256
  0
INSERT
  8
0
 62
   250
  2
STRIP2
 10
-0.186427
 20
0.784247
 30
0.0
 41
0.179256
 42
0.179256
  0
INSERT
  8
0
 62
   250
  2
STRIP2
 10
-0.186427
 20
0.802172
 30
0.0
 41
0.179256
 42
0.179256
  0
INSERT
  8
0
 62
   250
  2
STRIP2
 10
-0.186427
 20
0.838024
 30
0.0
 41
0.179256
 42
0.179256
  0
INSERT
  8
0
 62
   250
  2
STRIP2
 10
-0.186427
 20
0.855949
 30
0.0
 41
0.179256
 42
0.179256
  0
INSERT
  8
0
 62
   250
  2
STRIP2
 10
-0.186427
 20
0.873875
 30
0.0
 41
0.179256
 42
0.179256
  0
INSERT
  8
0
 62
   250
  2
STRIP2
 10
-0.186427
 20
0.891801
 30
0.0
 41
0.179256
 42
0.179256
  0
INSERT
  8
0
 62
   250
  2
STRIP2
 10
-0.186427
 20
0.909726
 30
0.0
 41
0.179256
 42
0.179256
  0
LINE
  8
0
  6
CONTINUOUS
 62
   250
 10
0.104401
 20
0.958501
 30
0.0
 11
0.104401
 21
0.85991
 31
0.0
  0
TEXT
  8
0
  6
CONTINUOUS
 62
   250
 10
0.123553
 20
0.862862
 30
0.0
 40
0.012548
  1
TB2
 41
0.9
  7
SIMPLEX
 72
     1
 11
0.138342
 21
0.862862
 31
0.0
  0
TEXT
  8
0
  6
CONTINUOUS
 62
   250
 10
0.054225
 20
0.862862
 30
0.0
 40
0.012548
  1
TB1
 41
0.9
  7
SIMPLEX
 72
     1
 11
0.0674
 21
0.862862
 31
0.0
  0
LINE
  8
0
  6
CONTINUOUS
 62
   250
 10
-0.186427
 20
0.712544
 30
0.0
 11
-0.150576
 21
0.712544
 31
0.0
  0
TEXT
  8
0
  6
CONTINUOUS
 62
   250
 10
0.160436
 20
0.083059
 30
0.0
 40
0.007528
  1
VOUT/
 50
270.0
 41
1.328571
  7
MAIN
  0
TEXT
  8
0
  6
CONTINUOUS
 62
   250
 10
0.143927
 20
0.083059
 30
0.0
 40
0.007528
  1
IOUT
 50
270.0
 41
1.328571
  7
MAIN
  0
INSERT
  8
0
 62
   250
  2
STRIP2
 10
-0.045421
 20
0.764061
 30
0.0
 41
0.179256
 42
0.179256
  0
INSERT
  8
0
 62
   250
  2
STRIP2
 10
-0.045421
 20
0.746135
 30
0.0
 41
0.179256
 42
0.179256
  0
TEXT
  8
0
  6
CONTINUOUS
 62
   250
 10
0.023005
 20
0.738981
 30
0.0
 40
0.009411
  1
NO
 41
1.233333
  7
SIMPLEX
  0
LINE
  8
0
  6
CONTINUOUS
 62
   250
 10
-0.045421
 20
0.728209
 30
0.0
 11
-0.009569
 21
0.728209
 31
0.0
  0
TEXT
  8
0
  6
CONTINUOUS
 62
   250
 10
-0.029513
 20
0.77217
 30
0.0
 40
0.007528
  1
CONTACT MODE
 41
1.328571
  7
MAIN
  0
LINE
  8
0
  6
CONTINUOUS
 62
   250
 10
0.089022
 20
0.787403
 30
0.0
 11
0.089022
 21
0.688792
 31
0.0
  0
LINE
  8
0
  6
CONTINUOUS
 62
   250
 10
-0.049902
 20
0.768542
 30
0.0
 11
0.089022
 21
0.768542
 31
0.0
  0
LINE
  8
0
  6
CONTINUOUS
 62
   250
 10
-0.049902
 20
0.688792
 30
0.0
 11
-0.049902
 21
0.787403
 31
0.0
  0
LINE
  8
0
  6
CONTINUOUS
 62
   250
 10
0.089022
 20
0.787403
 30
0.0
 11
-0.049902
 21
0.787403
 31
0.0
  0
LINE
  8
0
  6
CONTINUOUS
 62
   250
 10
0.089022
 20
0.688792
 30
0.0
 11
-0.049902
 21
0.688792
 31
0.0
  0
LINE
  8
0
  6
CONTINUOUS
 62
   250
 10
-0.045421
 20
0.692358
 30
0.0
 11
-0.009569
 21
0.692358
 31
0.0
  0
TEXT
  8
0
  6
CONTINUOUS
 62
   250
 10
0.023005
 20
0.70313
 30
0.0
 40
0.009411
  1
NC
 41
1.233333
  7
SIMPLEX
  0
INSERT
  8
0
 62
   250
  2
STRIP2
 10
-0.045421
 20
0.710284
 30
0.0
 41
0.179256
 42
0.179256
  0
INSERT
  8
0
 62
   250
  2
STRIP2
 10
-0.045421
 20
0.728209
 30
0.0
 41
0.179256
 42
0.179256
  0
LINE
  8
0
  6
CONTINUOUS
 62
   250
 10
-0.009569
 20
0.755098
 30
0.0
 11
-0.002588
 21
0.755098
 31
0.0
  0
LINE
  8
0
  6
CONTINUOUS
 62
   250
 10
-0.002588
 20
0.755098
 30
0.0
 11
-0.002588
 21
0.736126
 31
0.0
  0
LINE
  8
0
  6
CONTINUOUS
 62
   250
 10
-0.002588
 20
0.736126
 30
0.0
 11
-0.009569
 21
0.736126
 31
0.0
  0
LINE
  8
0
  6
CONTINUOUS
 62
   250
 10
-0.009569
 20
0.719444
 30
0.0
 11
-0.002588
 21
0.719444
 31
0.0
  0
LINE
  8
0
  6
CONTINUOUS
 62
   250
 10
-0.002588
 20
0.719444
 30
0.0
 11
-0.002588
 21
0.700472
 31
0.0
  0
LINE
  8
0
  6
CONTINUOUS
 62
   250
 10
-0.002588
 20
0.700472
 30
0.0
 11
-0.009569
 21
0.700472
 31
0.0
  0
LINE
  8
0
  6
CONTINUOUS
 62
   250
 10
-0.009569
 20
0.61791
 30
0.0
 11
-0.002588
 21
0.61791
 31
0.0
  0
LINE
  8
0
  6
CONTINUOUS
 62
   250
 10
-0.002588
 20
0.61791
 30
0.0
 11
-0.002588
 21
0.598939
 31
0.0
  0
LINE
  8
0
  6
CONTINUOUS
 62
   250
 10
-0.002588
 20
0.598939
 30
0.0
 11
-0.009569
 21
0.598939
 31
0.0
  0
LINE
  8
0
  6
CONTINUOUS
 62
   250
 10
-0.009569
 20
0.653564
 30
0.0
 11
-0.002588
 21
0.653564
 31
0.0
  0
LINE
  8
0
  6
CONTINUOUS
 62
   250
 10
-0.002588
 20
0.653564
 30
0.0
 11
-0.002588
 21
0.634593
 31
0.0
  0
LINE
  8
0
  6
CONTINUOUS
 62
   250
 10
-0.002588
 20
0.634593
 30
0.0
 11
-0.009569
 21
0.634593
 31
0.0
  0
INSERT
  8
0
 62
   250
  2
STRIP2
 10
-0.045421
 20
0.626676
 30
0.0
 41
0.179256
 42
0.179256
  0
INSERT
  8
0
 62
   250
  2
STRIP2
 10
-0.045421
 20
0.60875
 30
0.0
 41
0.179256
 42
0.179256
  0
LINE
  8
0
  6
CONTINUOUS
 62
   250
 10
-0.045421
 20
0.590824
 30
0.0
 11
-0.009569
 21
0.590824
 31
0.0
  0
LINE
  8
0
  6
CONTINUOUS
 62
   250
 10
0.089022
 20
0.587258
 30
0.0
 11
-0.049902
 21
0.587258
 31
0.0
  0
LINE
  8
0
  6
CONTINUOUS
 62
   250
 10
0.089022
 20
0.685869
 30
0.0
 11
-0.049902
 21
0.685869
 31
0.0
  0
LINE
  8
0
  6
CONTINUOUS
 62
   250
 10
-0.049902
 20
0.587258
 30
0.0
 11
-0.049902
 21
0.685869
 31
0.0
  0
LINE
  8
0
  6
CONTINUOUS
 62
   250
 10
-0.049902
 20
0.667008
 30
0.0
 11
0.089022
 21
0.667008
 31
0.0
  0
LINE
  8
0
  6
CONTINUOUS
 62
   250
 10
0.089022
 20
0.685869
 30
0.0
 11
0.089022
 21
0.587258
 31
0.0
  0
TEXT
  8
0
  6
CONTINUOUS
 62
   250
 10
-0.019165
 20
0.670636
 30
0.0
 40
0.007528
  1
INPUT MODE
 41
1.328571
  7
MAIN
  0
LINE
  8
0
  6
CONTINUOUS
 62
   250
 10
-0.045421
 20
0.626676
 30
0.0
 11
-0.009569
 21
0.626676
 31
0.0
  0
INSERT
  8
0
 62
   250
  2
STRIP2
 10
-0.045421
 20
0.644601
 30
0.0
 41
0.179256
 42
0.179256
  0
INSERT
  8
0
 62
   250
  2
STRIP2
 10
-0.045421
 20
0.662527
 30
0.0
 41
0.179256
 42
0.179256
  0
INSERT
  8
0
 62
   250
  2
STRIP2
 10
-0.045421
 20
0.560993
 30
0.0
 41
0.179256
 42
0.179256
  0
INSERT
  8
0
 62
   250
  2
STRIP2
 10
-0.045421
 20
0.543068
 30
0.0
 41
0.179256
 42
0.179256
  0
LINE
  8
0
  6
CONTINUOUS
 62
   250
 10
-0.045421
 20
0.525142
 30
0.0
 11
-0.009569
 21
0.525142
 31
0.0
  0
TEXT
  8
0
  6
CONTINUOUS
 62
   250
 10
-0.019165
 20
0.569102
 30
0.0
 40
0.007528
  1
PULSE RANGE
 41
1.328571
  7
MAIN
  0
LINE
  8
0
  6
CONTINUOUS
 62
   250
 10
0.089022
 20
0.584336
 30
0.0
 11
0.089022
 21
0.467852
 31
0.0
  0
LINE
  8
0
  6
CONTINUOUS
 62
   250
 10
-0.049902
 20
0.565475
 30
0.0
 11
0.089022
 21
0.565475
 31
0.0
  0
LINE
  8
0
  6
CONTINUOUS
 62
   250
 10
-0.049902
 20
0.467852
 30
0.0
 11
-0.049902
 21
0.584336
 31
0.0
  0
LINE
  8
0
  6
CONTINUOUS
 62
   250
 10
0.089022
 20
0.584336
 30
0.0
 11
-0.049902
 21
0.584336
 31
0.0
  0
LINE
  8
0
  6
CONTINUOUS
 62
   250
 10
0.089022
 20
0.467852
 30
0.0
 11
-0.049902
 21
0.467852
 31
0.0
  0
LINE
  8
0
  6
CONTINUOUS
 62
   250
 10
-0.045421
 20
0.489291
 30
0.0
 11
-0.009569
 21
0.489291
 31
0.0
  0
TEXT
  8
0
  6
CONTINUOUS
 62
   250
 10
-0.006627
 20
0.546147
 30
0.0
 40
0.009411
  1
02-5 SEC
 41
1.233333
  7
SIMPLEX
  0
INSERT
  8
0
 62
   250
  2
STRIP2
 10
-0.045421
 20
0.507216
 30
0.0
 41
0.179256
 42
0.179256
  0
INSERT
  8
0
 62
   250
  2
STRIP2
 10
-0.045421
 20
0.525142
 30
0.0
 41
0.179256
 42
0.179256
  0
LINE
  8
0
  6
CONTINUOUS
 62
   250
 10
-0.045421
 20
0.471365
 30
0.0
 11
-0.009569
 21
0.471365
 31
0.0
  0
INSERT
  8
0
 62
   250
  2
STRIP2
 10
-0.045421
 20
0.489291
 30
0.0
 41
0.179256
 42
0.179256
  0
TEXT
  8
0
  6
CONTINUOUS
 62
   250
 10
-0.006627
 20
0.528275
 30
0.0
 40
0.009411
  1
1-25.5 SEC
 41
1.233333
  7
SIMPLEX
  0
TEXT
  8
0
  6
CONTINUOUS
 62
   250
 10
-0.006627
 20
0.509944
 30
0.0
 40
0.009411
  1
1-255 SEC
 41
1.233333
  7
SIMPLEX
  0
LINE
  8
0
  6
CONTINUOUS
 62
   250
 10
-0.009569
 20
0.497589
 30
0.0
 11
-0.002588
 21
0.497589
 31
0.0
  0
LINE
  8
0
  6
CONTINUOUS
 62
   250
 10
-0.002588
 20
0.497589
 30
0.0
 11
-0.002588
 21
0.478617
 31
0.0
  0
LINE
  8
0
  6
CONTINUOUS
 62
   250
 10
-0.002588
 20
0.478617
 30
0.0
 11
-0.009569
 21
0.478617
 31
0.0
  0
TEXT
  8
0
  6
CONTINUOUS
 62
   250
 10
0.00183
 20
0.482151
 30
0.0
 40
0.007623
  1
COUNT PULSE
 41
1.233333
  7
SIMPLEX
  0
INSERT
  8
0
 62
   250
  2
STRIP2
 10
-0.173217
 20
0.149099
 30
0.0
 41
0.179256
 42
0.179256
  0
INSERT
  8
0
 62
   250
  2
STRIP2
 10
-0.173217
 20
0.131173
 30
0.0
 41
0.179256
 42
0.179256
  0
TEXT
  8
0
  6
CONTINUOUS
 62
   250
 10
-0.132613
 20
0.116402
 30
0.0
 40
0.009411
  1
REVERSE
 41
1.233333
  7
SIMPLEX
  0
TEXT
  8
0
  6
CONTINUOUS
 62
   250
 10
-0.132613
 20
0.134328
 30
0.0
 40
0.009411
  1
DIRECT
 41
1.233333
  7
SIMPLEX
  0
LINE
  8
0
  6
CONTINUOUS
 62
   250
 10
-0.173217
 20
0.113247
 30
0.0
 11
-0.137366
 21
0.113247
 31
0.0
  0
TEXT
  8
0
  6
CONTINUOUS
 62
   250
 10
-0.157309
 20
0.157208
 30
0.0
 40
0.007528
  1
ACTION
 41
1.328571
  7
MAIN
  0
LINE
  8
0
  6
CONTINUOUS
 62
   250
 10
-0.061327
 20
0.172441
 30
0.0
 11
-0.061327
 21
0.108569
 31
0.0
  0
LINE
  8
0
  6
CONTINUOUS
 62
   250
 10
-0.177698
 20
0.15358
 30
0.0
 11
-0.061327
 21
0.15358
 31
0.0
  0
LINE
  8
0
  6
CONTINUOUS
 62
   250
 10
-0.177698
 20
0.108569
 30
0.0
 11
-0.177698
 21
0.172441
 31
0.0
  0
LINE
  8
0
  6
CONTINUOUS
 62
   250
 10
-0.061327
 20
0.172441
 30
0.0
 11
-0.177698
 21
0.172441
 31
0.0
  0
LINE
  8
0
  6
CONTINUOUS
 62
   250
 10
-0.061327
 20
0.108569
 30
0.0
 11
-0.177698
 21
0.108569
 31
0.0
  0
LINE
  8
0
  6
CONTINUOUS
 62
   250
 10
-0.061327
 20
0.040168
 30
0.0
 11
-0.177698
 21
0.040168
 31
0.0
  0
LINE
  8
0
  6
CONTINUOUS
 62
   250
 10
-0.061327
 20
0.10404
 30
0.0
 11
-0.177698
 21
0.10404
 31
0.0
  0
LINE
  8
0
  6
CONTINUOUS
 62
   250
 10
-0.177698
 20
0.040168
 30
0.0
 11
-0.177698
 21
0.10404
 31
0.0
  0
LINE
  8
0
  6
CONTINUOUS
 62
   250
 10
-0.177698
 20
0.085179
 30
0.0
 11
-0.061327
 21
0.085179
 31
0.0
  0
LINE
  8
0
  6
CONTINUOUS
 62
   250
 10
-0.061327
 20
0.10404
 30
0.0
 11
-0.061327
 21
0.040168
 31
0.0
  0
TEXT
  8
0
  6
CONTINUOUS
 62
   250
 10
-0.157309
 20
0.088806
 30
0.0
 40
0.007528
  1
OUTPUT TYPE
 41
1.328571
  7
MAIN
  0
LINE
  8
0
  6
CONTINUOUS
 62
   250
 10
-0.173217
 20
0.044846
 30
0.0
 11
-0.137366
 21
0.044846
 31
0.0
  0
TEXT
  8
0
  6
CONTINUOUS
 62
   250
 10
-0.132613
 20
0.065926
 30
0.0
 40
0.009411
  1
VOUT
 41
1.233333
  7
SIMPLEX
  0
TEXT
  8
0
  6
CONTINUOUS
 62
   250
 10
-0.132613
 20
0.048001
 30
0.0
 40
0.009411
  1
IOUT
 41
1.233333
  7
SIMPLEX
  0
INSERT
  8
0
 62
   250
  2
STRIP2
 10
-0.173217
 20
0.062772
 30
0.0
 41
0.179256
 42
0.179256
  0
INSERT
  8
0
 62
   250
  2
STRIP2
 10
-0.173217
 20
0.080697
 30
0.0
 41
0.179256
 42
0.179256
  0
LINE
  8
0
  6
CONTINUOUS
 62
   250
 10
-0.056934
 20
0.136755
 30
0.0
 11
0.011907
 21
0.136755
 31
0.0
  0
LINE
  8
0
  6
CONTINUOUS
 62
   250
 10
0.011907
 20
0.040325
 30
0.0
 11
-0.056934
 21
0.040325
 31
0.0
  0
LINE
  8
0
  6
CONTINUOUS
 62
   250
 10
0.011907
 20
0.172441
 30
0.0
 11
-0.056934
 21
0.172441
 31
0.0
  0
LINE
  8
0
  6
CONTINUOUS
 62
   250
 10
-0.056934
 20
0.040325
 30
0.0
 11
-0.056934
 21
0.172441
 31
0.0
  0
LINE
  8
0
  6
CONTINUOUS
 62
   250
 10
0.011907
 20
0.172441
 30
0.0
 11
0.011907
 21
0.040325
 31
0.0
  0
TEXT
  8
0
  6
CONTINUOUS
 62
   250
 10
-0.039698
 20
0.142269
 30
0.0
 40
0.007528
  1
RANGE
 41
1.328571
  7
MAIN
  0
LINE
  8
0
  6
CONTINUOUS
 62
   250
 10
-0.052453
 20
0.096422
 30
0.0
 11
-0.016602
 21
0.096422
 31
0.0
  0
TEXT
  8
0
  6
CONTINUOUS
 62
   250
 10
-0.011849
 20
0.117503
 30
0.0
 40
0.009411
  1
A
 41
1.333333
  7
SIMPLEX
  0
TEXT
  8
0
  6
CONTINUOUS
 62
   250
 10
-0.011849
 20
0.099577
 30
0.0
 40
0.009411
  1
B
 41
1.333333
  7
SIMPLEX
  0
INSERT
  8
0
 62
   250
  2
STRIP2
 10
-0.052453
 20
0.114348
 30
0.0
 41
0.179256
 42
0.179256
  0
INSERT
  8
0
 62
   250
  2
STRIP2
 10
-0.052453
 20
0.132274
 30
0.0
 41
0.179256
 42
0.179256
  0
TEXT
  8
0
  6
CONTINUOUS
 62
   250
 10
-0.011849
 20
0.063726
 30
0.0
 40
0.009411
  1
D
 41
1.333333
  7
SIMPLEX
  0
TEXT
  8
0
  6
CONTINUOUS
 62
   250
 10
-0.011849
 20
0.081651
 30
0.0
 40
0.009411
  1
C
 41
1.333333
  7
SIMPLEX
  0
CIRCLE
  8
0
  6
CONTINUOUS
 62
   250
 10
-0.04349
 20
0.087459
 30
0.0
 40
0.001793
  0
CIRCLE
  8
0
  6
CONTINUOUS
 62
   250
 10
-0.025565
 20
0.087459
 30
0.0
 40
0.001793
  0
LINE
  8
0
  6
CONTINUOUS
 62
   250
 10
-0.016602
 20
0.096422
 30
0.0
 11
-0.052453
 21
0.096422
 31
0.0
  0
LINE
  8
0
  6
CONTINUOUS
 62
   250
 10
-0.016602
 20
0.078497
 30
0.0
 11
-0.016602
 21
0.096422
 31
0.0
  0
LINE
  8
0
  6
CONTINUOUS
 62
   250
 10
-0.052453
 20
0.096422
 30
0.0
 11
-0.052453
 21
0.078497
 31
0.0
  0
CIRCLE
  8
0
  6
CONTINUOUS
 62
   250
 10
-0.025565
 20
0.06859
 30
0.0
 40
0.001793
  0
CIRCLE
  8
0
  6
CONTINUOUS
 62
   250
 10
-0.04349
 20
0.06859
 30
0.0
 40
0.001793
  0
CIRCLE
  8
0
  6
CONTINUOUS
 62
   250
 10
-0.04349
 20
0.050664
 30
0.0
 40
0.001793
  0
CIRCLE
  8
0
  6
CONTINUOUS
 62
   250
 10
-0.025565
 20
0.050664
 30
0.0
 40
0.001793
  0
TEXT
  8
0
  6
CONTINUOUS
 62
   250
 10
-0.011849
 20
0.0458
 30
0.0
 40
0.009411
  1
E
 41
1.333333
  7
SIMPLEX
  0
LINE
  8
0
  6
CONTINUOUS
 62
   250
 10
-0.052453
 20
0.078497
 30
0.0
 11
-0.016602
 21
0.078497
 31
0.0
  0
TEXT
  8
0
  6
CONTINUOUS
 62
   250
 10
-0.041638
 20
0.15705
 30
0.0
 40
0.007528
  1
OUTPUT
 41
1.328571
  7
MAIN
  0
CIRCLE
  8
0
  6
CONTINUOUS
 62
   250
 10
0.064645
 20
0.081327
 30
0.0
 40
0.001793
  0
CIRCLE
  8
0
  6
CONTINUOUS
 62
   250
 10
0.046719
 20
0.081327
 30
0.0
 40
0.001793
  0
CIRCLE
  8
0
  6
CONTINUOUS
 62
   250
 10
0.046719
 20
0.052551
 30
0.0
 40
0.001793
  0
CIRCLE
  8
0
  6
CONTINUOUS
 62
   250
 10
0.064645
 20
0.052551
 30
0.0
 40
0.001793
  0
TEXT
  8
0
  6
CONTINUOUS
 62
   250
 10
0.038387
 20
0.090693
 30
0.0
 40
0.007528
  1
RESET
 41
1.328571
  7
MAIN
  0
TEXT
  8
0
  6
CONTINUOUS
 62
   250
 10
0.046593
 20
0.059951
 30
0.0
 40
0.009411
  1
S1
 41
1.233333
  7
SIMPLEX
  0
LINE
  8
0
  6
CONTINUOUS
 62
   250
 10
0.064645
 20
0.081327
 30
0.0
 11
0.037596
 21
0.081327
 31
0.0
  0
LINE
  8
0
  6
CONTINUOUS
 62
   250
 10
0.037596
 20
0.081327
 30
0.0
 11
0.037596
 21
0.052974
 31
0.0
  0
LINE
  8
0
  6
CONTINUOUS
 62
   250
 10
0.037596
 20
0.052974
 30
0.0
 11
0.070333
 21
0.052974
 31
0.0
  0
LINE
  8
0
  6
CONTINUOUS
 62
   250
 10
0.070333
 20
0.052974
 30
0.0
 11
0.070333
 21
0.081593
 31
0.0
  0
LINE
  8
0
  6
CONTINUOUS
 62
   250
 10
0.070333
 20
0.081593
 30
0.0
 11
0.064645
 21
0.081327
 31
0.0
  0
INSERT
  8
0
 62
   250
  2
POTT
 10
0.207541
 20
0.28747
 30
0.0
 41
0.161382
 42
0.161382
 50
90.0
  0
INSERT
  8
0
 62
   250
  2
POTT
 10
0.243673
 20
0.28747
 30
0.0
 41
0.161382
 42
0.161382
 50
90.0
  0
TEXT
  8
0
  6
CONTINUOUS
 62
   250
 10
0.159253
 20
0.303483
 30
0.0
 40
0.007528
  1
POT2
 50
270.0
 41
1.328571
  7
MAIN
  0
TEXT
  8
0
  6
CONTINUOUS
 62
   250
 10
0.212926
 20
0.243378
 30
0.0
 40
0.007528
  1
OFFSET
 41
1.328571
  7
MAIN
  0
TEXT
  8
0
  6
CONTINUOUS
 62
   250
 10
0.169519
 20
0.243378
 30
0.0
 40
0.007528
  1
GAIN
 41
1.328571
  7
MAIN
  0
TEXT
  8
0
  6
CONTINUOUS
 62
   250
 10
0.246067
 20
0.303483
 30
0.0
 40
0.007528
  1
POT1
 50
270.0
 41
1.328571
  7
MAIN
  0
CIRCLE
  8
0
  6
CONTINUOUS
 62
   250
 10
0.098887
 20
0.290099
 30
0.0
 40
0.014467
  0
CIRCLE
  8
0
  6
CONTINUOUS
 62
   250
 10
-0.115663
 20
0.290099
 30
0.0
 40
0.014467
  0
TEXT
  8
0
  6
CONTINUOUS
 62
   250
 10
0.090948
 20
0.259888
 30
0.0
 40
0.007528
  1
NC
 41
1.328571
  7
MAIN
  0
TEXT
  8
0
  6
CONTINUOUS
 62
   250
 10
-0.123602
 20
0.259888
 30
0.0
 40
0.007528
  1
NO
 41
1.328571
  7
MAIN
  0
TEXT
  8
0
  6
CONTINUOUS
 62
   250
 10
0.067585
 20
0.297742
 30
0.0
 40
0.007528
  1
D3
 50
270.0
 41
1.328571
  7
MAIN
  0
TEXT
  8
0
  6
CONTINUOUS
 62
   250
 10
-0.146965
 20
0.297742
 30
0.0
 40
0.007528
  1
D2
 50
270.0
 41
1.328571
  7
MAIN
  0
LINE
  8
0
  6
CONTINUOUS
 62
   250
 10
-0.098445
 20
0.295917
 30
0.0
 11
-0.102418
 21
0.295917
 31
0.0
  0
LINE
  8
0
  6
CONTINUOUS
 62
   250
 10
-0.13288
 20
0.295917
 30
0.0
 11
-0.13288
 21
0.283337
 31
0.0
  0
LINE
  8
0
  6
CONTINUOUS
 62
   250
 10
-0.13288
 20
0.283337
 30
0.0
 11
-0.128452
 21
0.283337
 31
0.0
  0
LINE
  8
0
  6
CONTINUOUS
 62
   250
 10
-0.098445
 20
0.283337
 30
0.0
 11
-0.098445
 21
0.295917
 31
0.0
  0
LINE
  8
0
  6
CONTINUOUS
 62
   250
 10
0.081669
 20
0.283337
 30
0.0
 11
0.086098
 21
0.283337
 31
0.0
  0
LINE
  8
0
  6
CONTINUOUS
 62
   250
 10
0.116104
 20
0.283337
 30
0.0
 11
0.116104
 21
0.295917
 31
0.0
  0
LINE
  8
0
  6
CONTINUOUS
 62
   250
 10
0.116104
 20
0.295917
 30
0.0
 11
0.112132
 21
0.295917
 31
0.0
  0
LINE
  8
0
  6
CONTINUOUS
 62
   250
 10
0.081669
 20
0.295917
 30
0.0
 11
0.081669
 21
0.283337
 31
0.0
  0
LINE
  8
0
  6
CONTINUOUS
 62
   250
 10
0.111676
 20
0.283337
 30
0.0
 11
0.116104
 21
0.283337
 31
0.0
  0
LINE
  8
0
  6
CONTINUOUS
 62
   250
 10
0.085642
 20
0.295917
 30
0.0
 11
0.081669
 21
0.295917
 31
0.0
  0
LINE
  8
0
  6
CONTINUOUS
 62
   250
 10
-0.128908
 20
0.295917
 30
0.0
 11
-0.13288
 21
0.295917
 31
0.0
  0
LINE
  8
0
  6
CONTINUOUS
 62
   250
 10
-0.102874
 20
0.283337
 30
0.0
 11
-0.098445
 21
0.283337
 31
0.0
  0
LINE
  8
0
  6
CONTINUOUS
 62
   250
 10
0.146958
 20
0.786192
 30
0.0
 11
0.187893
 21
0.786192
 31
0.0
  0
LINE
  8
0
  6
CONTINUOUS
 62
   250
 10
0.187893
 20
0.786192
 30
0.0
 11
0.187893
 21
0.60077
 31
0.0
  0
LINE
  8
0
  6
CONTINUOUS
 62
   250
 10
0.187893
 20
0.60077
 30
0.0
 11
0.146958
 21
0.60077
 31
0.0
  0
LINE
  8
0
  6
CONTINUOUS
 62
   250
 10
0.146958
 20
0.60077
 30
0.0
 11
0.146958
 21
0.786192
 31
0.0
  0
TEXT
  8
0
  6
CONTINUOUS
 62
   250
 10
0.00711
 20
0.601596
 30
0.0
 40
0.009411
  1
ISOLATED
 41
1.233333
  7
SIMPLEX
  0
TEXT
  8
0
  6
CONTINUOUS
 62
   250
 10
0.000119
 20
0.63987
 30
0.0
 40
0.006588
  1
NOT ISOLATED
 41
1.233333
  7
SIMPLEX
  0
ENDSEC
  0
EOF
