  0
SECTION
  2
HEADER
  9
$ACADVER
  1
AC1009
  9
$INSBASE
 10
0.0
 20
0.0
 30
0.0
  9
$EXTMIN
 10
-0.279543
 20
0.0
 30
0.0
  9
$EXTMAX
 10
0.392509
 20
0.568633
 30
0.0
  9
$LIMMIN
 10
-2.074097
 20
0.0
  9
$LIMMAX
 10
2.878401
 20
4.169973
  9
$ORTHOMODE
 70
     1
  9
$REGENMODE
 70
     1
  9
$FILLMODE
 70
     1
  9
$QTEXTMODE
 70
     0
  9
$MIRRTEXT
 70
     1
  9
$DRAGMODE
 70
     1
  9
$LTSCALE
 40
1.0
  9
$OSMODE
 70
     0
  9
$ATTMODE
 70
     2
  9
$TEXTSIZE
 40
0.75
  9
$TRACEWID
 40
0.05
  9
$TEXTSTYLE
  7
STANDARD
  9
$CLAYER
  8
0
  9
$CELTYPE
  6
BYLAYER
  9
$CECOLOR
 62
   256
  9
$DIMSCALE
 40
1.0
  9
$DIMASZ
 40
1.0
  9
$DIMEXO
 40
0.5
  9
$DIMDLI
 40
0.38
  9
$DIMRND
 40
0.0
  9
$DIMDLE
 40
0.0
  9
$DIMEXE
 40
0.5
  9
$DIMTP
 40
0.0
  9
$DIMTM
 40
0.0
  9
$DIMTXT
 40
0.18
  9
$DIMCEN
 40
0.09
  9
$DIMTSZ
 40
0.0
  9
$DIMTOL
 70
     0
  9
$DIMLIM
 70
     0
  9
$DIMTIH
 70
     1
  9
$DIMTOH
 70
     1
  9
$DIMSE1
 70
     0
  9
$DIMSE2
 70
     0
  9
$DIMTAD
 70
     0
  9
$DIMZIN
 70
     0
  9
$DIMBLK
  1

  9
$DIMASO
 70
     1
  9
$DIMSHO
 70
     1
  9
$DIMPOST
  1
"
  9
$DIMAPOST
  1

  9
$DIMALT
 70
     0
  9
$DIMALTD
 70
     2
  9
$DIMALTF
 40
25.4
  9
$DIMLFAC
 40
1.0
  9
$DIMTOFL
 70
     0
  9
$DIMTVP
 40
0.0
  9
$DIMTIX
 70
     0
  9
$DIMSOXD
 70
     0
  9
$DIMSAH
 70
     0
  9
$DIMBLK1
  1

  9
$DIMBLK2
  1

  9
$DIMSTYLE
  2
*UNNAMED
  9
$DIMCLRD
 70
     0
  9
$DIMCLRE
 70
     0
  9
$DIMCLRT
 70
     0
  9
$DIMTFAC
 40
1.0
  9
$DIMGAP
 40
0.09
  9
$LUNITS
 70
     2
  9
$LUPREC
 70
     3
  9
$SKETCHINC
 40
0.1
  9
$FILLETRAD
 40
0.0
  9
$AUNITS
 70
     0
  9
$AUPREC
 70
     3
  9
$MENU
  1
acad
  9
$ELEVATION
 40
0.0
  9
$PELEVATION
 40
0.0
  9
$THICKNESS
 40
0.0
  9
$LIMCHECK
 70
     0
  9
$BLIPMODE
 70
     0
  9
$CHAMFERA
 40
0.5
  9
$CHAMFERB
 40
0.5
  9
$SKPOLY
 70
     0
  9
$TDCREATE
 40
2450620.391458564
  9
$TDUPDATE
 40
2450620.434458101
  9
$TDINDWG
 40
0.0005893519
  9
$TDUSRTIMER
 40
0.0005893519
  9
$USRTIMER
 70
     1
  9
$ANGBASE
 50
0.0
  9
$ANGDIR
 70
     0
  9
$PDMODE
 70
     2
  9
$PDSIZE
 40
0.0
  9
$PLINEWID
 40
0.0
  9
$COORDS
 70
     1
  9
$SPLFRAME
 70
     0
  9
$SPLINETYPE
 70
     6
  9
$SPLINESEGS
 70
     8
  9
$ATTDIA
 70
     0
  9
$ATTREQ
 70
     1
  9
$HANDLING
 70
     0
  9
$HANDSEED
  5
0
  9
$SURFTAB1
 70
     6
  9
$SURFTAB2
 70
     6
  9
$SURFTYPE
 70
     6
  9
$SURFU
 70
     6
  9
$SURFV
 70
     6
  9
$UCSNAME
  2

  9
$UCSORG
 10
0.0
 20
0.0
 30
0.0
  9
$UCSXDIR
 10
1.0
 20
0.0
 30
0.0
  9
$UCSYDIR
 10
0.0
 20
1.0
 30
0.0
  9
$PUCSNAME
  2

  9
$PUCSORG
 10
0.0
 20
0.0
 30
0.0
  9
$PUCSXDIR
 10
1.0
 20
0.0
 30
0.0
  9
$PUCSYDIR
 10
0.0
 20
1.0
 30
0.0
  9
$USERI1
 70
     0
  9
$USERI2
 70
     0
  9
$USERI3
 70
     0
  9
$USERI4
 70
     0
  9
$USERI5
 70
     0
  9
$USERR1
 40
0.0
  9
$USERR2
 40
0.0
  9
$USERR3
 40
0.0
  9
$USERR4
 40
0.0
  9
$USERR5
 40
0.0
  9
$WORLDVIEW
 70
     1
  9
$SHADEDGE
 70
     3
  9
$SHADEDIF
 70
    70
  9
$TILEMODE
 70
     1
  9
$MAXACTVP
 70
    16
  9
$PINSBASE
 10
0.0
 20
0.0
 30
0.0
  9
$PLIMCHECK
 70
     0
  9
$PEXTMIN
 10
1.000000E+20
 20
1.000000E+20
 30
1.000000E+20
  9
$PEXTMAX
 10
-1.000000E+20
 20
-1.000000E+20
 30
-1.000000E+20
  9
$PLIMMIN
 10
0.0
 20
0.0
  9
$PLIMMAX
 10
12.0
 20
9.0
  9
$UNITMODE
 70
     0
  9
$VISRETAIN
 70
     0
  9
$PLINEGEN
 70
     0
  9
$PSLTSCALE
 70
     1
  9
$TREEDEPTH
 70
  3020
  9
$DWGCODEPAGE
  3
ascii
  0
ENDSEC
  0
SECTION
  2
TABLES
  0
TABLE
  2
VPORT
 70
     2
  0
VPORT
  2
*ACTIVE
 70
     0
 10
0.0
 20
0.0
 11
1.0
 21
1.0
 12
0.818632
 22
2.084987
 13
0.0
 23
0.0
 14
1.0
 24
1.0
 15
1.0
 25
1.0
 16
0.0
 26
0.0
 36
1.0
 17
0.0
 27
0.0
 37
0.0
 40
4.169973
 41
1.387409
 42
50.0
 43
0.0
 44
0.0
 50
0.0
 51
0.0
 71
     0
 72
   100
 73
     1
 74
     1
 75
     0
 76
     0
 77
     0
 78
     0
  0
ENDTAB
  0
TABLE
  2
LTYPE
 70
     1
  0
LTYPE
  2
CONTINUOUS
 70
    64
  3
SOLID LINE
 72
    65
 73
     0
 40
0.0
  0
ENDTAB
  0
TABLE
  2
LAYER
 70
     2
  0
LAYER
  2
0
 70
    64
 62
     7
  6
CONTINUOUS
  0
LAYER
  2
1
 70
    64
 62
     4
  6
CONTINUOUS
  0
ENDTAB
  0
TABLE
  2
STYLE
 70
     2
  0
STYLE
  2
STANDARD
 70
     0
 40
0.0
 41
1.0
 50
0.0
 71
     0
 42
0.2
  3
txt
  4

  0
STYLE
  2
SIMPLEX
 70
    64
 40
0.0
 41
1.0
 50
0.0
 71
     0
 42
1.0
  3
ROMANS.SHX
  4

  0
ENDTAB
  0
TABLE
  2
VIEW
 70
     0
  0
ENDTAB
  0
TABLE
  2
UCS
 70
     0
  0
ENDTAB
  0
TABLE
  2
APPID
 70
     1
  0
APPID
  2
ACAD
 70
    64
  0
ENDTAB
  0
TABLE
  2
DIMSTYLE
 70
     0
  0
ENDTAB
  0
ENDSEC
  0
SECTION
  2
BLOCKS
  0
BLOCK
  8
0
  2
POTT
 70
    64
 10
0.0
 20
0.0
 30
0.0
  3
POTT
  0
LINE
  8
0
  6
CONTINUOUS
 62
     7
 10
-0.026783
 20
-0.18748
 30
0.0
 11
0.0
 21
-0.18748
 31
0.0
  0
LINE
  8
0
  6
CONTINUOUS
 62
     7
 10
-0.026783
 20
-0.160697
 30
0.0
 11
-0.026783
 21
-0.18748
 31
0.0
  0
LINE
  8
0
  6
CONTINUOUS
 62
     7
 10
0.0
 20
-0.160697
 30
0.0
 11
-0.026783
 21
-0.160697
 31
0.0
  0
LINE
  8
0
  6
CONTINUOUS
 62
     7
 10
-0.026783
 20
0.160697
 30
0.0
 11
0.0
 21
0.160697
 31
0.0
  0
LINE
  8
0
  6
CONTINUOUS
 62
     7
 10
-0.026783
 20
0.187478
 30
0.0
 11
-0.026783
 21
0.160697
 31
0.0
  0
LINE
  8
0
  6
CONTINUOUS
 62
     7
 10
0.0
 20
0.187478
 30
0.0
 11
-0.026783
 21
0.187478
 31
0.0
  0
LINE
  8
0
  6
CONTINUOUS
 62
     7
 10
0.111636
 20
0.175094
 30
0.0
 11
0.111636
 21
0.088393
 31
0.0
  0
LINE
  8
0
  6
CONTINUOUS
 62
     7
 10
0.1218
 20
0.175094
 30
0.0
 11
0.1218
 21
0.088393
 31
0.0
  0
CIRCLE
  8
0
  6
CONTINUOUS
 62
     7
 10
0.116719
 20
0.131744
 30
0.0
 40
0.043646
  0
LINE
  8
0
  6
CONTINUOUS
 62
     7
 10
0.0
 20
0.187478
 30
0.0
 11
0.173591
 21
0.187478
 31
0.0
  0
LINE
  8
0
  6
CONTINUOUS
 62
     7
 10
0.173591
 20
0.187478
 30
0.0
 11
0.173591
 21
-0.18748
 31
0.0
  0
LINE
  8
0
  6
CONTINUOUS
 62
     7
 10
0.173591
 20
-0.18748
 30
0.0
 11
0.0
 21
-0.18748
 31
0.0
  0
LINE
  8
0
  6
CONTINUOUS
 62
     7
 10
0.0
 20
-0.160697
 30
0.0
 11
0.0
 21
0.160697
 31
0.0
  0
ENDBLK
  8
0
  0
BLOCK
  8
0
  2
POT1T
 70
    64
 10
0.0
 20
0.0
 30
0.0
  3
POT1T
  0
LINE
  8
0
  6
CONTINUOUS
 62
   250
 10
0.124998
 20
0.0
 30
0.0
 11
0.124998
 21
-0.031202
 31
0.0
  0
LINE
  8
0
  6
CONTINUOUS
 62
   250
 10
-0.124998
 20
-0.031202
 30
0.0
 11
-0.124998
 21
0.0
 31
0.0
  0
LINE
  8
0
  6
CONTINUOUS
 62
   250
 10
0.044955
 20
0.0
 30
0.0
 11
0.044955
 21
-0.031202
 31
0.0
  0
LINE
  8
0
  6
CONTINUOUS
 62
   250
 10
-0.044954
 20
0.0
 30
0.0
 11
-0.044954
 21
-0.031202
 31
0.0
  0
LINE
  8
0
  6
CONTINUOUS
 62
   250
 10
-0.044954
 20
-0.031202
 30
0.0
 11
-0.124998
 21
-0.031202
 31
0.0
  0
LINE
  8
0
  6
CONTINUOUS
 62
   250
 10
0.044955
 20
-0.031202
 30
0.0
 11
0.124998
 21
-0.031202
 31
0.0
  0
LINE
  8
0
  6
CONTINUOUS
 62
   250
 10
0.124998
 20
0.0
 30
0.0
 11
-0.124998
 21
0.0
 31
0.0
  0
LINE
  8
0
  6
CONTINUOUS
 62
   250
 10
-0.124998
 20
0.249971
 30
0.0
 11
0.124998
 21
0.249971
 31
0.0
  0
CIRCLE
  8
0
  6
CONTINUOUS
 62
   250
 10
0.000001
 20
0.124986
 30
0.0
 40
0.047046
  0
LINE
  8
0
  6
CONTINUOUS
 62
   250
 10
0.047047
 20
0.124986
 30
0.0
 11
-0.047045
 21
0.124986
 31
0.0
  0
LINE
  8
0
  6
CONTINUOUS
 62
   250
 10
-0.124998
 20
0.0
 30
0.0
 11
-0.124998
 21
0.249971
 31
0.0
  0
LINE
  8
0
  6
CONTINUOUS
 62
   250
 10
0.000001
 20
0.172031
 30
0.0
 11
0.000001
 21
0.07794
 31
0.0
  0
LINE
  8
0
  6
CONTINUOUS
 62
   250
 10
0.124998
 20
0.249971
 30
0.0
 11
0.124998
 21
0.0
 31
0.0
  0
ENDBLK
  8
0
  0
BLOCK
  8
0
  2
STRIP2
 70
    64
 10
0.0
 20
0.0
 30
0.0
  3
STRIP2
  0
LINE
  8
1
  6
CONTINUOUS
 62
   250
 10
0.2
 20
0.0
 30
0.0
 11
0.0
 21
0.0
 31
0.0
  0
LINE
  8
1
  6
CONTINUOUS
 62
   250
 10
0.0
 20
0.0
 30
0.0
 11
0.0
 21
-0.1
 31
0.0
  0
CIRCLE
  8
1
  6
CONTINUOUS
 62
   250
 10
0.05
 20
-0.05
 30
0.0
 40
0.01
  0
CIRCLE
  8
1
  6
CONTINUOUS
 62
   250
 10
0.15
 20
-0.05
 30
0.0
 40
0.01
  0
LINE
  8
1
  6
CONTINUOUS
 62
   250
 10
0.2
 20
-0.1
 30
0.0
 11
0.2
 21
0.0
 31
0.0
  0
ENDBLK
  8
0
  0
ENDSEC
  0
SECTION
  2
ENTITIES
  0
LINE
  8
0
  6
CONTINUOUS
 62
   250
 10
0.279543
 20
0.0
 30
0.0
 11
0.279543
 21
0.568633
 31
0.0
  0
LINE
  8
0
  6
CONTINUOUS
 62
   250
 10
-0.279543
 20
0.568633
 30
0.0
 11
0.279543
 21
0.568633
 31
0.0
  0
LINE
  8
0
  6
CONTINUOUS
 62
   250
 10
0.279543
 20
0.0
 30
0.0
 11
-0.279543
 21
0.0
 31
0.0
  0
LINE
  8
0
  6
CONTINUOUS
 62
   250
 10
-0.279543
 20
0.0
 30
0.0
 11
-0.279543
 21
0.568633
 31
0.0
  0
LINE
  8
0
  6
CONTINUOUS
 62
   250
 10
-0.279543
 20
0.551587
 30
0.0
 11
0.279543
 21
0.551587
 31
0.0
  0
LINE
  8
0
  6
CONTINUOUS
 62
   250
 10
0.279543
 20
0.01705
 30
0.0
 11
-0.279543
 21
0.01705
 31
0.0
  0
LINE
  8
0
  6
CONTINUOUS
 62
   250
 10
0.258045
 20
0.075852
 30
0.0
 11
0.258045
 21
0.035493
 31
0.0
  0
LINE
  8
0
  6
CONTINUOUS
 62
   250
 10
0.258045
 20
0.122937
 30
0.0
 11
0.258045
 21
0.082578
 31
0.0
  0
LINE
  8
0
  6
CONTINUOUS
 62
   250
 10
0.251318
 20
0.082578
 30
0.0
 11
0.258045
 21
0.082578
 31
0.0
  0
LINE
  8
0
  6
CONTINUOUS
 62
   250
 10
0.258045
 20
0.075852
 30
0.0
 11
0.251318
 21
0.075852
 31
0.0
  0
LINE
  8
0
  6
CONTINUOUS
 62
   250
 10
0.251318
 20
0.075852
 30
0.0
 11
0.251318
 21
0.082578
 31
0.0
  0
LINE
  8
0
  6
CONTINUOUS
 62
   250
 10
0.258045
 20
0.122937
 30
0.0
 11
0.170601
 21
0.122937
 31
0.0
  0
LINE
  8
0
  6
CONTINUOUS
 62
   250
 10
0.258045
 20
0.035493
 30
0.0
 11
0.175717
 21
0.035493
 31
0.0
  0
ARC
  8
0
  6
CONTINUOUS
 62
   250
 10
0.175717
 20
0.040609
 30
0.0
 40
0.005116
 50
179.99855
 51
269.997101
  0
INSERT
  8
0
 62
   250
  2
POTT
 10
0.111614
 20
0.067987
 30
0.0
 41
0.136364
 42
0.136364
 43
0.136364
  0
TEXT
  8
0
  6
CONTINUOUS
 62
   250
 10
0.097028
 20
0.028035
 30
0.0
 40
0.007063
  1
OFFSET
 41
1.233333
  7
SIMPLEX
  0
INSERT
  8
0
 62
   250
  2
POT1T
 10
-0.219498
 20
0.048319
 30
0.0
 41
0.136364
 42
0.136364
 43
0.136364
  0
INSERT
  8
0
 62
   250
  2
POT1T
 10
0.0584
 20
0.048319
 30
0.0
 41
0.136364
 42
0.136364
 43
0.136364
  0
INSERT
  8
0
 62
   250
  2
POT1T
 10
-0.145156
 20
0.048319
 30
0.0
 41
0.136364
 42
0.136364
 43
0.136364
  0
TEXT
  8
0
  6
CONTINUOUS
 62
   250
 10
0.044812
 20
0.028035
 30
0.0
 40
0.007063
  1
GAIN
 41
1.233333
  7
SIMPLEX
  0
TEXT
  8
0
  6
CONTINUOUS
 62
   250
 10
-0.229545
 20
0.028035
 30
0.0
 40
0.007063
  1
24V
 41
1.233333
  7
SIMPLEX
  0
TEXT
  8
0
  6
CONTINUOUS
 62
   250
 10
-0.161399
 20
0.028035
 30
0.0
 40
0.007063
  1
VOUT
 41
1.233333
  7
SIMPLEX
  0
LINE
  8
0
  6
CONTINUOUS
 62
   250
 10
-0.259768
 20
0.286826
 30
0.0
 11
-0.259768
 21
0.448217
 31
0.0
  0
TEXT
  8
0
  6
CONTINUOUS
 62
   250
 10
-0.252052
 20
0.404495
 30
0.0
 40
0.007063
  1
GND
 41
1.233333
  7
SIMPLEX
  0
CIRCLE
  8
0
  6
CONTINUOUS
 62
   250
 10
-0.208918
 20
0.407858
 30
0.0
 40
0.006727
  0
LINE
  8
0
  6
CONTINUOUS
 62
   250
 10
-0.204162
 20
0.403101
 30
0.0
 11
-0.213675
 21
0.412614
 31
0.0
  0
LINE
  8
0
  6
CONTINUOUS
 62
   250
 10
-0.192502
 20
0.286826
 30
0.0
 11
-0.192502
 21
0.448217
 31
0.0
  0
CIRCLE
  8
0
  6
CONTINUOUS
 62
   250
 10
-0.208918
 20
0.300279
 30
0.0
 40
0.006727
  0
LINE
  8
0
  6
CONTINUOUS
 62
   250
 10
-0.208918
 20
0.293552
 30
0.0
 11
-0.208918
 21
0.307006
 31
0.0
  0
LINE
  8
0
  6
CONTINUOUS
 62
   250
 10
-0.192502
 20
0.286826
 30
0.0
 11
-0.259768
 21
0.286826
 31
0.0
  0
TEXT
  8
0
  6
CONTINUOUS
 62
   250
 10
-0.252052
 20
0.377589
 30
0.0
 40
0.008475
  1
+P
 41
1.011111
  7
SIMPLEX
  0
TEXT
  8
0
  6
CONTINUOUS
 62
   250
 10
-0.255938
 20
0.350263
 30
0.0
 40
0.00482
  1
LOOP IN
 41
1.233333
  7
SIMPLEX
  0
LINE
  8
0
  6
CONTINUOUS
 62
   250
 10
-0.259768
 20
0.394405
 30
0.0
 11
-0.192502
 21
0.394405
 31
0.0
  0
CIRCLE
  8
0
  6
CONTINUOUS
 62
   250
 10
-0.208918
 20
0.354046
 30
0.0
 40
0.006727
  0
LINE
  8
0
  6
CONTINUOUS
 62
   250
 10
-0.213675
 20
0.34929
 30
0.0
 11
-0.204162
 21
0.358802
 31
0.0
  0
CIRCLE
  8
0
  6
CONTINUOUS
 62
   250
 10
-0.208918
 20
0.32714
 30
0.0
 40
0.006727
  0
LINE
  8
0
  6
CONTINUOUS
 62
   250
 10
-0.208918
 20
0.320414
 30
0.0
 11
-0.208918
 21
0.333867
 31
0.0
  0
LINE
  8
0
  6
CONTINUOUS
 62
   250
 10
-0.202192
 20
0.380952
 30
0.0
 11
-0.215645
 21
0.380952
 31
0.0
  0
CIRCLE
  8
0
  6
CONTINUOUS
 62
   250
 10
-0.208918
 20
0.380952
 30
0.0
 40
0.006727
  0
TEXT
  8
0
  6
CONTINUOUS
 62
   250
 10
-0.252052
 20
0.4314
 30
0.0
 40
0.007063
  1
+24V
 41
1.233333
  7
SIMPLEX
  0
LINE
  8
0
  6
CONTINUOUS
 62
   250
 10
-0.192502
 20
0.448217
 30
0.0
 11
-0.259768
 21
0.448217
 31
0.0
  0
CIRCLE
  8
0
  6
CONTINUOUS
 62
   250
 10
-0.208918
 20
0.434764
 30
0.0
 40
0.006727
  0
LINE
  8
0
  6
CONTINUOUS
 62
   250
 10
-0.213675
 20
0.430008
 30
0.0
 11
-0.204162
 21
0.43952
 31
0.0
  0
TEXT
  8
0
  6
CONTINUOUS
 62
   250
 10
-0.25611
 20
0.324079
 30
0.0
 40
0.00482
  1
LOOP OUT
 41
1.1
  7
SIMPLEX
  0
TEXT
  8
0
  6
CONTINUOUS
 62
   250
 10
-0.271235
 20
0.429449
 30
0.0
 40
0.008475
  1
1
 41
1.111111
  7
SIMPLEX
  0
TEXT
  8
0
  6
CONTINUOUS
 62
   250
 10
-0.272645
 20
0.403862
 30
0.0
 40
0.008475
  1
3
 41
1.111111
  7
SIMPLEX
  0
TEXT
  8
0
  6
CONTINUOUS
 62
   250
 10
-0.273414
 20
0.377237
 30
0.0
 40
0.008475
  1
4
 41
1.111111
  7
SIMPLEX
  0
TEXT
  8
0
  6
CONTINUOUS
 62
   250
 10
-0.273119
 20
0.348592
 30
0.0
 40
0.008475
  1
5
 41
1.111111
  7
SIMPLEX
  0
TEXT
  8
0
  6
CONTINUOUS
 62
   250
 10
-0.272425
 20
0.32144
 30
0.0
 40
0.008475
  1
6
 41
1.111111
  7
SIMPLEX
  0
LINE
  8
0
  6
CONTINUOUS
 62
   250
 10
-0.120827
 20
0.346062
 30
0.0
 11
0.051799
 21
0.346062
 31
0.0
  0
LINE
  8
0
  6
CONTINUOUS
 62
   250
 10
-0.120827
 20
0.13611
 30
0.0
 11
0.051799
 21
0.13611
 31
0.0
  0
LINE
  8
0
  6
CONTINUOUS
 62
   250
 10
0.051799
 20
0.13611
 30
0.0
 11
0.051799
 21
0.346062
 31
0.0
  0
LINE
  8
0
  6
CONTINUOUS
 62
   250
 10
0.067493
 20
0.13611
 30
0.0
 11
0.058525
 21
0.13611
 31
0.0
  0
LINE
  8
0
  6
CONTINUOUS
 62
   250
 10
0.067493
 20
0.13611
 30
0.0
 11
0.067493
 21
0.169022
 31
0.0
  0
LINE
  8
0
  6
CONTINUOUS
 62
   250
 10
0.058525
 20
0.13611
 30
0.0
 11
0.058525
 21
0.169022
 31
0.0
  0
LINE
  8
0
  6
CONTINUOUS
 62
   250
 10
0.058525
 20
0.169022
 30
0.0
 11
0.067493
 21
0.169022
 31
0.0
  0
LINE
  8
0
  6
CONTINUOUS
 62
   250
 10
0.058525
 20
0.143448
 30
0.0
 11
0.051796
 21
0.143448
 31
0.0
  0
LINE
  8
0
  6
CONTINUOUS
 62
   250
 10
0.058525
 20
0.161989
 30
0.0
 11
0.051799
 21
0.161989
 31
0.0
  0
LINE
  8
0
  6
CONTINUOUS
 62
   250
 10
0.067493
 20
0.190615
 30
0.0
 11
0.058525
 21
0.190615
 31
0.0
  0
LINE
  8
0
  6
CONTINUOUS
 62
   250
 10
0.067493
 20
0.190615
 30
0.0
 11
0.067493
 21
0.223526
 31
0.0
  0
LINE
  8
0
  6
CONTINUOUS
 62
   250
 10
0.058525
 20
0.190615
 30
0.0
 11
0.058525
 21
0.223526
 31
0.0
  0
LINE
  8
0
  6
CONTINUOUS
 62
   250
 10
0.058525
 20
0.223526
 30
0.0
 11
0.067493
 21
0.223526
 31
0.0
  0
LINE
  8
0
  6
CONTINUOUS
 62
   250
 10
0.058525
 20
0.197953
 30
0.0
 11
0.051796
 21
0.197953
 31
0.0
  0
LINE
  8
0
  6
CONTINUOUS
 62
   250
 10
0.058525
 20
0.216494
 30
0.0
 11
0.051799
 21
0.216494
 31
0.0
  0
CIRCLE
  8
0
  6
CONTINUOUS
 62
   250
 10
-0.108448
 20
0.179685
 30
0.0
 40
0.01478
  0
LINE
  8
0
  6
CONTINUOUS
 62
   250
 10
-0.120827
 20
0.171609
 30
0.0
 11
-0.120827
 21
0.13611
 31
0.0
  0
LINE
  8
0
  6
CONTINUOUS
 62
   250
 10
-0.120827
 20
0.18776
 30
0.0
 11
-0.120827
 21
0.346062
 31
0.0
  0
LINE
  8
0
  6
CONTINUOUS
 62
   250
 10
-0.093668
 20
0.179685
 30
0.0
 11
-0.123229
 21
0.179685
 31
0.0
  0
CIRCLE
  8
0
  6
CONTINUOUS
 62
   250
 10
-0.015099
 20
0.179685
 30
0.0
 40
0.01478
  0
LINE
  8
0
  6
CONTINUOUS
 62
   250
 10
-0.000318
 20
0.179685
 30
0.0
 11
-0.029879
 21
0.179685
 31
0.0
  0
TEXT
  8
0
  6
CONTINUOUS
 62
   250
 10
-0.255961
 20
0.296916
 30
0.0
 40
0.008475
  1
VOUT
 41
1.011111
  7
SIMPLEX
  0
INSERT
  8
0
 62
   250
  2
STRIP2
 10
-0.171605
 20
0.392999
 30
0.0
 41
0.134529
 42
0.134529
 43
0.136364
  0
INSERT
  8
0
 62
   250
  2
STRIP2
 10
-0.171605
 20
0.366094
 30
0.0
 41
0.134529
 42
0.134529
 43
0.136364
  0
LINE
  8
0
  6
CONTINUOUS
 62
   250
 10
-0.171605
 20
0.352641
 30
0.0
 11
-0.144699
 21
0.352641
 31
0.0
  0
INSERT
  8
0
 62
   250
  2
STRIP2
 10
-0.171605
 20
0.379546
 30
0.0
 41
0.134529
 42
0.134529
 43
0.136364
  0
TEXT
  8
0
  6
CONTINUOUS
 62
   250
 10
-0.14056
 20
0.382536
 30
0.0
 40
0.007063
  1
0/10V
 41
1.233333
  7
SIMPLEX
  0
TEXT
  8
0
  6
CONTINUOUS
 62
   250
 10
-0.14056
 20
0.369088
 30
0.0
 40
0.007063
  1
2/10V
 41
1.233333
  7
SIMPLEX
  0
TEXT
  8
0
  6
CONTINUOUS
 62
   250
 10
-0.14056
 20
0.35564
 30
0.0
 40
0.007063
  1
4/20mA
 41
1.233333
  7
SIMPLEX
  0
INSERT
  8
0
 62
   250
  2
STRIP2
 10
-0.235783
 20
0.147408
 30
0.0
 41
0.134529
 42
0.134529
 43
0.136364
  0
LINE
  8
0
  6
CONTINUOUS
 62
   250
 10
-0.235783
 20
0.133955
 30
0.0
 11
-0.208877
 21
0.133955
 31
0.0
  0
INSERT
  8
0
 62
   250
  2
STRIP2
 10
-0.235783
 20
0.160861
 30
0.0
 41
0.134529
 42
0.134529
 43
0.136364
  0
TEXT
  8
0
  6
CONTINUOUS
 62
   250
 10
-0.255947
 20
0.149783
 30
0.0
 40
0.007063
  1
DA
 41
1.233333
  7
SIMPLEX
  0
TEXT
  8
0
  6
CONTINUOUS
 62
   250
 10
-0.255947
 20
0.136335
 30
0.0
 40
0.007063
  1
RA
 41
1.233333
  7
SIMPLEX
  0
LINE
  8
1
  6
CONTINUOUS
 62
   250
 10
0.368967
 20
0.193662
 30
0.0
 11
0.368967
 21
0.220567
 31
0.0
  0
LINE
  8
1
  6
CONTINUOUS
 62
   250
 10
0.345424
 20
0.220567
 30
0.0
 11
0.345424
 21
0.193662
 31
0.0
  0
LINE
  8
1
  6
CONTINUOUS
 62
   250
 10
0.379056
 20
0.193662
 30
0.0
 11
0.392509
 21
0.197025
 31
0.0
  0
LINE
  8
1
  6
CONTINUOUS
 62
   250
 10
0.379056
 20
0.220567
 30
0.0
 11
0.392509
 21
0.217204
 31
0.0
  0
LINE
  8
1
  6
CONTINUOUS
 62
   250
 10
0.392509
 20
0.197025
 30
0.0
 11
0.392509
 21
0.217204
 31
0.0
  0
LINE
  8
1
  6
CONTINUOUS
 62
   250
 10
0.379056
 20
0.220567
 30
0.0
 11
0.379056
 21
0.193662
 31
0.0
  0
LINE
  8
1
  6
CONTINUOUS
 62
   250
 10
0.379056
 20
0.193662
 30
0.0
 11
0.331971
 21
0.193662
 31
0.0
  0
LINE
  8
1
  6
CONTINUOUS
 62
   250
 10
0.331971
 20
0.193662
 30
0.0
 11
0.331971
 21
0.220567
 31
0.0
  0
LINE
  8
1
  6
CONTINUOUS
 62
   250
 10
0.331971
 20
0.220567
 30
0.0
 11
0.379056
 21
0.220567
 31
0.0
  0
LINE
  8
0
  6
CONTINUOUS
 62
   250
 10
0.331971
 20
0.220567
 30
0.0
 11
0.331971
 21
0.226868
 31
0.0
  0
LINE
  8
0
  6
CONTINUOUS
 62
   250
 10
0.331971
 20
0.226868
 30
0.0
 11
0.326394
 21
0.226868
 31
0.0
  0
LINE
  8
0
  6
CONTINUOUS
 62
   250
 10
0.331971
 20
0.193662
 30
0.0
 11
0.331971
 21
0.187362
 31
0.0
  0
LINE
  8
0
  6
CONTINUOUS
 62
   250
 10
0.331971
 20
0.187362
 30
0.0
 11
0.326394
 21
0.187362
 31
0.0
  0
LINE
  8
0
  6
CONTINUOUS
 62
   250
 10
0.326394
 20
0.187362
 30
0.0
 11
0.326394
 21
0.226868
 31
0.0
  0
LINE
  8
0
  6
CONTINUOUS
 62
   250
 10
0.166113
 20
0.172442
 30
0.0
 11
0.166113
 21
0.15758
 31
0.0
  0
LINE
  8
0
  6
CONTINUOUS
 62
   250
 10
0.166113
 20
0.147798
 30
0.0
 11
0.166113
 21
0.132936
 31
0.0
  0
LINE
  8
0
  6
CONTINUOUS
 62
   250
 10
0.166113
 20
0.132936
 30
0.0
 11
0.151382
 21
0.132936
 31
0.0
  0
LINE
  8
0
  6
CONTINUOUS
 62
   250
 10
0.141339
 20
0.132936
 30
0.0
 11
0.126607
 21
0.132936
 31
0.0
  0
LINE
  8
0
  6
CONTINUOUS
 62
   250
 10
0.126607
 20
0.132936
 30
0.0
 11
0.126607
 21
0.147798
 31
0.0
  0
LINE
  8
0
  6
CONTINUOUS
 62
   250
 10
0.126607
 20
0.15758
 30
0.0
 11
0.126607
 21
0.172442
 31
0.0
  0
LINE
  8
0
  6
CONTINUOUS
 62
   250
 10
0.126607
 20
0.172442
 30
0.0
 11
0.141339
 21
0.172442
 31
0.0
  0
LINE
  8
0
  6
CONTINUOUS
 62
   250
 10
0.166113
 20
0.172442
 30
0.0
 11
0.151382
 21
0.172442
 31
0.0
  0
LINE
  8
1
  6
CONTINUOUS
 62
   250
 10
0.368967
 20
0.139236
 30
0.0
 11
0.368967
 21
0.166142
 31
0.0
  0
LINE
  8
1
  6
CONTINUOUS
 62
   250
 10
0.345424
 20
0.166142
 30
0.0
 11
0.345424
 21
0.139236
 31
0.0
  0
LINE
  8
1
  6
CONTINUOUS
 62
   250
 10
0.379056
 20
0.139236
 30
0.0
 11
0.392509
 21
0.142599
 31
0.0
  0
LINE
  8
1
  6
CONTINUOUS
 62
   250
 10
0.379056
 20
0.166142
 30
0.0
 11
0.392509
 21
0.162779
 31
0.0
  0
LINE
  8
1
  6
CONTINUOUS
 62
   250
 10
0.392509
 20
0.142599
 30
0.0
 11
0.392509
 21
0.162779
 31
0.0
  0
LINE
  8
1
  6
CONTINUOUS
 62
   250
 10
0.379056
 20
0.166142
 30
0.0
 11
0.379056
 21
0.139236
 31
0.0
  0
LINE
  8
1
  6
CONTINUOUS
 62
   250
 10
0.379056
 20
0.139236
 30
0.0
 11
0.331971
 21
0.139236
 31
0.0
  0
LINE
  8
1
  6
CONTINUOUS
 62
   250
 10
0.331971
 20
0.139236
 30
0.0
 11
0.331971
 21
0.166142
 31
0.0
  0
LINE
  8
1
  6
CONTINUOUS
 62
   250
 10
0.331971
 20
0.166142
 30
0.0
 11
0.379056
 21
0.166142
 31
0.0
  0
LINE
  8
0
  6
CONTINUOUS
 62
   250
 10
0.331971
 20
0.166142
 30
0.0
 11
0.331971
 21
0.172442
 31
0.0
  0
LINE
  8
0
  6
CONTINUOUS
 62
   250
 10
0.331971
 20
0.172442
 30
0.0
 11
0.326394
 21
0.172442
 31
0.0
  0
LINE
  8
0
  6
CONTINUOUS
 62
   250
 10
0.331971
 20
0.139236
 30
0.0
 11
0.331971
 21
0.132936
 31
0.0
  0
LINE
  8
0
  6
CONTINUOUS
 62
   250
 10
0.331971
 20
0.132936
 30
0.0
 11
0.326394
 21
0.132936
 31
0.0
  0
LINE
  8
0
  6
CONTINUOUS
 62
   250
 10
0.326394
 20
0.132936
 30
0.0
 11
0.326394
 21
0.172442
 31
0.0
  0
LINE
  8
0
  6
CONTINUOUS
 62
   250
 10
0.326394
 20
0.143173
 30
0.0
 11
0.173406
 21
0.143173
 31
0.0
  0
LINE
  8
0
  6
CONTINUOUS
 62
   250
 10
0.326394
 20
0.162205
 30
0.0
 11
0.173406
 21
0.162205
 31
0.0
  0
LINE
  8
0
  6
CONTINUOUS
 62
   250
 10
0.173406
 20
0.162205
 30
0.0
 11
0.173406
 21
0.143173
 31
0.0
  0
LINE
  8
0
  6
CONTINUOUS
 62
   250
 10
0.119705
 20
0.162205
 30
0.0
 11
0.119705
 21
0.143173
 31
0.0
  0
LINE
  8
0
  6
CONTINUOUS
 62
   250
 10
0.155877
 20
0.179369
 30
0.0
 11
0.136844
 21
0.179369
 31
0.0
  0
LINE
  8
0
  6
CONTINUOUS
 62
   250
 10
0.136844
 20
0.126009
 30
0.0
 11
0.155877
 21
0.126009
 31
0.0
  0
LINE
  8
0
  6
CONTINUOUS
 62
   250
 10
0.166113
 20
0.15758
 30
0.0
 11
0.173406
 21
0.15758
 31
0.0
  0
LINE
  8
0
  6
CONTINUOUS
 62
   250
 10
0.173406
 20
0.147798
 30
0.0
 11
0.166113
 21
0.147798
 31
0.0
  0
LINE
  8
0
  6
CONTINUOUS
 62
   250
 10
0.141339
 20
0.126009
 30
0.0
 11
0.141339
 21
0.132936
 31
0.0
  0
LINE
  8
0
  6
CONTINUOUS
 62
   250
 10
0.151382
 20
0.132936
 30
0.0
 11
0.151382
 21
0.126009
 31
0.0
  0
LINE
  8
0
  6
CONTINUOUS
 62
   250
 10
0.126607
 20
0.147798
 30
0.0
 11
0.119705
 21
0.147798
 31
0.0
  0
LINE
  8
0
  6
CONTINUOUS
 62
   250
 10
0.119705
 20
0.15758
 30
0.0
 11
0.126607
 21
0.15758
 31
0.0
  0
LINE
  8
0
  6
CONTINUOUS
 62
   250
 10
0.141339
 20
0.172442
 30
0.0
 11
0.141339
 21
0.179369
 31
0.0
  0
LINE
  8
0
  6
CONTINUOUS
 62
   250
 10
0.151382
 20
0.172442
 30
0.0
 11
0.151382
 21
0.179369
 31
0.0
  0
LINE
  8
0
  6
CONTINUOUS
 62
   250
 10
0.067493
 20
0.143173
 30
0.0
 11
0.119705
 21
0.143173
 31
0.0
  0
LINE
  8
0
  6
CONTINUOUS
 62
   250
 10
0.067493
 20
0.162205
 30
0.0
 11
0.119705
 21
0.162205
 31
0.0
  0
LINE
  8
0
  6
CONTINUOUS
 62
   250
 10
0.326394
 20
0.216631
 30
0.0
 11
0.067493
 21
0.216631
 31
0.0
  0
LINE
  8
0
  6
CONTINUOUS
 62
   250
 10
0.326394
 20
0.197598
 30
0.0
 11
0.067493
 21
0.197598
 31
0.0
  0
POLYLINE
  8
0
  6
CONTINUOUS
 62
   250
 66
     1
 10
0.0
 20
0.0
 30
0.0
  0
VERTEX
  8
0
 62
   250
 10
0.136844
 20
0.179369
 30
0.0
  0
VERTEX
  8
0
 62
   250
 10
0.136944
 20
0.18011
 30
0.0
  0
VERTEX
  8
0
 62
   250
 10
0.137022
 20
0.180964
 30
0.0
  0
VERTEX
  8
0
 62
   250
 10
0.137078
 20
0.181904
 30
0.0
  0
VERTEX
  8
0
 62
   250
 10
0.137111
 20
0.182901
 30
0.0
  0
VERTEX
  8
0
 62
   250
 10
0.137122
 20
0.183926
 30
0.0
  0
VERTEX
  8
0
 62
   250
 10
0.137111
 20
0.184951
 30
0.0
  0
VERTEX
  8
0
 62
   250
 10
0.137078
 20
0.185948
 30
0.0
  0
VERTEX
  8
0
 62
   250
 10
0.137022
 20
0.186888
 30
0.0
  0
VERTEX
  8
0
 62
   250
 10
0.136944
 20
0.187743
 30
0.0
  0
VERTEX
  8
0
 62
   250
 10
0.136844
 20
0.188484
 30
0.0
  0
VERTEX
  8
0
 62
   250
 10
0.136759
 20
0.18892
 30
0.0
  0
VERTEX
  8
0
 62
   250
 10
0.136641
 20
0.189416
 30
0.0
  0
VERTEX
  8
0
 62
   250
 10
0.136493
 20
0.189956
 30
0.0
  0
VERTEX
  8
0
 62
   250
 10
0.136323
 20
0.190524
 30
0.0
  0
VERTEX
  8
0
 62
   250
 10
0.136134
 20
0.191104
 30
0.0
  0
VERTEX
  8
0
 62
   250
 10
0.135933
 20
0.191679
 30
0.0
  0
VERTEX
  8
0
 62
   250
 10
0.135723
 20
0.192234
 30
0.0
  0
VERTEX
  8
0
 62
   250
 10
0.135512
 20
0.192752
 30
0.0
  0
VERTEX
  8
0
 62
   250
 10
0.135304
 20
0.193218
 30
0.0
  0
VERTEX
  8
0
 62
   250
 10
0.135104
 20
0.193614
 30
0.0
  0
VERTEX
  8
0
 62
   250
 10
0.134988
 20
0.193816
 30
0.0
  0
VERTEX
  8
0
 62
   250
 10
0.134844
 20
0.194043
 30
0.0
  0
VERTEX
  8
0
 62
   250
 10
0.134679
 20
0.194286
 30
0.0
  0
VERTEX
  8
0
 62
   250
 10
0.134498
 20
0.194539
 30
0.0
  0
VERTEX
  8
0
 62
   250
 10
0.134305
 20
0.194794
 30
0.0
  0
VERTEX
  8
0
 62
   250
 10
0.134106
 20
0.195044
 30
0.0
  0
VERTEX
  8
0
 62
   250
 10
0.133905
 20
0.195282
 30
0.0
  0
VERTEX
  8
0
 62
   250
 10
0.133708
 20
0.195498
 30
0.0
  0
VERTEX
  8
0
 62
   250
 10
0.13352
 20
0.195688
 30
0.0
  0
VERTEX
  8
0
 62
   250
 10
0.133346
 20
0.195841
 30
0.0
  0
VERTEX
  8
0
 62
   250
 10
0.133137
 20
0.195995
 30
0.0
  0
VERTEX
  8
0
 62
   250
 10
0.132887
 20
0.196155
 30
0.0
  0
VERTEX
  8
0
 62
   250
 10
0.132604
 20
0.196318
 30
0.0
  0
VERTEX
  8
0
 62
   250
 10
0.132298
 20
0.19648
 30
0.0
  0
VERTEX
  8
0
 62
   250
 10
0.131979
 20
0.196637
 30
0.0
  0
VERTEX
  8
0
 62
   250
 10
0.131655
 20
0.196787
 30
0.0
  0
VERTEX
  8
0
 62
   250
 10
0.131337
 20
0.196925
 30
0.0
  0
VERTEX
  8
0
 62
   250
 10
0.131033
 20
0.197048
 30
0.0
  0
VERTEX
  8
0
 62
   250
 10
0.130753
 20
0.197152
 30
0.0
  0
VERTEX
  8
0
 62
   250
 10
0.130506
 20
0.197233
 30
0.0
  0
VERTEX
  8
0
 62
   250
 10
0.130257
 20
0.197302
 30
0.0
  0
VERTEX
  8
0
 62
   250
 10
0.129969
 20
0.197372
 30
0.0
  0
VERTEX
  8
0
 62
   250
 10
0.12965
 20
0.197439
 30
0.0
  0
VERTEX
  8
0
 62
   250
 10
0.129311
 20
0.197501
 30
0.0
  0
VERTEX
  8
0
 62
   250
 10
0.128962
 20
0.197557
 30
0.0
  0
VERTEX
  8
0
 62
   250
 10
0.128611
 20
0.197604
 30
0.0
  0
VERTEX
  8
0
 62
   250
 10
0.12827
 20
0.197638
 30
0.0
  0
VERTEX
  8
0
 62
   250
 10
0.127947
 20
0.197659
 30
0.0
  0
VERTEX
  8
0
 62
   250
 10
0.127652
 20
0.197664
 30
0.0
  0
VERTEX
  8
0
 62
   250
 10
0.127395
 20
0.197651
 30
0.0
  0
SEQEND
  8
0
 62
   250
  0
POLYLINE
  8
0
  6
CONTINUOUS
 62
   250
 66
     1
 10
0.0
 20
0.0
 30
0.0
  0
VERTEX
  8
0
 62
   250
 10
0.155858
 20
0.179369
 30
0.0
  0
VERTEX
  8
0
 62
   250
 10
0.155958
 20
0.18011
 30
0.0
  0
VERTEX
  8
0
 62
   250
 10
0.156036
 20
0.180964
 30
0.0
  0
VERTEX
  8
0
 62
   250
 10
0.156092
 20
0.181904
 30
0.0
  0
VERTEX
  8
0
 62
   250
 10
0.156125
 20
0.182901
 30
0.0
  0
VERTEX
  8
0
 62
   250
 10
0.156136
 20
0.183926
 30
0.0
  0
VERTEX
  8
0
 62
   250
 10
0.156125
 20
0.184951
 30
0.0
  0
VERTEX
  8
0
 62
   250
 10
0.156092
 20
0.185948
 30
0.0
  0
VERTEX
  8
0
 62
   250
 10
0.156036
 20
0.186888
 30
0.0
  0
VERTEX
  8
0
 62
   250
 10
0.155958
 20
0.187743
 30
0.0
  0
VERTEX
  8
0
 62
   250
 10
0.155858
 20
0.188484
 30
0.0
  0
VERTEX
  8
0
 62
   250
 10
0.155773
 20
0.18892
 30
0.0
  0
VERTEX
  8
0
 62
   250
 10
0.155655
 20
0.189416
 30
0.0
  0
VERTEX
  8
0
 62
   250
 10
0.155508
 20
0.189956
 30
0.0
  0
VERTEX
  8
0
 62
   250
 10
0.155337
 20
0.190524
 30
0.0
  0
VERTEX
  8
0
 62
   250
 10
0.155148
 20
0.191104
 30
0.0
  0
VERTEX
  8
0
 62
   250
 10
0.154947
 20
0.191679
 30
0.0
  0
VERTEX
  8
0
 62
   250
 10
0.154738
 20
0.192234
 30
0.0
  0
VERTEX
  8
0
 62
   250
 10
0.154526
 20
0.192752
 30
0.0
  0
VERTEX
  8
0
 62
   250
 10
0.154318
 20
0.193218
 30
0.0
  0
VERTEX
  8
0
 62
   250
 10
0.154118
 20
0.193614
 30
0.0
  0
VERTEX
  8
0
 62
   250
 10
0.154002
 20
0.193816
 30
0.0
  0
VERTEX
  8
0
 62
   250
 10
0.153858
 20
0.194043
 30
0.0
  0
VERTEX
  8
0
 62
   250
 10
0.153693
 20
0.194286
 30
0.0
  0
VERTEX
  8
0
 62
   250
 10
0.153512
 20
0.194539
 30
0.0
  0
VERTEX
  8
0
 62
   250
 10
0.153319
 20
0.194794
 30
0.0
  0
VERTEX
  8
0
 62
   250
 10
0.15312
 20
0.195044
 30
0.0
  0
VERTEX
  8
0
 62
   250
 10
0.152919
 20
0.195282
 30
0.0
  0
VERTEX
  8
0
 62
   250
 10
0.152722
 20
0.195498
 30
0.0
  0
VERTEX
  8
0
 62
   250
 10
0.152534
 20
0.195688
 30
0.0
  0
VERTEX
  8
0
 62
   250
 10
0.15236
 20
0.195841
 30
0.0
  0
VERTEX
  8
0
 62
   250
 10
0.152151
 20
0.195995
 30
0.0
  0
VERTEX
  8
0
 62
   250
 10
0.151901
 20
0.196155
 30
0.0
  0
VERTEX
  8
0
 62
   250
 10
0.151618
 20
0.196318
 30
0.0
  0
VERTEX
  8
0
 62
   250
 10
0.151313
 20
0.19648
 30
0.0
  0
VERTEX
  8
0
 62
   250
 10
0.150993
 20
0.196637
 30
0.0
  0
VERTEX
  8
0
 62
   250
 10
0.150669
 20
0.196787
 30
0.0
  0
VERTEX
  8
0
 62
   250
 10
0.150351
 20
0.196925
 30
0.0
  0
VERTEX
  8
0
 62
   250
 10
0.150047
 20
0.197048
 30
0.0
  0
VERTEX
  8
0
 62
   250
 10
0.149767
 20
0.197152
 30
0.0
  0
VERTEX
  8
0
 62
   250
 10
0.14952
 20
0.197233
 30
0.0
  0
VERTEX
  8
0
 62
   250
 10
0.149271
 20
0.197302
 30
0.0
  0
VERTEX
  8
0
 62
   250
 10
0.148983
 20
0.197372
 30
0.0
  0
VERTEX
  8
0
 62
   250
 10
0.148665
 20
0.197439
 30
0.0
  0
VERTEX
  8
0
 62
   250
 10
0.148326
 20
0.197501
 30
0.0
  0
VERTEX
  8
0
 62
   250
 10
0.147976
 20
0.197557
 30
0.0
  0
VERTEX
  8
0
 62
   250
 10
0.147625
 20
0.197604
 30
0.0
  0
VERTEX
  8
0
 62
   250
 10
0.147284
 20
0.197638
 30
0.0
  0
VERTEX
  8
0
 62
   250
 10
0.146961
 20
0.197659
 30
0.0
  0
VERTEX
  8
0
 62
   250
 10
0.146666
 20
0.197664
 30
0.0
  0
VERTEX
  8
0
 62
   250
 10
0.146409
 20
0.197651
 30
0.0
  0
SEQEND
  8
0
 62
   250
  0
POLYLINE
  8
0
  6
CONTINUOUS
 62
   250
 66
     1
 10
0.0
 20
0.0
 30
0.0
  0
VERTEX
  8
0
 62
   250
 10
0.136844
 20
0.126009
 30
0.0
  0
VERTEX
  8
0
 62
   250
 10
0.136835
 20
0.124932
 30
0.0
  0
VERTEX
  8
0
 62
   250
 10
0.136827
 20
0.123698
 30
0.0
  0
VERTEX
  8
0
 62
   250
 10
0.136821
 20
0.122346
 30
0.0
  0
VERTEX
  8
0
 62
   250
 10
0.136817
 20
0.120914
 30
0.0
  0
VERTEX
  8
0
 62
   250
 10
0.136814
 20
0.119444
 30
0.0
  0
VERTEX
  8
0
 62
   250
 10
0.136813
 20
0.117973
 30
0.0
  0
VERTEX
  8
0
 62
   250
 10
0.136814
 20
0.116542
 30
0.0
  0
VERTEX
  8
0
 62
   250
 10
0.136817
 20
0.11519
 30
0.0
  0
VERTEX
  8
0
 62
   250
 10
0.136822
 20
0.113955
 30
0.0
  0
VERTEX
  8
0
 62
   250
 10
0.136829
 20
0.112879
 30
0.0
  0
VERTEX
  8
0
 62
   250
 10
0.136824
 20
0.111332
 30
0.0
  0
VERTEX
  8
0
 62
   250
 10
0.136792
 20
0.109557
 30
0.0
  0
VERTEX
  8
0
 62
   250
 10
0.136747
 20
0.107609
 30
0.0
  0
VERTEX
  8
0
 62
   250
 10
0.136703
 20
0.105549
 30
0.0
  0
VERTEX
  8
0
 62
   250
 10
0.136671
 20
0.103433
 30
0.0
  0
VERTEX
  8
0
 62
   250
 10
0.136665
 20
0.101319
 30
0.0
  0
VERTEX
  8
0
 62
   250
 10
0.136698
 20
0.099266
 30
0.0
  0
VERTEX
  8
0
 62
   250
 10
0.136782
 20
0.097332
 30
0.0
  0
VERTEX
  8
0
 62
   250
 10
0.13693
 20
0.095574
 30
0.0
  0
VERTEX
  8
0
 62
   250
 10
0.137156
 20
0.094051
 30
0.0
  0
VERTEX
  8
0
 62
   250
 10
0.137366
 20
0.093097
 30
0.0
  0
VERTEX
  8
0
 62
   250
 10
0.13765
 20
0.09201
 30
0.0
  0
VERTEX
  8
0
 62
   250
 10
0.137998
 20
0.090827
 30
0.0
  0
VERTEX
  8
0
 62
   250
 10
0.1384
 20
0.089584
 30
0.0
  0
VERTEX
  8
0
 62
   250
 10
0.138847
 20
0.088319
 30
0.0
  0
VERTEX
  8
0
 62
   250
 10
0.139328
 20
0.087068
 30
0.0
  0
VERTEX
  8
0
 62
   250
 10
0.139834
 20
0.08587
 30
0.0
  0
VERTEX
  8
0
 62
   250
 10
0.140355
 20
0.08476
 30
0.0
  0
VERTEX
  8
0
 62
   250
 10
0.140882
 20
0.083777
 30
0.0
  0
VERTEX
  8
0
 62
   250
 10
0.141403
 20
0.082957
 30
0.0
  0
VERTEX
  8
0
 62
   250
 10
0.142008
 20
0.082182
 30
0.0
  0
VERTEX
  8
0
 62
   250
 10
0.142761
 20
0.08134
 30
0.0
  0
VERTEX
  8
0
 62
   250
 10
0.143634
 20
0.080457
 30
0.0
  0
VERTEX
  8
0
 62
   250
 10
0.144596
 20
0.079557
 30
0.0
  0
VERTEX
  8
0
 62
   250
 10
0.145617
 20
0.078665
 30
0.0
  0
VERTEX
  8
0
 62
   250
 10
0.146666
 20
0.077808
 30
0.0
  0
VERTEX
  8
0
 62
   250
 10
0.147714
 20
0.07701
 30
0.0
  0
VERTEX
  8
0
 62
   250
 10
0.148731
 20
0.076296
 30
0.0
  0
VERTEX
  8
0
 62
   250
 10
0.149687
 20
0.075693
 30
0.0
  0
VERTEX
  8
0
 62
   250
 10
0.15055
 20
0.075224
 30
0.0
  0
VERTEX
  8
0
 62
   250
 10
0.152059
 20
0.074596
 30
0.0
  0
VERTEX
  8
0
 62
   250
 10
0.15384
 20
0.074021
 30
0.0
  0
VERTEX
  8
0
 62
   250
 10
0.15583
 20
0.0735
 30
0.0
  0
VERTEX
  8
0
 62
   250
 10
0.157963
 20
0.073029
 30
0.0
  0
VERTEX
  8
0
 62
   250
 10
0.160176
 20
0.072608
 30
0.0
  0
VERTEX
  8
0
 62
   250
 10
0.162402
 20
0.072235
 30
0.0
  0
VERTEX
  8
0
 62
   250
 10
0.164578
 20
0.071908
 30
0.0
  0
VERTEX
  8
0
 62
   250
 10
0.166638
 20
0.071626
 30
0.0
  0
VERTEX
  8
0
 62
   250
 10
0.168517
 20
0.071387
 30
0.0
  0
VERTEX
  8
0
 62
   250
 10
0.170152
 20
0.071189
 30
0.0
  0
VERTEX
  8
0
 62
   250
 10
0.173757
 20
0.07082
 30
0.0
  0
VERTEX
  8
0
 62
   250
 10
0.177899
 20
0.070494
 30
0.0
  0
VERTEX
  8
0
 62
   250
 10
0.182445
 20
0.070215
 30
0.0
  0
VERTEX
  8
0
 62
   250
 10
0.18726
 20
0.069984
 30
0.0
  0
VERTEX
  8
0
 62
   250
 10
0.192211
 20
0.069802
 30
0.0
  0
VERTEX
  8
0
 62
   250
 10
0.197165
 20
0.069672
 30
0.0
  0
VERTEX
  8
0
 62
   250
 10
0.201986
 20
0.069595
 30
0.0
  0
VERTEX
  8
0
 62
   250
 10
0.206543
 20
0.069572
 30
0.0
  0
VERTEX
  8
0
 62
   250
 10
0.210699
 20
0.069606
 30
0.0
  0
VERTEX
  8
0
 62
   250
 10
0.214323
 20
0.069699
 30
0.0
  0
SEQEND
  8
0
 62
   250
  0
POLYLINE
  8
0
  6
CONTINUOUS
 62
   250
 66
     1
 10
0.0
 20
0.0
 30
0.0
  0
VERTEX
  8
0
 62
   250
 10
0.155877
 20
0.126009
 30
0.0
  0
VERTEX
  8
0
 62
   250
 10
0.155796
 20
0.124769
 30
0.0
  0
VERTEX
  8
0
 62
   250
 10
0.155731
 20
0.123346
 30
0.0
  0
VERTEX
  8
0
 62
   250
 10
0.155681
 20
0.121786
 30
0.0
  0
VERTEX
  8
0
 62
   250
 10
0.155646
 20
0.120134
 30
0.0
  0
VERTEX
  8
0
 62
   250
 10
0.155627
 20
0.118436
 30
0.0
  0
VERTEX
  8
0
 62
   250
 10
0.155623
 20
0.116739
 30
0.0
  0
VERTEX
  8
0
 62
   250
 10
0.155637
 20
0.115086
 30
0.0
  0
VERTEX
  8
0
 62
   250
 10
0.155667
 20
0.113526
 30
0.0
  0
VERTEX
  8
0
 62
   250
 10
0.155713
 20
0.112102
 30
0.0
  0
VERTEX
  8
0
 62
   250
 10
0.155778
 20
0.110861
 30
0.0
  0
VERTEX
  8
0
 62
   250
 10
0.155832
 20
0.109653
 30
0.0
  0
VERTEX
  8
0
 62
   250
 10
0.155869
 20
0.108246
 30
0.0
  0
VERTEX
  8
0
 62
   250
 10
0.155906
 20
0.106697
 30
0.0
  0
VERTEX
  8
0
 62
   250
 10
0.155962
 20
0.105058
 30
0.0
  0
VERTEX
  8
0
 62
   250
 10
0.156056
 20
0.103385
 30
0.0
  0
VERTEX
  8
0
 62
   250
 10
0.156206
 20
0.101732
 30
0.0
  0
VERTEX
  8
0
 62
   250
 10
0.15643
 20
0.100153
 30
0.0
  0
VERTEX
  8
0
 62
   250
 10
0.156748
 20
0.098703
 30
0.0
  0
VERTEX
  8
0
 62
   250
 10
0.157178
 20
0.097435
 30
0.0
  0
VERTEX
  8
0
 62
   250
 10
0.157738
 20
0.096405
 30
0.0
  0
VERTEX
  8
0
 62
   250
 10
0.158091
 20
0.096004
 30
0.0
  0
VERTEX
  8
0
 62
   250
 10
0.158563
 20
0.095616
 30
0.0
  0
VERTEX
  8
0
 62
   250
 10
0.159129
 20
0.095243
 30
0.0
  0
VERTEX
  8
0
 62
   250
 10
0.159763
 20
0.094889
 30
0.0
  0
VERTEX
  8
0
 62
   250
 10
0.16044
 20
0.094559
 30
0.0
  0
VERTEX
  8
0
 62
   250
 10
0.161137
 20
0.094255
 30
0.0
  0
VERTEX
  8
0
 62
   250
 10
0.161828
 20
0.093981
 30
0.0
  0
VERTEX
  8
0
 62
   250
 10
0.162489
 20
0.093741
 30
0.0
  0
VERTEX
  8
0
 62
   250
 10
0.163094
 20
0.093539
 30
0.0
  0
VERTEX
  8
0
 62
   250
 10
0.163618
 20
0.093379
 30
0.0
  0
VERTEX
  8
0
 62
   250
 10
0.167664
 20
0.092386
 30
0.0
  0
VERTEX
  8
0
 62
   250
 10
0.172363
 20
0.091538
 30
0.0
  0
VERTEX
  8
0
 62
   250
 10
0.177554
 20
0.090823
 30
0.0
  0
VERTEX
  8
0
 62
   250
 10
0.18308
 20
0.090231
 30
0.0
  0
VERTEX
  8
0
 62
   250
 10
0.18878
 20
0.089754
 30
0.0
  0
VERTEX
  8
0
 62
   250
 10
0.194496
 20
0.089381
 30
0.0
  0
VERTEX
  8
0
 62
   250
 10
0.200067
 20
0.089102
 30
0.0
  0
VERTEX
  8
0
 62
   250
 10
0.205335
 20
0.088907
 30
0.0
  0
VERTEX
  8
0
 62
   250
 10
0.21014
 20
0.088787
 30
0.0
  0
VERTEX
  8
0
 62
   250
 10
0.214323
 20
0.088731
 30
0.0
  0
SEQEND
  8
0
 62
   250
  0
POLYLINE
  8
0
  6
CONTINUOUS
 62
   250
 66
     1
 10
0.0
 20
0.0
 30
0.0
  0
VERTEX
  8
0
 62
   250
 10
0.214355
 20
0.088717
 30
0.0
  0
VERTEX
  8
0
 62
   250
 10
0.215181
 20
0.088272
 30
0.0
  0
VERTEX
  8
0
 62
   250
 10
0.216045
 20
0.087601
 30
0.0
  0
VERTEX
  8
0
 62
   250
 10
0.216916
 20
0.086746
 30
0.0
  0
VERTEX
  8
0
 62
   250
 10
0.217766
 20
0.08575
 30
0.0
  0
VERTEX
  8
0
 62
   250
 10
0.218566
 20
0.084658
 30
0.0
  0
VERTEX
  8
0
 62
   250
 10
0.219286
 20
0.083511
 30
0.0
  0
VERTEX
  8
0
 62
   250
 10
0.219897
 20
0.082353
 30
0.0
  0
VERTEX
  8
0
 62
   250
 10
0.22037
 20
0.081227
 30
0.0
  0
VERTEX
  8
0
 62
   250
 10
0.220675
 20
0.080177
 30
0.0
  0
VERTEX
  8
0
 62
   250
 10
0.220783
 20
0.079245
 30
0.0
  0
VERTEX
  8
0
 62
   250
 10
0.220665
 20
0.07833
 30
0.0
  0
VERTEX
  8
0
 62
   250
 10
0.220336
 20
0.077323
 30
0.0
  0
VERTEX
  8
0
 62
   250
 10
0.219831
 20
0.076257
 30
0.0
  0
VERTEX
  8
0
 62
   250
 10
0.219185
 20
0.075162
 30
0.0
  0
VERTEX
  8
0
 62
   250
 10
0.218434
 20
0.074071
 30
0.0
  0
VERTEX
  8
0
 62
   250
 10
0.217614
 20
0.073014
 30
0.0
  0
VERTEX
  8
0
 62
   250
 10
0.216761
 20
0.072025
 30
0.0
  0
VERTEX
  8
0
 62
   250
 10
0.215909
 20
0.071134
 30
0.0
  0
VERTEX
  8
0
 62
   250
 10
0.215095
 20
0.070372
 30
0.0
  0
VERTEX
  8
0
 62
   250
 10
0.214355
 20
0.069773
 30
0.0
  0
SEQEND
  8
0
 62
   250
  0
LINE
  8
0
  6
CONTINUOUS
 62
   250
 10
0.170601
 20
0.071072
 30
0.0
 11
0.170601
 21
0.040609
 31
0.0
  0
LINE
  8
0
  6
CONTINUOUS
 62
   250
 10
0.170601
 20
0.091793
 30
0.0
 11
0.170601
 21
0.122937
 31
0.0
  0
TEXT
  8
0
  6
CONTINUOUS
 62
   250
 10
0.311231
 20
0.2428
 30
0.0
 40
0.010594
  1
MAIN
 41
1.233333
  7
SIMPLEX
  0
TEXT
  8
0
  6
CONTINUOUS
 62
   250
 10
0.311231
 20
0.102449
 30
0.0
 40
0.010594
  1
BRANCH
 41
1.233333
  7
SIMPLEX
  0
ENDSEC
  0
EOF
