  0
SECTION
  2
HEADER
  9
$ACADVER
  1
AC1009
  9
$INSBASE
 10
0.0
 20
0.0
 30
0.0
  9
$EXTMIN
 10
-0.314349
 20
0.0
 30
0.0
  9
$EXTMAX
 10
0.322421
 20
0.999999
 30
0.0
  9
$LIMMIN
 10
17.542261
 20
13.01395
  9
$LIMMAX
 10
18.179031
 20
14.013948
  9
$ORTHOMODE
 70
     1
  9
$REGENMODE
 70
     1
  9
$FILLMODE
 70
     1
  9
$QTEXTMODE
 70
     0
  9
$MIRRTEXT
 70
     1
  9
$DRAGMODE
 70
     2
  9
$LTSCALE
 40
1.0
  9
$OSMODE
 70
     0
  9
$ATTMODE
 70
     2
  9
$TEXTSIZE
 40
1.0
  9
$TRACEWID
 40
0.05
  9
$TEXTSTYLE
  7
STANDARD
  9
$CLAYER
  8
0
  9
$CELTYPE
  6
BYLAYER
  9
$CECOLOR
 62
   256
  9
$DIMSCALE
 40
1.0
  9
$DIMASZ
 40
1.0
  9
$DIMEXO
 40
0.5
  9
$DIMDLI
 40
0.38
  9
$DIMRND
 40
0.0
  9
$DIMDLE
 40
0.0
  9
$DIMEXE
 40
0.5
  9
$DIMTP
 40
0.0
  9
$DIMTM
 40
0.0
  9
$DIMTXT
 40
0.18
  9
$DIMCEN
 40
0.09
  9
$DIMTSZ
 40
0.0
  9
$DIMTOL
 70
     0
  9
$DIMLIM
 70
     0
  9
$DIMTIH
 70
     1
  9
$DIMTOH
 70
     1
  9
$DIMSE1
 70
     0
  9
$DIMSE2
 70
     0
  9
$DIMTAD
 70
     0
  9
$DIMZIN
 70
     0
  9
$DIMBLK
  1

  9
$DIMASO
 70
     1
  9
$DIMSHO
 70
     1
  9
$DIMPOST
  1
"
  9
$DIMAPOST
  1

  9
$DIMALT
 70
     0
  9
$DIMALTD
 70
     2
  9
$DIMALTF
 40
25.4
  9
$DIMLFAC
 40
1.0
  9
$DIMTOFL
 70
     0
  9
$DIMTVP
 40
0.0
  9
$DIMTIX
 70
     0
  9
$DIMSOXD
 70
     0
  9
$DIMSAH
 70
     0
  9
$DIMBLK1
  1

  9
$DIMBLK2
  1

  9
$DIMSTYLE
  2
*UNNAMED
  9
$DIMCLRD
 70
     0
  9
$DIMCLRE
 70
     0
  9
$DIMCLRT
 70
     0
  9
$DIMTFAC
 40
1.0
  9
$DIMGAP
 40
0.09
  9
$LUNITS
 70
     2
  9
$LUPREC
 70
     3
  9
$SKETCHINC
 40
0.1
  9
$FILLETRAD
 40
0.0
  9
$AUNITS
 70
     0
  9
$AUPREC
 70
     3
  9
$MENU
  1
acad
  9
$ELEVATION
 40
0.0
  9
$PELEVATION
 40
0.0
  9
$THICKNESS
 40
0.0
  9
$LIMCHECK
 70
     0
  9
$BLIPMODE
 70
     0
  9
$CHAMFERA
 40
0.5
  9
$CHAMFERB
 40
0.5
  9
$SKPOLY
 70
     0
  9
$TDCREATE
 40
2450085.646336921
  9
$TDUPDATE
 40
2450085.646336921
  9
$TDINDWG
 40
0.0000000000
  9
$TDUSRTIMER
 40
0.0000000000
  9
$USRTIMER
 70
     1
  9
$ANGBASE
 50
0.0
  9
$ANGDIR
 70
     0
  9
$PDMODE
 70
     2
  9
$PDSIZE
 40
0.0
  9
$PLINEWID
 40
0.0
  9
$COORDS
 70
     1
  9
$SPLFRAME
 70
     0
  9
$SPLINETYPE
 70
     6
  9
$SPLINESEGS
 70
     8
  9
$ATTDIA
 70
     0
  9
$ATTREQ
 70
     1
  9
$HANDLING
 70
     0
  9
$HANDSEED
  5
0
  9
$SURFTAB1
 70
     6
  9
$SURFTAB2
 70
     6
  9
$SURFTYPE
 70
     6
  9
$SURFU
 70
     6
  9
$SURFV
 70
     6
  9
$UCSNAME
  2

  9
$UCSORG
 10
0.0
 20
0.0
 30
0.0
  9
$UCSXDIR
 10
1.0
 20
0.0
 30
0.0
  9
$UCSYDIR
 10
0.0
 20
1.0
 30
0.0
  9
$PUCSNAME
  2

  9
$PUCSORG
 10
0.0
 20
0.0
 30
0.0
  9
$PUCSXDIR
 10
1.0
 20
0.0
 30
0.0
  9
$PUCSYDIR
 10
0.0
 20
1.0
 30
0.0
  9
$USERI1
 70
     0
  9
$USERI2
 70
     0
  9
$USERI3
 70
     0
  9
$USERI4
 70
     0
  9
$USERI5
 70
     0
  9
$USERR1
 40
0.0
  9
$USERR2
 40
0.0
  9
$USERR3
 40
0.0
  9
$USERR4
 40
0.0
  9
$USERR5
 40
0.0
  9
$WORLDVIEW
 70
     1
  9
$SHADEDGE
 70
     3
  9
$SHADEDIF
 70
    70
  9
$TILEMODE
 70
     1
  9
$MAXACTVP
 70
    16
  9
$PINSBASE
 10
-0.373384
 20
50.0
 30
0.326789
  9
$PLIMCHECK
 70
     0
  9
$PEXTMIN
 10
1.000000E+20
 20
1.000000E+20
 30
1.000000E+20
  9
$PEXTMAX
 10
-1.000000E+20
 20
-1.000000E+20
 30
-1.000000E+20
  9
$PLIMMIN
 10
0.0
 20
0.0
  9
$PLIMMAX
 10
12.0
 20
9.0
  9
$UNITMODE
 70
     0
  9
$VISRETAIN
 70
     0
  9
$PLINEGEN
 70
     0
  9
$PSLTSCALE
 70
     1
  9
$TREEDEPTH
 70
  3020
  9
$DWGCODEPAGE
  3
ascii
  0
ENDSEC
  0
SECTION
  2
TABLES
  0
TABLE
  2
VPORT
 70
     1
  0
VPORT
  2
*ACTIVE
 70
     0
 10
0.0
 20
0.0
 11
1.0
 21
1.0
 12
9.409768
 22
7.005117
 13
0.0
 23
0.0
 14
1.0
 24
1.0
 15
1.0
 25
1.0
 16
0.0
 26
0.0
 36
1.0
 17
0.0
 27
0.0
 37
0.0
 40
14.017663
 41
1.387409
 42
50.0
 43
0.0
 44
0.0
 50
0.0
 51
0.0
 71
     0
 72
   100
 73
     1
 74
     1
 75
     0
 76
     0
 77
     0
 78
     0
  0
ENDTAB
  0
TABLE
  2
LTYPE
 70
     1
  0
LTYPE
  2
CONTINUOUS
 70
    64
  3
SOLID LINE
 72
    65
 73
     0
 40
0.0
  0
ENDTAB
  0
TABLE
  2
LAYER
 70
     2
  0
LAYER
  2
0
 70
    64
 62
     2
  6
CONTINUOUS
  0
LAYER
  2
1
 70
    64
 62
     4
  6
CONTINUOUS
  0
ENDTAB
  0
TABLE
  2
STYLE
 70
     2
  0
STYLE
  2
STANDARD
 70
     0
 40
0.0
 41
1.0
 50
0.0
 71
     0
 42
0.2
  3
txt
  4

  0
STYLE
  2
SIMPLEX
 70
    64
 40
0.0
 41
1.0
 50
0.0
 71
     0
 42
1.0
  3
ROMANS.SHX
  4

  0
ENDTAB
  0
TABLE
  2
VIEW
 70
     0
  0
ENDTAB
  0
TABLE
  2
UCS
 70
     0
  0
ENDTAB
  0
TABLE
  2
APPID
 70
     1
  0
APPID
  2
ACAD
 70
    64
  0
ENDTAB
  0
TABLE
  2
DIMSTYLE
 70
     0
  0
ENDTAB
  0
ENDSEC
  0
SECTION
  2
BLOCKS
  0
BLOCK
  8
0
  2
STRIP2
 70
    64
 10
0.0
 20
0.0
 30
0.0
  3
STRIP2
  0
LINE
  8
1
  6
CONTINUOUS
 62
   250
 10
0.2
 20
0.0
 30
0.0
 11
0.0
 21
0.0
 31
0.0
  0
CIRCLE
  8
1
  6
CONTINUOUS
 62
   250
 10
0.05
 20
-0.05
 30
0.0
 40
0.01
  0
LINE
  8
1
  6
CONTINUOUS
 62
   250
 10
0.0
 20
0.0
 30
0.0
 11
0.0
 21
-0.1
 31
0.0
  0
CIRCLE
  8
1
  6
CONTINUOUS
 62
   250
 10
0.15
 20
-0.05
 30
0.0
 40
0.01
  0
LINE
  8
1
  6
CONTINUOUS
 62
   250
 10
0.2
 20
-0.1
 30
0.0
 11
0.2
 21
0.0
 31
0.0
  0
ENDBLK
  8
0
  0
BLOCK
  8
0
  2
GPSHELL
 70
    64
 10
0.0
 20
0.0
 30
0.0
  3
GPSHELL
  0
LINE
  8
1
  6
CONTINUOUS
 62
   250
 10
-0.06
 20
-5.0
 30
0.0
 11
2.29
 21
-5.0
 31
0.0
  0
LINE
  8
1
  6
CONTINUOUS
 62
   250
 10
2.64
 20
-5.1
 30
0.0
 11
-0.41
 21
-5.1
 31
0.0
  0
LINE
  8
1
  6
CONTINUOUS
 62
   250
 10
2.29
 20
0.375
 30
0.0
 11
-0.06
 21
0.375
 31
0.0
  0
LINE
  8
1
  6
CONTINUOUS
 62
   250
 10
2.64
 20
0.475
 30
0.0
 11
-0.41
 21
0.475
 31
0.0
  0
LINE
  8
1
  6
CONTINUOUS
 62
   250
 10
-0.6375
 20
-0.5275
 30
0.0
 11
-0.6375
 21
-1.8525
 31
0.0
  0
LINE
  8
1
  6
CONTINUOUS
 62
   250
 10
-0.225
 20
-0.6275
 30
0.0
 11
-0.225
 21
-1.7525
 31
0.0
  0
LINE
  8
1
  6
CONTINUOUS
 62
   250
 10
-0.4375
 20
-0.44
 30
0.0
 11
-0.4375
 21
-1.94
 31
0.0
  0
LINE
  8
1
  6
CONTINUOUS
 62
   250
 10
-0.43
 20
-1.94
 30
0.0
 11
-0.43
 21
-4.65
 31
0.0
  0
LINE
  8
1
  6
CONTINUOUS
 62
   250
 10
-0.51
 20
-1.8525
 30
0.0
 11
-0.51
 21
-5.0
 31
0.0
  0
LINE
  8
1
  6
CONTINUOUS
 62
   250
 10
-0.375
 20
-4.625
 30
0.0
 11
-0.375
 21
-1.94
 31
0.0
  0
CIRCLE
  8
1
  6
CONTINUOUS
 62
   250
 10
-0.285
 20
-4.875
 30
0.0
 40
0.1575
  0
ARC
  8
1
  6
CONTINUOUS
 62
   250
 10
-0.285
 20
-4.875
 30
0.0
 40
0.225
 50
359.999878
 51
90.00016
  0
CIRCLE
  8
1
  6
CONTINUOUS
 62
   250
 10
-0.285
 20
-4.875
 30
0.0
 40
0.098
  0
LINE
  8
1
  6
CONTINUOUS
 62
   250
 10
-0.375
 20
-4.625
 30
0.0
 11
0.0
 21
-4.625
 31
0.0
  0
ARC
  8
1
  6
CONTINUOUS
 62
   250
 10
-0.41
 20
-5.0
 30
0.0
 40
0.1
 50
179.999725
 51
270.000305
  0
LINE
  8
1
  6
CONTINUOUS
 62
   250
 10
-0.43
 20
-4.65
 30
0.0
 11
-0.285
 21
-4.65
 31
0.0
  0
LINE
  8
1
  6
CONTINUOUS
 62
   250
 10
-0.06
 20
-4.875
 30
0.0
 11
-0.06
 21
-5.0
 31
0.0
  0
LINE
  8
1
  6
CONTINUOUS
 62
   250
 10
0.0
 20
-4.625
 30
0.0
 11
0.0
 21
-5.0
 31
0.0
  0
LINE
  8
1
  6
CONTINUOUS
 62
   250
 10
0.165
 20
-5.1
 30
0.0
 11
0.165
 21
-5.0
 31
0.0
  0
CIRCLE
  8
1
  6
CONTINUOUS
 62
   250
 10
-0.2625
 20
-1.8525
 30
0.0
 40
0.0475
  0
LINE
  8
1
  6
CONTINUOUS
 62
   250
 10
-0.4375
 20
-1.94
 30
0.0
 11
-0.19125
 21
-1.94
 31
0.0
  0
LINE
  8
1
  6
CONTINUOUS
 62
   250
 10
-0.6375
 20
-1.8525
 30
0.0
 11
-0.4375
 21
-1.8525
 31
0.0
  0
LINE
  8
1
  6
CONTINUOUS
 62
   250
 10
-0.1875
 20
-1.7525
 30
0.0
 11
-0.225
 21
-1.7525
 31
0.0
  0
LINE
  8
1
  6
CONTINUOUS
 62
   250
 10
-0.1875
 20
-1.94
 30
0.0
 11
-0.1875
 21
-1.7525
 31
0.0
  0
LINE
  8
1
  6
CONTINUOUS
 62
   250
 10
-0.375
 20
-0.44
 30
0.0
 11
-0.375
 21
0.0
 31
0.0
  0
LINE
  8
1
  6
CONTINUOUS
 62
   250
 10
-0.43
 20
0.025
 30
0.0
 11
-0.43
 21
-0.44
 31
0.0
  0
LINE
  8
1
  6
CONTINUOUS
 62
   250
 10
-0.51
 20
0.375
 30
0.0
 11
-0.51
 21
-0.5275
 31
0.0
  0
CIRCLE
  8
1
  6
CONTINUOUS
 62
   250
 10
-0.2625
 20
-0.5275
 30
0.0
 40
0.0475
  0
LINE
  8
1
  6
CONTINUOUS
 62
   250
 10
-0.1875
 20
-0.44
 30
0.0
 11
-0.4375
 21
-0.44
 31
0.0
  0
TEXT
  8
1
  6
CONTINUOUS
 62
   250
 10
-0.317085
 20
-0.794634
 30
0.0
 40
0.045
  1
Male DIN Connector
 50
270.0
 41
1.011111
  7
SIMPLEX
  0
LINE
  8
1
  6
CONTINUOUS
 62
   250
 10
-0.4375
 20
-0.5275
 30
0.0
 11
-0.6375
 21
-0.5275
 31
0.0
  0
LINE
  8
1
  6
CONTINUOUS
 62
   250
 10
-0.1875
 20
-0.44
 30
0.0
 11
-0.1875
 21
-0.6275
 31
0.0
  0
LINE
  8
1
  6
CONTINUOUS
 62
   250
 10
-0.1875
 20
-0.6275
 30
0.0
 11
-0.225
 21
-0.6275
 31
0.0
  0
CIRCLE
  8
1
  6
CONTINUOUS
 62
   250
 10
-0.285
 20
0.25
 30
0.0
 40
0.1575
  0
ARC
  8
1
  6
CONTINUOUS
 62
   250
 10
-0.285
 20
0.25
 30
0.0
 40
0.225
 50
270.0
 51
0.0
  0
CIRCLE
  8
1
  6
CONTINUOUS
 62
   250
 10
-0.285
 20
0.25
 30
0.0
 40
0.098
  0
LINE
  8
1
  6
CONTINUOUS
 62
   250
 10
0.0
 20
0.0
 30
0.0
 11
-0.375
 21
0.0
 31
0.0
  0
LINE
  8
1
  6
CONTINUOUS
 62
   250
 10
-0.285
 20
0.025
 30
0.0
 11
-0.43
 21
0.025
 31
0.0
  0
ARC
  8
1
  6
CONTINUOUS
 62
   250
 10
-0.41
 20
0.375
 30
0.0
 40
0.1
 50
89.999947
 51
180.000031
  0
LINE
  8
1
  6
CONTINUOUS
 62
   250
 10
0.0
 20
0.375
 30
0.0
 11
0.0
 21
0.0
 31
0.0
  0
LINE
  8
1
  6
CONTINUOUS
 62
   250
 10
-0.06
 20
0.375
 30
0.0
 11
-0.06
 21
0.25
 31
0.0
  0
LINE
  8
1
  6
CONTINUOUS
 62
   250
 10
0.19
 20
0.375
 30
0.0
 11
0.19
 21
0.475
 31
0.0
  0
LINE
  8
1
  6
CONTINUOUS
 62
   250
 10
2.9125
 20
-1.665
 30
0.0
 11
2.9125
 21
-0.715
 31
0.0
  0
LINE
  8
1
  6
CONTINUOUS
 62
   250
 10
2.4625
 20
-1.665
 30
0.0
 11
2.4625
 21
-0.715
 31
0.0
  0
LINE
  8
1
  6
CONTINUOUS
 62
   250
 10
2.6875
 20
-0.44
 30
0.0
 11
2.6875
 21
-1.94
 31
0.0
  0
LINE
  8
1
  6
CONTINUOUS
 62
   250
 10
2.625
 20
-1.94
 30
0.0
 11
2.625
 21
-4.625
 31
0.0
  0
LINE
  8
1
  6
CONTINUOUS
 62
   250
 10
2.66
 20
-1.94
 30
0.0
 11
2.66
 21
-4.65
 31
0.0
  0
LINE
  8
1
  6
CONTINUOUS
 62
   250
 10
2.74
 20
-1.665
 30
0.0
 11
2.74
 21
-5.0
 31
0.0
  0
CIRCLE
  8
1
  6
CONTINUOUS
 62
   250
 10
2.515
 20
-4.875
 30
0.0
 40
0.1575
  0
LINE
  8
1
  6
CONTINUOUS
 62
   250
 10
2.515
 20
-4.65
 30
0.0
 11
2.66
 21
-4.65
 31
0.0
  0
ARC
  8
1
  6
CONTINUOUS
 62
   250
 10
2.64
 20
-5.000001
 30
0.0
 40
0.099999
 50
270.0
 51
0.000546
  0
ARC
  8
1
  6
CONTINUOUS
 62
   250
 10
2.514999
 20
-4.874999
 30
0.0
 40
0.224999
 50
89.999817
 51
180.000244
  0
LINE
  8
1
  6
CONTINUOUS
 62
   250
 10
2.25
 20
-4.625
 30
0.0
 11
2.625
 21
-4.625
 31
0.0
  0
LINE
  8
1
  6
CONTINUOUS
 62
   250
 10
2.25
 20
-4.625
 30
0.0
 11
2.25
 21
-5.0
 31
0.0
  0
LINE
  8
1
  6
CONTINUOUS
 62
   250
 10
2.065
 20
-5.1
 30
0.0
 11
2.065
 21
-5.0
 31
0.0
  0
CIRCLE
  8
1
  6
CONTINUOUS
 62
   250
 10
2.515
 20
-4.875
 30
0.0
 40
0.098
  0
LINE
  8
1
  6
CONTINUOUS
 62
   250
 10
2.29
 20
-5.0
 30
0.0
 11
2.29
 21
-4.875
 31
0.0
  0
LINE
  8
1
  6
CONTINUOUS
 62
   250
 10
2.6875
 20
-1.94
 30
0.0
 11
2.3125
 21
-1.94
 31
0.0
  0
LINE
  8
1
  6
CONTINUOUS
 62
   250
 10
2.3125
 20
-1.665
 30
0.0
 11
2.4625
 21
-1.665
 31
0.0
  0
LINE
  8
1
  6
CONTINUOUS
 62
   250
 10
2.3125
 20
-1.94
 30
0.0
 11
2.3125
 21
-1.665
 31
0.0
  0
CIRCLE
  8
1
  6
CONTINUOUS
 62
   250
 10
2.5125
 20
-1.8525
 30
0.0
 40
0.0475
  0
LINE
  8
1
  6
CONTINUOUS
 62
   250
 10
2.6875
 20
-1.665
 30
0.0
 11
2.9125
 21
-1.665
 31
0.0
  0
LINE
  8
1
  6
CONTINUOUS
 62
   250
 10
2.74
 20
-1.85
 30
0.0
 11
2.6875
 21
-1.85
 31
0.0
  0
LINE
  8
1
  6
CONTINUOUS
 62
   250
 10
2.74
 20
0.375
 30
0.0
 11
2.74
 21
-0.715
 31
0.0
  0
LINE
  8
1
  6
CONTINUOUS
 62
   250
 10
2.66
 20
0.025
 30
0.0
 11
2.66
 21
-0.44
 31
0.0
  0
LINE
  8
1
  6
CONTINUOUS
 62
   250
 10
2.625
 20
0.0
 30
0.0
 11
2.625
 21
-0.44
 31
0.0
  0
LINE
  8
1
  6
CONTINUOUS
 62
   250
 10
2.6875
 20
-0.44
 30
0.0
 11
2.3125
 21
-0.44
 31
0.0
  0
TEXT
  8
1
  6
CONTINUOUS
 62
   250
 10
2.525
 20
-0.75
 30
0.0
 40
0.045
  1
Female DIN Connector
 50
270.0
 41
1.011111
  7
SIMPLEX
  0
LINE
  8
1
  6
CONTINUOUS
 62
   250
 10
2.3125
 20
-0.44
 30
0.0
 11
2.3125
 21
-0.715
 31
0.0
  0
CIRCLE
  8
1
  6
CONTINUOUS
 62
   250
 10
2.5125
 20
-0.5275
 30
0.0
 40
0.0475
  0
LINE
  8
1
  6
CONTINUOUS
 62
   250
 10
2.3125
 20
-0.715
 30
0.0
 11
2.4625
 21
-0.715
 31
0.0
  0
LINE
  8
1
  6
CONTINUOUS
 62
   250
 10
2.9125
 20
-0.715
 30
0.0
 11
2.6875
 21
-0.715
 31
0.0
  0
LINE
  8
1
  6
CONTINUOUS
 62
   250
 10
2.74
 20
-0.55
 30
0.0
 11
2.6875
 21
-0.55
 31
0.0
  0
LINE
  8
1
  6
CONTINUOUS
 62
   250
 10
2.74
 20
-0.55
 30
0.0
 11
2.72
 21
-0.55
 31
0.0
  0
CIRCLE
  8
1
  6
CONTINUOUS
 62
   250
 10
2.515
 20
0.25
 30
0.0
 40
0.1575
  0
LINE
  8
1
  6
CONTINUOUS
 62
   250
 10
2.66
 20
0.025
 30
0.0
 11
2.515
 21
0.025
 31
0.0
  0
ARC
  8
1
  6
CONTINUOUS
 62
   250
 10
2.64
 20
0.375
 30
0.0
 40
0.1
 50
359.999786
 51
90.000267
  0
ARC
  8
1
  6
CONTINUOUS
 62
   250
 10
2.515
 20
0.25
 30
0.0
 40
0.225
 50
179.999893
 51
270.0
  0
LINE
  8
1
  6
CONTINUOUS
 62
   250
 10
2.625
 20
0.0
 30
0.0
 11
2.25
 21
0.0
 31
0.0
  0
LINE
  8
1
  6
CONTINUOUS
 62
   250
 10
2.25
 20
0.375
 30
0.0
 11
2.25
 21
0.0
 31
0.0
  0
LINE
  8
1
  6
CONTINUOUS
 62
   250
 10
2.25
 20
0.375
 30
0.0
 11
2.25
 21
0.025
 31
0.0
  0
LINE
  8
1
  6
CONTINUOUS
 62
   250
 10
2.275
 20
0.0
 30
0.0
 11
2.25
 21
0.0
 31
0.0
  0
LINE
  8
1
  6
CONTINUOUS
 62
   250
 10
2.065
 20
0.475
 30
0.0
 11
2.065
 21
0.375
 31
0.0
  0
CIRCLE
  8
1
  6
CONTINUOUS
 62
   250
 10
2.515
 20
0.25
 30
0.0
 40
0.098
  0
LINE
  8
1
  6
CONTINUOUS
 62
   250
 10
2.29
 20
0.25
 30
0.0
 11
2.29
 21
0.375
 31
0.0
  0
ENDBLK
  8
0
  0
ENDSEC
  0
SECTION
  2
ENTITIES
  0
TEXT
  8
1
  6
CONTINUOUS
 62
   250
 10
-0.01579
 20
0.798205
 30
0.0
 40
0.009417
  1
HUM
 41
1.233333
  7
SIMPLEX
  0
LINE
  8
1
  6
CONTINUOUS
 62
   250
 10
-0.016065
 20
0.856501
 30
0.0
 11
0.163308
 21
0.856501
 31
0.0
  0
LINE
  8
1
  6
CONTINUOUS
 62
   250
 10
-0.113911
 20
0.816143
 30
0.0
 11
0.163308
 21
0.816143
 31
0.0
  0
LINE
  8
1
  6
CONTINUOUS
 62
   250
 10
-0.104942
 20
0.699551
 30
0.0
 11
0.163308
 21
0.699551
 31
0.0
  0
LINE
  8
1
  6
CONTINUOUS
 62
   250
 10
-0.011579
 20
0.704035
 30
0.0
 11
0.024295
 21
0.704035
 31
0.0
  0
INSERT
  8
1
 62
   250
  2
STRIP2
 10
-0.011579
 20
0.793721
 30
0.0
 41
0.179372
 42
0.179372
  0
INSERT
  8
1
 62
   250
  2
STRIP2
 10
-0.011579
 20
0.775784
 30
0.0
 41
0.179372
 42
0.179372
  0
INSERT
  8
1
 62
   250
  2
STRIP2
 10
-0.011579
 20
0.757847
 30
0.0
 41
0.179372
 42
0.179372
  0
INSERT
  8
1
 62
   250
  2
STRIP2
 10
-0.011579
 20
0.739909
 30
0.0
 41
0.179372
 42
0.179372
  0
INSERT
  8
1
 62
   250
  2
STRIP2
 10
-0.011579
 20
0.721972
 30
0.0
 41
0.179372
 42
0.179372
  0
INSERT
  8
1
 62
   250
  2
GPSHELL
 10
-0.2
 20
0.914797
 30
0.0
 41
0.179372
 42
0.179372
  0
TEXT
  8
1
  6
CONTINUOUS
 62
   250
 10
0.001843
 20
0.838564
 30
0.0
 40
0.009417
  1
SENSOR OUTPUT
 41
1.233333
  7
SIMPLEX
  0
LINE
  8
1
  6
CONTINUOUS
 62
   250
 10
-0.08252
 20
0.964125
 30
0.0
 11
0.168601
 21
0.964125
 31
0.0
  0
LINE
  8
1
  6
CONTINUOUS
 62
   250
 10
0.016134
 20
0.932734
 30
0.0
 11
-0.001803
 21
0.932734
 31
0.0
  0
CIRCLE
  8
1
  6
CONTINUOUS
 62
   250
 10
0.007166
 20
0.932734
 30
0.0
 40
0.008969
  0
TEXT
  8
1
  6
CONTINUOUS
 62
   250
 10
0.000888
 20
0.946187
 30
0.0
 40
0.0113
  1
6
 41
1.111111
  7
SIMPLEX
  0
LINE
  8
1
  6
CONTINUOUS
 62
   250
 10
-0.202067
 20
0.717488
 30
0.0
 11
-0.104942
 21
0.717488
 31
0.0
  0
LINE
  8
1
  6
CONTINUOUS
 62
   250
 10
-0.202067
 20
0.874438
 30
0.0
 11
-0.113911
 21
0.874438
 31
0.0
  0
TEXT
  8
1
  6
CONTINUOUS
 62
   250
 10
-0.201071
 20
0.816143
 30
0.0
 40
0.009417
  1
HUM
 41
1.233333
  7
SIMPLEX
  0
LINE
  8
1
  6
CONTINUOUS
 62
   250
 10
-0.202067
 20
0.717488
 30
0.0
 11
-0.202067
 21
0.874438
 31
0.0
  0
LINE
  8
1
  6
CONTINUOUS
 62
   250
 10
-0.261893
 20
0.883407
 30
0.0
 11
-0.226018
 21
0.883407
 31
0.0
  0
INSERT
  8
1
 62
   250
  2
STRIP2
 10
-0.261893
 20
0.901344
 30
0.0
 41
0.179372
 42
0.179372
  0
TEXT
  8
1
  6
CONTINUOUS
 62
   250
 10
-0.221534
 20
0.887891
 30
0.0
 40
0.0113
  1
L
 41
1.111111
  7
SIMPLEX
  0
LINE
  8
1
  6
CONTINUOUS
 62
   250
 10
-0.016065
 20
0.699551
 30
0.0
 11
-0.016065
 21
0.856501
 31
0.0
  0
LINE
  8
1
  6
CONTINUOUS
 62
   250
 10
-0.113911
 20
0.717488
 30
0.0
 11
-0.113911
 21
0.874438
 31
0.0
  0
TEXT
  8
1
  6
CONTINUOUS
 62
   250
 10
-0.109426
 20
0.725129
 30
0.0
 40
0.009417
  1
SENSOR 4
 41
1.233333
  7
SIMPLEX
  0
TEXT
  8
1
  6
CONTINUOUS
 62
   250
 10
-0.109426
 20
0.743066
 30
0.0
 40
0.009417
  1
SENSOR 3
 41
1.233333
  7
SIMPLEX
  0
TEXT
  8
1
  6
CONTINUOUS
 62
   250
 10
-0.109426
 20
0.761003
 30
0.0
 40
0.009417
  1
SENSOR 2
 41
1.233333
  7
SIMPLEX
  0
TEXT
  8
1
  6
CONTINUOUS
 62
   250
 10
-0.109426
 20
0.77894
 30
0.0
 40
0.009417
  1
SENSOR 1
 41
1.233333
  7
SIMPLEX
  0
TEXT
  8
1
  6
CONTINUOUS
 62
   250
 10
-0.109426
 20
0.796878
 30
0.0
 40
0.009417
  1
EXTERNAL
 41
1.233333
  7
SIMPLEX
  0
LINE
  8
1
  6
CONTINUOUS
 62
   250
 10
-0.157988
 20
0.721972
 30
0.0
 11
-0.122114
 21
0.721972
 31
0.0
  0
INSERT
  8
1
 62
   250
  2
STRIP2
 10
-0.157988
 20
0.739909
 30
0.0
 41
0.179372
 42
0.179372
  0
INSERT
  8
1
 62
   250
  2
STRIP2
 10
-0.157988
 20
0.757847
 30
0.0
 41
0.179372
 42
0.179372
  0
INSERT
  8
1
 62
   250
  2
STRIP2
 10
-0.157988
 20
0.775784
 30
0.0
 41
0.179372
 42
0.179372
  0
INSERT
  8
1
 62
   250
  2
STRIP2
 10
-0.157988
 20
0.793721
 30
0.0
 41
0.179372
 42
0.179372
  0
INSERT
  8
1
 62
   250
  2
STRIP2
 10
-0.157988
 20
0.811658
 30
0.0
 41
0.179372
 42
0.179372
  0
INSERT
  8
1
 62
   250
  2
STRIP2
 10
-0.193864
 20
0.739909
 30
0.0
 41
0.179372
 42
0.179372
  0
LINE
  8
1
  6
CONTINUOUS
 62
   250
 10
-0.193864
 20
0.721972
 30
0.0
 11
-0.157988
 21
0.721972
 31
0.0
  0
INSERT
  8
1
 62
   250
  2
STRIP2
 10
-0.193864
 20
0.811658
 30
0.0
 41
0.179372
 42
0.179372
  0
INSERT
  8
1
 62
   250
  2
STRIP2
 10
-0.193864
 20
0.793721
 30
0.0
 41
0.179372
 42
0.179372
  0
INSERT
  8
1
 62
   250
  2
STRIP2
 10
-0.193864
 20
0.775784
 30
0.0
 41
0.179372
 42
0.179372
  0
INSERT
  8
1
 62
   250
  2
STRIP2
 10
-0.193864
 20
0.757847
 30
0.0
 41
0.179372
 42
0.179372
  0
LINE
  8
1
  6
CONTINUOUS
 62
   250
 10
-0.104942
 20
0.717488
 30
0.0
 11
-0.104942
 21
0.699551
 31
0.0
  0
TEXT
  8
1
  6
CONTINUOUS
 62
   250
 10
-0.091489
 20
0.707192
 30
0.0
 40
0.009417
  1
OFF
 41
1.233333
  7
SIMPLEX
  0
TEXT
  8
1
  6
CONTINUOUS
 62
   250
 10
-0.181042
 20
0.856501
 30
0.0
 40
0.009417
  1
INPUT
 41
1.233333
  7
SIMPLEX
  0
TEXT
  8
1
  6
CONTINUOUS
 62
   250
 10
-0.190011
 20
0.838564
 30
0.0
 40
0.009417
  1
SELECT
 41
1.233333
  7
SIMPLEX
  0
TEXT
  8
1
  6
CONTINUOUS
 62
   250
 10
-0.158237
 20
0.816143
 30
0.0
 40
0.009417
  1
TEMP
 41
1.233333
  7
SIMPLEX
 72
     2
 11
-0.115651
 21
0.816143
 31
0.0
  0
LINE
  8
1
  6
CONTINUOUS
 62
   250
 10
-0.064583
 20
0.86547
 30
0.0
 11
-0.010772
 21
0.86547
 31
0.0
  0
TEXT
  8
1
  6
CONTINUOUS
 62
   250
 10
-0.078036
 20
0.921511
 30
0.0
 40
0.006377
  1
LOOP OUT
 50
270.0
 41
1.233333
  7
SIMPLEX
  0
TEXT
  8
1
  6
CONTINUOUS
 62
   250
 10
-0.064583
 20
0.921511
 30
0.0
 40
0.006417
  1
HUMIDITY
 50
270.0
 41
1.233333
  7
SIMPLEX
  0
LINE
  8
1
  6
CONTINUOUS
 62
   250
 10
-0.08252
 20
0.964125
 30
0.0
 11
-0.08252
 21
0.86547
 31
0.0
  0
LINE
  8
1
  6
CONTINUOUS
 62
   250
 10
-0.08252
 20
0.86547
 30
0.0
 11
-0.080285
 21
0.86547
 31
0.0
  0
LINE
  8
1
  6
CONTINUOUS
 62
   250
 10
-0.070926
 20
0.939076
 30
0.0
 11
-0.058241
 21
0.926393
 31
0.0
  0
CIRCLE
  8
1
  6
CONTINUOUS
 62
   250
 10
-0.064583
 20
0.932734
 30
0.0
 40
0.008969
  0
TEXT
  8
1
  6
CONTINUOUS
 62
   250
 10
-0.070562
 20
0.946187
 30
0.0
 40
0.0113
  1
8
 41
1.111111
  7
SIMPLEX
  0
TEXT
  8
1
  6
CONTINUOUS
 62
   250
 10
-0.006287
 20
0.921511
 30
0.0
 40
0.006377
  1
LOOP OUT
 50
270.0
 41
1.233333
  7
SIMPLEX
  0
TEXT
  8
1
  6
CONTINUOUS
 62
   250
 10
-0.042163
 20
0.921511
 30
0.0
 40
0.006377
  1
LOOP IN
 50
270.0
 41
1.233333
  7
SIMPLEX
  0
TEXT
  8
1
  6
CONTINUOUS
 62
   250
 10
-0.028628
 20
0.921511
 30
0.0
 40
0.006417
  1
HUMIDITY
 50
270.0
 41
1.233333
  7
SIMPLEX
  0
CIRCLE
  8
1
  6
CONTINUOUS
 62
   250
 10
-0.02871
 20
0.932734
 30
0.0
 40
0.008969
  0
LINE
  8
1
  6
CONTINUOUS
 62
   250
 10
-0.02871
 20
0.923766
 30
0.0
 11
-0.02871
 21
0.941703
 31
0.0
  0
TEXT
  8
1
  6
CONTINUOUS
 62
   250
 10
-0.034689
 20
0.946187
 30
0.0
 40
0.0113
  1
7
 41
1.111111
  7
SIMPLEX
  0
TEXT
  8
1
  6
CONTINUOUS
 62
   250
 10
0.110305
 20
0.087577
 30
0.0
 40
0.009417
  1
DEWPOINT
 50
90.0
 41
1.233333
  7
SIMPLEX
  0
CIRCLE
  8
1
  6
CONTINUOUS
 62
   250
 10
0.110305
 20
0.071748
 30
0.0
 40
0.008969
  0
LINE
  8
1
  6
CONTINUOUS
 62
   250
 10
0.047524
 20
0.040358
 30
0.0
 11
0.168601
 21
0.040358
 31
0.0
  0
LINE
  8
1
  6
CONTINUOUS
 62
   250
 10
0.119273
 20
0.071748
 30
0.0
 11
0.101336
 21
0.071748
 31
0.0
  0
LINE
  8
1
  6
CONTINUOUS
 62
   250
 10
0.047524
 20
0.040358
 30
0.0
 11
0.047524
 21
0.139012
 31
0.0
  0
TEXT
  8
1
  6
CONTINUOUS
 62
   250
 10
0.083399
 20
0.087577
 30
0.0
 40
0.009417
  1
LOOP OUT
 50
90.0
 41
1.233333
  7
SIMPLEX
  0
TEXT
  8
1
  6
CONTINUOUS
 62
   250
 10
0.065462
 20
0.087577
 30
0.0
 40
0.009417
  1
ENTHALPY
 50
90.0
 41
1.233333
  7
SIMPLEX
  0
CIRCLE
  8
1
  6
CONTINUOUS
 62
   250
 10
0.069946
 20
0.071748
 30
0.0
 40
0.008969
  0
LINE
  8
1
  6
CONTINUOUS
 62
   250
 10
0.078915
 20
0.071748
 30
0.0
 11
0.060977
 21
0.071748
 31
0.0
  0
TEXT
  8
1
  6
CONTINUOUS
 62
   250
 10
0.063369
 20
0.044842
 30
0.0
 40
0.0113
  1
B
 41
1.111111
  7
SIMPLEX
  0
TEXT
  8
1
  6
CONTINUOUS
 62
   250
 10
0.078018
 20
0.044842
 30
0.0
 40
0.009686
  1
E
 41
1.111111
  7
SIMPLEX
  0
TEXT
  8
1
  6
CONTINUOUS
 62
   250
 10
0.155148
 20
0.087577
 30
0.0
 40
0.009417
  1
GND
 50
90.0
 41
1.233333
  7
SIMPLEX
  0
LINE
  8
1
  6
CONTINUOUS
 62
   250
 10
0.136322
 20
0.139012
 30
0.0
 11
0.168601
 21
0.139012
 31
0.0
  0
TEXT
  8
1
  6
CONTINUOUS
 62
   250
 10
0.145282
 20
0.044842
 30
0.0
 40
0.0113
  1
A
 41
1.111111
  7
SIMPLEX
  0
CIRCLE
  8
1
  6
CONTINUOUS
 62
   250
 10
0.150663
 20
0.071748
 30
0.0
 40
0.008969
  0
LINE
  8
1
  6
CONTINUOUS
 62
   250
 10
0.144322
 20
0.065406
 30
0.0
 11
0.157005
 21
0.07809
 31
0.0
  0
TEXT
  8
1
  6
CONTINUOUS
 62
   250
 10
0.128242
 20
0.087577
 30
0.0
 40
0.009417
  1
LOOP OUT
 50
90.0
 41
1.233333
  7
SIMPLEX
  0
TEXT
  8
1
  6
CONTINUOUS
 62
   250
 10
0.103728
 20
0.044842
 30
0.0
 40
0.0113
  1
B
 41
1.111111
  7
SIMPLEX
  0
TEXT
  8
1
  6
CONTINUOUS
 62
   250
 10
0.11812
 20
0.044842
 30
0.0
 40
0.009686
  1
D
 41
1.111111
  7
SIMPLEX
  0
LINE
  8
1
  6
CONTINUOUS
 62
   250
 10
0.168601
 20
0.139012
 30
0.0
 11
0.168601
 21
0.040358
 31
0.0
  0
TEXT
  8
1
  6
CONTINUOUS
 62
   250
 10
0.176119
 20
0.869954
 30
0.0
 40
0.009417
  1
J2A
 41
1.233333
  7
SIMPLEX
 72
     2
 11
0.205431
 21
0.869954
 31
0.0
  0
TEXT
  8
1
  6
CONTINUOUS
 62
   250
 10
0.173421
 20
0.852017
 30
0.0
 40
0.009417
  1
J2B
 41
1.233333
  7
SIMPLEX
 72
     2
 11
0.203286
 21
0.852017
 31
0.0
  0
LINE
  8
1
  6
CONTINUOUS
 62
   250
 10
0.163308
 20
0.699551
 30
0.0
 11
0.163308
 21
0.856501
 31
0.0
  0
INSERT
  8
1
 62
   250
  2
STRIP2
 10
0.078107
 20
0.793721
 30
0.0
 41
0.179372
 42
0.179372
  0
INSERT
  8
1
 62
   250
  2
STRIP2
 10
0.078107
 20
0.775784
 30
0.0
 41
0.179372
 42
0.179372
  0
INSERT
  8
1
 62
   250
  2
STRIP2
 10
0.078107
 20
0.757847
 30
0.0
 41
0.179372
 42
0.179372
  0
TEXT
  8
1
  6
CONTINUOUS
 62
   250
 10
0.083587
 20
0.798205
 30
0.0
 40
0.009417
  1
EN
 41
1.233333
  7
SIMPLEX
  0
INSERT
  8
1
 62
   250
  2
STRIP2
 10
0.078107
 20
0.721972
 30
0.0
 41
0.179372
 42
0.179372
  0
LINE
  8
1
  6
CONTINUOUS
 62
   250
 10
0.078107
 20
0.704035
 30
0.0
 11
0.113981
 21
0.704035
 31
0.0
  0
INSERT
  8
1
 62
   250
  2
STRIP2
 10
0.078107
 20
0.739909
 30
0.0
 41
0.179372
 42
0.179372
  0
TEXT
  8
1
  6
CONTINUOUS
 62
   250
 10
0.031285
 20
0.798205
 30
0.0
 40
0.009417
  1
TEMP
 41
1.233333
  7
SIMPLEX
  0
INSERT
  8
1
 62
   250
  2
STRIP2
 10
0.033264
 20
0.793721
 30
0.0
 41
0.179372
 42
0.179372
  0
INSERT
  8
1
 62
   250
  2
STRIP2
 10
0.033264
 20
0.775784
 30
0.0
 41
0.179372
 42
0.179372
  0
INSERT
  8
1
 62
   250
  2
STRIP2
 10
0.033264
 20
0.757847
 30
0.0
 41
0.179372
 42
0.179372
  0
INSERT
  8
1
 62
   250
  2
STRIP2
 10
0.033264
 20
0.739909
 30
0.0
 41
0.179372
 42
0.179372
  0
INSERT
  8
1
 62
   250
  2
STRIP2
 10
0.033264
 20
0.721972
 30
0.0
 41
0.179372
 42
0.179372
  0
LINE
  8
1
  6
CONTINUOUS
 62
   250
 10
0.033264
 20
0.704035
 30
0.0
 11
0.069138
 21
0.704035
 31
0.0
  0
INSERT
  8
1
 62
   250
  2
STRIP2
 10
0.12295
 20
0.757847
 30
0.0
 41
0.179372
 42
0.179372
  0
INSERT
  8
1
 62
   250
  2
STRIP2
 10
0.12295
 20
0.775784
 30
0.0
 41
0.179372
 42
0.179372
  0
INSERT
  8
1
 62
   250
  2
STRIP2
 10
0.12295
 20
0.793721
 30
0.0
 41
0.179372
 42
0.179372
  0
LINE
  8
1
  6
CONTINUOUS
 62
   250
 10
0.12295
 20
0.704035
 30
0.0
 11
0.158823
 21
0.704035
 31
0.0
  0
INSERT
  8
1
 62
   250
  2
STRIP2
 10
0.12295
 20
0.721972
 30
0.0
 41
0.179372
 42
0.179372
  0
INSERT
  8
1
 62
   250
  2
STRIP2
 10
0.12295
 20
0.739909
 30
0.0
 41
0.179372
 42
0.179372
  0
TEXT
  8
1
  6
CONTINUOUS
 62
   250
 10
0.12843
 20
0.798205
 30
0.0
 40
0.009417
  1
DP
 41
1.233333
  7
SIMPLEX
  0
LINE
  8
1
  6
CONTINUOUS
 62
   250
 10
0.01165
 20
0.86547
 30
0.0
 11
0.168601
 21
0.86547
 31
0.0
  0
TEXT
  8
1
  6
CONTINUOUS
 62
   250
 10
0.030583
 20
0.820627
 30
0.0
 40
0.009417
  1
SELECT
 41
1.233333
  7
SIMPLEX
  0
TEXT
  8
1
  6
CONTINUOUS
 62
   250
 10
0.007166
 20
0.921511
 30
0.0
 40
0.008072
  1
TEMP
 50
270.0
 41
1.233333
  7
SIMPLEX
  0
TEXT
  8
1
  6
CONTINUOUS
 62
   250
 10
0.04304
 20
0.921511
 30
0.0
 40
0.008072
  1
TEMP
 50
270.0
 41
1.233333
  7
SIMPLEX
  0
TEXT
  8
1
  6
CONTINUOUS
 62
   250
 10
0.029587
 20
0.921511
 30
0.0
 40
0.006377
  1
LOOP IN
 50
270.0
 41
1.233333
  7
SIMPLEX
  0
LINE
  8
1
  6
CONTINUOUS
 62
   250
 10
0.036698
 20
0.939076
 30
0.0
 11
0.049382
 21
0.926393
 31
0.0
  0
CIRCLE
  8
1
  6
CONTINUOUS
 62
   250
 10
0.04304
 20
0.932734
 30
0.0
 40
0.008969
  0
TEXT
  8
1
  6
CONTINUOUS
 62
   250
 10
0.037061
 20
0.946187
 30
0.0
 40
0.0113
  1
5
 41
1.111111
  7
SIMPLEX
  0
TEXT
  8
1
  6
CONTINUOUS
 62
   250
 10
0.07443
 20
0.919281
 30
0.0
 40
0.009417
  1
+P
 50
270.0
 41
1.233333
  7
SIMPLEX
  0
CIRCLE
  8
1
  6
CONTINUOUS
 62
   250
 10
0.078915
 20
0.932734
 30
0.0
 40
0.008969
  0
TEXT
  8
1
  6
CONTINUOUS
 62
   250
 10
0.072636
 20
0.946187
 30
0.0
 40
0.0113
  1
4
 41
1.111111
  7
SIMPLEX
  0
LINE
  8
1
  6
CONTINUOUS
 62
   250
 10
0.078915
 20
0.923766
 30
0.0
 11
0.078915
 21
0.941703
 31
0.0
  0
TEXT
  8
1
  6
CONTINUOUS
 62
   250
 10
0.146178
 20
0.919281
 30
0.0
 40
0.009417
  1
+24V
 50
270.0
 41
1.233333
  7
SIMPLEX
  0
CIRCLE
  8
1
  6
CONTINUOUS
 62
   250
 10
0.150663
 20
0.932734
 30
0.0
 40
0.008969
  0
TEXT
  8
1
  6
CONTINUOUS
 62
   250
 10
0.110305
 20
0.919281
 30
0.0
 40
0.009417
  1
GND
 50
270.0
 41
1.233333
  7
SIMPLEX
  0
CIRCLE
  8
1
  6
CONTINUOUS
 62
   250
 10
0.114789
 20
0.932734
 30
0.0
 40
0.008969
  0
LINE
  8
1
  6
CONTINUOUS
 62
   250
 10
0.123758
 20
0.932734
 30
0.0
 11
0.10582
 21
0.932734
 31
0.0
  0
TEXT
  8
1
  6
CONTINUOUS
 62
   250
 10
0.10881
 20
0.946187
 30
0.0
 40
0.0113
  1
3
 41
1.111111
  7
SIMPLEX
  0
LINE
  8
1
  6
CONTINUOUS
 62
   250
 10
0.150663
 20
0.923766
 30
0.0
 11
0.150663
 21
0.941703
 31
0.0
  0
TEXT
  8
1
  6
CONTINUOUS
 62
   250
 10
0.145581
 20
0.946187
 30
0.0
 40
0.0113
  1
1
 41
1.111111
  7
SIMPLEX
  0
LINE
  8
1
  6
CONTINUOUS
 62
   250
 10
0.168601
 20
0.86547
 30
0.0
 11
0.168601
 21
0.964125
 31
0.0
  0
INSERT
  8
1
 62
   250
  2
STRIP2
 10
0.208959
 20
0.86547
 30
0.0
 41
0.179372
 42
0.179372
  0
LINE
  8
1
  6
CONTINUOUS
 62
   250
 10
0.208959
 20
0.847533
 30
0.0
 11
0.244834
 21
0.847533
 31
0.0
  0
INSERT
  8
1
 62
   250
  2
STRIP2
 10
0.208959
 20
0.883407
 30
0.0
 41
0.179372
 42
0.179372
  0
ENDSEC
  0
EOF
