  0
SECTION
  2
HEADER
  9
$ACADVER
  1
AC1009
  9
$INSBASE
 10
0.0
 20
0.0
 30
0.0
  9
$EXTMIN
 10
-0.293877
 20
-0.003698
 30
0.0
  9
$EXTMAX
 10
0.293877
 20
0.985841
 30
0.0
  9
$LIMMIN
 10
17.179914
 20
16.980692
  9
$LIMMAX
 10
17.760271
 20
17.962835
  9
$ORTHOMODE
 70
     1
  9
$REGENMODE
 70
     1
  9
$FILLMODE
 70
     1
  9
$QTEXTMODE
 70
     0
  9
$MIRRTEXT
 70
     1
  9
$DRAGMODE
 70
     2
  9
$LTSCALE
 40
1.0
  9
$OSMODE
 70
     0
  9
$ATTMODE
 70
     2
  9
$TEXTSIZE
 40
1.0
  9
$TRACEWID
 40
0.05
  9
$TEXTSTYLE
  7
STANDARD
  9
$CLAYER
  8
0
  9
$CELTYPE
  6
BYLAYER
  9
$CECOLOR
 62
   256
  9
$DIMSCALE
 40
1.0
  9
$DIMASZ
 40
1.0
  9
$DIMEXO
 40
0.5
  9
$DIMDLI
 40
0.38
  9
$DIMRND
 40
0.0
  9
$DIMDLE
 40
0.0
  9
$DIMEXE
 40
0.5
  9
$DIMTP
 40
0.0
  9
$DIMTM
 40
0.0
  9
$DIMTXT
 40
0.18
  9
$DIMCEN
 40
0.09
  9
$DIMTSZ
 40
0.0
  9
$DIMTOL
 70
     0
  9
$DIMLIM
 70
     0
  9
$DIMTIH
 70
     1
  9
$DIMTOH
 70
     1
  9
$DIMSE1
 70
     0
  9
$DIMSE2
 70
     0
  9
$DIMTAD
 70
     0
  9
$DIMZIN
 70
     0
  9
$DIMBLK
  1

  9
$DIMASO
 70
     1
  9
$DIMSHO
 70
     1
  9
$DIMPOST
  1
"
  9
$DIMAPOST
  1

  9
$DIMALT
 70
     0
  9
$DIMALTD
 70
     2
  9
$DIMALTF
 40
25.4
  9
$DIMLFAC
 40
1.0
  9
$DIMTOFL
 70
     0
  9
$DIMTVP
 40
0.0
  9
$DIMTIX
 70
     0
  9
$DIMSOXD
 70
     0
  9
$DIMSAH
 70
     0
  9
$DIMBLK1
  1

  9
$DIMBLK2
  1

  9
$DIMSTYLE
  2
*UNNAMED
  9
$DIMCLRD
 70
     0
  9
$DIMCLRE
 70
     0
  9
$DIMCLRT
 70
     0
  9
$DIMTFAC
 40
1.0
  9
$DIMGAP
 40
0.09
  9
$LUNITS
 70
     2
  9
$LUPREC
 70
     3
  9
$SKETCHINC
 40
0.1
  9
$FILLETRAD
 40
0.0
  9
$AUNITS
 70
     0
  9
$AUPREC
 70
     3
  9
$MENU
  1
acad
  9
$ELEVATION
 40
0.0
  9
$PELEVATION
 40
0.0
  9
$THICKNESS
 40
0.0
  9
$LIMCHECK
 70
     0
  9
$BLIPMODE
 70
     0
  9
$CHAMFERA
 40
0.5
  9
$CHAMFERB
 40
0.5
  9
$SKPOLY
 70
     0
  9
$TDCREATE
 40
2450085.625316551
  9
$TDUPDATE
 40
2450085.625316551
  9
$TDINDWG
 40
0.0000000000
  9
$TDUSRTIMER
 40
0.0000000000
  9
$USRTIMER
 70
     1
  9
$ANGBASE
 50
0.0
  9
$ANGDIR
 70
     0
  9
$PDMODE
 70
     2
  9
$PDSIZE
 40
0.0
  9
$PLINEWID
 40
0.0
  9
$COORDS
 70
     1
  9
$SPLFRAME
 70
     0
  9
$SPLINETYPE
 70
     6
  9
$SPLINESEGS
 70
     8
  9
$ATTDIA
 70
     0
  9
$ATTREQ
 70
     1
  9
$HANDLING
 70
     0
  9
$HANDSEED
  5
0
  9
$SURFTAB1
 70
     6
  9
$SURFTAB2
 70
     6
  9
$SURFTYPE
 70
     6
  9
$SURFU
 70
     6
  9
$SURFV
 70
     6
  9
$UCSNAME
  2

  9
$UCSORG
 10
0.0
 20
0.0
 30
0.0
  9
$UCSXDIR
 10
1.0
 20
0.0
 30
0.0
  9
$UCSYDIR
 10
0.0
 20
1.0
 30
0.0
  9
$PUCSNAME
  2

  9
$PUCSORG
 10
0.0
 20
0.0
 30
0.0
  9
$PUCSXDIR
 10
1.0
 20
0.0
 30
0.0
  9
$PUCSYDIR
 10
0.0
 20
1.0
 30
0.0
  9
$USERI1
 70
     0
  9
$USERI2
 70
     0
  9
$USERI3
 70
     0
  9
$USERI4
 70
     0
  9
$USERI5
 70
     0
  9
$USERR1
 40
0.0
  9
$USERR2
 40
0.0
  9
$USERR3
 40
0.0
  9
$USERR4
 40
0.0
  9
$USERR5
 40
0.0
  9
$WORLDVIEW
 70
     1
  9
$SHADEDGE
 70
     3
  9
$SHADEDIF
 70
    70
  9
$TILEMODE
 70
     1
  9
$MAXACTVP
 70
    16
  9
$PINSBASE
 10
-0.199092
 20
50.0
 30
-0.210381
  9
$PLIMCHECK
 70
     0
  9
$PEXTMIN
 10
1.000000E+20
 20
1.000000E+20
 30
1.000000E+20
  9
$PEXTMAX
 10
-1.000000E+20
 20
-1.000000E+20
 30
-1.000000E+20
  9
$PLIMMIN
 10
0.0
 20
0.0
  9
$PLIMMAX
 10
12.0
 20
9.0
  9
$UNITMODE
 70
     0
  9
$VISRETAIN
 70
     0
  9
$PLINEGEN
 70
     0
  9
$PSLTSCALE
 70
     1
  9
$TREEDEPTH
 70
  3020
  9
$DWGCODEPAGE
  3
ascii
  0
ENDSEC
  0
SECTION
  2
TABLES
  0
TABLE
  2
VPORT
 70
     1
  0
VPORT
  2
*ACTIVE
 70
     0
 10
0.0
 20
0.0
 11
1.0
 21
1.0
 12
0.046718
 22
0.396418
 13
0.0
 23
0.0
 14
1.0
 24
1.0
 15
1.0
 25
1.0
 16
0.0
 26
0.0
 36
1.0
 17
0.0
 27
0.0
 37
0.0
 40
1.649102
 41
1.387409
 42
50.0
 43
0.0
 44
0.0
 50
0.0
 51
0.0
 71
     0
 72
   100
 73
     1
 74
     1
 75
     0
 76
     0
 77
     0
 78
     0
  0
ENDTAB
  0
TABLE
  2
LTYPE
 70
     3
  0
LTYPE
  2
CONTINUOUS
 70
    64
  3
SOLID LINE
 72
    65
 73
     0
 40
0.0
  0
LTYPE
  2
DASHED
 70
    64
  3
__ __ __ __ __ __ __ __ __ __ __ __ __ __ __
 72
    65
 73
     2
 40
0.75
 49
0.5
 49
-0.25
  0
LTYPE
  2
PHANTOM
 70
    64
  3
_____ _ _ _____ _ _ _____ _ _ _____ _ _ ____
 72
    65
 73
     6
 40
2.5
 49
1.25
 49
-0.25
 49
0.25
 49
-0.25
 49
0.25
 49
-0.25
  0
ENDTAB
  0
TABLE
  2
LAYER
 70
     2
  0
LAYER
  2
0
 70
    64
 62
     4
  6
CONTINUOUS
  0
LAYER
  2
2
 70
    64
 62
     9
  6
DASHED
  0
ENDTAB
  0
TABLE
  2
STYLE
 70
     3
  0
STYLE
  2
STANDARD
 70
     0
 40
0.0
 41
1.0
 50
0.0
 71
     0
 42
0.2
  3
txt
  4

  0
STYLE
  2
MAIN
 70
    64
 40
0.0
 41
1.0
 50
0.0
 71
     0
 42
1.0
  3
ROMANS.SHX
  4

  0
STYLE
  2
SIMPLEX
 70
    64
 40
0.0
 41
1.0
 50
0.0
 71
     0
 42
1.0
  3
ROMANS.SHX
  4

  0
ENDTAB
  0
TABLE
  2
VIEW
 70
     0
  0
ENDTAB
  0
TABLE
  2
UCS
 70
     0
  0
ENDTAB
  0
TABLE
  2
APPID
 70
     1
  0
APPID
  2
ACAD
 70
    64
  0
ENDTAB
  0
TABLE
  2
DIMSTYLE
 70
     0
  0
ENDTAB
  0
ENDSEC
  0
SECTION
  2
BLOCKS
  0
ENDSEC
  0
SECTION
  2
ENTITIES
  0
LINE
  8
2
  6
PHANTOM
 62
   250
 10
0.167759
 20
0.828909
 30
0.0
 11
-0.126884
 21
0.828909
 31
0.0
  0
LINE
  8
2
  6
DASHED
 62
   250
 10
-0.126884
 20
0.705695
 30
0.0
 11
0.167759
 21
0.705695
 31
0.0
  0
CIRCLE
  8
0
  6
CONTINUOUS
 62
   250
 10
0.001785
 20
0.334822
 30
0.0
 40
0.044643
  0
CIRCLE
  8
0
  6
CONTINUOUS
 62
   250
 10
0.001785
 20
0.205357
 30
0.0
 40
0.026786
  0
LINE
  8
0
  6
CONTINUOUS
 62
   250
 10
0.272322
 20
0.982143
 30
0.0
 11
-0.272322
 21
0.982143
 31
0.0
  0
LINE
  8
0
  6
CONTINUOUS
 62
   250
 10
0.209821
 20
0.967857
 30
0.0
 11
-0.209822
 21
0.967857
 31
0.0
  0
LINE
  8
0
  6
CONTINUOUS
 62
   250
 10
0.272322
 20
0.0
 30
0.0
 11
-0.272322
 21
0.0
 31
0.0
  0
LINE
  8
0
  6
CONTINUOUS
 62
   250
 10
-0.209822
 20
0.014286
 30
0.0
 11
0.209821
 21
0.014286
 31
0.0
  0
LINE
  8
0
  6
CONTINUOUS
 62
   250
 10
-0.145536
 20
0.035714
 30
0.0
 11
0.104464
 21
0.035714
 31
0.0
  0
LINE
  8
0
  6
CONTINUOUS
 62
   250
 10
-0.011608
 20
0.133929
 30
0.0
 11
0.001785
 21
0.133929
 31
0.0
  0
LINE
  8
0
  6
CONTINUOUS
 62
   250
 10
-0.266071
 20
0.084822
 30
0.0
 11
-0.266071
 21
0.897322
 31
0.0
  0
LINE
  8
0
  6
CONTINUOUS
 62
   250
 10
-0.290179
 20
0.964286
 30
0.0
 11
-0.290179
 21
0.017857
 31
0.0
  0
LINE
  8
0
  6
CONTINUOUS
 62
   250
 10
-0.275892
 20
0.901786
 30
0.0
 11
-0.275892
 21
0.080357
 31
0.0
  0
ARC
  8
0
  6
CONTINUOUS
 62
   250
 10
-0.272322
 20
0.017857
 30
0.0
 40
0.017857
 50
179.999847
 51
270.000092
  0
LINE
  8
0
  6
CONTINUOUS
 62
   250
 10
-0.275892
 20
0.080357
 30
0.0
 11
-0.25
 21
0.080357
 31
0.0
  0
CIRCLE
  8
0
  6
CONTINUOUS
 62
   250
 10
-0.25
 20
0.040179
 30
0.0
 40
0.028125
  0
LINE
  8
0
  6
CONTINUOUS
 62
   250
 10
-0.199108
 20
0.084822
 30
0.0
 11
-0.199108
 21
0.014286
 31
0.0
  0
LINE
  8
0
  6
CONTINUOUS
 62
   250
 10
-0.209822
 20
0.040179
 30
0.0
 11
-0.209822
 21
0.014286
 31
0.0
  0
CIRCLE
  8
0
  6
CONTINUOUS
 62
   250
 10
-0.25
 20
0.040179
 30
0.0
 40
0.0175
  0
LINE
  8
0
  6
CONTINUOUS
 62
   250
 10
-0.266071
 20
0.084822
 30
0.0
 11
-0.199108
 21
0.084822
 31
0.0
  0
ARC
  8
0
  6
CONTINUOUS
 62
   250
 10
-0.249999
 20
0.040179
 30
0.0
 40
0.040179
 50
0.0
 51
90.000046
  0
CIRCLE
  8
0
  6
CONTINUOUS
 62
   250
 10
-0.212499
 20
0.098214
 30
0.0
 40
0.008929
  0
LINE
  8
0
  6
CONTINUOUS
 62
   250
 10
-0.266071
 20
0.231873
 30
0.0
 11
-0.266071
 21
0.197944
 31
0.0
  0
LINE
  8
0
  6
CONTINUOUS
 62
   250
 10
-0.266071
 20
0.488839
 30
0.0
 11
-0.266071
 21
0.354911
 31
0.0
  0
CIRCLE
  8
0
  6
CONTINUOUS
 62
   250
 10
-0.105358
 20
0.205357
 30
0.0
 40
0.026786
  0
CIRCLE
  8
0
  6
CONTINUOUS
 62
   250
 10
-0.091965
 20
0.066964
 30
0.0
 40
0.008929
  0
LINE
  8
0
  6
CONTINUOUS
 62
   250
 10
-0.145536
 20
0.133929
 30
0.0
 11
-0.069643
 21
0.133929
 31
0.0
  0
LINE
  8
0
  6
CONTINUOUS
 62
   250
 10
-0.098278
 20
0.073278
 30
0.0
 11
-0.085651
 21
0.060651
 31
0.0
  0
TEXT
  8
0
  6
CONTINUOUS
 62
   250
 10
-0.097917
 20
0.040179
 30
0.0
 40
0.0125
  1
2
  7
SIMPLEX
  0
TEXT
  8
0
  6
CONTINUOUS
 62
   250
 10
-0.087499
 20
0.080357
 30
0.0
 40
0.0125
  1
GND
 50
90.0
 41
0.9
  7
SIMPLEX
  0
LINE
  8
0
  6
CONTINUOUS
 62
   250
 10
-0.169643
 20
0.0
 30
0.0
 11
-0.169643
 21
0.014286
 31
0.0
  0
LINE
  8
0
  6
CONTINUOUS
 62
   250
 10
-0.145536
 20
0.133929
 30
0.0
 11
-0.145536
 21
0.035714
 31
0.0
  0
TEXT
  8
0
  6
CONTINUOUS
 62
   250
 10
-0.123215
 20
0.080357
 30
0.0
 40
0.0125
  1
+24V
 50
90.0
 41
0.9
  7
SIMPLEX
  0
CIRCLE
  8
0
  6
CONTINUOUS
 62
   250
 10
-0.127679
 20
0.066964
 30
0.0
 40
0.008929
  0
TEXT
  8
0
  6
CONTINUOUS
 62
   250
 10
-0.132739
 20
0.040179
 30
0.0
 40
0.0125
  1
1
  7
SIMPLEX
  0
LINE
  8
0
  6
CONTINUOUS
 62
   250
 10
-0.118749
 20
0.066964
 30
0.0
 11
-0.136608
 21
0.066964
 31
0.0
  0
LINE
  8
0
  6
CONTINUOUS
 62
   250
 10
-0.047321
 20
0.133929
 30
0.0
 11
-0.033929
 21
0.133929
 31
0.0
  0
LINE
  8
0
  6
CONTINUOUS
 62
   250
 10
-0.074108
 20
0.035714
 30
0.0
 11
-0.074108
 21
0.133929
 31
0.0
  0
TEXT
  8
0
  6
CONTINUOUS
 62
   250
 10
-0.051786
 20
0.080357
 30
0.0
 40
0.0125
  1
Ia OUT
 50
90.0
 41
0.9
  7
SIMPLEX
  0
CIRCLE
  8
0
  6
CONTINUOUS
 62
   250
 10
-0.056249
 20
0.066964
 30
0.0
 40
0.008929
  0
LINE
  8
0
  6
CONTINUOUS
 62
   250
 10
-0.056249
 20
0.058036
 30
0.0
 11
-0.056249
 21
0.075893
 31
0.0
  0
TEXT
  8
0
  6
CONTINUOUS
 62
   250
 10
-0.062203
 20
0.040179
 30
0.0
 40
0.0125
  1
3
  7
SIMPLEX
  0
LINE
  8
0
  6
CONTINUOUS
 62
   250
 10
-0.064388
 20
0.080357
 30
0.0
 11
-0.064388
 21
0.084822
 31
0.0
  0
LINE
  8
0
  6
CONTINUOUS
 62
   250
 10
-0.051786
 20
0.080357
 30
0.0
 11
-0.051786
 21
0.084822
 31
0.0
  0
LINE
  8
0
  6
CONTINUOUS
 62
   250
 10
-0.002679
 20
0.035714
 30
0.0
 11
-0.002679
 21
0.133929
 31
0.0
  0
TEXT
  8
0
  6
CONTINUOUS
 62
   250
 10
-0.016071
 20
0.080357
 30
0.0
 40
0.0125
  1
Ia/Va IN
 50
90.0
 41
0.9
  7
SIMPLEX
  0
CIRCLE
  8
0
  6
CONTINUOUS
 62
   250
 10
-0.020536
 20
0.066964
 30
0.0
 40
0.008929
  0
LINE
  8
0
  6
CONTINUOUS
 62
   250
 10
-0.02685
 20
0.073278
 30
0.0
 11
-0.014223
 21
0.060651
 31
0.0
  0
TEXT
  8
0
  6
CONTINUOUS
 62
   250
 10
-0.026785
 20
0.040179
 30
0.0
 40
0.0125
  1
4
  7
SIMPLEX
  0
LINE
  8
0
  6
CONTINUOUS
 62
   250
 10
-0.028674
 20
0.080357
 30
0.0
 11
-0.028674
 21
0.084822
 31
0.0
  0
LINE
  8
0
  6
CONTINUOUS
 62
   250
 10
-0.016071
 20
0.080357
 30
0.0
 11
-0.016071
 21
0.084822
 31
0.0
  0
LINE
  8
2
  6
DASHED
 62
   250
 10
-0.208036
 20
0.745536
 30
0.0
 11
-0.208036
 21
0.834822
 31
0.0
  0
LINE
  8
2
  6
DASHED
 62
   250
 10
-0.243749
 20
0.834822
 30
0.0
 11
-0.243749
 21
0.745536
 31
0.0
  0
LINE
  8
0
  6
CONTINUOUS
 62
   250
 10
-0.252679
 20
0.84375
 30
0.0
 11
-0.252679
 21
0.736607
 31
0.0
  0
LINE
  8
0
  6
CONTINUOUS
 62
   250
 10
-0.199108
 20
0.736607
 30
0.0
 11
-0.199108
 21
0.84375
 31
0.0
  0
LINE
  8
2
  6
DASHED
 62
   250
 10
-0.243749
 20
0.745536
 30
0.0
 11
-0.208036
 21
0.745536
 31
0.0
  0
LINE
  8
0
  6
CONTINUOUS
 62
   250
 10
-0.252679
 20
0.736607
 30
0.0
 11
-0.199108
 21
0.736607
 31
0.0
  0
CIRCLE
  8
2
  6
DASHED
 62
   250
 10
-0.234821
 20
0.754464
 30
0.0
 40
0.001786
  0
CIRCLE
  8
2
  6
DASHED
 62
   250
 10
-0.234821
 20
0.772322
 30
0.0
 40
0.001786
  0
CIRCLE
  8
2
  6
DASHED
 62
   250
 10
-0.234821
 20
0.790179
 30
0.0
 40
0.001786
  0
CIRCLE
  8
2
  6
DASHED
 62
   250
 10
-0.216965
 20
0.754464
 30
0.0
 40
0.001786
  0
CIRCLE
  8
2
  6
DASHED
 62
   250
 10
-0.216965
 20
0.772322
 30
0.0
 40
0.001786
  0
CIRCLE
  8
2
  6
DASHED
 62
   250
 10
-0.216965
 20
0.790179
 30
0.0
 40
0.001786
  0
ARC
  8
0
  6
CONTINUOUS
 62
   250
 10
-0.272322
 20
0.964286
 30
0.0
 40
0.017857
 50
89.999908
 51
180.0
  0
LINE
  8
0
  6
CONTINUOUS
 62
   250
 10
-0.25
 20
0.901786
 30
0.0
 11
-0.275892
 21
0.901786
 31
0.0
  0
CIRCLE
  8
0
  6
CONTINUOUS
 62
   250
 10
-0.25
 20
0.941964
 30
0.0
 40
0.028125
  0
LINE
  8
0
  6
CONTINUOUS
 62
   250
 10
-0.199108
 20
0.967857
 30
0.0
 11
-0.199108
 21
0.897322
 31
0.0
  0
LINE
  8
0
  6
CONTINUOUS
 62
   250
 10
-0.209822
 20
0.967857
 30
0.0
 11
-0.209822
 21
0.941964
 31
0.0
  0
CIRCLE
  8
0
  6
CONTINUOUS
 62
   250
 10
-0.25
 20
0.941964
 30
0.0
 40
0.0175
  0
LINE
  8
2
  6
DASHED
 62
   250
 10
-0.208036
 20
0.834822
 30
0.0
 11
-0.243749
 21
0.834822
 31
0.0
  0
LINE
  8
0
  6
CONTINUOUS
 62
   250
 10
-0.199108
 20
0.84375
 30
0.0
 11
-0.252679
 21
0.84375
 31
0.0
  0
LINE
  8
0
  6
CONTINUOUS
 62
   250
 10
-0.199108
 20
0.897322
 30
0.0
 11
-0.266071
 21
0.897322
 31
0.0
  0
ARC
  8
0
  6
CONTINUOUS
 62
   250
 10
-0.25
 20
0.941964
 30
0.0
 40
0.040179
 50
270.0
 51
0.000085
  0
CIRCLE
  8
2
  6
DASHED
 62
   250
 10
-0.234821
 20
0.808036
 30
0.0
 40
0.001786
  0
CIRCLE
  8
2
  6
DASHED
 62
   250
 10
-0.234821
 20
0.825893
 30
0.0
 40
0.001786
  0
CIRCLE
  8
2
  6
DASHED
 62
   250
 10
-0.216965
 20
0.808036
 30
0.0
 40
0.001786
  0
CIRCLE
  8
2
  6
DASHED
 62
   250
 10
-0.216965
 20
0.825893
 30
0.0
 40
0.001786
  0
TEXT
  8
0
  6
CONTINUOUS
 62
   250
 10
-0.194643
 20
0.820107
 30
0.0
 40
0.009375
  1
1
 41
1.333333
  7
SIMPLEX
  0
CIRCLE
  8
0
  6
CONTINUOUS
 62
   250
 10
-0.212499
 20
0.888393
 30
0.0
 40
0.008929
  0
TEXT
  8
0
  6
CONTINUOUS
 62
   250
 10
-0.179787
 20
0.837671
 30
0.0
 40
0.0125
  1
CONNECTOR
 50
270.0
 41
0.9
  7
SIMPLEX
 72
     1
 11
-0.179787
 21
0.78785
 31
0.0
  0
TEXT
  8
0
  6
CONTINUOUS
 62
   250
 10
-0.159994
 20
0.816711
 30
0.0
 40
0.0125
  1
DISPLAY
 50
270.0
 41
0.9
  7
SIMPLEX
 72
     1
 11
-0.159994
 21
0.782961
 31
0.0
  0
LINE
  8
2
  6
DASHED
 62
   250
 10
-0.126884
 20
0.828909
 30
0.0
 11
-0.126884
 21
0.705695
 31
0.0
  0
LINE
  8
2
  6
DASHED
 62
   250
 10
-0.062598
 20
0.828909
 30
0.0
 11
-0.062598
 21
0.705695
 31
0.0
  0
LINE
  8
0
  6
CONTINUOUS
 62
   250
 10
-0.165179
 20
0.967857
 30
0.0
 11
-0.165179
 21
0.982143
 31
0.0
  0
LINE
  8
0
  6
CONTINUOUS
 62
   250
 10
0.290178
 20
0.964286
 30
0.0
 11
0.290178
 21
0.017857
 31
0.0
  0
LINE
  8
0
  6
CONTINUOUS
 62
   250
 10
0.275892
 20
0.901786
 30
0.0
 11
0.275892
 21
0.080357
 31
0.0
  0
LINE
  8
0
  6
CONTINUOUS
 62
   250
 10
0.269643
 20
0.897322
 30
0.0
 11
0.269643
 21
0.084822
 31
0.0
  0
LINE
  8
0
  6
CONTINUOUS
 62
   250
 10
0.198214
 20
0.459822
 30
0.0
 11
0.162501
 21
0.459822
 31
0.0
  0
LINE
  8
0
  6
CONTINUOUS
 62
   250
 10
0.198214
 20
0.450893
 30
0.0
 11
0.162501
 21
0.450893
 31
0.0
  0
LINE
  8
0
  6
CONTINUOUS
 62
   250
 10
0.198214
 20
0.441964
 30
0.0
 11
0.162501
 21
0.441964
 31
0.0
  0
LINE
  8
0
  6
CONTINUOUS
 62
   250
 10
0.198214
 20
0.433036
 30
0.0
 11
0.162501
 21
0.433036
 31
0.0
  0
LINE
  8
0
  6
CONTINUOUS
 62
   250
 10
0.198214
 20
0.424107
 30
0.0
 11
0.162501
 21
0.424107
 31
0.0
  0
LINE
  8
0
  6
CONTINUOUS
 62
   250
 10
0.198214
 20
0.415179
 30
0.0
 11
0.162501
 21
0.415179
 31
0.0
  0
LINE
  8
0
  6
CONTINUOUS
 62
   250
 10
0.198214
 20
0.40625
 30
0.0
 11
0.162501
 21
0.40625
 31
0.0
  0
LINE
  8
0
  6
CONTINUOUS
 62
   250
 10
0.198214
 20
0.397322
 30
0.0
 11
0.162501
 21
0.397322
 31
0.0
  0
LINE
  8
0
  6
CONTINUOUS
 62
   250
 10
0.198214
 20
0.388393
 30
0.0
 11
0.162501
 21
0.388393
 31
0.0
  0
LINE
  8
0
  6
CONTINUOUS
 62
   250
 10
0.198214
 20
0.379464
 30
0.0
 11
0.162501
 21
0.379464
 31
0.0
  0
LINE
  8
0
  6
CONTINUOUS
 62
   250
 10
0.198214
 20
0.370536
 30
0.0
 11
0.162501
 21
0.370536
 31
0.0
  0
LINE
  8
0
  6
CONTINUOUS
 62
   250
 10
0.198214
 20
0.352679
 30
0.0
 11
0.162501
 21
0.352679
 31
0.0
  0
LINE
  8
0
  6
CONTINUOUS
 62
   250
 10
0.198214
 20
0.361607
 30
0.0
 11
0.162501
 21
0.361607
 31
0.0
  0
LINE
  8
0
  6
CONTINUOUS
 62
   250
 10
0.198214
 20
0.34375
 30
0.0
 11
0.162501
 21
0.34375
 31
0.0
  0
LINE
  8
0
  6
CONTINUOUS
 62
   250
 10
0.198214
 20
0.334822
 30
0.0
 11
0.162501
 21
0.334822
 31
0.0
  0
LINE
  8
0
  6
CONTINUOUS
 62
   250
 10
0.149107
 20
0.482143
 30
0.0
 11
0.211608
 21
0.482143
 31
0.0
  0
LINE
  8
0
  6
CONTINUOUS
 62
   250
 10
0.211608
 20
0.321429
 30
0.0
 11
0.149107
 21
0.321429
 31
0.0
  0
LINE
  8
0
  6
CONTINUOUS
 62
   250
 10
0.198214
 20
0.46875
 30
0.0
 11
0.162501
 21
0.46875
 31
0.0
  0
LINE
  8
0
  6
CONTINUOUS
 62
   250
 10
0.193751
 20
0.477679
 30
0.0
 11
0.177678
 21
0.480357
 31
0.0
  0
LINE
  8
0
  6
CONTINUOUS
 62
   250
 10
0.177678
 20
0.475
 30
0.0
 11
0.193751
 21
0.477679
 31
0.0
  0
CIRCLE
  8
0
  6
CONTINUOUS
 62
   250
 10
0.108929
 20
0.205357
 30
0.0
 40
0.026786
  0
CIRCLE
  8
0
  6
CONTINUOUS
 62
   250
 10
0.086607
 20
0.066964
 30
0.0
 40
0.008929
  0
LINE
  8
0
  6
CONTINUOUS
 62
   250
 10
0.059821
 20
0.133929
 30
0.0
 11
0.104464
 21
0.133929
 31
0.0
  0
LINE
  8
0
  6
CONTINUOUS
 62
   250
 10
0.04458
 20
0.073278
 30
0.0
 11
0.057206
 21
0.060651
 31
0.0
  0
CIRCLE
  8
0
  6
CONTINUOUS
 62
   250
 10
0.050892
 20
0.066964
 30
0.0
 40
0.008929
  0
TEXT
  8
0
  6
CONTINUOUS
 62
   250
 10
0.055357
 20
0.080357
 30
0.0
 40
0.0125
  1
Ib/Vb IN
 50
90.0
 41
0.9
  7
SIMPLEX
  0
TEXT
  8
0
  6
CONTINUOUS
 62
   250
 10
0.019642
 20
0.080357
 30
0.0
 40
0.0125
  1
Ib OUT
 50
90.0
 41
0.9
  7
SIMPLEX
  0
LINE
  8
0
  6
CONTINUOUS
 62
   250
 10
0.024107
 20
0.066964
 30
0.0
 11
0.006251
 21
0.066964
 31
0.0
  0
CIRCLE
  8
0
  6
CONTINUOUS
 62
   250
 10
0.015179
 20
0.066964
 30
0.0
 40
0.008929
  0
TEXT
  8
0
  6
CONTINUOUS
 62
   250
 10
0.009227
 20
0.040179
 30
0.0
 40
0.0125
  1
5
  7
SIMPLEX
  0
LINE
  8
0
  6
CONTINUOUS
 62
   250
 10
0.007041
 20
0.080357
 30
0.0
 11
0.007041
 21
0.084822
 31
0.0
  0
LINE
  8
0
  6
CONTINUOUS
 62
   250
 10
0.019642
 20
0.080357
 30
0.0
 11
0.019642
 21
0.084822
 31
0.0
  0
LINE
  8
0
  6
CONTINUOUS
 62
   250
 10
0.042755
 20
0.080357
 30
0.0
 11
0.042755
 21
0.084822
 31
0.0
  0
LINE
  8
0
  6
CONTINUOUS
 62
   250
 10
0.024107
 20
0.133929
 30
0.0
 11
0.037501
 21
0.133929
 31
0.0
  0
TEXT
  8
0
  6
CONTINUOUS
 62
   250
 10
0.044643
 20
0.040179
 30
0.0
 40
0.0125
  1
6
  7
SIMPLEX
  0
LINE
  8
0
  6
CONTINUOUS
 62
   250
 10
0.055357
 20
0.080357
 30
0.0
 11
0.055357
 21
0.084822
 31
0.0
  0
LINE
  8
0
  6
CONTINUOUS
 62
   250
 10
0.086607
 20
0.058036
 30
0.0
 11
0.086607
 21
0.075893
 31
0.0
  0
TEXT
  8
0
  6
CONTINUOUS
 62
   250
 10
0.080655
 20
0.040179
 30
0.0
 40
0.0125
  1
7
  7
SIMPLEX
  0
TEXT
  8
0
  6
CONTINUOUS
 62
   250
 10
0.091071
 20
0.080357
 30
0.0
 40
0.0125
  1
+P
 50
90.0
 41
0.9
  7
SIMPLEX
  0
LINE
  8
0
  6
CONTINUOUS
 62
   250
 10
0.169643
 20
0.0
 30
0.0
 11
0.169643
 21
0.014286
 31
0.0
  0
LINE
  8
0
  6
CONTINUOUS
 62
   250
 10
0.104464
 20
0.035714
 30
0.0
 11
0.104464
 21
0.133929
 31
0.0
  0
LINE
  8
0
 62
   250
 10
0.162501
 20
0.34375
 30
0.0
 11
0.162501
 21
0.334822
 31
0.0
  0
LINE
  8
0
  6
CONTINUOUS
 62
   250
 10
0.149107
 20
0.321429
 30
0.0
 11
0.149107
 21
0.482143
 31
0.0
  0
TEXT
  8
0
  6
CONTINUOUS
 62
   250
 10
0.129761
 20
0.334822
 30
0.0
 40
0.0125
  1
8
  7
SIMPLEX
  0
TEXT
  8
0
  6
CONTINUOUS
 62
   250
 10
0.129761
 20
0.441964
 30
0.0
 40
0.0125
  1
2
  7
SIMPLEX
  0
TEXT
  8
0
  6
CONTINUOUS
 62
   250
 10
0.129761
 20
0.424107
 30
0.0
 40
0.0125
  1
3
  7
SIMPLEX
  0
TEXT
  8
0
  6
CONTINUOUS
 62
   250
 10
0.129465
 20
0.40625
 30
0.0
 40
0.0125
  1
4
  7
SIMPLEX
  0
TEXT
  8
0
  6
CONTINUOUS
 62
   250
 10
0.129761
 20
0.388393
 30
0.0
 40
0.0125
  1
5
  7
SIMPLEX
  0
TEXT
  8
0
  6
CONTINUOUS
 62
   250
 10
0.129465
 20
0.370536
 30
0.0
 40
0.0125
  1
6
  7
SIMPLEX
  0
TEXT
  8
0
  6
CONTINUOUS
 62
   250
 10
0.129761
 20
0.352679
 30
0.0
 40
0.0125
  1
7
  7
SIMPLEX
  0
TEXT
  8
0
  6
CONTINUOUS
 62
   250
 10
0.130654
 20
0.459822
 30
0.0
 40
0.0125
  1
1
  7
SIMPLEX
  0
LINE
  8
0
 62
   250
 10
0.162501
 20
0.415179
 30
0.0
 11
0.162501
 21
0.40625
 31
0.0
  0
LINE
  8
0
 62
   250
 10
0.162501
 20
0.379464
 30
0.0
 11
0.162501
 21
0.370536
 31
0.0
  0
LINE
  8
0
  6
CONTINUOUS
 62
   250
 10
0.162501
 20
0.375
 30
0.0
 11
0.180357
 21
0.375
 31
0.0
  0
LINE
  8
0
  6
CONTINUOUS
 62
   250
 10
0.162501
 20
0.357143
 30
0.0
 11
0.180357
 21
0.357143
 31
0.0
  0
LINE
  8
0
  6
CONTINUOUS
 62
   250
 10
0.162501
 20
0.339286
 30
0.0
 11
0.180357
 21
0.339286
 31
0.0
  0
LINE
  8
0
 62
   250
 10
0.162501
 20
0.361607
 30
0.0
 11
0.162501
 21
0.352679
 31
0.0
  0
LINE
  8
0
  6
CONTINUOUS
 62
   250
 10
0.162501
 20
0.410714
 30
0.0
 11
0.180357
 21
0.410714
 31
0.0
  0
LINE
  8
0
  6
CONTINUOUS
 62
   250
 10
0.162501
 20
0.392857
 30
0.0
 11
0.180357
 21
0.392857
 31
0.0
  0
LINE
  8
0
 62
   250
 10
0.162501
 20
0.397322
 30
0.0
 11
0.162501
 21
0.388393
 31
0.0
  0
LINE
  8
0
  6
CONTINUOUS
 62
   250
 10
0.162501
 20
0.446429
 30
0.0
 11
0.180357
 21
0.446429
 31
0.0
  0
LINE
  8
0
  6
CONTINUOUS
 62
   250
 10
0.162501
 20
0.428572
 30
0.0
 11
0.180357
 21
0.428572
 31
0.0
  0
LINE
  8
0
 62
   250
 10
0.162501
 20
0.433036
 30
0.0
 11
0.162501
 21
0.424107
 31
0.0
  0
LINE
  8
0
 62
   250
 10
0.162501
 20
0.450893
 30
0.0
 11
0.162501
 21
0.442682
 31
0.0
  0
LINE
  8
0
  6
CONTINUOUS
 62
   250
 10
0.162501
 20
0.464286
 30
0.0
 11
0.180357
 21
0.464286
 31
0.0
  0
LINE
  8
0
  6
CONTINUOUS
 62
   250
 10
0.177678
 20
0.477679
 30
0.0
 11
0.162501
 21
0.477679
 31
0.0
  0
LINE
  8
0
 62
   250
 10
0.162501
 20
0.46875
 30
0.0
 11
0.162501
 21
0.459822
 31
0.0
  0
LINE
  8
0
  6
CONTINUOUS
 62
   250
 10
0.177678
 20
0.480357
 30
0.0
 11
0.177678
 21
0.475
 31
0.0
  0
ARC
  8
0
  6
CONTINUOUS
 62
   250
 10
0.272322
 20
0.017857
 30
0.0
 40
0.017857
 50
270.0
 51
0.00003
  0
LINE
  8
0
  6
CONTINUOUS
 62
   250
 10
0.250001
 20
0.080357
 30
0.0
 11
0.275892
 21
0.080357
 31
0.0
  0
CIRCLE
  8
0
  6
CONTINUOUS
 62
   250
 10
0.250001
 20
0.040179
 30
0.0
 40
0.028125
  0
LINE
  8
0
  6
CONTINUOUS
 62
   250
 10
0.202679
 20
0.084822
 30
0.0
 11
0.202679
 21
0.014286
 31
0.0
  0
LINE
  8
0
  6
CONTINUOUS
 62
   250
 10
0.209821
 20
0.014286
 30
0.0
 11
0.209821
 21
0.040179
 31
0.0
  0
CIRCLE
  8
0
  6
CONTINUOUS
 62
   250
 10
0.250001
 20
0.040179
 30
0.0
 40
0.0175
  0
LINE
  8
0
  6
CONTINUOUS
 62
   250
 10
0.202679
 20
0.084822
 30
0.0
 11
0.269643
 21
0.084822
 31
0.0
  0
ARC
  8
0
  6
CONTINUOUS
 62
   250
 10
0.250001
 20
0.040179
 30
0.0
 40
0.040179
 50
90.00013
 51
179.999847
  0
CIRCLE
  8
0
  6
CONTINUOUS
 62
   250
 10
0.216071
 20
0.098214
 30
0.0
 40
0.008929
  0
LINE
  8
0
  6
CONTINUOUS
 62
   250
 10
0.211608
 20
0.482143
 30
0.0
 11
0.211608
 21
0.321429
 31
0.0
  0
LINE
  8
0
  6
CONTINUOUS
 62
   250
 10
0.198214
 20
0.34375
 30
0.0
 11
0.198214
 21
0.334822
 31
0.0
  0
TEXT
  8
0
  6
CONTINUOUS
 62
   250
 10
0.220535
 20
0.334822
 30
0.0
 40
0.0125
  1
Ib
 41
0.9
  7
SIMPLEX
  0
LINE
  8
0
  6
CONTINUOUS
 62
   250
 10
0.220535
 20
0.334822
 30
0.0
 11
0.225
 21
0.334822
 31
0.0
  0
TEXT
  8
0
  6
CONTINUOUS
 62
   250
 10
0.220535
 20
0.459822
 30
0.0
 40
0.0125
  1
V2a
 41
0.9
  7
SIMPLEX
  0
TEXT
  8
0
  6
CONTINUOUS
 62
   250
 10
0.220535
 20
0.441964
 30
0.0
 40
0.0125
  1
Ia
 41
0.9
  7
SIMPLEX
  0
TEXT
  8
0
  6
CONTINUOUS
 62
   250
 10
0.220535
 20
0.424107
 30
0.0
 40
0.0125
  1
Ia
 41
0.9
  7
SIMPLEX
  0
TEXT
  8
0
  6
CONTINUOUS
 62
   250
 10
0.220535
 20
0.40625
 30
0.0
 40
0.0125
  1
DP1
 41
0.9
  7
SIMPLEX
  0
TEXT
  8
0
  6
CONTINUOUS
 62
   250
 10
0.220535
 20
0.388393
 30
0.0
 40
0.0125
  1
DP2
 41
0.9
  7
SIMPLEX
  0
TEXT
  8
0
  6
CONTINUOUS
 62
   250
 10
0.220535
 20
0.370536
 30
0.0
 40
0.0125
  1
V2b
 41
0.9
  7
SIMPLEX
  0
TEXT
  8
0
  6
CONTINUOUS
 62
   250
 10
0.220535
 20
0.352679
 30
0.0
 40
0.0125
  1
Ib
 41
0.9
  7
SIMPLEX
  0
LINE
  8
0
  6
CONTINUOUS
 62
   250
 10
0.198214
 20
0.415179
 30
0.0
 11
0.198214
 21
0.40625
 31
0.0
  0
LINE
  8
0
  6
CONTINUOUS
 62
   250
 10
0.198214
 20
0.379464
 30
0.0
 11
0.198214
 21
0.370536
 31
0.0
  0
LINE
  8
0
  6
CONTINUOUS
 62
   250
 10
0.198214
 20
0.361607
 30
0.0
 11
0.198214
 21
0.352679
 31
0.0
  0
LINE
  8
0
  6
CONTINUOUS
 62
   250
 10
0.198214
 20
0.397322
 30
0.0
 11
0.198214
 21
0.388393
 31
0.0
  0
LINE
  8
0
  6
CONTINUOUS
 62
   250
 10
0.220535
 20
0.352679
 30
0.0
 11
0.225
 21
0.352679
 31
0.0
  0
LINE
  8
0
  6
CONTINUOUS
 62
   250
 10
0.220535
 20
0.347308
 30
0.0
 11
0.225
 21
0.347308
 31
0.0
  0
LINE
  8
0
  6
CONTINUOUS
 62
   250
 10
0.220535
 20
0.365166
 30
0.0
 11
0.225
 21
0.365166
 31
0.0
  0
TEXT
  8
0
  6
CONTINUOUS
 62
   250
 10
0.200399
 20
0.477679
 30
0.0
 40
0.006697
  1
ON
 50
270.0
 41
1.233333
  7
MAIN
  0
LINE
  8
0
  6
CONTINUOUS
 62
   250
 10
0.198214
 20
0.433036
 30
0.0
 11
0.198214
 21
0.424107
 31
0.0
  0
LINE
  8
0
  6
CONTINUOUS
 62
   250
 10
0.198214
 20
0.450893
 30
0.0
 11
0.198214
 21
0.441964
 31
0.0
  0
LINE
  8
0
  6
CONTINUOUS
 62
   250
 10
0.193751
 20
0.477679
 30
0.0
 11
0.193751
 21
0.477679
 31
0.0
  0
LINE
  8
0
  6
CONTINUOUS
 62
   250
 10
0.198214
 20
0.46875
 30
0.0
 11
0.198214
 21
0.459822
 31
0.0
  0
LINE
  8
0
  6
CONTINUOUS
 62
   250
 10
0.220535
 20
0.424107
 30
0.0
 11
0.225
 21
0.424107
 31
0.0
  0
LINE
  8
0
  6
CONTINUOUS
 62
   250
 10
0.220535
 20
0.441964
 30
0.0
 11
0.225
 21
0.441964
 31
0.0
  0
LINE
  8
0
  6
CONTINUOUS
 62
   250
 10
0.220535
 20
0.436594
 30
0.0
 11
0.225
 21
0.436594
 31
0.0
  0
LINE
  8
0
  6
CONTINUOUS
 62
   250
 10
0.220535
 20
0.454451
 30
0.0
 11
0.225
 21
0.454451
 31
0.0
  0
LINE
  8
0
  6
CONTINUOUS
 62
   250
 10
0.149107
 20
0.857143
 30
0.0
 11
0.184821
 21
0.857143
 31
0.0
  0
LINE
  8
0
  6
CONTINUOUS
 62
   250
 10
0.184821
 20
0.928572
 30
0.0
 11
0.149107
 21
0.928572
 31
0.0
  0
CIRCLE
  8
0
  6
CONTINUOUS
 62
   250
 10
0.175892
 20
0.915179
 30
0.0
 40
0.008929
  0
TEXT
  8
0
  6
CONTINUOUS
 62
   250
 10
0.15065
 20
0.839286
 30
0.0
 40
0.0125
  1
GAIN
 41
0.9
  7
SIMPLEX
 72
     1
 11
0.168864
 21
0.839286
 31
0.0
  0
LINE
  8
2
  6
DASHED
 62
   250
 10
0.167759
 20
0.705695
 30
0.0
 11
0.167759
 21
0.828909
 31
0.0
  0
LINE
  8
2
  6
DASHED
 62
   250
 10
0.071332
 20
0.828909
 30
0.0
 11
0.071332
 21
0.705695
 31
0.0
  0
LINE
  8
0
  6
CONTINUOUS
 62
   250
 10
0.108929
 20
0.857143
 30
0.0
 11
0.144642
 21
0.857143
 31
0.0
  0
LINE
  8
0
  6
CONTINUOUS
 62
   250
 10
0.144642
 20
0.928572
 30
0.0
 11
0.108929
 21
0.928572
 31
0.0
  0
CIRCLE
  8
0
  6
CONTINUOUS
 62
   250
 10
0.135714
 20
0.915179
 30
0.0
 40
0.008929
  0
LINE
  8
0
  6
CONTINUOUS
 62
   250
 10
0.1294
 20
0.908865
 30
0.0
 11
0.142027
 21
0.921492
 31
0.0
  0
LINE
  8
0
  6
CONTINUOUS
 62
   250
 10
0.108929
 20
0.928572
 30
0.0
 11
0.108929
 21
0.857143
 31
0.0
  0
TEXT
  8
0
  6
CONTINUOUS
 62
   250
 10
0.092905
 20
0.839286
 30
0.0
 40
0.0125
  1
ZERO
 41
0.9
  7
SIMPLEX
 72
     1
 11
0.114869
 21
0.839286
 31
0.0
  0
LINE
  8
0
  6
CONTINUOUS
 62
   250
 10
0.149107
 20
0.928572
 30
0.0
 11
0.149107
 21
0.857143
 31
0.0
  0
LINE
  8
0
  6
CONTINUOUS
 62
   250
 10
0.144642
 20
0.857143
 30
0.0
 11
0.144642
 21
0.928572
 31
0.0
  0
LINE
  8
0
  6
CONTINUOUS
 62
   250
 10
0.16958
 20
0.908865
 30
0.0
 11
0.182206
 21
0.921492
 31
0.0
  0
LINE
  8
0
  6
CONTINUOUS
 62
   250
 10
0.169643
 20
0.982143
 30
0.0
 11
0.169643
 21
0.967857
 31
0.0
  0
ARC
  8
0
  6
CONTINUOUS
 62
   250
 10
0.272321
 20
0.964286
 30
0.0
 40
0.017857
 50
359.999817
 51
89.999908
  0
LINE
  8
0
  6
CONTINUOUS
 62
   250
 10
0.275892
 20
0.901786
 30
0.0
 11
0.250001
 21
0.901786
 31
0.0
  0
CIRCLE
  8
0
  6
CONTINUOUS
 62
   250
 10
0.250001
 20
0.941964
 30
0.0
 40
0.028125
  0
LINE
  8
0
  6
CONTINUOUS
 62
   250
 10
0.202679
 20
0.967857
 30
0.0
 11
0.202679
 21
0.901786
 31
0.0
  0
LINE
  8
0
  6
CONTINUOUS
 62
   250
 10
0.202679
 20
0.967857
 30
0.0
 11
0.202679
 21
0.897322
 31
0.0
  0
LINE
  8
0
  6
CONTINUOUS
 62
   250
 10
0.209821
 20
0.941964
 30
0.0
 11
0.209821
 21
0.967857
 31
0.0
  0
CIRCLE
  8
0
  6
CONTINUOUS
 62
   250
 10
0.250001
 20
0.941964
 30
0.0
 40
0.0175
  0
LINE
  8
0
  6
CONTINUOUS
 62
   250
 10
0.269643
 20
0.897322
 30
0.0
 11
0.202679
 21
0.897322
 31
0.0
  0
ARC
  8
0
  6
CONTINUOUS
 62
   250
 10
0.250001
 20
0.941964
 30
0.0
 40
0.040179
 50
180.000168
 51
269.999817
  0
LINE
  8
0
  6
CONTINUOUS
 62
   250
 10
0.184821
 20
0.857143
 30
0.0
 11
0.184821
 21
0.928572
 31
0.0
  0
LINE
  8
0
  6
CONTINUOUS
 62
   250
 10
0.207142
 20
0.897322
 30
0.0
 11
0.202679
 21
0.897322
 31
0.0
  0
CIRCLE
  8
0
  6
CONTINUOUS
 62
   250
 10
0.216071
 20
0.888393
 30
0.0
 40
0.008929
  0
ENDSEC
  0
EOF
