  0
SECTION
  2
HEADER
  9
$ACADVER
  1
AC1009
  9
$INSBASE
 10
0.0
 20
0.0
 30
0.0
  9
$EXTMIN
 10
-0.31435
 20
0.0
 30
0.0
  9
$EXTMAX
 10
0.322422
 20
1.0
 30
0.0
  9
$LIMMIN
 10
16.166584
 20
14.072259
  9
$LIMMAX
 10
16.803356
 20
15.072259
  9
$ORTHOMODE
 70
     1
  9
$REGENMODE
 70
     1
  9
$FILLMODE
 70
     1
  9
$QTEXTMODE
 70
     0
  9
$MIRRTEXT
 70
     1
  9
$DRAGMODE
 70
     2
  9
$LTSCALE
 40
1.0
  9
$OSMODE
 70
     0
  9
$ATTMODE
 70
     2
  9
$TEXTSIZE
 40
1.0
  9
$TRACEWID
 40
0.05
  9
$TEXTSTYLE
  7
STANDARD
  9
$CLAYER
  8
0
  9
$CELTYPE
  6
BYLAYER
  9
$CECOLOR
 62
   256
  9
$DIMSCALE
 40
1.0
  9
$DIMASZ
 40
1.0
  9
$DIMEXO
 40
0.5
  9
$DIMDLI
 40
0.38
  9
$DIMRND
 40
0.0
  9
$DIMDLE
 40
0.0
  9
$DIMEXE
 40
0.5
  9
$DIMTP
 40
0.0
  9
$DIMTM
 40
0.0
  9
$DIMTXT
 40
0.18
  9
$DIMCEN
 40
0.09
  9
$DIMTSZ
 40
0.0
  9
$DIMTOL
 70
     0
  9
$DIMLIM
 70
     0
  9
$DIMTIH
 70
     1
  9
$DIMTOH
 70
     1
  9
$DIMSE1
 70
     0
  9
$DIMSE2
 70
     0
  9
$DIMTAD
 70
     0
  9
$DIMZIN
 70
     0
  9
$DIMBLK
  1

  9
$DIMASO
 70
     1
  9
$DIMSHO
 70
     1
  9
$DIMPOST
  1
"
  9
$DIMAPOST
  1

  9
$DIMALT
 70
     0
  9
$DIMALTD
 70
     2
  9
$DIMALTF
 40
25.4
  9
$DIMLFAC
 40
1.0
  9
$DIMTOFL
 70
     0
  9
$DIMTVP
 40
0.0
  9
$DIMTIX
 70
     0
  9
$DIMSOXD
 70
     0
  9
$DIMSAH
 70
     0
  9
$DIMBLK1
  1

  9
$DIMBLK2
  1

  9
$DIMSTYLE
  2
*UNNAMED
  9
$DIMCLRD
 70
     0
  9
$DIMCLRE
 70
     0
  9
$DIMCLRT
 70
     0
  9
$DIMTFAC
 40
1.0
  9
$DIMGAP
 40
0.09
  9
$LUNITS
 70
     2
  9
$LUPREC
 70
     3
  9
$SKETCHINC
 40
0.1
  9
$FILLETRAD
 40
0.0
  9
$AUNITS
 70
     0
  9
$AUPREC
 70
     3
  9
$MENU
  1
acad
  9
$ELEVATION
 40
0.0
  9
$PELEVATION
 40
0.0
  9
$THICKNESS
 40
0.0
  9
$LIMCHECK
 70
     0
  9
$BLIPMODE
 70
     0
  9
$CHAMFERA
 40
0.5
  9
$CHAMFERB
 40
0.5
  9
$SKPOLY
 70
     0
  9
$TDCREATE
 40
2450085.600723958
  9
$TDUPDATE
 40
2450085.600723958
  9
$TDINDWG
 40
0.0000000000
  9
$TDUSRTIMER
 40
0.0000000000
  9
$USRTIMER
 70
     1
  9
$ANGBASE
 50
0.0
  9
$ANGDIR
 70
     0
  9
$PDMODE
 70
     2
  9
$PDSIZE
 40
0.0
  9
$PLINEWID
 40
0.0
  9
$COORDS
 70
     1
  9
$SPLFRAME
 70
     0
  9
$SPLINETYPE
 70
     6
  9
$SPLINESEGS
 70
     8
  9
$ATTDIA
 70
     0
  9
$ATTREQ
 70
     1
  9
$HANDLING
 70
     0
  9
$HANDSEED
  5
0
  9
$SURFTAB1
 70
     6
  9
$SURFTAB2
 70
     6
  9
$SURFTYPE
 70
     6
  9
$SURFU
 70
     6
  9
$SURFV
 70
     6
  9
$UCSNAME
  2

  9
$UCSORG
 10
0.0
 20
0.0
 30
0.0
  9
$UCSXDIR
 10
1.0
 20
0.0
 30
0.0
  9
$UCSYDIR
 10
0.0
 20
1.0
 30
0.0
  9
$PUCSNAME
  2

  9
$PUCSORG
 10
0.0
 20
0.0
 30
0.0
  9
$PUCSXDIR
 10
1.0
 20
0.0
 30
0.0
  9
$PUCSYDIR
 10
0.0
 20
1.0
 30
0.0
  9
$USERI1
 70
     0
  9
$USERI2
 70
     0
  9
$USERI3
 70
     0
  9
$USERI4
 70
     0
  9
$USERI5
 70
     0
  9
$USERR1
 40
0.0
  9
$USERR2
 40
0.0
  9
$USERR3
 40
0.0
  9
$USERR4
 40
0.0
  9
$USERR5
 40
0.0
  9
$WORLDVIEW
 70
     1
  9
$SHADEDGE
 70
     3
  9
$SHADEDIF
 70
    70
  9
$TILEMODE
 70
     1
  9
$MAXACTVP
 70
    16
  9
$PINSBASE
 10
0.007927
 20
50.0
 30
-0.000452
  9
$PLIMCHECK
 70
     0
  9
$PEXTMIN
 10
1.000000E+20
 20
1.000000E+20
 30
1.000000E+20
  9
$PEXTMAX
 10
-1.000000E+20
 20
-1.000000E+20
 30
-1.000000E+20
  9
$PLIMMIN
 10
0.0
 20
0.0
  9
$PLIMMAX
 10
12.0
 20
9.0
  9
$UNITMODE
 70
     0
  9
$VISRETAIN
 70
     0
  9
$PLINEGEN
 70
     0
  9
$PSLTSCALE
 70
     1
  9
$TREEDEPTH
 70
  3020
  9
$DWGCODEPAGE
  3
ascii
  0
ENDSEC
  0
SECTION
  2
TABLES
  0
TABLE
  2
VPORT
 70
     1
  0
VPORT
  2
*ACTIVE
 70
     0
 10
0.0
 20
0.0
 11
1.0
 21
1.0
 12
10.143922
 22
7.534272
 13
0.0
 23
0.0
 14
1.0
 24
1.0
 15
1.0
 25
1.0
 16
0.0
 26
0.0
 36
1.0
 17
0.0
 27
0.0
 37
0.0
 40
15.075974
 41
1.387409
 42
50.0
 43
0.0
 44
0.0
 50
0.0
 51
0.0
 71
     0
 72
   100
 73
     1
 74
     1
 75
     0
 76
     0
 77
     0
 78
     0
  0
ENDTAB
  0
TABLE
  2
LTYPE
 70
     1
  0
LTYPE
  2
CONTINUOUS
 70
    64
  3
SOLID LINE
 72
    65
 73
     0
 40
0.0
  0
ENDTAB
  0
TABLE
  2
LAYER
 70
     2
  0
LAYER
  2
0
 70
    64
 62
     2
  6
CONTINUOUS
  0
LAYER
  2
1
 70
    64
 62
     4
  6
CONTINUOUS
  0
ENDTAB
  0
TABLE
  2
STYLE
 70
     2
  0
STYLE
  2
STANDARD
 70
     0
 40
0.0
 41
1.0
 50
0.0
 71
     0
 42
0.2
  3
txt
  4

  0
STYLE
  2
SIMPLEX
 70
    64
 40
0.0
 41
1.0
 50
0.0
 71
     0
 42
1.0
  3
ROMANS.SHX
  4

  0
ENDTAB
  0
TABLE
  2
VIEW
 70
     0
  0
ENDTAB
  0
TABLE
  2
UCS
 70
     0
  0
ENDTAB
  0
TABLE
  2
APPID
 70
     1
  0
APPID
  2
ACAD
 70
    64
  0
ENDTAB
  0
TABLE
  2
DIMSTYLE
 70
     0
  0
ENDTAB
  0
ENDSEC
  0
SECTION
  2
BLOCKS
  0
BLOCK
  8
0
  2
STRIP2
 70
    64
 10
0.0
 20
0.0
 30
0.0
  3
STRIP2
  0
LINE
  8
1
  6
CONTINUOUS
 62
   250
 10
0.2
 20
0.0
 30
0.0
 11
0.0
 21
0.0
 31
0.0
  0
LINE
  8
1
  6
CONTINUOUS
 62
   250
 10
0.0
 20
0.0
 30
0.0
 11
0.0
 21
-0.1
 31
0.0
  0
CIRCLE
  8
1
  6
CONTINUOUS
 62
   250
 10
0.05
 20
-0.05
 30
0.0
 40
0.01
  0
CIRCLE
  8
1
  6
CONTINUOUS
 62
   250
 10
0.15
 20
-0.05
 30
0.0
 40
0.01
  0
LINE
  8
1
  6
CONTINUOUS
 62
   250
 10
0.2
 20
-0.1
 30
0.0
 11
0.2
 21
0.0
 31
0.0
  0
ENDBLK
  8
0
  0
BLOCK
  8
0
  2
POT
 70
    64
 10
0.0
 20
0.0
 30
0.0
  3
POT
  0
CIRCLE
  8
1
  6
CONTINUOUS
 62
   250
 10
0.0
 20
0.0
 30
0.0
 40
0.22
  0
ARC
  8
1
  6
CONTINUOUS
 62
   250
 10
0.234923
 20
-0.085505
 30
0.0
 40
0.028
 50
73.210243
 51
246.789749
  0
ARC
  8
1
  6
CONTINUOUS
 62
   250
 10
-0.234923
 20
-0.085505
 30
0.0
 40
0.028
 50
293.210266
 51
106.789757
  0
ARC
  8
1
  6
CONTINUOUS
 62
   250
 10
-0.000001
 20
0.0
 30
0.0
 40
0.250001
 50
346.420502
 51
353.579498
  0
ARC
  8
1
  6
CONTINUOUS
 62
   250
 10
-0.000001
 20
0.0
 30
0.0
 40
0.249999
 50
186.420456
 51
193.579514
  0
LINE
  8
1
  6
CONTINUOUS
 62
   250
 10
-0.016
 20
-0.1
 30
0.0
 11
-0.016
 21
0.1
 31
0.0
  0
LINE
  8
1
  6
CONTINUOUS
 62
   250
 10
0.016
 20
0.1
 30
0.0
 11
0.016
 21
-0.1
 31
0.0
  0
ARC
  8
1
  6
CONTINUOUS
 62
   250
 10
0.125
 20
-0.216506
 30
0.0
 40
0.028
 50
33.210236
 51
206.78978
  0
ARC
  8
1
  6
CONTINUOUS
 62
   250
 10
-0.043412
 20
-0.246202
 30
0.0
 40
0.028
 50
353.210236
 51
166.789764
  0
ARC
  8
1
  6
CONTINUOUS
 62
   250
 10
-0.125
 20
-0.216506
 30
0.0
 40
0.028
 50
333.210205
 51
146.789795
  0
ARC
  8
1
  6
CONTINUOUS
 62
   250
 10
-0.191511
 20
-0.160697
 30
0.0
 40
0.028
 50
313.210327
 51
126.789665
  0
ARC
  8
1
  6
CONTINUOUS
 62
   250
 10
0.000001
 20
0.000003
 30
0.0
 40
0.250003
 50
246.420532
 51
253.579483
  0
ARC
  8
1
  6
CONTINUOUS
 62
   250
 10
0.000001
 20
0.000001
 30
0.0
 40
0.250001
 50
226.420486
 51
233.579483
  0
ARC
  8
1
  6
CONTINUOUS
 62
   250
 10
0.0
 20
0.0
 30
0.0
 40
0.25
 50
206.420456
 51
213.579483
  0
ARC
  8
1
  6
CONTINUOUS
 62
   250
 10
0.043412
 20
-0.246202
 30
0.0
 40
0.028
 50
13.210233
 51
186.789749
  0
ARC
  8
1
  6
CONTINUOUS
 62
   250
 10
0.000001
 20
-0.000002
 30
0.0
 40
0.249998
 50
286.42041
 51
293.579529
  0
ARC
  8
1
  6
CONTINUOUS
 62
   250
 10
0.0
 20
0.00001
 30
0.0
 40
0.25001
 50
266.420624
 51
273.579376
  0
LINE
  8
1
  6
CONTINUOUS
 62
   250
 10
0.016
 20
-0.1
 30
0.0
 11
-0.016
 21
-0.1
 31
0.0
  0
ARC
  8
1
  6
CONTINUOUS
 62
   250
 10
0.191511
 20
-0.160697
 30
0.0
 40
0.028
 50
53.210316
 51
226.789688
  0
ARC
  8
1
  6
CONTINUOUS
 62
   250
 10
-0.000001
 20
0.0
 30
0.0
 40
0.250001
 50
326.420532
 51
333.579529
  0
ARC
  8
1
  6
CONTINUOUS
 62
   250
 10
-0.000002
 20
0.000003
 30
0.0
 40
0.250003
 50
306.420563
 51
313.579498
  0
ARC
  8
1
  6
CONTINUOUS
 62
   250
 10
0.125
 20
0.216506
 30
0.0
 40
0.028
 50
153.21022
 51
326.789764
  0
ARC
  8
1
  6
CONTINUOUS
 62
   250
 10
-0.25
 20
0.0
 30
0.0
 40
0.028
 50
273.210266
 51
86.789742
  0
ARC
  8
1
  6
CONTINUOUS
 62
   250
 10
-0.234923
 20
0.085505
 30
0.0
 40
0.028
 50
253.210236
 51
66.789742
  0
ARC
  8
1
  6
CONTINUOUS
 62
   250
 10
-0.000001
 20
0.0
 30
0.0
 40
0.249999
 50
166.420486
 51
173.579544
  0
ARC
  8
1
  6
CONTINUOUS
 62
   250
 10
0.0
 20
0.0
 30
0.0
 40
0.25
 50
66.420479
 51
113.579521
  0
ARC
  8
1
  6
CONTINUOUS
 62
   250
 10
-0.191511
 20
0.160697
 30
0.0
 40
0.028
 50
233.210312
 51
46.78968
  0
ARC
  8
1
  6
CONTINUOUS
 62
   250
 10
-0.125
 20
0.216506
 30
0.0
 40
0.028
 50
213.210205
 51
26.789801
  0
ARC
  8
1
  6
CONTINUOUS
 62
   250
 10
0.0
 20
0.0
 30
0.0
 40
0.25
 50
146.420517
 51
153.579544
  0
ARC
  8
1
  6
CONTINUOUS
 62
   250
 10
-0.000001
 20
0.000001
 30
0.0
 40
0.249999
 50
126.420486
 51
133.579529
  0
LINE
  8
1
  6
CONTINUOUS
 62
   250
 10
-0.016
 20
0.1
 30
0.0
 11
0.016
 21
0.1
 31
0.0
  0
LINE
  8
1
  6
CONTINUOUS
 62
   250
 10
-0.012
 20
0.12
 30
0.0
 11
0.012
 21
0.12
 31
0.0
  0
LINE
  8
1
  6
CONTINUOUS
 62
   250
 10
0.012
 20
0.12
 30
0.0
 11
0.012
 21
0.144
 31
0.0
  0
LINE
  8
1
  6
CONTINUOUS
 62
   250
 10
0.012
 20
0.144
 30
0.0
 11
0.036
 21
0.144
 31
0.0
  0
LINE
  8
1
  6
CONTINUOUS
 62
   250
 10
-0.012
 20
0.12
 30
0.0
 11
-0.012
 21
0.144
 31
0.0
  0
LINE
  8
1
  6
CONTINUOUS
 62
   250
 10
-0.012
 20
0.144
 30
0.0
 11
-0.036
 21
0.144
 31
0.0
  0
LINE
  8
1
  6
CONTINUOUS
 62
   250
 10
-0.036
 20
0.144
 30
0.0
 11
0.0
 21
0.208
 31
0.0
  0
LINE
  8
1
  6
CONTINUOUS
 62
   250
 10
0.0
 20
0.208
 30
0.0
 11
0.036
 21
0.144
 31
0.0
  0
ARC
  8
1
  6
CONTINUOUS
 62
   250
 10
0.25
 20
0.0
 30
0.0
 40
0.028
 50
93.210258
 51
266.789734
  0
ARC
  8
1
  6
CONTINUOUS
 62
   250
 10
0.234923
 20
0.085505
 30
0.0
 40
0.028
 50
113.210251
 51
286.789764
  0
ARC
  8
1
  6
CONTINUOUS
 62
   250
 10
0.191511
 20
0.160697
 30
0.0
 40
0.028
 50
133.210312
 51
306.789673
  0
ARC
  8
1
  6
CONTINUOUS
 62
   250
 10
-0.000001
 20
-0.000001
 30
0.0
 40
0.250001
 50
46.420494
 51
53.579475
  0
ARC
  8
1
  6
CONTINUOUS
 62
   250
 10
0.000002
 20
0.000001
 30
0.0
 40
0.249998
 50
26.420446
 51
33.579529
  0
ARC
  8
1
  6
CONTINUOUS
 62
   250
 10
-0.000001
 20
0.0
 30
0.0
 40
0.250001
 50
6.420505
 51
13.579494
  0
ENDBLK
  8
0
  0
ENDSEC
  0
SECTION
  2
ENTITIES
  0
TEXT
  8
1
  6
CONTINUOUS
 62
   250
 10
-0.016458
 20
0.807175
 30
0.0
 40
0.012556
  1
TIMER MODE
 41
0.9
  7
SIMPLEX
  0
LINE
  8
1
  6
CONTINUOUS
 62
   250
 10
-0.052018
 20
0.825112
 30
0.0
 11
0.125397
 21
0.825112
 31
0.0
  0
LINE
  8
1
  6
CONTINUOUS
 62
   250
 10
-0.052018
 20
0.802691
 30
0.0
 11
0.125397
 21
0.802691
 31
0.0
  0
LINE
  8
1
  6
CONTINUOUS
 62
   250
 10
-0.052018
 20
0.717489
 30
0.0
 11
0.125397
 21
0.717489
 31
0.0
  0
TEXT
  8
1
  6
CONTINUOUS
 62
   250
 10
-0.073682
 20
0.326027
 30
0.0
 40
0.009417
  1
SETPOINT 1
 41
1.133333
  7
SIMPLEX
  0
TEXT
  8
1
  6
CONTINUOUS
 62
   250
 10
-0.073682
 20
0.308089
 30
0.0
 40
0.009417
  1
SETPOINT 2
 41
1.133333
  7
SIMPLEX
  0
TEXT
  8
1
  6
CONTINUOUS
 62
   250
 10
-0.073682
 20
0.290152
 30
0.0
 40
0.009417
  1
SETPOINT 3
 41
1.133333
  7
SIMPLEX
  0
TEXT
  8
1
  6
CONTINUOUS
 62
   250
 10
-0.024354
 20
0.195982
 30
0.0
 40
0.009417
  1
HEAT
 41
1.233333
  7
SIMPLEX
  0
TEXT
  8
1
  6
CONTINUOUS
 62
   250
 10
-0.024354
 20
0.178045
 30
0.0
 40
0.009417
  1
COOL
 41
1.233333
  7
SIMPLEX
  0
TEXT
  8
1
  6
CONTINUOUS
 62
   250
 10
-0.047534
 20
0.784753
 30
0.0
 40
0.009417
  1
RELAY 1
 41
1.133333
  7
SIMPLEX
  0
TEXT
  8
1
  6
CONTINUOUS
 62
   250
 10
-0.007175
 20
0.743067
 30
0.0
 40
0.009417
  1
UNOCC=LO
 41
1.133333
  7
SIMPLEX
  0
TEXT
  8
1
  6
CONTINUOUS
 62
   250
 10
-0.058223
 20
0.367713
 30
0.0
 40
0.009417
  1
SETPOINT INPUT
 41
1.133333
  7
SIMPLEX
  0
TEXT
  8
1
  6
CONTINUOUS
 62
   250
 10
-0.031317
 20
0.349776
 30
0.0
 40
0.009417
  1
SELECT
 41
1.233333
  7
SIMPLEX
  0
TEXT
  8
1
  6
CONTINUOUS
 62
   250
 10
-0.007175
 20
0.761003
 30
0.0
 40
0.009417
  1
OCC=HI
 41
1.233333
  7
SIMPLEX
  0
LINE
  8
1
  6
CONTINUOUS
 62
   250
 10
0.273543
 20
1.0
 30
0.0
 11
-0.273543
 21
1.0
 31
0.0
  0
LINE
  8
1
  6
CONTINUOUS
 62
   250
 10
0.210762
 20
0.982063
 30
0.0
 11
-0.210762
 21
0.982063
 31
0.0
  0
LINE
  8
1
  6
CONTINUOUS
 62
   250
 10
0.273543
 20
0.0
 30
0.0
 11
-0.273543
 21
0.0
 31
0.0
  0
LINE
  8
1
  6
CONTINUOUS
 62
   250
 10
-0.210762
 20
0.017937
 30
0.0
 11
0.210762
 21
0.017937
 31
0.0
  0
LINE
  8
1
  6
CONTINUOUS
 62
   250
 10
-0.087892
 20
0.237668
 30
0.0
 11
0.09148
 21
0.237668
 31
0.0
  0
LINE
  8
1
  6
CONTINUOUS
 62
   250
 10
-0.087892
 20
0.215247
 30
0.0
 11
0.09148
 21
0.215247
 31
0.0
  0
LINE
  8
1
  6
CONTINUOUS
 62
   250
 10
-0.087892
 20
0.170404
 30
0.0
 11
0.09148
 21
0.170404
 31
0.0
  0
LINE
  8
1
  6
CONTINUOUS
 62
   250
 10
0.069058
 20
0.38565
 30
0.0
 11
-0.16861
 21
0.38565
 31
0.0
  0
LINE
  8
1
  6
CONTINUOUS
 62
   250
 10
0.069058
 20
0.345291
 30
0.0
 11
-0.16861
 21
0.345291
 31
0.0
  0
LINE
  8
1
  6
CONTINUOUS
 62
   250
 10
0.069058
 20
0.264574
 30
0.0
 11
-0.16861
 21
0.264574
 31
0.0
  0
LINE
  8
1
  6
CONTINUOUS
 62
   250
 10
-0.267265
 20
0.5
 30
0.0
 11
-0.267265
 21
0.365471
 31
0.0
  0
TEXT
  8
1
  6
CONTINUOUS
 62
   250
 10
-0.124552
 20
0.490882
 30
0.0
 40
0.0113
  1
DIFFERENTIAL
 41
1.011111
  7
SIMPLEX
 72
     1
 11
-0.067968
 21
0.490882
 31
0.0
  0
LINE
  8
1
  6
CONTINUOUS
 62
   250
 10
-0.267265
 20
0.085202
 30
0.0
 11
-0.267265
 21
0.566816
 31
0.0
  0
LINE
  8
1
  6
CONTINUOUS
 62
   250
 10
-0.29148
 20
0.582511
 30
0.0
 11
-0.29148
 21
0.017937
 31
0.0
  0
LINE
  8
1
  6
CONTINUOUS
 62
   250
 10
-0.27713
 20
0.566816
 30
0.0
 11
-0.27713
 21
0.080717
 31
0.0
  0
LINE
  8
1
  6
CONTINUOUS
 62
   250
 10
-0.2
 20
0.085202
 30
0.0
 11
-0.2
 21
0.017937
 31
0.0
  0
LINE
  8
1
  6
CONTINUOUS
 62
   250
 10
-0.210762
 20
0.040359
 30
0.0
 11
-0.210762
 21
0.017937
 31
0.0
  0
CIRCLE
  8
1
  6
CONTINUOUS
 62
   250
 10
-0.251121
 20
0.040359
 30
0.0
 40
0.017577
  0
CIRCLE
  8
1
  6
CONTINUOUS
 62
   250
 10
-0.251121
 20
0.040359
 30
0.0
 40
0.028251
  0
ARC
  8
1
  6
CONTINUOUS
 62
   250
 10
-0.273542
 20
0.017938
 30
0.0
 40
0.017938
 50
180.002762
 51
269.997223
  0
LINE
  8
1
  6
CONTINUOUS
 62
   250
 10
-0.267265
 20
0.085202
 30
0.0
 11
-0.2
 21
0.085202
 31
0.0
  0
ARC
  8
1
  6
CONTINUOUS
 62
   250
 10
-0.251121
 20
0.040359
 30
0.0
 40
0.040359
 50
359.998871
 51
89.999741
  0
LINE
  8
1
  6
CONTINUOUS
 62
   250
 10
-0.27713
 20
0.080717
 30
0.0
 11
-0.251121
 21
0.080717
 31
0.0
  0
LINE
  8
1
  6
CONTINUOUS
 62
   250
 10
-0.267265
 20
0.241881
 30
0.0
 11
-0.267265
 21
0.2078
 31
0.0
  0
LINE
  8
1
  6
CONTINUOUS
 62
   250
 10
-0.087892
 20
0.237668
 30
0.0
 11
-0.087892
 21
0.170404
 31
0.0
  0
INSERT
  8
1
 62
   250
  2
STRIP2
 10
-0.083408
 20
0.192825
 30
0.0
 41
0.179372
 42
0.179372
  0
TEXT
  8
1
  6
CONTINUOUS
 62
   250
 10
-0.151002
 20
0.143498
 30
0.0
 40
0.0113
  1
RELAY 1
 41
1.011111
  7
SIMPLEX
 72
     1
 11
-0.115909
 21
0.143498
 31
0.0
  0
LINE
  8
1
  6
CONTINUOUS
 62
   250
 10
-0.173094
 20
0.139013
 30
0.0
 11
-0.056502
 21
0.139013
 31
0.0
  0
LINE
  8
1
  6
CONTINUOUS
 62
   250
 10
-0.173094
 20
0.040359
 30
0.0
 11
-0.056502
 21
0.040359
 31
0.0
  0
LINE
  8
1
  6
CONTINUOUS
 62
   250
 10
-0.141704
 20
0.071749
 30
0.0
 11
-0.159641
 21
0.071749
 31
0.0
  0
CIRCLE
  8
1
  6
CONTINUOUS
 62
   250
 10
-0.150673
 20
0.071749
 30
0.0
 40
0.008969
  0
TEXT
  8
1
  6
CONTINUOUS
 62
   250
 10
-0.146188
 20
0.089686
 30
0.0
 40
0.009417
  1
NC
 50
90.0
 41
1.233333
  7
SIMPLEX
  0
LINE
  8
1
  6
CONTINUOUS
 62
   250
 10
-0.173094
 20
0.040359
 30
0.0
 11
-0.173094
 21
0.139013
 31
0.0
  0
TEXT
  8
1
  6
CONTINUOUS
 62
   250
 10
-0.164636
 20
0.044843
 30
0.0
 40
0.0113
  1
K1
 41
1.011111
  7
SIMPLEX
 72
     1
 11
-0.154843
 21
0.044843
 31
0.0
  0
TEXT
  8
1
  6
CONTINUOUS
 62
   250
 10
-0.110314
 20
0.089686
 30
0.0
 40
0.009417
  1
COM
 50
90.0
 41
1.233333
  7
SIMPLEX
  0
LINE
  8
1
  6
CONTINUOUS
 62
   250
 10
-0.12114
 20
0.065407
 30
0.0
 11
-0.108456
 21
0.078091
 31
0.0
  0
CIRCLE
  8
1
  6
CONTINUOUS
 62
   250
 10
-0.114798
 20
0.071749
 30
0.0
 40
0.008968
  0
TEXT
  8
1
  6
CONTINUOUS
 62
   250
 10
-0.127263
 20
0.044843
 30
0.0
 40
0.0113
  1
L1
 41
1.011111
  7
SIMPLEX
 72
     1
 11
-0.118558
 21
0.044843
 31
0.0
  0
TEXT
  8
1
  6
CONTINUOUS
 62
   250
 10
-0.074439
 20
0.089686
 30
0.0
 40
0.009417
  1
NO
 50
90.0
 41
1.233333
  7
SIMPLEX
  0
LINE
  8
1
  6
CONTINUOUS
 62
   250
 10
-0.056502
 20
0.139013
 30
0.0
 11
-0.056502
 21
0.040359
 31
0.0
  0
CIRCLE
  8
1
  6
CONTINUOUS
 62
   250
 10
-0.078924
 20
0.071749
 30
0.0
 40
0.008969
  0
LINE
  8
1
  6
CONTINUOUS
 62
   250
 10
-0.085266
 20
0.065407
 30
0.0
 11
-0.072582
 21
0.078091
 31
0.0
  0
TEXT
  8
1
  6
CONTINUOUS
 62
   250
 10
-0.0946
 20
0.044843
 30
0.0
 40
0.0113
  1
M1
 41
1.011111
  7
SIMPLEX
 72
     1
 11
-0.083991
 21
0.044843
 31
0.0
  0
LINE
  8
1
  6
CONTINUOUS
 62
   250
 10
-0.083408
 20
0.174888
 30
0.0
 11
-0.047534
 21
0.174888
 31
0.0
  0
TEXT
  8
1
  6
CONTINUOUS
 62
   250
 10
-0.16254
 20
0.367713
 30
0.0
 40
0.009417
  1
EXTERNAL
 41
1.133333
  7
SIMPLEX
  0
TEXT
  8
1
  6
CONTINUOUS
 62
   250
 10
-0.155157
 20
0.267731
 30
0.0
 40
0.009417
  1
DISABLE
 41
1.233333
  7
SIMPLEX
  0
TEXT
  8
1
  6
CONTINUOUS
 62
   250
 10
-0.155157
 20
0.326027
 30
0.0
 40
0.009417
  1
ENABLE
 41
1.233333
  7
SIMPLEX
  0
INSERT
  8
1
 62
   250
  2
POT
 10
-0.065471
 20
0.439462
 30
0.0
 41
0.179372
 42
0.179372
  0
LINE
  8
1
  6
CONTINUOUS
 62
   250
 10
-0.16861
 20
0.264574
 30
0.0
 11
-0.16861
 21
0.38565
 31
0.0
  0
INSERT
  8
1
 62
   250
  2
STRIP2
 10
-0.146188
 20
0.32287
 30
0.0
 41
0.179372
 42
0.179372
  0
INSERT
  8
1
 62
   250
  2
STRIP2
 10
-0.146188
 20
0.304933
 30
0.0
 41
0.179372
 42
0.179372
  0
LINE
  8
1
  6
CONTINUOUS
 62
   250
 10
-0.146188
 20
0.286996
 30
0.0
 11
-0.110314
 21
0.286996
 31
0.0
  0
TEXT
  8
1
  6
CONTINUOUS
 62
   250
 10
-0.149677
 20
0.349776
 30
0.0
 40
0.009417
  1
TIMER
 41
1.233333
  7
SIMPLEX
  0
LINE
  8
1
  6
CONTINUOUS
 62
   250
 10
-0.078924
 20
0.264574
 30
0.0
 11
-0.078924
 21
0.38565
 31
0.0
  0
TEXT
  8
1
  6
CONTINUOUS
 62
   250
 10
-0.081744
 20
0.219731
 30
0.0
 40
0.009417
  1
RELAY 1
 41
1.233333
  7
SIMPLEX
  0
INSERT
  8
1
 62
   250
  2
STRIP2
 10
-0.083408
 20
0.210762
 30
0.0
 41
0.179372
 42
0.179372
  0
TEXT
  8
1
  6
CONTINUOUS
 62
   250
 10
-0.042292
 20
0.272215
 30
0.0
 40
0.009417
  1
OFF
 41
1.233333
  7
SIMPLEX
  0
LINE
  8
1
  6
CONTINUOUS
 62
   250
 10
-0.278475
 20
0.835874
 30
0.0
 11
-0.278475
 21
0.566816
 31
0.0
  0
LINE
  8
1
  6
CONTINUOUS
 62
   250
 10
-0.233632
 20
0.835874
 30
0.0
 11
-0.233632
 21
0.802242
 31
0.0
  0
LINE
  8
1
  6
CONTINUOUS
 62
   250
 10
-0.31435
 20
0.820179
 30
0.0
 11
-0.31435
 21
0.582511
 31
0.0
  0
CIRCLE
  8
1
  6
CONTINUOUS
 62
   250
 10
-0.247085
 20
0.820179
 30
0.0
 40
0.008519
  0
LINE
  8
1
  6
CONTINUOUS
 62
   250
 10
-0.31435
 20
0.582511
 30
0.0
 11
-0.278475
 21
0.582511
 31
0.0
  0
TEXT
  8
1
  6
CONTINUOUS
 62
   250
 10
-0.256876
 20
0.772263
 30
0.0
 40
0.008072
  1
Male DIN Connector
 50
270.0
 41
1.011111
  7
SIMPLEX
  0
LINE
  8
1
  6
CONTINUOUS
 62
   250
 10
-0.240359
 20
0.802242
 30
0.0
 11
-0.240359
 21
0.600448
 31
0.0
  0
LINE
  8
1
  6
CONTINUOUS
 62
   250
 10
-0.278475
 20
0.566816
 30
0.0
 11
-0.234305
 21
0.566816
 31
0.0
  0
CIRCLE
  8
1
  6
CONTINUOUS
 62
   250
 10
-0.247085
 20
0.582511
 30
0.0
 40
0.008519
  0
LINE
  8
1
  6
CONTINUOUS
 62
   250
 10
-0.233632
 20
0.566816
 30
0.0
 11
-0.233632
 21
0.600448
 31
0.0
  0
LINE
  8
1
  6
CONTINUOUS
 62
   250
 10
-0.233632
 20
0.600448
 30
0.0
 11
-0.240359
 21
0.600448
 31
0.0
  0
LINE
  8
1
  6
CONTINUOUS
 62
   250
 10
-0.233632
 20
0.802242
 30
0.0
 11
-0.240359
 21
0.802242
 31
0.0
  0
LINE
  8
1
  6
CONTINUOUS
 62
   250
 10
-0.278475
 20
0.820179
 30
0.0
 11
-0.31435
 21
0.820179
 31
0.0
  0
LINE
  8
1
  6
CONTINUOUS
 62
   250
 10
-0.2
 20
0.982063
 30
0.0
 11
-0.2
 21
0.914798
 31
0.0
  0
LINE
  8
1
  6
CONTINUOUS
 62
   250
 10
-0.29148
 20
0.982063
 30
0.0
 11
-0.29148
 21
0.820179
 31
0.0
  0
LINE
  8
1
  6
CONTINUOUS
 62
   250
 10
-0.210762
 20
0.982063
 30
0.0
 11
-0.210762
 21
0.959641
 31
0.0
  0
CIRCLE
  8
1
  6
CONTINUOUS
 62
   250
 10
-0.251121
 20
0.959641
 30
0.0
 40
0.017577
  0
CIRCLE
  8
1
  6
CONTINUOUS
 62
   250
 10
-0.251121
 20
0.959641
 30
0.0
 40
0.028251
  0
LINE
  8
1
  6
CONTINUOUS
 62
   250
 10
-0.2
 20
0.914798
 30
0.0
 11
-0.267265
 21
0.914798
 31
0.0
  0
LINE
  8
1
  6
CONTINUOUS
 62
   250
 10
-0.233632
 20
0.835874
 30
0.0
 11
-0.278475
 21
0.835874
 31
0.0
  0
ARC
  8
1
  6
CONTINUOUS
 62
   250
 10
-0.251121
 20
0.959641
 30
0.0
 40
0.040359
 50
269.998901
 51
359.999756
  0
INSERT
  8
1
 62
   250
  2
STRIP2
 10
-0.258296
 20
0.892377
 30
0.0
 41
0.179372
 42
0.179372
  0
INSERT
  8
1
 62
   250
  2
STRIP2
 10
-0.258296
 20
0.874439
 30
0.0
 41
0.179372
 42
0.179372
  0
LINE
  8
1
  6
CONTINUOUS
 62
   250
 10
-0.258296
 20
0.856502
 30
0.0
 11
-0.222422
 21
0.856502
 31
0.0
  0
LINE
  8
1
  6
CONTINUOUS
 62
   250
 10
-0.27713
 20
0.919282
 30
0.0
 11
-0.27713
 21
0.835874
 31
0.0
  0
LINE
  8
1
  6
CONTINUOUS
 62
   250
 10
-0.267265
 20
0.835874
 30
0.0
 11
-0.267265
 21
0.914798
 31
0.0
  0
LINE
  8
1
  6
CONTINUOUS
 62
   250
 10
-0.251121
 20
0.919282
 30
0.0
 11
-0.27713
 21
0.919282
 31
0.0
  0
TEXT
  8
1
  6
CONTINUOUS
 62
   250
 10
-0.217937
 20
0.860987
 30
0.0
 40
0.0113
  1
R
 41
1.111111
  7
SIMPLEX
  0
TEXT
  8
1
  6
CONTINUOUS
 62
   250
 10
-0.217937
 20
0.878924
 30
0.0
 40
0.0113
  1
L
 41
1.111111
  7
SIMPLEX
  0
ARC
  8
1
  6
CONTINUOUS
 62
   250
 10
-0.273542
 20
0.982062
 30
0.0
 40
0.017938
 50
90.002762
 51
179.997147
  0
TEXT
  8
1
  6
CONTINUOUS
 62
   250
 10
-0.145431
 20
0.814816
 30
0.0
 40
0.009417
  1
CONTROL 3
 41
1.133333
  7
SIMPLEX
  0
LINE
  8
1
  6
CONTINUOUS
 62
   250
 10
-0.194758
 20
0.735426
 30
0.0
 11
-0.194758
 21
0.977578
 31
0.0
  0
INSERT
  8
1
 62
   250
  2
STRIP2
 10
-0.190274
 20
0.829596
 30
0.0
 41
0.179372
 42
0.179372
  0
LINE
  8
1
  6
CONTINUOUS
 62
   250
 10
-0.052018
 20
0.717489
 30
0.0
 11
-0.052018
 21
0.977578
 31
0.0
  0
LINE
  8
1
  6
CONTINUOUS
 62
   250
 10
-0.194758
 20
0.735426
 30
0.0
 11
-0.052018
 21
0.735426
 31
0.0
  0
TEXT
  8
1
  6
CONTINUOUS
 62
   250
 10
-0.145431
 20
0.778941
 30
0.0
 40
0.009417
  1
HISEL 2
 41
1.233333
  7
SIMPLEX
  0
TEXT
  8
1
  6
CONTINUOUS
 62
   250
 10
-0.145431
 20
0.796879
 30
0.0
 40
0.009417
  1
HISEL 1
 41
1.233333
  7
SIMPLEX
  0
TEXT
  8
1
  6
CONTINUOUS
 62
   250
 10
-0.145431
 20
0.761003
 30
0.0
 40
0.009417
  1
LOSEL 1
 41
1.233333
  7
SIMPLEX
  0
TEXT
  8
1
  6
CONTINUOUS
 62
   250
 10
-0.145431
 20
0.743067
 30
0.0
 40
0.009417
  1
LOSEL 2
 41
1.233333
  7
SIMPLEX
  0
TEXT
  8
1
  6
CONTINUOUS
 62
   250
 10
-0.108879
 20
0.511211
 30
0.0
 40
0.0113
  1
RELAY 1
 41
1.011111
  7
SIMPLEX
 72
     1
 11
-0.073786
 21
0.511211
 31
0.0
  0
TEXT
  8
1
  6
CONTINUOUS
 62
   250
 10
-0.108196
 20
0.638864
 30
0.0
 40
0.013951
  1
OFFSET
 41
0.8
  7
SIMPLEX
 72
     1
 11
-0.077637
 21
0.638864
 31
0.0
  0
TEXT
  8
1
  6
CONTINUOUS
 62
   250
 10
-0.11582
 20
0.659193
 30
0.0
 40
0.013951
  1
RELAY 1
 41
0.8
  7
SIMPLEX
 72
     1
 11
-0.08154
 21
0.659193
 31
0.0
  0
INSERT
  8
1
 62
   250
  2
POT
 10
-0.065471
 20
0.587444
 30
0.0
 41
0.179372
 42
0.179372
  0
INSERT
  8
1
 62
   250
  2
STRIP2
 10
-0.190274
 20
0.811659
 30
0.0
 41
0.179372
 42
0.179372
  0
INSERT
  8
1
 62
   250
  2
STRIP2
 10
-0.190274
 20
0.793722
 30
0.0
 41
0.179372
 42
0.179372
  0
INSERT
  8
1
 62
   250
  2
STRIP2
 10
-0.190274
 20
0.775785
 30
0.0
 41
0.179372
 42
0.179372
  0
INSERT
  8
1
 62
   250
  2
STRIP2
 10
-0.190274
 20
0.757848
 30
0.0
 41
0.179372
 42
0.179372
  0
LINE
  8
1
  6
CONTINUOUS
 62
   250
 10
-0.190274
 20
0.73991
 30
0.0
 11
-0.154399
 21
0.73991
 31
0.0
  0
LINE
  8
1
  6
CONTINUOUS
 62
   250
 10
-0.047534
 20
0.721973
 30
0.0
 11
-0.011659
 21
0.721973
 31
0.0
  0
INSERT
  8
1
 62
   250
  2
STRIP2
 10
-0.047534
 20
0.775785
 30
0.0
 41
0.179372
 42
0.179372
  0
INSERT
  8
1
 62
   250
  2
STRIP2
 10
-0.047534
 20
0.757848
 30
0.0
 41
0.179372
 42
0.179372
  0
INSERT
  8
1
 62
   250
  2
STRIP2
 10
-0.047534
 20
0.73991
 30
0.0
 41
0.179372
 42
0.179372
  0
TEXT
  8
1
  6
CONTINUOUS
 62
   250
 10
-0.183763
 20
0.955157
 30
0.0
 40
0.0113
  1
INPUT SELECT
 41
1.011111
  7
SIMPLEX
  0
LINE
  8
1
  6
CONTINUOUS
 62
   250
 10
-0.194758
 20
0.977578
 30
0.0
 11
-0.052018
 21
0.977578
 31
0.0
  0
LINE
  8
1
  6
CONTINUOUS
 62
   250
 10
-0.194758
 20
0.941704
 30
0.0
 11
-0.052018
 21
0.941704
 31
0.0
  0
TEXT
  8
1
  6
CONTINUOUS
 62
   250
 10
-0.145431
 20
0.868628
 30
0.0
 40
0.009417
  1
SENSOR 4
 41
1.233333
  7
SIMPLEX
  0
TEXT
  8
1
  6
CONTINUOUS
 62
   250
 10
-0.145431
 20
0.886565
 30
0.0
 40
0.009417
  1
SENSOR 3
 41
1.233333
  7
SIMPLEX
  0
TEXT
  8
1
  6
CONTINUOUS
 62
   250
 10
-0.145431
 20
0.904502
 30
0.0
 40
0.009417
  1
SENSOR 2
 41
1.233333
  7
SIMPLEX
  0
TEXT
  8
1
  6
CONTINUOUS
 62
   250
 10
-0.145431
 20
0.922439
 30
0.0
 40
0.009417
  1
SENSOR 1
 41
1.233333
  7
SIMPLEX
  0
TEXT
  8
1
  6
CONTINUOUS
 62
   250
 10
-0.145431
 20
0.832753
 30
0.0
 40
0.009417
  1
CONTROL 2
 41
1.133333
  7
SIMPLEX
  0
TEXT
  8
1
  6
CONTINUOUS
 62
   250
 10
-0.145431
 20
0.85069
 30
0.0
 40
0.009417
  1
CONTROL 1
 41
1.133333
  7
SIMPLEX
  0
INSERT
  8
1
 62
   250
  2
STRIP2
 10
-0.190274
 20
0.901345
 30
0.0
 41
0.179372
 42
0.179372
  0
INSERT
  8
1
 62
   250
  2
STRIP2
 10
-0.190274
 20
0.883408
 30
0.0
 41
0.179372
 42
0.179372
  0
INSERT
  8
1
 62
   250
  2
STRIP2
 10
-0.190274
 20
0.847534
 30
0.0
 41
0.179372
 42
0.179372
  0
INSERT
  8
1
 62
   250
  2
STRIP2
 10
-0.190274
 20
0.865471
 30
0.0
 41
0.179372
 42
0.179372
  0
INSERT
  8
1
 62
   250
  2
STRIP2
 10
-0.190274
 20
0.93722
 30
0.0
 41
0.179372
 42
0.179372
  0
INSERT
  8
1
 62
   250
  2
STRIP2
 10
-0.190274
 20
0.919282
 30
0.0
 41
0.179372
 42
0.179372
  0
TEXT
  8
1
  6
CONTINUOUS
 62
   250
 10
0.020123
 20
0.490882
 30
0.0
 40
0.0113
  1
DIFFERENTIAL
 41
1.011111
  7
SIMPLEX
 72
     1
 11
0.076707
 21
0.490882
 31
0.0
  0
LINE
  8
1
  6
CONTINUOUS
 62
   250
 10
0.29148
 20
0.616144
 30
0.0
 11
0.29148
 21
0.017937
 31
0.0
  0
LINE
  8
1
  6
CONTINUOUS
 62
   250
 10
0.27713
 20
0.566816
 30
0.0
 11
0.27713
 21
0.080717
 31
0.0
  0
LINE
  8
1
  6
CONTINUOUS
 62
   250
 10
0.270852
 20
0.566816
 30
0.0
 11
0.270852
 21
0.085202
 31
0.0
  0
ARC
  8
1
  6
CONTINUOUS
 62
   250
 10
0.251121
 20
0.040359
 30
0.0
 40
0.040359
 50
90.000259
 51
180.001114
  0
LINE
  8
1
  6
CONTINUOUS
 62
   250
 10
0.09148
 20
0.237668
 30
0.0
 11
0.09148
 21
0.170404
 31
0.0
  0
INSERT
  8
1
 62
   250
  2
STRIP2
 10
0.051121
 20
0.192825
 30
0.0
 41
0.179372
 42
0.179372
  0
LINE
  8
1
  6
CONTINUOUS
 62
   250
 10
0.06009
 20
0.040359
 30
0.0
 11
0.176682
 21
0.040359
 31
0.0
  0
LINE
  8
1
  6
CONTINUOUS
 62
   250
 10
0.06009
 20
0.139013
 30
0.0
 11
0.176682
 21
0.139013
 31
0.0
  0
TEXT
  8
1
  6
CONTINUOUS
 62
   250
 10
0.081267
 20
0.143498
 30
0.0
 40
0.0113
  1
RELAY 2
 41
1.011111
  7
SIMPLEX
 72
     1
 11
0.117992
 21
0.143498
 31
0.0
  0
LINE
  8
1
  6
CONTINUOUS
 62
   250
 10
0.051121
 20
0.174888
 30
0.0
 11
0.086996
 21
0.174888
 31
0.0
  0
TEXT
  8
1
  6
CONTINUOUS
 62
   250
 10
0.086996
 20
0.089686
 30
0.0
 40
0.009417
  1
NC
 50
90.0
 41
1.233333
  7
SIMPLEX
  0
LINE
  8
1
  6
CONTINUOUS
 62
   250
 10
0.06009
 20
0.040359
 30
0.0
 11
0.06009
 21
0.139013
 31
0.0
  0
TEXT
  8
1
  6
CONTINUOUS
 62
   250
 10
0.068548
 20
0.044843
 30
0.0
 40
0.0113
  1
K1
 41
1.011111
  7
SIMPLEX
 72
     1
 11
0.078341
 21
0.044843
 31
0.0
  0
CIRCLE
  8
1
  6
CONTINUOUS
 62
   250
 10
0.082511
 20
0.071749
 30
0.0
 40
0.008969
  0
LINE
  8
1
  6
CONTINUOUS
 62
   250
 10
0.09148
 20
0.071749
 30
0.0
 11
0.073543
 21
0.071749
 31
0.0
  0
TEXT
  8
1
  6
CONTINUOUS
 62
   250
 10
0.158744
 20
0.089686
 30
0.0
 40
0.009417
  1
NO
 50
90.0
 41
1.233333
  7
SIMPLEX
  0
TEXT
  8
1
  6
CONTINUOUS
 62
   250
 10
0.138584
 20
0.044843
 30
0.0
 40
0.0113
  1
M1
 41
1.011111
  7
SIMPLEX
 72
     1
 11
0.149193
 21
0.044843
 31
0.0
  0
LINE
  8
1
  6
CONTINUOUS
 62
   250
 10
0.147918
 20
0.065407
 30
0.0
 11
0.160602
 21
0.078091
 31
0.0
  0
CIRCLE
  8
1
  6
CONTINUOUS
 62
   250
 10
0.15426
 20
0.071749
 30
0.0
 40
0.008969
  0
TEXT
  8
1
  6
CONTINUOUS
 62
   250
 10
0.12287
 20
0.089686
 30
0.0
 40
0.009417
  1
COM
 50
90.0
 41
1.233333
  7
SIMPLEX
  0
CIRCLE
  8
1
  6
CONTINUOUS
 62
   250
 10
0.118386
 20
0.071749
 30
0.0
 40
0.008968
  0
LINE
  8
1
  6
CONTINUOUS
 62
   250
 10
0.112044
 20
0.065407
 30
0.0
 11
0.124727
 21
0.078091
 31
0.0
  0
TEXT
  8
1
  6
CONTINUOUS
 62
   250
 10
0.105921
 20
0.044843
 30
0.0
 40
0.0113
  1
L1
 41
1.011111
  7
SIMPLEX
 72
     1
 11
0.114626
 21
0.044843
 31
0.0
  0
LINE
  8
1
  6
CONTINUOUS
 62
   250
 10
0.176682
 20
0.139013
 30
0.0
 11
0.176682
 21
0.040359
 31
0.0
  0
INSERT
  8
1
 62
   250
  2
POT
 10
0.069058
 20
0.439462
 30
0.0
 41
0.179372
 42
0.179372
  0
LINE
  8
1
  6
CONTINUOUS
 62
   250
 10
0.069058
 20
0.38565
 30
0.0
 11
0.069058
 21
0.264574
 31
0.0
  0
TEXT
  8
1
  6
CONTINUOUS
 62
   250
 10
0.01371
 20
0.219731
 30
0.0
 40
0.009417
  1
RELAY 2
 41
1.233333
  7
SIMPLEX
 72
     2
 11
0.086161
 21
0.219731
 31
0.0
  0
INSERT
  8
1
 62
   250
  2
STRIP2
 10
0.051121
 20
0.210762
 30
0.0
 41
0.179372
 42
0.179372
  0
INSERT
  8
1
 62
   250
  2
STRIP2
 10
0.0287
 20
0.340807
 30
0.0
 41
0.179372
 42
0.179372
  0
INSERT
  8
1
 62
   250
  2
STRIP2
 10
0.0287
 20
0.32287
 30
0.0
 41
0.179372
 42
0.179372
  0
INSERT
  8
1
 62
   250
  2
STRIP2
 10
0.0287
 20
0.304933
 30
0.0
 41
0.179372
 42
0.179372
  0
INSERT
  8
1
 62
   250
  2
STRIP2
 10
0.0287
 20
0.286996
 30
0.0
 41
0.179372
 42
0.179372
  0
LINE
  8
1
  6
CONTINUOUS
 62
   250
 10
0.0287
 20
0.269058
 30
0.0
 11
0.064574
 21
0.269058
 31
0.0
  0
LINE
  8
1
  6
CONTINUOUS
 62
   250
 10
0.203587
 20
0.085202
 30
0.0
 11
0.203587
 21
0.017937
 31
0.0
  0
LINE
  8
1
  6
CONTINUOUS
 62
   250
 10
0.210762
 20
0.017937
 30
0.0
 11
0.210762
 21
0.040359
 31
0.0
  0
CIRCLE
  8
1
  6
CONTINUOUS
 62
   250
 10
0.251121
 20
0.040359
 30
0.0
 40
0.017578
  0
CIRCLE
  8
1
  6
CONTINUOUS
 62
   250
 10
0.251121
 20
0.040359
 30
0.0
 40
0.028252
  0
ARC
  8
1
  6
CONTINUOUS
 62
   250
 10
0.273542
 20
0.017938
 30
0.0
 40
0.017938
 50
270.002747
 51
359.997253
  0
LINE
  8
1
  6
CONTINUOUS
 62
   250
 10
0.203587
 20
0.085202
 30
0.0
 11
0.270852
 21
0.085202
 31
0.0
  0
LINE
  8
1
  6
CONTINUOUS
 62
   250
 10
0.251121
 20
0.080717
 30
0.0
 11
0.27713
 21
0.080717
 31
0.0
  0
TEXT
  8
1
  6
CONTINUOUS
 62
   250
 10
0.19553
 20
0.838912
 30
0.0
 40
0.0113
  1
DISPLAY
 50
270.0
 41
1.011111
  7
SIMPLEX
 72
     1
 11
0.19553
 21
0.804636
 31
0.0
  0
ARC
  8
1
  6
CONTINUOUS
 62
   250
 10
0.251121
 20
0.959641
 30
0.0
 40
0.040359
 50
180.000259
 51
270.001099
  0
TEXT
  8
1
  6
CONTINUOUS
 62
   250
 10
0.177837
 20
0.855285
 30
0.0
 40
0.0113
  1
CONNECTOR
 50
270.0
 41
1.011111
  7
SIMPLEX
 72
     1
 11
0.177837
 21
0.804686
 31
0.0
  0
LINE
  8
1
  6
CONTINUOUS
 62
   250
 10
0.125397
 20
0.825112
 30
0.0
 11
0.125397
 21
0.717489
 31
0.0
  0
LINE
  8
1
  6
CONTINUOUS
 62
   250
 10
0.136323
 20
0.852018
 30
0.0
 11
0.136323
 21
0.762332
 31
0.0
  0
LINE
  8
1
  6
CONTINUOUS
 62
   250
 10
0.172197
 20
0.762332
 30
0.0
 11
0.172197
 21
0.852018
 31
0.0
  0
INSERT
  8
1
 62
   250
  2
STRIP2
 10
0.085039
 20
0.73991
 30
0.0
 41
0.179372
 42
0.179372
  0
LINE
  8
1
  6
CONTINUOUS
 62
   250
 10
0.085039
 20
0.721973
 30
0.0
 11
0.120913
 21
0.721973
 31
0.0
  0
INSERT
  8
1
 62
   250
  2
STRIP2
 10
0.085039
 20
0.775785
 30
0.0
 41
0.179372
 42
0.179372
  0
INSERT
  8
1
 62
   250
  2
STRIP2
 10
0.085039
 20
0.757848
 30
0.0
 41
0.179372
 42
0.179372
  0
TEXT
  8
1
  6
CONTINUOUS
 62
   250
 10
0.05407
 20
0.784753
 30
0.0
 40
0.009417
  1
RELAY 2
 41
1.133333
  7
SIMPLEX
 72
     2
 11
0.120647
 21
0.784753
 31
0.0
  0
TEXT
  8
1
  6
CONTINUOUS
 62
   250
 10
0.035592
 20
0.511211
 30
0.0
 40
0.0113
  1
RELAY 2
 41
1.011111
  7
SIMPLEX
 72
     1
 11
0.072317
 21
0.511211
 31
0.0
  0
INSERT
  8
1
 62
   250
  2
POT
 10
0.069058
 20
0.587444
 30
0.0
 41
0.179372
 42
0.179372
  0
TEXT
  8
1
  6
CONTINUOUS
 62
   250
 10
0.03648
 20
0.638864
 30
0.0
 40
0.013951
  1
OFFSET
 41
0.8
  7
SIMPLEX
 72
     1
 11
0.067039
 21
0.638864
 31
0.0
  0
TEXT
  8
1
  6
CONTINUOUS
 62
   250
 10
0.028158
 20
0.659193
 30
0.0
 40
0.013951
  1
RELAY 2
 41
0.8
  7
SIMPLEX
 72
     1
 11
0.064032
 21
0.659193
 31
0.0
  0
TEXT
  8
1
  6
CONTINUOUS
 62
   250
 10
0.010762
 20
0.72513
 30
0.0
 40
0.009417
  1
OFF
 41
1.233333
  7
SIMPLEX
  0
LINE
  8
1
  6
CONTINUOUS
 62
   250
 10
0.172197
 20
0.762332
 30
0.0
 11
0.136323
 21
0.762332
 31
0.0
  0
CIRCLE
  8
1
  6
CONTINUOUS
 62
   250
 10
0.145291
 20
0.7713
 30
0.0
 40
0.001794
  0
CIRCLE
  8
1
  6
CONTINUOUS
 62
   250
 10
0.145291
 20
0.789238
 30
0.0
 40
0.001794
  0
CIRCLE
  8
1
  6
CONTINUOUS
 62
   250
 10
0.145291
 20
0.807175
 30
0.0
 40
0.001794
  0
CIRCLE
  8
1
  6
CONTINUOUS
 62
   250
 10
0.163229
 20
0.7713
 30
0.0
 40
0.001794
  0
CIRCLE
  8
1
  6
CONTINUOUS
 62
   250
 10
0.163229
 20
0.789238
 30
0.0
 40
0.001794
  0
CIRCLE
  8
1
  6
CONTINUOUS
 62
   250
 10
0.163229
 20
0.807175
 30
0.0
 40
0.001794
  0
LINE
  8
1
  6
CONTINUOUS
 62
   250
 10
0.069058
 20
0.865471
 30
0.0
 11
0.176682
 21
0.865471
 31
0.0
  0
LINE
  8
1
  6
CONTINUOUS
 62
   250
 10
0.069058
 20
0.964126
 30
0.0
 11
0.176682
 21
0.964126
 31
0.0
  0
TEXT
  8
1
  6
CONTINUOUS
 62
   250
 10
0.082511
 20
0.919282
 30
0.0
 40
0.009417
  1
GND
 50
270.0
 41
1.233333
  7
SIMPLEX
  0
LINE
  8
1
  6
CONTINUOUS
 62
   250
 10
0.069058
 20
0.964126
 30
0.0
 11
0.069058
 21
0.865471
 31
0.0
  0
LINE
  8
1
  6
CONTINUOUS
 62
   250
 10
0.095964
 20
0.932735
 30
0.0
 11
0.078027
 21
0.932735
 31
0.0
  0
CIRCLE
  8
1
  6
CONTINUOUS
 62
   250
 10
0.086996
 20
0.932735
 30
0.0
 40
0.008969
  0
TEXT
  8
1
  6
CONTINUOUS
 62
   250
 10
0.081016
 20
0.946188
 30
0.0
 40
0.0113
  1
3
 41
1.111111
  7
SIMPLEX
  0
LINE
  8
1
  6
CONTINUOUS
 62
   250
 10
0.172197
 20
0.852018
 30
0.0
 11
0.136323
 21
0.852018
 31
0.0
  0
CIRCLE
  8
1
  6
CONTINUOUS
 62
   250
 10
0.158744
 20
0.932735
 30
0.0
 40
0.008969
  0
TEXT
  8
1
  6
CONTINUOUS
 62
   250
 10
0.118386
 20
0.919282
 30
0.0
 40
0.009417
  1
TIMER
 50
270.0
 41
1.233333
  7
SIMPLEX
  0
TEXT
  8
1
  6
CONTINUOUS
 62
   250
 10
0.122272
 20
0.838565
 30
0.0
 40
0.0113
  1
1
 41
1.111111
  7
SIMPLEX
  0
CIRCLE
  8
1
  6
CONTINUOUS
 62
   250
 10
0.145291
 20
0.825112
 30
0.0
 40
0.001794
  0
CIRCLE
  8
1
  6
CONTINUOUS
 62
   250
 10
0.145291
 20
0.843049
 30
0.0
 40
0.001794
  0
LINE
  8
1
  6
CONTINUOUS
 62
   250
 10
0.116528
 20
0.939077
 30
0.0
 11
0.129212
 21
0.926394
 31
0.0
  0
CIRCLE
  8
1
  6
CONTINUOUS
 62
   250
 10
0.12287
 20
0.932735
 30
0.0
 40
0.008968
  0
TEXT
  8
1
  6
CONTINUOUS
 62
   250
 10
0.116891
 20
0.946188
 30
0.0
 40
0.0113
  1
2
 41
1.111111
  7
SIMPLEX
  0
TEXT
  8
1
  6
CONTINUOUS
 62
   250
 10
0.15426
 20
0.919282
 30
0.0
 40
0.009417
  1
+24V
 50
270.0
 41
1.233333
  7
SIMPLEX
  0
LINE
  8
1
  6
CONTINUOUS
 62
   250
 10
0.176682
 20
0.865471
 30
0.0
 11
0.176682
 21
0.964126
 31
0.0
  0
CIRCLE
  8
1
  6
CONTINUOUS
 62
   250
 10
0.163229
 20
0.825112
 30
0.0
 40
0.001794
  0
CIRCLE
  8
1
  6
CONTINUOUS
 62
   250
 10
0.163229
 20
0.843049
 30
0.0
 40
0.001794
  0
LINE
  8
1
  6
CONTINUOUS
 62
   250
 10
0.158744
 20
0.923767
 30
0.0
 11
0.158744
 21
0.941704
 31
0.0
  0
TEXT
  8
1
  6
CONTINUOUS
 62
   250
 10
0.153662
 20
0.946188
 30
0.0
 40
0.0113
  1
1
 41
1.111111
  7
SIMPLEX
  0
CIRCLE
  8
1
  6
CONTINUOUS
 62
   250
 10
0.250673
 20
0.820179
 30
0.0
 40
0.00852
  0
LINE
  8
1
  6
CONTINUOUS
 62
   250
 10
0.282063
 20
0.835874
 30
0.0
 11
0.282063
 21
0.566816
 31
0.0
  0
LINE
  8
1
  6
CONTINUOUS
 62
   250
 10
0.214798
 20
0.835874
 30
0.0
 11
0.214798
 21
0.786547
 31
0.0
  0
LINE
  8
1
  6
CONTINUOUS
 62
   250
 10
0.29148
 20
0.982063
 30
0.0
 11
0.29148
 21
0.786547
 31
0.0
  0
LINE
  8
1
  6
CONTINUOUS
 62
   250
 10
0.282063
 20
0.616144
 30
0.0
 11
0.322422
 21
0.616144
 31
0.0
  0
LINE
  8
1
  6
CONTINUOUS
 62
   250
 10
0.322422
 20
0.786547
 30
0.0
 11
0.282063
 21
0.786547
 31
0.0
  0
TEXT
  8
1
  6
CONTINUOUS
 62
   250
 10
0.252915
 20
0.780269
 30
0.0
 40
0.008072
  1
Female DIN Connector
 50
270.0
 41
1.011111
  7
SIMPLEX
  0
LINE
  8
1
  6
CONTINUOUS
 62
   250
 10
0.241704
 20
0.616144
 30
0.0
 11
0.241704
 21
0.786547
 31
0.0
  0
CIRCLE
  8
1
  6
CONTINUOUS
 62
   250
 10
0.250673
 20
0.582511
 30
0.0
 40
0.00852
  0
LINE
  8
1
  6
CONTINUOUS
 62
   250
 10
0.282063
 20
0.566816
 30
0.0
 11
0.214798
 21
0.566816
 31
0.0
  0
LINE
  8
1
  6
CONTINUOUS
 62
   250
 10
0.214798
 20
0.566816
 30
0.0
 11
0.214798
 21
0.616144
 31
0.0
  0
LINE
  8
1
  6
CONTINUOUS
 62
   250
 10
0.214798
 20
0.616144
 30
0.0
 11
0.241704
 21
0.616144
 31
0.0
  0
LINE
  8
1
  6
CONTINUOUS
 62
   250
 10
0.29148
 20
0.58296
 30
0.0
 11
0.282063
 21
0.58296
 31
0.0
  0
LINE
  8
1
  6
CONTINUOUS
 62
   250
 10
0.214798
 20
0.786547
 30
0.0
 11
0.241704
 21
0.786547
 31
0.0
  0
LINE
  8
1
  6
CONTINUOUS
 62
   250
 10
0.322422
 20
0.616144
 30
0.0
 11
0.322422
 21
0.786547
 31
0.0
  0
LINE
  8
1
  6
CONTINUOUS
 62
   250
 10
0.203587
 20
0.982063
 30
0.0
 11
0.203587
 21
0.919282
 31
0.0
  0
LINE
  8
1
  6
CONTINUOUS
 62
   250
 10
0.203587
 20
0.982063
 30
0.0
 11
0.203587
 21
0.914798
 31
0.0
  0
LINE
  8
1
  6
CONTINUOUS
 62
   250
 10
0.210762
 20
0.959641
 30
0.0
 11
0.210762
 21
0.982063
 31
0.0
  0
CIRCLE
  8
1
  6
CONTINUOUS
 62
   250
 10
0.251121
 20
0.959641
 30
0.0
 40
0.017578
  0
CIRCLE
  8
1
  6
CONTINUOUS
 62
   250
 10
0.251121
 20
0.959641
 30
0.0
 40
0.028252
  0
LINE
  8
1
  6
CONTINUOUS
 62
   250
 10
0.270852
 20
0.914798
 30
0.0
 11
0.203587
 21
0.914798
 31
0.0
  0
LINE
  8
1
  6
CONTINUOUS
 62
   250
 10
0.282063
 20
0.835874
 30
0.0
 11
0.214798
 21
0.835874
 31
0.0
  0
LINE
  8
1
  6
CONTINUOUS
 62
   250
 10
0.27713
 20
0.919282
 30
0.0
 11
0.251121
 21
0.919282
 31
0.0
  0
LINE
  8
1
  6
CONTINUOUS
 62
   250
 10
0.208072
 20
0.914798
 30
0.0
 11
0.203587
 21
0.914798
 31
0.0
  0
LINE
  8
1
  6
CONTINUOUS
 62
   250
 10
0.270852
 20
0.914798
 30
0.0
 11
0.270852
 21
0.835874
 31
0.0
  0
LINE
  8
1
  6
CONTINUOUS
 62
   250
 10
0.27713
 20
0.919282
 30
0.0
 11
0.27713
 21
0.835874
 31
0.0
  0
LINE
  8
1
  6
CONTINUOUS
 62
   250
 10
0.29148
 20
0.816144
 30
0.0
 11
0.287892
 21
0.816144
 31
0.0
  0
LINE
  8
1
  6
CONTINUOUS
 62
   250
 10
0.29148
 20
0.816144
 30
0.0
 11
0.282063
 21
0.816144
 31
0.0
  0
ARC
  8
1
  6
CONTINUOUS
 62
   250
 10
0.273542
 20
0.982062
 30
0.0
 40
0.017938
 50
0.002856
 51
89.997238
  0
ENDSEC
  0
EOF
