  0
SECTION
  2
HEADER
  9
$ACADVER
  1
AC1009
  9
$INSBASE
 10
0.0
 20
0.0
 30
0.0
  9
$EXTMIN
 10
-0.31435
 20
0.0
 30
0.0
  9
$EXTMAX
 10
0.322422
 20
1.0
 30
0.0
  9
$LIMMIN
 10
14.7535
 20
15.453761
  9
$LIMMAX
 10
15.390272
 20
16.453764
  9
$ORTHOMODE
 70
     1
  9
$REGENMODE
 70
     1
  9
$FILLMODE
 70
     1
  9
$QTEXTMODE
 70
     0
  9
$MIRRTEXT
 70
     1
  9
$DRAGMODE
 70
     2
  9
$LTSCALE
 40
1.0
  9
$OSMODE
 70
     0
  9
$ATTMODE
 70
     2
  9
$TEXTSIZE
 40
1.0
  9
$TRACEWID
 40
0.05
  9
$TEXTSTYLE
  7
STANDARD
  9
$CLAYER
  8
0
  9
$CELTYPE
  6
BYLAYER
  9
$CECOLOR
 62
   256
  9
$DIMSCALE
 40
1.0
  9
$DIMASZ
 40
1.0
  9
$DIMEXO
 40
0.5
  9
$DIMDLI
 40
0.38
  9
$DIMRND
 40
0.0
  9
$DIMDLE
 40
0.0
  9
$DIMEXE
 40
0.5
  9
$DIMTP
 40
0.0
  9
$DIMTM
 40
0.0
  9
$DIMTXT
 40
0.18
  9
$DIMCEN
 40
0.09
  9
$DIMTSZ
 40
0.0
  9
$DIMTOL
 70
     0
  9
$DIMLIM
 70
     0
  9
$DIMTIH
 70
     1
  9
$DIMTOH
 70
     1
  9
$DIMSE1
 70
     0
  9
$DIMSE2
 70
     0
  9
$DIMTAD
 70
     0
  9
$DIMZIN
 70
     0
  9
$DIMBLK
  1

  9
$DIMASO
 70
     1
  9
$DIMSHO
 70
     1
  9
$DIMPOST
  1
"
  9
$DIMAPOST
  1

  9
$DIMALT
 70
     0
  9
$DIMALTD
 70
     2
  9
$DIMALTF
 40
25.4
  9
$DIMLFAC
 40
1.0
  9
$DIMTOFL
 70
     0
  9
$DIMTVP
 40
0.0
  9
$DIMTIX
 70
     0
  9
$DIMSOXD
 70
     0
  9
$DIMSAH
 70
     0
  9
$DIMBLK1
  1

  9
$DIMBLK2
  1

  9
$DIMSTYLE
  2
*UNNAMED
  9
$DIMCLRD
 70
     0
  9
$DIMCLRE
 70
     0
  9
$DIMCLRT
 70
     0
  9
$DIMTFAC
 40
1.0
  9
$DIMGAP
 40
0.09
  9
$LUNITS
 70
     2
  9
$LUPREC
 70
     3
  9
$SKETCHINC
 40
0.1
  9
$FILLETRAD
 40
0.0
  9
$AUNITS
 70
     0
  9
$AUPREC
 70
     3
  9
$MENU
  1
acad
  9
$ELEVATION
 40
0.0
  9
$PELEVATION
 40
0.0
  9
$THICKNESS
 40
0.0
  9
$LIMCHECK
 70
     0
  9
$BLIPMODE
 70
     0
  9
$CHAMFERA
 40
0.5
  9
$CHAMFERB
 40
0.5
  9
$SKPOLY
 70
     0
  9
$TDCREATE
 40
2450085.574305092
  9
$TDUPDATE
 40
2450085.574305092
  9
$TDINDWG
 40
0.0000000000
  9
$TDUSRTIMER
 40
0.0000000000
  9
$USRTIMER
 70
     1
  9
$ANGBASE
 50
0.0
  9
$ANGDIR
 70
     0
  9
$PDMODE
 70
     2
  9
$PDSIZE
 40
0.0
  9
$PLINEWID
 40
0.0
  9
$COORDS
 70
     1
  9
$SPLFRAME
 70
     0
  9
$SPLINETYPE
 70
     6
  9
$SPLINESEGS
 70
     8
  9
$ATTDIA
 70
     0
  9
$ATTREQ
 70
     1
  9
$HANDLING
 70
     0
  9
$HANDSEED
  5
0
  9
$SURFTAB1
 70
     6
  9
$SURFTAB2
 70
     6
  9
$SURFTYPE
 70
     6
  9
$SURFU
 70
     6
  9
$SURFV
 70
     6
  9
$UCSNAME
  2

  9
$UCSORG
 10
0.0
 20
0.0
 30
0.0
  9
$UCSXDIR
 10
1.0
 20
0.0
 30
0.0
  9
$UCSYDIR
 10
0.0
 20
1.0
 30
0.0
  9
$PUCSNAME
  2

  9
$PUCSORG
 10
0.0
 20
0.0
 30
0.0
  9
$PUCSXDIR
 10
1.0
 20
0.0
 30
0.0
  9
$PUCSYDIR
 10
0.0
 20
1.0
 30
0.0
  9
$USERI1
 70
     0
  9
$USERI2
 70
     0
  9
$USERI3
 70
     0
  9
$USERI4
 70
     0
  9
$USERI5
 70
     0
  9
$USERR1
 40
0.0
  9
$USERR2
 40
0.0
  9
$USERR3
 40
0.0
  9
$USERR4
 40
0.0
  9
$USERR5
 40
0.0
  9
$WORLDVIEW
 70
     1
  9
$SHADEDGE
 70
     3
  9
$SHADEDIF
 70
    70
  9
$TILEMODE
 70
     1
  9
$MAXACTVP
 70
    16
  9
$PINSBASE
 10
1.002913
 20
50.0
 30
0.089639
  9
$PLIMCHECK
 70
     0
  9
$PEXTMIN
 10
1.000000E+20
 20
1.000000E+20
 30
1.000000E+20
  9
$PEXTMAX
 10
-1.000000E+20
 20
-1.000000E+20
 30
-1.000000E+20
  9
$PLIMMIN
 10
0.0
 20
0.0
  9
$PLIMMAX
 10
12.0
 20
9.0
  9
$UNITMODE
 70
     0
  9
$VISRETAIN
 70
     0
  9
$PLINEGEN
 70
     0
  9
$PSLTSCALE
 70
     1
  9
$TREEDEPTH
 70
  3020
  9
$DWGCODEPAGE
  3
ascii
  0
ENDSEC
  0
SECTION
  2
TABLES
  0
TABLE
  2
VPORT
 70
     1
  0
VPORT
  2
*ACTIVE
 70
     0
 10
0.0
 20
0.0
 11
1.0
 21
1.0
 12
11.102279
 22
8.225025
 13
0.0
 23
0.0
 14
1.0
 24
1.0
 15
1.0
 25
1.0
 16
0.0
 26
0.0
 36
1.0
 17
0.0
 27
0.0
 37
0.0
 40
16.457479
 41
1.387409
 42
50.0
 43
0.0
 44
0.0
 50
0.0
 51
0.0
 71
     0
 72
   100
 73
     1
 74
     1
 75
     0
 76
     0
 77
     0
 78
     0
  0
ENDTAB
  0
TABLE
  2
LTYPE
 70
     1
  0
LTYPE
  2
CONTINUOUS
 70
    64
  3
SOLID LINE
 72
    65
 73
     0
 40
0.0
  0
ENDTAB
  0
TABLE
  2
LAYER
 70
     2
  0
LAYER
  2
0
 70
    64
 62
     2
  6
CONTINUOUS
  0
LAYER
  2
1
 70
    64
 62
     4
  6
CONTINUOUS
  0
ENDTAB
  0
TABLE
  2
STYLE
 70
     2
  0
STYLE
  2
STANDARD
 70
     0
 40
0.0
 41
1.0
 50
0.0
 71
     0
 42
0.2
  3
txt
  4

  0
STYLE
  2
SIMPLEX
 70
    64
 40
0.0
 41
1.0
 50
0.0
 71
     0
 42
1.0
  3
ROMANS.SHX
  4

  0
ENDTAB
  0
TABLE
  2
VIEW
 70
     0
  0
ENDTAB
  0
TABLE
  2
UCS
 70
     0
  0
ENDTAB
  0
TABLE
  2
APPID
 70
     1
  0
APPID
  2
ACAD
 70
    64
  0
ENDTAB
  0
TABLE
  2
DIMSTYLE
 70
     0
  0
ENDTAB
  0
ENDSEC
  0
SECTION
  2
BLOCKS
  0
BLOCK
  8
0
  2
STRIP2
 70
    64
 10
0.0
 20
0.0
 30
0.0
  3
STRIP2
  0
LINE
  8
1
  6
CONTINUOUS
 62
   250
 10
0.2
 20
0.0
 30
0.0
 11
0.0
 21
0.0
 31
0.0
  0
LINE
  8
1
  6
CONTINUOUS
 62
   250
 10
0.0
 20
0.0
 30
0.0
 11
0.0
 21
-0.1
 31
0.0
  0
CIRCLE
  8
1
  6
CONTINUOUS
 62
   250
 10
0.05
 20
-0.05
 30
0.0
 40
0.01
  0
CIRCLE
  8
1
  6
CONTINUOUS
 62
   250
 10
0.15
 20
-0.05
 30
0.0
 40
0.01
  0
LINE
  8
1
  6
CONTINUOUS
 62
   250
 10
0.2
 20
-0.1
 30
0.0
 11
0.2
 21
0.0
 31
0.0
  0
ENDBLK
  8
0
  0
ENDSEC
  0
SECTION
  2
ENTITIES
  0
LINE
  8
1
  6
CONTINUOUS
 62
   250
 10
-0.204309
 20
0.856502
 30
0.0
 11
0.155521
 21
0.856502
 31
0.0
  0
TEXT
  8
1
  6
CONTINUOUS
 62
   250
 10
-0.015323
 20
0.798206
 30
0.0
 40
0.0113
  1
CH1
 41
1.011111
  7
SIMPLEX
  0
LINE
  8
1
  6
CONTINUOUS
 62
   250
 10
-0.020628
 20
0.605381
 30
0.0
 11
0.180814
 21
0.605381
 31
0.0
  0
LINE
  8
1
  6
CONTINUOUS
 62
   250
 10
-0.020628
 20
0.672646
 30
0.0
 11
0.155521
 21
0.672646
 31
0.0
  0
LINE
  8
1
  6
CONTINUOUS
 62
   250
 10
-0.020628
 20
0.699552
 30
0.0
 11
0.155521
 21
0.699552
 31
0.0
  0
LINE
  8
1
  6
CONTINUOUS
 62
   250
 10
-0.020628
 20
0.816144
 30
0.0
 11
0.155521
 21
0.816144
 31
0.0
  0
LINE
  8
1
  6
CONTINUOUS
 62
   250
 10
-0.002691
 20
0.58296
 30
0.0
 11
0.180814
 21
0.58296
 31
0.0
  0
LINE
  8
1
  6
CONTINUOUS
 62
   250
 10
-0.002691
 20
0.497758
 30
0.0
 11
0.180814
 21
0.497758
 31
0.0
  0
TEXT
  8
1
  6
CONTINUOUS
 62
   250
 10
-0.004517
 20
0.838565
 30
0.0
 40
0.0113
  1
SENSOR OUTPUT
 41
1.011111
  7
SIMPLEX
  0
LINE
  8
1
  6
CONTINUOUS
 62
   250
 10
0.273543
 20
1.0
 30
0.0
 11
-0.273543
 21
1.0
 31
0.0
  0
TEXT
  8
1
  6
CONTINUOUS
 62
   250
 10
0.001794
 20
0.919282
 30
0.0
 40
0.008072
  1
IN1
 50
270.0
 41
1.233333
  7
SIMPLEX
  0
LINE
  8
1
  6
CONTINUOUS
 62
   250
 10
0.210762
 20
0.982063
 30
0.0
 11
-0.210762
 21
0.982063
 31
0.0
  0
LINE
  8
1
  6
CONTINUOUS
 62
   250
 10
0.273543
 20
0.0
 30
0.0
 11
-0.273543
 21
0.0
 31
0.0
  0
LINE
  8
1
  6
CONTINUOUS
 62
   250
 10
-0.210762
 20
0.017937
 30
0.0
 11
0.210762
 21
0.017937
 31
0.0
  0
TEXT
  8
1
  6
CONTINUOUS
 62
   250
 10
-0.001694
 20
0.565022
 30
0.0
 40
0.0113
  1
HISEL
 41
1.011111
  7
SIMPLEX
  0
INSERT
  8
1
 62
   250
  2
STRIP2
 10
-0.016143
 20
0.650224
 30
0.0
 41
0.179372
 42
0.179372
  0
INSERT
  8
1
 62
   250
  2
STRIP2
 10
-0.016143
 20
0.668161
 30
0.0
 41
0.179372
 42
0.179372
  0
TEXT
  8
1
  6
CONTINUOUS
 62
   250
 10
-0.019632
 20
0.67713
 30
0.0
 40
0.0113
  1
HISEL
 41
1.011111
  7
SIMPLEX
  0
LINE
  8
1
  6
CONTINUOUS
 62
   250
 10
0.001794
 20
0.502242
 30
0.0
 11
0.037668
 21
0.502242
 31
0.0
  0
INSERT
  8
1
 62
   250
  2
STRIP2
 10
0.001794
 20
0.556054
 30
0.0
 41
0.179372
 42
0.179372
  0
INSERT
  8
1
 62
   250
  2
STRIP2
 10
0.001794
 20
0.538117
 30
0.0
 41
0.179372
 42
0.179372
  0
INSERT
  8
1
 62
   250
  2
STRIP2
 10
0.001794
 20
0.520179
 30
0.0
 41
0.179372
 42
0.179372
  0
LINE
  8
1
  6
CONTINUOUS
 62
   250
 10
-0.016143
 20
0.61435
 30
0.0
 11
0.019731
 21
0.61435
 31
0.0
  0
INSERT
  8
1
 62
   250
  2
STRIP2
 10
-0.016143
 20
0.632287
 30
0.0
 41
0.179372
 42
0.179372
  0
LINE
  8
1
  6
CONTINUOUS
 62
   250
 10
-0.016143
 20
0.704036
 30
0.0
 11
0.019731
 21
0.704036
 31
0.0
  0
INSERT
  8
1
 62
   250
  2
STRIP2
 10
-0.016143
 20
0.793722
 30
0.0
 41
0.179372
 42
0.179372
  0
INSERT
  8
1
 62
   250
  2
STRIP2
 10
-0.016143
 20
0.775785
 30
0.0
 41
0.179372
 42
0.179372
  0
INSERT
  8
1
 62
   250
  2
STRIP2
 10
-0.016143
 20
0.757848
 30
0.0
 41
0.179372
 42
0.179372
  0
INSERT
  8
1
 62
   250
  2
STRIP2
 10
-0.016143
 20
0.73991
 30
0.0
 41
0.179372
 42
0.179372
  0
INSERT
  8
1
 62
   250
  2
STRIP2
 10
-0.016143
 20
0.721973
 30
0.0
 41
0.179372
 42
0.179372
  0
LINE
  8
1
  6
CONTINUOUS
 62
   250
 10
-0.110314
 20
0.865471
 30
0.0
 11
0.176682
 21
0.865471
 31
0.0
  0
LINE
  8
1
  6
CONTINUOUS
 62
   250
 10
-0.110314
 20
0.964127
 30
0.0
 11
0.176682
 21
0.964127
 31
0.0
  0
LINE
  8
1
  6
CONTINUOUS
 62
   250
 10
-0.267265
 20
0.085202
 30
0.0
 11
-0.267265
 21
0.566816
 31
0.0
  0
LINE
  8
1
  6
CONTINUOUS
 62
   250
 10
-0.29148
 20
0.582511
 30
0.0
 11
-0.29148
 21
0.017937
 31
0.0
  0
LINE
  8
1
  6
CONTINUOUS
 62
   250
 10
-0.27713
 20
0.566816
 30
0.0
 11
-0.27713
 21
0.080717
 31
0.0
  0
LINE
  8
1
  6
CONTINUOUS
 62
   250
 10
-0.002691
 20
0.605381
 30
0.0
 11
-0.002691
 21
0.497758
 31
0.0
  0
LINE
  8
1
  6
CONTINUOUS
 62
   250
 10
-0.2
 20
0.085202
 30
0.0
 11
-0.2
 21
0.017937
 31
0.0
  0
LINE
  8
1
  6
CONTINUOUS
 62
   250
 10
-0.210762
 20
0.040359
 30
0.0
 11
-0.210762
 21
0.017937
 31
0.0
  0
CIRCLE
  8
1
  6
CONTINUOUS
 62
   250
 10
-0.251121
 20
0.040359
 30
0.0
 40
0.017577
  0
CIRCLE
  8
1
  6
CONTINUOUS
 62
   250
 10
-0.251121
 20
0.040359
 30
0.0
 40
0.028251
  0
ARC
  8
1
  6
CONTINUOUS
 62
   250
 10
-0.273542
 20
0.017938
 30
0.0
 40
0.017938
 50
180.002762
 51
269.997223
  0
LINE
  8
1
  6
CONTINUOUS
 62
   250
 10
-0.267265
 20
0.085202
 30
0.0
 11
-0.2
 21
0.085202
 31
0.0
  0
ARC
  8
1
  6
CONTINUOUS
 62
   250
 10
-0.251121
 20
0.040359
 30
0.0
 40
0.040359
 50
359.998871
 51
89.999741
  0
LINE
  8
1
  6
CONTINUOUS
 62
   250
 10
-0.27713
 20
0.080717
 30
0.0
 11
-0.251121
 21
0.080717
 31
0.0
  0
LINE
  8
1
  6
CONTINUOUS
 62
   250
 10
-0.204309
 20
0.569507
 30
0.0
 11
-0.020628
 21
0.569507
 31
0.0
  0
LINE
  8
1
  6
CONTINUOUS
 62
   250
 10
-0.204309
 20
0.811659
 30
0.0
 11
-0.020628
 21
0.811659
 31
0.0
  0
TEXT
  8
1
  6
CONTINUOUS
 62
   250
 10
-0.203313
 20
0.816144
 30
0.0
 40
0.0113
  1
CH1
 41
1.011111
  7
SIMPLEX
  0
INSERT
  8
1
 62
   250
  2
STRIP2
 10
-0.199825
 20
0.807175
 30
0.0
 41
0.179372
 42
0.179372
  0
INSERT
  8
1
 62
   250
  2
STRIP2
 10
-0.199825
 20
0.789238
 30
0.0
 41
0.179372
 42
0.179372
  0
INSERT
  8
1
 62
   250
  2
STRIP2
 10
-0.199825
 20
0.7713
 30
0.0
 41
0.179372
 42
0.179372
  0
INSERT
  8
1
 62
   250
  2
STRIP2
 10
-0.199825
 20
0.753363
 30
0.0
 41
0.179372
 42
0.179372
  0
INSERT
  8
1
 62
   250
  2
STRIP2
 10
-0.199825
 20
0.735426
 30
0.0
 41
0.179372
 42
0.179372
  0
INSERT
  8
1
 62
   250
  2
STRIP2
 10
-0.199825
 20
0.699552
 30
0.0
 41
0.179372
 42
0.179372
  0
INSERT
  8
1
 62
   250
  2
STRIP2
 10
-0.199825
 20
0.681614
 30
0.0
 41
0.179372
 42
0.179372
  0
INSERT
  8
1
 62
   250
  2
STRIP2
 10
-0.199825
 20
0.663677
 30
0.0
 41
0.179372
 42
0.179372
  0
INSERT
  8
1
 62
   250
  2
STRIP2
 10
-0.199825
 20
0.64574
 30
0.0
 41
0.179372
 42
0.179372
  0
INSERT
  8
1
 62
   250
  2
STRIP2
 10
-0.199825
 20
0.627803
 30
0.0
 41
0.179372
 42
0.179372
  0
INSERT
  8
1
 62
   250
  2
STRIP2
 10
-0.199825
 20
0.609865
 30
0.0
 41
0.179372
 42
0.179372
  0
LINE
  8
1
  6
CONTINUOUS
 62
   250
 10
-0.199825
 20
0.591928
 30
0.0
 11
-0.16395
 21
0.591928
 31
0.0
  0
INSERT
  8
1
 62
   250
  2
STRIP2
 10
-0.199825
 20
0.717489
 30
0.0
 41
0.179372
 42
0.179372
  0
LINE
  8
1
  6
CONTINUOUS
 62
   250
 10
-0.204309
 20
0.569507
 30
0.0
 11
-0.204309
 21
0.856502
 31
0.0
  0
LINE
  8
1
  6
CONTINUOUS
 62
   250
 10
-0.278475
 20
0.835874
 30
0.0
 11
-0.278475
 21
0.566816
 31
0.0
  0
LINE
  8
1
  6
CONTINUOUS
 62
   250
 10
-0.233632
 20
0.835874
 30
0.0
 11
-0.233632
 21
0.802242
 31
0.0
  0
LINE
  8
1
  6
CONTINUOUS
 62
   250
 10
-0.31435
 20
0.820179
 30
0.0
 11
-0.31435
 21
0.582511
 31
0.0
  0
CIRCLE
  8
1
  6
CONTINUOUS
 62
   250
 10
-0.247085
 20
0.820179
 30
0.0
 40
0.008519
  0
LINE
  8
1
  6
CONTINUOUS
 62
   250
 10
-0.31435
 20
0.582511
 30
0.0
 11
-0.278475
 21
0.582511
 31
0.0
  0
TEXT
  8
1
  6
CONTINUOUS
 62
   250
 10
-0.256876
 20
0.772263
 30
0.0
 40
0.008072
  1
Male DIN Connector
 50
270.0
 41
1.011111
  7
SIMPLEX
  0
LINE
  8
1
  6
CONTINUOUS
 62
   250
 10
-0.240359
 20
0.802242
 30
0.0
 11
-0.240359
 21
0.600448
 31
0.0
  0
LINE
  8
1
  6
CONTINUOUS
 62
   250
 10
-0.278475
 20
0.566816
 30
0.0
 11
-0.234305
 21
0.566816
 31
0.0
  0
CIRCLE
  8
1
  6
CONTINUOUS
 62
   250
 10
-0.247085
 20
0.582511
 30
0.0
 40
0.008519
  0
LINE
  8
1
  6
CONTINUOUS
 62
   250
 10
-0.233632
 20
0.566816
 30
0.0
 11
-0.233632
 21
0.600448
 31
0.0
  0
LINE
  8
1
  6
CONTINUOUS
 62
   250
 10
-0.233632
 20
0.600448
 30
0.0
 11
-0.240359
 21
0.600448
 31
0.0
  0
LINE
  8
1
  6
CONTINUOUS
 62
   250
 10
-0.233632
 20
0.802242
 30
0.0
 11
-0.240359
 21
0.802242
 31
0.0
  0
LINE
  8
1
  6
CONTINUOUS
 62
   250
 10
-0.278475
 20
0.820179
 30
0.0
 11
-0.31435
 21
0.820179
 31
0.0
  0
LINE
  8
1
  6
CONTINUOUS
 62
   250
 10
-0.2
 20
0.982063
 30
0.0
 11
-0.2
 21
0.914798
 31
0.0
  0
LINE
  8
1
  6
CONTINUOUS
 62
   250
 10
-0.29148
 20
0.982063
 30
0.0
 11
-0.29148
 21
0.820179
 31
0.0
  0
LINE
  8
1
  6
CONTINUOUS
 62
   250
 10
-0.210762
 20
0.982063
 30
0.0
 11
-0.210762
 21
0.959641
 31
0.0
  0
CIRCLE
  8
1
  6
CONTINUOUS
 62
   250
 10
-0.251121
 20
0.959641
 30
0.0
 40
0.017577
  0
CIRCLE
  8
1
  6
CONTINUOUS
 62
   250
 10
-0.251121
 20
0.959641
 30
0.0
 40
0.028251
  0
INSERT
  8
1
 62
   250
  2
STRIP2
 10
-0.259557
 20
0.883408
 30
0.0
 41
0.179372
 42
0.179372
  0
LINE
  8
1
  6
CONTINUOUS
 62
   250
 10
-0.259557
 20
0.847534
 30
0.0
 11
-0.223682
 21
0.847534
 31
0.0
  0
INSERT
  8
1
 62
   250
  2
STRIP2
 10
-0.259557
 20
0.865471
 30
0.0
 41
0.179372
 42
0.179372
  0
LINE
  8
1
  6
CONTINUOUS
 62
   250
 10
-0.2
 20
0.914798
 30
0.0
 11
-0.267265
 21
0.914798
 31
0.0
  0
LINE
  8
1
  6
CONTINUOUS
 62
   250
 10
-0.233632
 20
0.835874
 30
0.0
 11
-0.278475
 21
0.835874
 31
0.0
  0
ARC
  8
1
  6
CONTINUOUS
 62
   250
 10
-0.251121
 20
0.959641
 30
0.0
 40
0.040359
 50
269.998901
 51
359.999756
  0
LINE
  8
1
  6
CONTINUOUS
 62
   250
 10
-0.27713
 20
0.919282
 30
0.0
 11
-0.27713
 21
0.835874
 31
0.0
  0
LINE
  8
1
  6
CONTINUOUS
 62
   250
 10
-0.267265
 20
0.835874
 30
0.0
 11
-0.267265
 21
0.914798
 31
0.0
  0
LINE
  8
1
  6
CONTINUOUS
 62
   250
 10
-0.251121
 20
0.919282
 30
0.0
 11
-0.27713
 21
0.919282
 31
0.0
  0
TEXT
  8
1
  6
CONTINUOUS
 62
   250
 10
-0.219198
 20
0.852018
 30
0.0
 40
0.0113
  1
L
 41
1.111111
  7
SIMPLEX
  0
TEXT
  8
1
  6
CONTINUOUS
 62
   250
 10
-0.219198
 20
0.869955
 30
0.0
 40
0.0113
  1
R
 41
1.111111
  7
SIMPLEX
  0
ARC
  8
1
  6
CONTINUOUS
 62
   250
 10
-0.273544
 20
0.982064
 30
0.0
 40
0.017936
 50
89.99762
 51
180.002472
  0
LINE
  8
1
  6
CONTINUOUS
 62
   250
 10
-0.020628
 20
0.569507
 30
0.0
 11
-0.020628
 21
0.856502
 31
0.0
  0
TEXT
  8
1
  6
CONTINUOUS
 62
   250
 10
-0.154982
 20
0.630959
 30
0.0
 40
0.009417
  1
HISEL 2
 41
1.233333
  7
SIMPLEX
  0
TEXT
  8
1
  6
CONTINUOUS
 62
   250
 10
-0.154982
 20
0.648897
 30
0.0
 40
0.009417
  1
HISEL 1
 41
1.233333
  7
SIMPLEX
  0
TEXT
  8
1
  6
CONTINUOUS
 62
   250
 10
-0.154982
 20
0.720645
 30
0.0
 40
0.009417
  1
SENSOR 4
 41
1.233333
  7
SIMPLEX
  0
TEXT
  8
1
  6
CONTINUOUS
 62
   250
 10
-0.154982
 20
0.738583
 30
0.0
 40
0.009417
  1
SENSOR 3
 41
1.233333
  7
SIMPLEX
  0
TEXT
  8
1
  6
CONTINUOUS
 62
   250
 10
-0.154982
 20
0.75652
 30
0.0
 40
0.009417
  1
SENSOR 2
 41
1.233333
  7
SIMPLEX
  0
TEXT
  8
1
  6
CONTINUOUS
 62
   250
 10
-0.154982
 20
0.774457
 30
0.0
 40
0.009417
  1
SENSOR 1
 41
1.233333
  7
SIMPLEX
  0
TEXT
  8
1
  6
CONTINUOUS
 62
   250
 10
-0.154982
 20
0.792394
 30
0.0
 40
0.009417
  1
EXTERNAL
 41
1.233333
  7
SIMPLEX
  0
TEXT
  8
1
  6
CONTINUOUS
 62
   250
 10
-0.154982
 20
0.613022
 30
0.0
 40
0.009417
  1
LOSEL 1
 41
1.233333
  7
SIMPLEX
  0
TEXT
  8
1
  6
CONTINUOUS
 62
   250
 10
-0.154982
 20
0.595085
 30
0.0
 40
0.009417
  1
LOSEL 2
 41
1.233333
  7
SIMPLEX
  0
TEXT
  8
1
  6
CONTINUOUS
 62
   250
 10
-0.154982
 20
0.684771
 30
0.0
 40
0.009417
  1
CONTROL 2
 41
1.133333
  7
SIMPLEX
  0
TEXT
  8
1
  6
CONTINUOUS
 62
   250
 10
-0.154982
 20
0.702708
 30
0.0
 40
0.009417
  1
CONTROL 1
 41
1.133333
  7
SIMPLEX
  0
TEXT
  8
1
  6
CONTINUOUS
 62
   250
 10
-0.154982
 20
0.666834
 30
0.0
 40
0.009417
  1
CONTROL 3
 41
1.133333
  7
SIMPLEX
  0
TEXT
  8
1
  6
CONTINUOUS
 62
   250
 10
-0.137044
 20
0.577148
 30
0.0
 40
0.009417
  1
OFF
 41
1.233333
  7
SIMPLEX
  0
INSERT
  8
1
 62
   250
  2
STRIP2
 10
-0.060987
 20
0.663677
 30
0.0
 41
0.179372
 42
0.179372
  0
LINE
  8
1
  6
CONTINUOUS
 62
   250
 10
-0.060987
 20
0.573991
 30
0.0
 11
-0.025112
 21
0.573991
 31
0.0
  0
INSERT
  8
1
 62
   250
  2
STRIP2
 10
-0.060987
 20
0.591928
 30
0.0
 41
0.179372
 42
0.179372
  0
INSERT
  8
1
 62
   250
  2
STRIP2
 10
-0.060987
 20
0.64574
 30
0.0
 41
0.179372
 42
0.179372
  0
INSERT
  8
1
 62
   250
  2
STRIP2
 10
-0.060987
 20
0.627803
 30
0.0
 41
0.179372
 42
0.179372
  0
INSERT
  8
1
 62
   250
  2
STRIP2
 10
-0.060987
 20
0.609865
 30
0.0
 41
0.179372
 42
0.179372
  0
INSERT
  8
1
 62
   250
  2
STRIP2
 10
-0.060987
 20
0.807175
 30
0.0
 41
0.179372
 42
0.179372
  0
INSERT
  8
1
 62
   250
  2
STRIP2
 10
-0.060987
 20
0.789238
 30
0.0
 41
0.179372
 42
0.179372
  0
INSERT
  8
1
 62
   250
  2
STRIP2
 10
-0.060987
 20
0.7713
 30
0.0
 41
0.179372
 42
0.179372
  0
INSERT
  8
1
 62
   250
  2
STRIP2
 10
-0.060987
 20
0.753363
 30
0.0
 41
0.179372
 42
0.179372
  0
INSERT
  8
1
 62
   250
  2
STRIP2
 10
-0.060987
 20
0.735426
 30
0.0
 41
0.179372
 42
0.179372
  0
INSERT
  8
1
 62
   250
  2
STRIP2
 10
-0.060987
 20
0.699552
 30
0.0
 41
0.179372
 42
0.179372
  0
INSERT
  8
1
 62
   250
  2
STRIP2
 10
-0.060987
 20
0.681614
 30
0.0
 41
0.179372
 42
0.179372
  0
INSERT
  8
1
 62
   250
  2
STRIP2
 10
-0.060987
 20
0.717489
 30
0.0
 41
0.179372
 42
0.179372
  0
TEXT
  8
1
  6
CONTINUOUS
 62
   250
 10
-0.098356
 20
0.946188
 30
0.0
 40
0.0113
  1
8
 41
1.111111
  7
SIMPLEX
  0
CIRCLE
  8
1
  6
CONTINUOUS
 62
   250
 10
-0.092377
 20
0.932735
 30
0.0
 40
0.008968
  0
LINE
  8
1
  6
CONTINUOUS
 62
   250
 10
-0.098718
 20
0.939077
 30
0.0
 11
-0.086035
 21
0.926394
 31
0.0
  0
TEXT
  8
1
  6
CONTINUOUS
 62
   250
 10
-0.176582
 20
0.834081
 30
0.0
 40
0.0113
  1
INPUT SELECT
 41
1.011111
  7
SIMPLEX
  0
TEXT
  8
1
  6
CONTINUOUS
 62
   250
 10
-0.10583
 20
0.919282
 30
0.0
 40
0.008072
  1
OUT 2
 50
270.0
 41
1.233333
  7
SIMPLEX
  0
LINE
  8
1
  6
CONTINUOUS
 62
   250
 10
-0.110314
 20
0.964127
 30
0.0
 11
-0.110314
 21
0.865471
 31
0.0
  0
TEXT
  8
1
  6
CONTINUOUS
 62
   250
 10
-0.064513
 20
0.816144
 30
0.0
 40
0.0113
  1
CH2
 41
1.011111
  7
SIMPLEX
 72
     2
 11
-0.031869
 21
0.816144
 31
0.0
  0
TEXT
  8
1
  6
CONTINUOUS
 62
   250
 10
-0.069955
 20
0.919282
 30
0.0
 40
0.008072
  1
IN 2
 50
270.0
 41
1.233333
  7
SIMPLEX
  0
TEXT
  8
1
  6
CONTINUOUS
 62
   250
 10
-0.092377
 20
0.919282
 30
0.0
 40
0.008072
  1
LOOP
 50
270.0
 41
1.233333
  7
SIMPLEX
  0
TEXT
  8
1
  6
CONTINUOUS
 62
   250
 10
-0.056502
 20
0.919282
 30
0.0
 40
0.008072
  1
LOOP
 50
270.0
 41
1.233333
  7
SIMPLEX
  0
CIRCLE
  8
1
  6
CONTINUOUS
 62
   250
 10
-0.056502
 20
0.932735
 30
0.0
 40
0.008969
  0
LINE
  8
1
  6
CONTINUOUS
 62
   250
 10
-0.056502
 20
0.923767
 30
0.0
 11
-0.056502
 21
0.941704
 31
0.0
  0
TEXT
  8
1
  6
CONTINUOUS
 62
   250
 10
-0.062481
 20
0.946188
 30
0.0
 40
0.0113
  1
7
 41
1.111111
  7
SIMPLEX
  0
TEXT
  8
1
  6
CONTINUOUS
 62
   250
 10
-0.034081
 20
0.919282
 30
0.0
 40
0.008072
  1
OUT 1
 50
270.0
 41
1.233333
  7
SIMPLEX
  0
TEXT
  8
1
  6
CONTINUOUS
 62
   250
 10
-0.020628
 20
0.919282
 30
0.0
 40
0.008072
  1
LOOP
 50
270.0
 41
1.233333
  7
SIMPLEX
  0
TEXT
  8
1
  6
CONTINUOUS
 62
   250
 10
-0.026906
 20
0.946188
 30
0.0
 40
0.0113
  1
6
 41
1.111111
  7
SIMPLEX
  0
CIRCLE
  8
1
  6
CONTINUOUS
 62
   250
 10
-0.020628
 20
0.932735
 30
0.0
 40
0.008969
  0
LINE
  8
1
  6
CONTINUOUS
 62
   250
 10
-0.011659
 20
0.932735
 30
0.0
 11
-0.029596
 21
0.932735
 31
0.0
  0
LINE
  8
1
  6
CONTINUOUS
 62
   250
 10
0.180814
 20
0.605381
 30
0.0
 11
0.180814
 21
0.497758
 31
0.0
  0
LINE
  8
1
  6
CONTINUOUS
 62
   250
 10
0.29148
 20
0.616144
 30
0.0
 11
0.29148
 21
0.017937
 31
0.0
  0
LINE
  8
1
  6
CONTINUOUS
 62
   250
 10
0.27713
 20
0.566816
 30
0.0
 11
0.27713
 21
0.080717
 31
0.0
  0
LINE
  8
1
  6
CONTINUOUS
 62
   250
 10
0.270852
 20
0.566816
 30
0.0
 11
0.270852
 21
0.085202
 31
0.0
  0
ARC
  8
1
  6
CONTINUOUS
 62
   250
 10
0.251121
 20
0.040359
 30
0.0
 40
0.040359
 50
90.000259
 51
180.001114
  0
LINE
  8
1
  6
CONTINUOUS
 62
   250
 10
0.055605
 20
0.040359
 30
0.0
 11
0.176682
 21
0.040359
 31
0.0
  0
TEXT
  8
1
  6
CONTINUOUS
 62
   250
 10
0.09148
 20
0.085202
 30
0.0
 40
0.009417
  1
LOOP OUT
 50
90.0
 41
1.233333
  7
SIMPLEX
  0
TEXT
  8
1
  6
CONTINUOUS
 62
   250
 10
0.073543
 20
0.085202
 30
0.0
 40
0.009417
  1
LOSEL
 50
90.0
 41
1.233333
  7
SIMPLEX
  0
LINE
  8
1
  6
CONTINUOUS
 62
   250
 10
0.055605
 20
0.040359
 30
0.0
 11
0.055605
 21
0.139013
 31
0.0
  0
CIRCLE
  8
1
  6
CONTINUOUS
 62
   250
 10
0.078027
 20
0.071749
 30
0.0
 40
0.008969
  0
LINE
  8
1
  6
CONTINUOUS
 62
   250
 10
0.086996
 20
0.071749
 30
0.0
 11
0.069058
 21
0.071749
 31
0.0
  0
TEXT
  8
1
  6
CONTINUOUS
 62
   250
 10
0.071749
 20
0.044843
 30
0.0
 40
0.0113
  1
C
 41
1.111111
  7
SIMPLEX
  0
LINE
  8
1
  6
CONTINUOUS
 62
   250
 10
0.055605
 20
0.139013
 30
0.0
 11
0.064574
 21
0.139013
 31
0.0
  0
LINE
  8
1
  6
CONTINUOUS
 62
   250
 10
0.136323
 20
0.139013
 30
0.0
 11
0.176682
 21
0.139013
 31
0.0
  0
LINE
  8
1
  6
CONTINUOUS
 62
   250
 10
0.152403
 20
0.065407
 30
0.0
 11
0.165086
 21
0.078091
 31
0.0
  0
CIRCLE
  8
1
  6
CONTINUOUS
 62
   250
 10
0.158744
 20
0.071749
 30
0.0
 40
0.008969
  0
TEXT
  8
1
  6
CONTINUOUS
 62
   250
 10
0.113901
 20
0.085202
 30
0.0
 40
0.009417
  1
HISEL
 50
90.0
 41
1.233333
  7
SIMPLEX
  0
TEXT
  8
1
  6
CONTINUOUS
 62
   250
 10
0.131839
 20
0.085202
 30
0.0
 40
0.009417
  1
LOOP OUT
 50
90.0
 41
1.233333
  7
SIMPLEX
  0
CIRCLE
  8
1
  6
CONTINUOUS
 62
   250
 10
0.118386
 20
0.071749
 30
0.0
 40
0.008968
  0
TEXT
  8
1
  6
CONTINUOUS
 62
   250
 10
0.111809
 20
0.044843
 30
0.0
 40
0.0113
  1
B
 41
1.111111
  7
SIMPLEX
  0
LINE
  8
1
  6
CONTINUOUS
 62
   250
 10
0.127354
 20
0.071749
 30
0.0
 11
0.109417
 21
0.071749
 31
0.0
  0
TEXT
  8
1
  6
CONTINUOUS
 62
   250
 10
0.163229
 20
0.085202
 30
0.0
 40
0.009417
  1
GND
 50
90.0
 41
1.233333
  7
SIMPLEX
  0
LINE
  8
1
  6
CONTINUOUS
 62
   250
 10
0.176682
 20
0.139013
 30
0.0
 11
0.176682
 21
0.040359
 31
0.0
  0
TEXT
  8
1
  6
CONTINUOUS
 62
   250
 10
0.153363
 20
0.044843
 30
0.0
 40
0.0113
  1
A
 41
1.111111
  7
SIMPLEX
  0
LINE
  8
1
  6
CONTINUOUS
 62
   250
 10
0.203587
 20
0.085202
 30
0.0
 11
0.203587
 21
0.017937
 31
0.0
  0
LINE
  8
1
  6
CONTINUOUS
 62
   250
 10
0.210762
 20
0.017937
 30
0.0
 11
0.210762
 21
0.040359
 31
0.0
  0
CIRCLE
  8
1
  6
CONTINUOUS
 62
   250
 10
0.251121
 20
0.040359
 30
0.0
 40
0.017578
  0
CIRCLE
  8
1
  6
CONTINUOUS
 62
   250
 10
0.251121
 20
0.040359
 30
0.0
 40
0.028252
  0
ARC
  8
1
  6
CONTINUOUS
 62
   250
 10
0.273542
 20
0.017938
 30
0.0
 40
0.017938
 50
270.002747
 51
359.997253
  0
LINE
  8
1
  6
CONTINUOUS
 62
   250
 10
0.203587
 20
0.085202
 30
0.0
 11
0.270852
 21
0.085202
 31
0.0
  0
LINE
  8
1
  6
CONTINUOUS
 62
   250
 10
0.251121
 20
0.080717
 30
0.0
 11
0.27713
 21
0.080717
 31
0.0
  0
TEXT
  8
1
  6
CONTINUOUS
 62
   250
 10
0.17954
 20
0.852018
 30
0.0
 40
0.012556
  1
J2B
 41
0.9
  7
SIMPLEX
 72
     2
 11
0.208598
 21
0.852018
 31
0.0
  0
TEXT
  8
1
  6
CONTINUOUS
 62
   250
 10
0.181914
 20
0.869955
 30
0.0
 40
0.012556
  1
J2A
 41
0.9
  7
SIMPLEX
 72
     2
 11
0.210434
 21
0.869955
 31
0.0
  0
ARC
  8
1
  6
CONTINUOUS
 62
   250
 10
0.251121
 20
0.959641
 30
0.0
 40
0.040359
 50
180.000259
 51
270.001099
  0
LINE
  8
1
  6
CONTINUOUS
 62
   250
 10
0.155521
 20
0.605381
 30
0.0
 11
0.155521
 21
0.856502
 31
0.0
  0
TEXT
  8
1
  6
CONTINUOUS
 62
   250
 10
0.094699
 20
0.67713
 30
0.0
 40
0.0113
  1
LOSEL
 41
1.011111
  7
SIMPLEX
 72
     2
 11
0.145842
 21
0.67713
 31
0.0
  0
TEXT
  8
1
  6
CONTINUOUS
 62
   250
 10
0.030605
 20
0.587444
 30
0.0
 40
0.0113
  1
TIMER MODE
 41
1.011111
  7
SIMPLEX
  0
TEXT
  8
1
  6
CONTINUOUS
 62
   250
 10
0.046637
 20
0.523336
 30
0.0
 40
0.009417
  1
UNOCC=LO
 41
1.133333
  7
SIMPLEX
  0
TEXT
  8
1
  6
CONTINUOUS
 62
   250
 10
0.0287
 20
0.72513
 30
0.0
 40
0.009417
  1
SENSOR 4
 41
1.133333
  7
SIMPLEX
  0
TEXT
  8
1
  6
CONTINUOUS
 62
   250
 10
0.0287
 20
0.743067
 30
0.0
 40
0.009417
  1
SENSOR 3
 41
1.133333
  7
SIMPLEX
  0
TEXT
  8
1
  6
CONTINUOUS
 62
   250
 10
0.0287
 20
0.761003
 30
0.0
 40
0.009417
  1
SENSOR 2
 41
1.133333
  7
SIMPLEX
  0
TEXT
  8
1
  6
CONTINUOUS
 62
   250
 10
0.0287
 20
0.778941
 30
0.0
 40
0.009417
  1
SENSOR 1
 41
1.133333
  7
SIMPLEX
  0
TEXT
  8
1
  6
CONTINUOUS
 62
   250
 10
0.046637
 20
0.541273
 30
0.0
 40
0.009417
  1
UNOCC=HI
 41
1.233333
  7
SIMPLEX
  0
TEXT
  8
1
  6
CONTINUOUS
 62
   250
 10
0.051121
 20
0.653381
 30
0.0
 40
0.009417
  1
CH1
 41
1.233333
  7
SIMPLEX
  0
TEXT
  8
1
  6
CONTINUOUS
 62
   250
 10
0.051121
 20
0.635444
 30
0.0
 40
0.009417
  1
CH2
 41
1.233333
  7
SIMPLEX
  0
TEXT
  8
1
  6
CONTINUOUS
 62
   250
 10
0.051121
 20
0.617507
 30
0.0
 40
0.009417
  1
OFF
 41
1.233333
  7
SIMPLEX
  0
TEXT
  8
1
  6
CONTINUOUS
 62
   250
 10
0.064574
 20
0.505399
 30
0.0
 40
0.009417
  1
OFF
 41
1.233333
  7
SIMPLEX
  0
TEXT
  8
1
  6
CONTINUOUS
 62
   250
 10
0.0287
 20
0.707193
 30
0.0
 40
0.009417
  1
OFF
 41
1.233333
  7
SIMPLEX
  0
INSERT
  8
1
 62
   250
  2
STRIP2
 10
0.115162
 20
0.668161
 30
0.0
 41
0.179372
 42
0.179372
  0
TEXT
  8
1
  6
CONTINUOUS
 62
   250
 10
0.119817
 20
0.565022
 30
0.0
 40
0.0113
  1
LOSEL
 41
1.011111
  7
SIMPLEX
 72
     2
 11
0.17096
 21
0.565022
 31
0.0
  0
INSERT
  8
1
 62
   250
  2
STRIP2
 10
0.140456
 20
0.556054
 30
0.0
 41
0.179372
 42
0.179372
  0
INSERT
  8
1
 62
   250
  2
STRIP2
 10
0.140456
 20
0.538117
 30
0.0
 41
0.179372
 42
0.179372
  0
INSERT
  8
1
 62
   250
  2
STRIP2
 10
0.140456
 20
0.520179
 30
0.0
 41
0.179372
 42
0.179372
  0
LINE
  8
1
  6
CONTINUOUS
 62
   250
 10
0.140456
 20
0.502242
 30
0.0
 11
0.17633
 21
0.502242
 31
0.0
  0
LINE
  8
1
  6
CONTINUOUS
 62
   250
 10
0.115162
 20
0.61435
 30
0.0
 11
0.151036
 21
0.61435
 31
0.0
  0
INSERT
  8
1
 62
   250
  2
STRIP2
 10
0.115162
 20
0.650224
 30
0.0
 41
0.179372
 42
0.179372
  0
INSERT
  8
1
 62
   250
  2
STRIP2
 10
0.115162
 20
0.632287
 30
0.0
 41
0.179372
 42
0.179372
  0
INSERT
  8
1
 62
   250
  2
STRIP2
 10
0.115162
 20
0.73991
 30
0.0
 41
0.179372
 42
0.179372
  0
INSERT
  8
1
 62
   250
  2
STRIP2
 10
0.115162
 20
0.721973
 30
0.0
 41
0.179372
 42
0.179372
  0
LINE
  8
1
  6
CONTINUOUS
 62
   250
 10
0.115162
 20
0.704036
 30
0.0
 11
0.151036
 21
0.704036
 31
0.0
  0
TEXT
  8
1
  6
CONTINUOUS
 62
   250
 10
0.111637
 20
0.798206
 30
0.0
 40
0.0113
  1
CH2
 41
1.011111
  7
SIMPLEX
 72
     2
 11
0.144281
 21
0.798206
 31
0.0
  0
INSERT
  8
1
 62
   250
  2
STRIP2
 10
0.115162
 20
0.793722
 30
0.0
 41
0.179372
 42
0.179372
  0
INSERT
  8
1
 62
   250
  2
STRIP2
 10
0.115162
 20
0.775785
 30
0.0
 41
0.179372
 42
0.179372
  0
INSERT
  8
1
 62
   250
  2
STRIP2
 10
0.115162
 20
0.757848
 30
0.0
 41
0.179372
 42
0.179372
  0
TEXT
  8
1
  6
CONTINUOUS
 62
   250
 10
0.046637
 20
0.919282
 30
0.0
 40
0.009417
  1
+P
 50
270.0
 41
1.233333
  7
SIMPLEX
  0
TEXT
  8
1
  6
CONTINUOUS
 62
   250
 10
0.03418
 20
0.820628
 30
0.0
 40
0.0113
  1
SELECT
 41
1.011111
  7
SIMPLEX
  0
TEXT
  8
1
  6
CONTINUOUS
 62
   250
 10
0.044843
 20
0.946188
 30
0.0
 40
0.0113
  1
4
 41
1.111111
  7
SIMPLEX
  0
CIRCLE
  8
1
  6
CONTINUOUS
 62
   250
 10
0.051121
 20
0.932735
 30
0.0
 40
0.008969
  0
TEXT
  8
1
  6
CONTINUOUS
 62
   250
 10
0.015247
 20
0.919282
 30
0.0
 40
0.008072
  1
LOOP
 50
270.0
 41
1.233333
  7
SIMPLEX
  0
CIRCLE
  8
1
  6
CONTINUOUS
 62
   250
 10
0.015247
 20
0.932735
 30
0.0
 40
0.008968
  0
LINE
  8
1
  6
CONTINUOUS
 62
   250
 10
0.008905
 20
0.939077
 30
0.0
 11
0.021588
 21
0.926394
 31
0.0
  0
TEXT
  8
1
  6
CONTINUOUS
 62
   250
 10
0.009268
 20
0.946188
 30
0.0
 40
0.0113
  1
5
 41
1.111111
  7
SIMPLEX
  0
LINE
  8
1
  6
CONTINUOUS
 62
   250
 10
0.051121
 20
0.923767
 30
0.0
 11
0.051121
 21
0.941704
 31
0.0
  0
TEXT
  8
1
  6
CONTINUOUS
 62
   250
 10
0.082511
 20
0.919282
 30
0.0
 40
0.009417
  1
GND
 50
270.0
 41
1.233333
  7
SIMPLEX
  0
LINE
  8
1
  6
CONTINUOUS
 62
   250
 10
0.095964
 20
0.932735
 30
0.0
 11
0.078027
 21
0.932735
 31
0.0
  0
CIRCLE
  8
1
  6
CONTINUOUS
 62
   250
 10
0.086996
 20
0.932735
 30
0.0
 40
0.008969
  0
TEXT
  8
1
  6
CONTINUOUS
 62
   250
 10
0.081016
 20
0.946188
 30
0.0
 40
0.0113
  1
3
 41
1.111111
  7
SIMPLEX
  0
CIRCLE
  8
1
  6
CONTINUOUS
 62
   250
 10
0.158744
 20
0.932735
 30
0.0
 40
0.008969
  0
TEXT
  8
1
  6
CONTINUOUS
 62
   250
 10
0.118386
 20
0.919282
 30
0.0
 40
0.009417
  1
TIMER
 50
270.0
 41
1.233333
  7
SIMPLEX
  0
LINE
  8
1
  6
CONTINUOUS
 62
   250
 10
0.116528
 20
0.939077
 30
0.0
 11
0.129212
 21
0.926394
 31
0.0
  0
CIRCLE
  8
1
  6
CONTINUOUS
 62
   250
 10
0.12287
 20
0.932735
 30
0.0
 40
0.008968
  0
TEXT
  8
1
  6
CONTINUOUS
 62
   250
 10
0.116891
 20
0.946188
 30
0.0
 40
0.0113
  1
2
 41
1.111111
  7
SIMPLEX
  0
TEXT
  8
1
  6
CONTINUOUS
 62
   250
 10
0.15426
 20
0.919282
 30
0.0
 40
0.009417
  1
+24V
 50
270.0
 41
1.233333
  7
SIMPLEX
  0
LINE
  8
1
  6
CONTINUOUS
 62
   250
 10
0.176682
 20
0.865471
 30
0.0
 11
0.176682
 21
0.964127
 31
0.0
  0
LINE
  8
1
  6
CONTINUOUS
 62
   250
 10
0.158744
 20
0.923767
 30
0.0
 11
0.158744
 21
0.941704
 31
0.0
  0
TEXT
  8
1
  6
CONTINUOUS
 62
   250
 10
0.153662
 20
0.946188
 30
0.0
 40
0.0113
  1
1
 41
1.111111
  7
SIMPLEX
  0
CIRCLE
  8
1
  6
CONTINUOUS
 62
   250
 10
0.250673
 20
0.820179
 30
0.0
 40
0.00852
  0
LINE
  8
1
  6
CONTINUOUS
 62
   250
 10
0.282063
 20
0.835874
 30
0.0
 11
0.282063
 21
0.566816
 31
0.0
  0
LINE
  8
1
  6
CONTINUOUS
 62
   250
 10
0.214798
 20
0.835874
 30
0.0
 11
0.214798
 21
0.786547
 31
0.0
  0
LINE
  8
1
  6
CONTINUOUS
 62
   250
 10
0.29148
 20
0.982063
 30
0.0
 11
0.29148
 21
0.786547
 31
0.0
  0
LINE
  8
1
  6
CONTINUOUS
 62
   250
 10
0.282063
 20
0.616144
 30
0.0
 11
0.322422
 21
0.616144
 31
0.0
  0
LINE
  8
1
  6
CONTINUOUS
 62
   250
 10
0.322422
 20
0.786547
 30
0.0
 11
0.282063
 21
0.786547
 31
0.0
  0
TEXT
  8
1
  6
CONTINUOUS
 62
   250
 10
0.252915
 20
0.780269
 30
0.0
 40
0.008072
  1
Female DIN Connector
 50
270.0
 41
1.011111
  7
SIMPLEX
  0
LINE
  8
1
  6
CONTINUOUS
 62
   250
 10
0.241704
 20
0.616144
 30
0.0
 11
0.241704
 21
0.786547
 31
0.0
  0
CIRCLE
  8
1
  6
CONTINUOUS
 62
   250
 10
0.250673
 20
0.582511
 30
0.0
 40
0.00852
  0
LINE
  8
1
  6
CONTINUOUS
 62
   250
 10
0.282063
 20
0.566816
 30
0.0
 11
0.214798
 21
0.566816
 31
0.0
  0
LINE
  8
1
  6
CONTINUOUS
 62
   250
 10
0.214798
 20
0.566816
 30
0.0
 11
0.214798
 21
0.616144
 31
0.0
  0
LINE
  8
1
  6
CONTINUOUS
 62
   250
 10
0.214798
 20
0.616144
 30
0.0
 11
0.241704
 21
0.616144
 31
0.0
  0
LINE
  8
1
  6
CONTINUOUS
 62
   250
 10
0.29148
 20
0.58296
 30
0.0
 11
0.282063
 21
0.58296
 31
0.0
  0
LINE
  8
1
  6
CONTINUOUS
 62
   250
 10
0.214798
 20
0.786547
 30
0.0
 11
0.241704
 21
0.786547
 31
0.0
  0
LINE
  8
1
  6
CONTINUOUS
 62
   250
 10
0.322422
 20
0.616144
 30
0.0
 11
0.322422
 21
0.786547
 31
0.0
  0
LINE
  8
1
  6
CONTINUOUS
 62
   250
 10
0.203587
 20
0.982063
 30
0.0
 11
0.203587
 21
0.919282
 31
0.0
  0
LINE
  8
1
  6
CONTINUOUS
 62
   250
 10
0.203587
 20
0.982063
 30
0.0
 11
0.203587
 21
0.914798
 31
0.0
  0
LINE
  8
1
  6
CONTINUOUS
 62
   250
 10
0.210762
 20
0.959641
 30
0.0
 11
0.210762
 21
0.982063
 31
0.0
  0
CIRCLE
  8
1
  6
CONTINUOUS
 62
   250
 10
0.251121
 20
0.959641
 30
0.0
 40
0.017578
  0
CIRCLE
  8
1
  6
CONTINUOUS
 62
   250
 10
0.251121
 20
0.959641
 30
0.0
 40
0.028252
  0
LINE
  8
1
  6
CONTINUOUS
 62
   250
 10
0.270852
 20
0.914798
 30
0.0
 11
0.203587
 21
0.914798
 31
0.0
  0
LINE
  8
1
  6
CONTINUOUS
 62
   250
 10
0.282063
 20
0.835874
 30
0.0
 11
0.214798
 21
0.835874
 31
0.0
  0
LINE
  8
1
  6
CONTINUOUS
 62
   250
 10
0.27713
 20
0.919282
 30
0.0
 11
0.251121
 21
0.919282
 31
0.0
  0
INSERT
  8
1
 62
   250
  2
STRIP2
 10
0.21704
 20
0.883408
 30
0.0
 41
0.179372
 42
0.179372
  0
LINE
  8
1
  6
CONTINUOUS
 62
   250
 10
0.21704
 20
0.847534
 30
0.0
 11
0.252915
 21
0.847534
 31
0.0
  0
INSERT
  8
1
 62
   250
  2
STRIP2
 10
0.21704
 20
0.865471
 30
0.0
 41
0.179372
 42
0.179372
  0
LINE
  8
1
  6
CONTINUOUS
 62
   250
 10
0.208072
 20
0.914798
 30
0.0
 11
0.203587
 21
0.914798
 31
0.0
  0
LINE
  8
1
  6
CONTINUOUS
 62
   250
 10
0.270852
 20
0.914798
 30
0.0
 11
0.270852
 21
0.835874
 31
0.0
  0
LINE
  8
1
  6
CONTINUOUS
 62
   250
 10
0.27713
 20
0.919282
 30
0.0
 11
0.27713
 21
0.835874
 31
0.0
  0
LINE
  8
1
  6
CONTINUOUS
 62
   250
 10
0.29148
 20
0.816144
 30
0.0
 11
0.287892
 21
0.816144
 31
0.0
  0
LINE
  8
1
  6
CONTINUOUS
 62
   250
 10
0.29148
 20
0.816144
 30
0.0
 11
0.282063
 21
0.816144
 31
0.0
  0
ARC
  8
1
  6
CONTINUOUS
 62
   250
 10
0.273544
 20
0.982064
 30
0.0
 40
0.017936
 50
359.997528
 51
90.00238
  0
ENDSEC
  0
EOF
