  0
SECTION
  2
HEADER
  9
$ACADVER
  1
AC1009
  9
$INSBASE
 10
0.0
 20
0.0
 30
0.0
  9
$EXTMIN
 10
-0.314349
 20
0.0
 30
0.0
  9
$EXTMAX
 10
0.322421
 20
0.999999
 30
0.0
  9
$LIMMIN
 10
16.237236
 20
14.290391
  9
$LIMMAX
 10
16.874008
 20
15.29039
  9
$ORTHOMODE
 70
     1
  9
$REGENMODE
 70
     1
  9
$FILLMODE
 70
     1
  9
$QTEXTMODE
 70
     0
  9
$MIRRTEXT
 70
     1
  9
$DRAGMODE
 70
     2
  9
$LTSCALE
 40
1.0
  9
$OSMODE
 70
     0
  9
$ATTMODE
 70
     2
  9
$TEXTSIZE
 40
1.0
  9
$TRACEWID
 40
0.05
  9
$TEXTSTYLE
  7
STANDARD
  9
$CLAYER
  8
0
  9
$CELTYPE
  6
BYLAYER
  9
$CECOLOR
 62
   256
  9
$DIMSCALE
 40
1.0
  9
$DIMASZ
 40
1.0
  9
$DIMEXO
 40
0.5
  9
$DIMDLI
 40
0.38
  9
$DIMRND
 40
0.0
  9
$DIMDLE
 40
0.0
  9
$DIMEXE
 40
0.5
  9
$DIMTP
 40
0.0
  9
$DIMTM
 40
0.0
  9
$DIMTXT
 40
0.18
  9
$DIMCEN
 40
0.09
  9
$DIMTSZ
 40
0.0
  9
$DIMTOL
 70
     0
  9
$DIMLIM
 70
     0
  9
$DIMTIH
 70
     1
  9
$DIMTOH
 70
     1
  9
$DIMSE1
 70
     0
  9
$DIMSE2
 70
     0
  9
$DIMTAD
 70
     0
  9
$DIMZIN
 70
     0
  9
$DIMBLK
  1

  9
$DIMASO
 70
     1
  9
$DIMSHO
 70
     1
  9
$DIMPOST
  1
"
  9
$DIMAPOST
  1

  9
$DIMALT
 70
     0
  9
$DIMALTD
 70
     2
  9
$DIMALTF
 40
25.4
  9
$DIMLFAC
 40
1.0
  9
$DIMTOFL
 70
     0
  9
$DIMTVP
 40
0.0
  9
$DIMTIX
 70
     0
  9
$DIMSOXD
 70
     0
  9
$DIMSAH
 70
     0
  9
$DIMBLK1
  1

  9
$DIMBLK2
  1

  9
$DIMSTYLE
  2
*UNNAMED
  9
$DIMCLRD
 70
     0
  9
$DIMCLRE
 70
     0
  9
$DIMCLRT
 70
     0
  9
$DIMTFAC
 40
1.0
  9
$DIMGAP
 40
0.09
  9
$LUNITS
 70
     2
  9
$LUPREC
 70
     3
  9
$SKETCHINC
 40
0.1
  9
$FILLETRAD
 40
0.0
  9
$AUNITS
 70
     0
  9
$AUPREC
 70
     3
  9
$MENU
  1
acad
  9
$ELEVATION
 40
0.0
  9
$PELEVATION
 40
0.0
  9
$THICKNESS
 40
0.0
  9
$LIMCHECK
 70
     0
  9
$BLIPMODE
 70
     0
  9
$CHAMFERA
 40
0.5
  9
$CHAMFERB
 40
0.5
  9
$SKPOLY
 70
     0
  9
$TDCREATE
 40
2450085.567685416
  9
$TDUPDATE
 40
2450085.567685416
  9
$TDINDWG
 40
0.0000000000
  9
$TDUSRTIMER
 40
0.0000000000
  9
$USRTIMER
 70
     1
  9
$ANGBASE
 50
0.0
  9
$ANGDIR
 70
     0
  9
$PDMODE
 70
     2
  9
$PDSIZE
 40
0.0
  9
$PLINEWID
 40
0.0
  9
$COORDS
 70
     1
  9
$SPLFRAME
 70
     0
  9
$SPLINETYPE
 70
     6
  9
$SPLINESEGS
 70
     8
  9
$ATTDIA
 70
     0
  9
$ATTREQ
 70
     1
  9
$HANDLING
 70
     0
  9
$HANDSEED
  5
0
  9
$SURFTAB1
 70
     6
  9
$SURFTAB2
 70
     6
  9
$SURFTYPE
 70
     6
  9
$SURFU
 70
     6
  9
$SURFV
 70
     6
  9
$UCSNAME
  2

  9
$UCSORG
 10
0.0
 20
0.0
 30
0.0
  9
$UCSXDIR
 10
1.0
 20
0.0
 30
0.0
  9
$UCSYDIR
 10
0.0
 20
1.0
 30
0.0
  9
$PUCSNAME
  2

  9
$PUCSORG
 10
0.0
 20
0.0
 30
0.0
  9
$PUCSXDIR
 10
1.0
 20
0.0
 30
0.0
  9
$PUCSYDIR
 10
0.0
 20
1.0
 30
0.0
  9
$USERI1
 70
     0
  9
$USERI2
 70
     0
  9
$USERI3
 70
     0
  9
$USERI4
 70
     0
  9
$USERI5
 70
     0
  9
$USERR1
 40
0.0
  9
$USERR2
 40
0.0
  9
$USERR3
 40
0.0
  9
$USERR4
 40
0.0
  9
$USERR5
 40
0.0
  9
$WORLDVIEW
 70
     1
  9
$SHADEDGE
 70
     3
  9
$SHADEDIF
 70
    70
  9
$TILEMODE
 70
     1
  9
$MAXACTVP
 70
    16
  9
$PINSBASE
 10
-0.21948
 20
50.0
 30
-0.477755
  9
$PLIMCHECK
 70
     0
  9
$PEXTMIN
 10
1.000000E+20
 20
1.000000E+20
 30
1.000000E+20
  9
$PEXTMAX
 10
-1.000000E+20
 20
-1.000000E+20
 30
-1.000000E+20
  9
$PLIMMIN
 10
0.0
 20
0.0
  9
$PLIMMAX
 10
12.0
 20
9.0
  9
$UNITMODE
 70
     0
  9
$VISRETAIN
 70
     0
  9
$PLINEGEN
 70
     0
  9
$PSLTSCALE
 70
     1
  9
$TREEDEPTH
 70
  3020
  9
$DWGCODEPAGE
  3
ascii
  0
ENDSEC
  0
SECTION
  2
TABLES
  0
TABLE
  2
VPORT
 70
     1
  0
VPORT
  2
*ACTIVE
 70
     0
 10
0.0
 20
0.0
 11
1.0
 21
1.0
 12
10.295242
 22
7.643337
 13
0.0
 23
0.0
 14
1.0
 24
1.0
 15
1.0
 25
1.0
 16
0.0
 26
0.0
 36
1.0
 17
0.0
 27
0.0
 37
0.0
 40
15.294105
 41
1.387409
 42
50.0
 43
0.0
 44
0.0
 50
0.0
 51
0.0
 71
     0
 72
   100
 73
     1
 74
     1
 75
     0
 76
     0
 77
     0
 78
     0
  0
ENDTAB
  0
TABLE
  2
LTYPE
 70
     1
  0
LTYPE
  2
CONTINUOUS
 70
    64
  3
SOLID LINE
 72
    65
 73
     0
 40
0.0
  0
ENDTAB
  0
TABLE
  2
LAYER
 70
     2
  0
LAYER
  2
0
 70
    64
 62
     2
  6
CONTINUOUS
  0
LAYER
  2
1
 70
    64
 62
     4
  6
CONTINUOUS
  0
ENDTAB
  0
TABLE
  2
STYLE
 70
     2
  0
STYLE
  2
STANDARD
 70
     0
 40
0.0
 41
1.0
 50
0.0
 71
     0
 42
0.2
  3
txt
  4

  0
STYLE
  2
SIMPLEX
 70
    64
 40
0.0
 41
1.0
 50
0.0
 71
     0
 42
1.0
  3
ROMANS.SHX
  4

  0
ENDTAB
  0
TABLE
  2
VIEW
 70
     0
  0
ENDTAB
  0
TABLE
  2
UCS
 70
     0
  0
ENDTAB
  0
TABLE
  2
APPID
 70
     1
  0
APPID
  2
ACAD
 70
    64
  0
ENDTAB
  0
TABLE
  2
DIMSTYLE
 70
     0
  0
ENDTAB
  0
ENDSEC
  0
SECTION
  2
BLOCKS
  0
BLOCK
  8
0
  2
STRIP2
 70
    64
 10
0.0
 20
0.0
 30
0.0
  3
STRIP2
  0
LINE
  8
1
  6
CONTINUOUS
 62
   250
 10
0.2
 20
0.0
 30
0.0
 11
0.0
 21
0.0
 31
0.0
  0
CIRCLE
  8
1
  6
CONTINUOUS
 62
   250
 10
0.05
 20
-0.05
 30
0.0
 40
0.01
  0
LINE
  8
1
  6
CONTINUOUS
 62
   250
 10
0.0
 20
0.0
 30
0.0
 11
0.0
 21
-0.1
 31
0.0
  0
CIRCLE
  8
1
  6
CONTINUOUS
 62
   250
 10
0.15
 20
-0.05
 30
0.0
 40
0.01
  0
LINE
  8
1
  6
CONTINUOUS
 62
   250
 10
0.2
 20
-0.1
 30
0.0
 11
0.2
 21
0.0
 31
0.0
  0
ENDBLK
  8
0
  0
ENDSEC
  0
SECTION
  2
ENTITIES
  0
LINE
  8
1
  6
CONTINUOUS
 62
   250
 10
-0.083407
 20
0.565022
 30
0.0
 11
0.095754
 21
0.565022
 31
0.0
  0
LINE
  8
1
  6
CONTINUOUS
 62
   250
 10
-0.2
 20
0.856501
 30
0.0
 11
0.055396
 21
0.856501
 31
0.0
  0
LINE
  8
1
  6
CONTINUOUS
 62
   250
 10
-0.2
 20
0.811658
 30
0.0
 11
0.055396
 21
0.811658
 31
0.0
  0
LINE
  8
1
  6
CONTINUOUS
 62
   250
 10
-0.2
 20
0.569506
 30
0.0
 11
0.055396
 21
0.569506
 31
0.0
  0
LINE
  8
1
  6
CONTINUOUS
 62
   250
 10
0.001794
 20
0.340806
 30
0.0
 11
0.160285
 21
0.340806
 31
0.0
  0
LINE
  8
1
  6
CONTINUOUS
 62
   250
 10
0.001794
 20
0.426008
 30
0.0
 11
0.160285
 21
0.426008
 31
0.0
  0
LINE
  8
1
  6
CONTINUOUS
 62
   250
 10
0.001794
 20
0.403586
 30
0.0
 11
0.160285
 21
0.403586
 31
0.0
  0
LINE
  8
1
  6
CONTINUOUS
 62
   250
 10
-0.083407
 20
0.529147
 30
0.0
 11
0.160285
 21
0.529147
 31
0.0
  0
LINE
  8
1
  6
CONTINUOUS
 62
   250
 10
-0.083407
 20
0.430492
 30
0.0
 11
0.160285
 21
0.430492
 31
0.0
  0
TEXT
  8
1
  6
CONTINUOUS
 62
   250
 10
-0.080485
 20
0.548976
 30
0.0
 40
0.008072
  1
SENSOR OUTPUT SELECT
 41
1.133333
  7
SIMPLEX
  0
TEXT
  8
1
  6
CONTINUOUS
 62
   250
 10
-0.043049
 20
0.666833
 30
0.0
 40
0.009417
  1
CONTROL 3
 41
1.133333
  7
SIMPLEX
  0
TEXT
  8
1
  6
CONTINUOUS
 62
   250
 10
-0.043049
 20
0.702707
 30
0.0
 40
0.009417
  1
CONTROL 1
 41
1.133333
  7
SIMPLEX
  0
TEXT
  8
1
  6
CONTINUOUS
 62
   250
 10
-0.043049
 20
0.68477
 30
0.0
 40
0.009417
  1
CONTROL 2
 41
1.133333
  7
SIMPLEX
  0
LINE
  8
1
  6
CONTINUOUS
 62
   250
 10
0.273542
 20
0.999999
 30
0.0
 11
-0.273542
 21
0.999999
 31
0.0
  0
LINE
  8
1
  6
CONTINUOUS
 62
   250
 10
0.210762
 20
0.982061
 30
0.0
 11
-0.210762
 21
0.982061
 31
0.0
  0
LINE
  8
1
  6
CONTINUOUS
 62
   250
 10
0.273542
 20
0.0
 30
0.0
 11
-0.273542
 21
0.0
 31
0.0
  0
LINE
  8
1
  6
CONTINUOUS
 62
   250
 10
-0.210762
 20
0.017937
 30
0.0
 11
0.210762
 21
0.017937
 31
0.0
  0
TEXT
  8
1
  6
CONTINUOUS
 62
   250
 10
-0.025112
 20
0.577147
 30
0.0
 40
0.009417
  1
OFF
 41
1.233333
  7
SIMPLEX
  0
TEXT
  8
1
  6
CONTINUOUS
 62
   250
 10
-0.043049
 20
0.595084
 30
0.0
 40
0.009417
  1
LOSEL 2
 41
1.233333
  7
SIMPLEX
  0
TEXT
  8
1
  6
CONTINUOUS
 62
   250
 10
-0.043049
 20
0.613021
 30
0.0
 40
0.009417
  1
LOSEL 1
 41
1.233333
  7
SIMPLEX
  0
TEXT
  8
1
  6
CONTINUOUS
 62
   250
 10
-0.043049
 20
0.792393
 30
0.0
 40
0.009417
  1
EXTERNAL
 41
1.233333
  7
SIMPLEX
  0
TEXT
  8
1
  6
CONTINUOUS
 62
   250
 10
-0.043049
 20
0.774456
 30
0.0
 40
0.009417
  1
SENSOR 1
 41
1.233333
  7
SIMPLEX
  0
TEXT
  8
1
  6
CONTINUOUS
 62
   250
 10
-0.043049
 20
0.756519
 30
0.0
 40
0.009417
  1
SENSOR 2
 41
1.233333
  7
SIMPLEX
  0
TEXT
  8
1
  6
CONTINUOUS
 62
   250
 10
-0.043049
 20
0.738582
 30
0.0
 40
0.009417
  1
SENSOR 3
 41
1.233333
  7
SIMPLEX
  0
TEXT
  8
1
  6
CONTINUOUS
 62
   250
 10
-0.043049
 20
0.720644
 30
0.0
 40
0.009417
  1
SENSOR 4
 41
1.233333
  7
SIMPLEX
  0
TEXT
  8
1
  6
CONTINUOUS
 62
   250
 10
-0.043049
 20
0.648896
 30
0.0
 40
0.009417
  1
HISEL 1
 41
1.233333
  7
SIMPLEX
  0
TEXT
  8
1
  6
CONTINUOUS
 62
   250
 10
-0.043049
 20
0.630958
 30
0.0
 40
0.009417
  1
HISEL 2
 41
1.233333
  7
SIMPLEX
  0
TEXT
  8
1
  6
CONTINUOUS
 62
   250
 10
-0.007895
 20
0.533631
 30
0.0
 40
0.008072
  1
CH2
 41
1.233333
  7
SIMPLEX
 72
     2
 11
0.020549
 21
0.533631
 31
0.0
  0
TEXT
  8
1
  6
CONTINUOUS
 62
   250
 10
0.001794
 20
0.919281
 30
0.0
 40
0.008072
  1
IN1
 50
270.0
 41
1.233333
  7
SIMPLEX
  0
INSERT
  8
1
 62
   250
  2
STRIP2
 10
-0.025112
 20
0.452914
 30
0.0
 41
0.179372
 42
0.179372
  0
LINE
  8
1
  6
CONTINUOUS
 62
   250
 10
-0.025112
 20
0.434978
 30
0.0
 11
0.010762
 21
0.434978
 31
0.0
  0
INSERT
  8
1
 62
   250
  2
STRIP2
 10
-0.025112
 20
0.470851
 30
0.0
 41
0.179372
 42
0.179372
  0
INSERT
  8
1
 62
   250
  2
STRIP2
 10
-0.025112
 20
0.488788
 30
0.0
 41
0.179372
 42
0.179372
  0
INSERT
  8
1
 62
   250
  2
STRIP2
 10
-0.025112
 20
0.506725
 30
0.0
 41
0.179372
 42
0.179372
  0
INSERT
  8
1
 62
   250
  2
STRIP2
 10
-0.025112
 20
0.524663
 30
0.0
 41
0.179372
 42
0.179372
  0
LINE
  8
1
  6
CONTINUOUS
 62
   250
 10
-0.182063
 20
0.86547
 30
0.0
 11
0.176682
 21
0.86547
 31
0.0
  0
LINE
  8
1
  6
CONTINUOUS
 62
   250
 10
-0.182063
 20
0.964125
 30
0.0
 11
0.176682
 21
0.964125
 31
0.0
  0
INSERT
  8
1
 62
   250
  2
STRIP2
 10
-0.194656
 20
0.506725
 30
0.0
 41
0.179372
 42
0.179372
  0
TEXT
  8
1
  6
CONTINUOUS
 62
   250
 10
-0.154298
 20
0.491945
 30
0.0
 40
0.009417
  1
HISEL2
 41
1.233333
  7
SIMPLEX
  0
LINE
  8
1
  6
CONTINUOUS
 62
   250
 10
-0.267264
 20
0.085201
 30
0.0
 11
-0.267264
 21
0.566815
 31
0.0
  0
LINE
  8
1
  6
CONTINUOUS
 62
   250
 10
-0.291479
 20
0.58251
 30
0.0
 11
-0.291479
 21
0.017937
 31
0.0
  0
LINE
  8
1
  6
CONTINUOUS
 62
   250
 10
-0.27713
 20
0.566815
 30
0.0
 11
-0.27713
 21
0.080717
 31
0.0
  0
LINE
  8
1
  6
CONTINUOUS
 62
   250
 10
-0.083407
 20
0.430492
 30
0.0
 11
-0.083407
 21
0.565022
 31
0.0
  0
LINE
  8
1
  6
CONTINUOUS
 62
   250
 10
-0.222422
 20
0.430492
 30
0.0
 11
-0.222422
 21
0.560537
 31
0.0
  0
INSERT
  8
1
 62
   250
  2
STRIP2
 10
-0.078924
 20
0.506725
 30
0.0
 41
0.179372
 42
0.179372
  0
LINE
  8
1
  6
CONTINUOUS
 62
   250
 10
-0.087892
 20
0.430492
 30
0.0
 11
-0.087892
 21
0.560537
 31
0.0
  0
LINE
  8
1
  6
CONTINUOUS
 62
   250
 10
-0.222422
 20
0.430492
 30
0.0
 11
-0.087892
 21
0.430492
 31
0.0
  0
LINE
  8
1
  6
CONTINUOUS
 62
   250
 10
-0.2
 20
0.085201
 30
0.0
 11
-0.2
 21
0.017937
 31
0.0
  0
LINE
  8
1
  6
CONTINUOUS
 62
   250
 10
-0.210762
 20
0.040359
 30
0.0
 11
-0.210762
 21
0.017937
 31
0.0
  0
CIRCLE
  8
1
  6
CONTINUOUS
 62
   250
 10
-0.251121
 20
0.040359
 30
0.0
 40
0.017578
  0
CIRCLE
  8
1
  6
CONTINUOUS
 62
   250
 10
-0.251121
 20
0.040359
 30
0.0
 40
0.028251
  0
ARC
  8
1
  6
CONTINUOUS
 62
   250
 10
-0.273543
 20
0.017936
 30
0.0
 40
0.017936
 50
179.994492
 51
270.002472
  0
LINE
  8
1
  6
CONTINUOUS
 62
   250
 10
-0.267264
 20
0.085201
 30
0.0
 11
-0.2
 21
0.085201
 31
0.0
  0
ARC
  8
1
  6
CONTINUOUS
 62
   250
 10
-0.251121
 20
0.040358
 30
0.0
 40
0.040359
 50
0.000227
 51
89.999741
  0
LINE
  8
1
  6
CONTINUOUS
 62
   250
 10
-0.27713
 20
0.080717
 30
0.0
 11
-0.251121
 21
0.080717
 31
0.0
  0
LINE
  8
1
  6
CONTINUOUS
 62
   250
 10
-0.170403
 20
0.0
 30
0.0
 11
-0.170403
 21
0.017937
 31
0.0
  0
TEXT
  8
1
  6
CONTINUOUS
 62
   250
 10
-0.154298
 20
0.438133
 30
0.0
 40
0.009417
  1
LOSEL2
 41
1.233333
  7
SIMPLEX
  0
TEXT
  8
1
  6
CONTINUOUS
 62
   250
 10
-0.154298
 20
0.474009
 30
0.0
 40
0.009417
  1
OFF
 41
1.233333
  7
SIMPLEX
  0
TEXT
  8
1
  6
CONTINUOUS
 62
   250
 10
-0.154298
 20
0.456071
 30
0.0
 40
0.009417
  1
LOSEL1
 41
1.233333
  7
SIMPLEX
  0
INSERT
  8
1
 62
   250
  2
STRIP2
 10
-0.194656
 20
0.452914
 30
0.0
 41
0.179372
 42
0.179372
  0
LINE
  8
1
  6
CONTINUOUS
 62
   250
 10
-0.194656
 20
0.434978
 30
0.0
 11
-0.158782
 21
0.434978
 31
0.0
  0
INSERT
  8
1
 62
   250
  2
STRIP2
 10
-0.194656
 20
0.488788
 30
0.0
 41
0.179372
 42
0.179372
  0
INSERT
  8
1
 62
   250
  2
STRIP2
 10
-0.194656
 20
0.470851
 30
0.0
 41
0.179372
 42
0.179372
  0
LINE
  8
1
  6
CONTINUOUS
 62
   250
 10
0.001794
 20
0.426008
 30
0.0
 11
0.001794
 21
0.340806
 31
0.0
  0
INSERT
  8
1
 62
   250
  2
STRIP2
 10
-0.078924
 20
0.452914
 30
0.0
 41
0.179372
 42
0.179372
  0
INSERT
  8
1
 62
   250
  2
STRIP2
 10
-0.078924
 20
0.470851
 30
0.0
 41
0.179372
 42
0.179372
  0
INSERT
  8
1
 62
   250
  2
STRIP2
 10
-0.078924
 20
0.488788
 30
0.0
 41
0.179372
 42
0.179372
  0
LINE
  8
1
  6
CONTINUOUS
 62
   250
 10
-0.078924
 20
0.434978
 30
0.0
 11
-0.043049
 21
0.434978
 31
0.0
  0
TEXT
  8
1
  6
CONTINUOUS
 62
   250
 10
-0.219986
 20
0.538116
 30
0.0
 40
0.008072
  1
BUS OUTPUT SELECT
  7
SIMPLEX
  0
LINE
  8
1
  6
CONTINUOUS
 62
   250
 10
-0.222422
 20
0.529147
 30
0.0
 11
-0.087892
 21
0.529147
 31
0.0
  0
LINE
  8
1
  6
CONTINUOUS
 62
   250
 10
-0.222422
 20
0.560537
 30
0.0
 11
-0.087892
 21
0.560537
 31
0.0
  0
TEXT
  8
1
  6
CONTINUOUS
 62
   250
 10
-0.199004
 20
0.816143
 30
0.0
 40
0.0113
  1
CH1
 41
1.011111
  7
SIMPLEX
  0
INSERT
  8
1
 62
   250
  2
STRIP2
 10
-0.195516
 20
0.717488
 30
0.0
 41
0.179372
 42
0.179372
  0
LINE
  8
1
  6
CONTINUOUS
 62
   250
 10
-0.195516
 20
0.591927
 30
0.0
 11
-0.159641
 21
0.591927
 31
0.0
  0
INSERT
  8
1
 62
   250
  2
STRIP2
 10
-0.195516
 20
0.609864
 30
0.0
 41
0.179372
 42
0.179372
  0
INSERT
  8
1
 62
   250
  2
STRIP2
 10
-0.195516
 20
0.627802
 30
0.0
 41
0.179372
 42
0.179372
  0
INSERT
  8
1
 62
   250
  2
STRIP2
 10
-0.195516
 20
0.645739
 30
0.0
 41
0.179372
 42
0.179372
  0
INSERT
  8
1
 62
   250
  2
STRIP2
 10
-0.195516
 20
0.663676
 30
0.0
 41
0.179372
 42
0.179372
  0
INSERT
  8
1
 62
   250
  2
STRIP2
 10
-0.195516
 20
0.681613
 30
0.0
 41
0.179372
 42
0.179372
  0
INSERT
  8
1
 62
   250
  2
STRIP2
 10
-0.195516
 20
0.699551
 30
0.0
 41
0.179372
 42
0.179372
  0
INSERT
  8
1
 62
   250
  2
STRIP2
 10
-0.195516
 20
0.735425
 30
0.0
 41
0.179372
 42
0.179372
  0
INSERT
  8
1
 62
   250
  2
STRIP2
 10
-0.195516
 20
0.753362
 30
0.0
 41
0.179372
 42
0.179372
  0
INSERT
  8
1
 62
   250
  2
STRIP2
 10
-0.195516
 20
0.771299
 30
0.0
 41
0.179372
 42
0.179372
  0
INSERT
  8
1
 62
   250
  2
STRIP2
 10
-0.195516
 20
0.789237
 30
0.0
 41
0.179372
 42
0.179372
  0
INSERT
  8
1
 62
   250
  2
STRIP2
 10
-0.195516
 20
0.807174
 30
0.0
 41
0.179372
 42
0.179372
  0
LINE
  8
1
  6
CONTINUOUS
 62
   250
 10
-0.278475
 20
0.835874
 30
0.0
 11
-0.278475
 21
0.566815
 31
0.0
  0
LINE
  8
1
  6
CONTINUOUS
 62
   250
 10
-0.233632
 20
0.835874
 30
0.0
 11
-0.233632
 21
0.802241
 31
0.0
  0
LINE
  8
1
  6
CONTINUOUS
 62
   250
 10
-0.314349
 20
0.820178
 30
0.0
 11
-0.314349
 21
0.58251
 31
0.0
  0
CIRCLE
  8
1
  6
CONTINUOUS
 62
   250
 10
-0.247085
 20
0.820178
 30
0.0
 40
0.00852
  0
LINE
  8
1
  6
CONTINUOUS
 62
   250
 10
-0.2
 20
0.569506
 30
0.0
 11
-0.2
 21
0.856501
 31
0.0
  0
LINE
  8
1
  6
CONTINUOUS
 62
   250
 10
-0.314349
 20
0.58251
 30
0.0
 11
-0.278475
 21
0.58251
 31
0.0
  0
TEXT
  8
1
  6
CONTINUOUS
 62
   250
 10
-0.256876
 20
0.772262
 30
0.0
 40
0.008072
  1
Male DIN Connector
 50
270.0
 41
1.011111
  7
SIMPLEX
  0
LINE
  8
1
  6
CONTINUOUS
 62
   250
 10
-0.240358
 20
0.802241
 30
0.0
 11
-0.240358
 21
0.600448
 31
0.0
  0
LINE
  8
1
  6
CONTINUOUS
 62
   250
 10
-0.278475
 20
0.566815
 30
0.0
 11
-0.234304
 21
0.566815
 31
0.0
  0
CIRCLE
  8
1
  6
CONTINUOUS
 62
   250
 10
-0.247085
 20
0.58251
 30
0.0
 40
0.00852
  0
LINE
  8
1
  6
CONTINUOUS
 62
   250
 10
-0.233632
 20
0.566815
 30
0.0
 11
-0.233632
 21
0.600448
 31
0.0
  0
LINE
  8
1
  6
CONTINUOUS
 62
   250
 10
-0.233632
 20
0.600448
 30
0.0
 11
-0.240358
 21
0.600448
 31
0.0
  0
LINE
  8
1
  6
CONTINUOUS
 62
   250
 10
-0.233632
 20
0.802241
 30
0.0
 11
-0.240358
 21
0.802241
 31
0.0
  0
LINE
  8
1
  6
CONTINUOUS
 62
   250
 10
-0.278475
 20
0.820178
 30
0.0
 11
-0.314349
 21
0.820178
 31
0.0
  0
LINE
  8
1
  6
CONTINUOUS
 62
   250
 10
-0.2
 20
0.982061
 30
0.0
 11
-0.2
 21
0.914797
 31
0.0
  0
LINE
  8
1
  6
CONTINUOUS
 62
   250
 10
-0.291479
 20
0.982061
 30
0.0
 11
-0.291479
 21
0.820178
 31
0.0
  0
LINE
  8
1
  6
CONTINUOUS
 62
   250
 10
-0.210762
 20
0.982061
 30
0.0
 11
-0.210762
 21
0.959641
 31
0.0
  0
CIRCLE
  8
1
  6
CONTINUOUS
 62
   250
 10
-0.251121
 20
0.959641
 30
0.0
 40
0.017578
  0
CIRCLE
  8
1
  6
CONTINUOUS
 62
   250
 10
-0.251121
 20
0.959641
 30
0.0
 40
0.028251
  0
LINE
  8
1
  6
CONTINUOUS
 62
   250
 10
-0.2
 20
0.914797
 30
0.0
 11
-0.267264
 21
0.914797
 31
0.0
  0
LINE
  8
1
  6
CONTINUOUS
 62
   250
 10
-0.233632
 20
0.835874
 30
0.0
 11
-0.278475
 21
0.835874
 31
0.0
  0
ARC
  8
1
  6
CONTINUOUS
 62
   250
 10
-0.251121
 20
0.95964
 30
0.0
 40
0.040359
 50
270.000214
 51
0.0011
  0
INSERT
  8
1
 62
   250
  2
STRIP2
 10
-0.253812
 20
0.892376
 30
0.0
 41
0.179372
 42
0.179372
  0
INSERT
  8
1
 62
   250
  2
STRIP2
 10
-0.253812
 20
0.874438
 30
0.0
 41
0.179372
 42
0.179372
  0
LINE
  8
1
  6
CONTINUOUS
 62
   250
 10
-0.253812
 20
0.856501
 30
0.0
 11
-0.217937
 21
0.856501
 31
0.0
  0
LINE
  8
1
  6
CONTINUOUS
 62
   250
 10
-0.27713
 20
0.919281
 30
0.0
 11
-0.27713
 21
0.835874
 31
0.0
  0
LINE
  8
1
  6
CONTINUOUS
 62
   250
 10
-0.267264
 20
0.835874
 30
0.0
 11
-0.267264
 21
0.914797
 31
0.0
  0
LINE
  8
1
  6
CONTINUOUS
 62
   250
 10
-0.251121
 20
0.919281
 30
0.0
 11
-0.27713
 21
0.919281
 31
0.0
  0
TEXT
  8
1
  6
CONTINUOUS
 62
   250
 10
-0.213452
 20
0.878923
 30
0.0
 40
0.0113
  1
R
 41
1.111111
  7
SIMPLEX
  0
TEXT
  8
1
  6
CONTINUOUS
 62
   250
 10
-0.213452
 20
0.860986
 30
0.0
 40
0.0113
  1
L
 41
1.111111
  7
SIMPLEX
  0
ARC
  8
1
  6
CONTINUOUS
 62
   250
 10
-0.273543
 20
0.982063
 30
0.0
 40
0.017936
 50
89.99752
 51
180.005325
  0
INSERT
  8
1
 62
   250
  2
STRIP2
 10
-0.141704
 20
0.663676
 30
0.0
 41
0.179372
 42
0.179372
  0
TEXT
  8
1
  6
CONTINUOUS
 62
   250
 10
-0.154298
 20
0.509882
 30
0.0
 40
0.009417
  1
HISEL1
 41
1.233333
  7
SIMPLEX
  0
INSERT
  8
1
 62
   250
  2
STRIP2
 10
-0.194656
 20
0.524663
 30
0.0
 41
0.179372
 42
0.179372
  0
INSERT
  8
1
 62
   250
  2
STRIP2
 10
-0.141704
 20
0.645739
 30
0.0
 41
0.179372
 42
0.179372
  0
INSERT
  8
1
 62
   250
  2
STRIP2
 10
-0.141704
 20
0.627802
 30
0.0
 41
0.179372
 42
0.179372
  0
INSERT
  8
1
 62
   250
  2
STRIP2
 10
-0.141704
 20
0.609864
 30
0.0
 41
0.179372
 42
0.179372
  0
LINE
  8
1
  6
CONTINUOUS
 62
   250
 10
-0.141704
 20
0.591927
 30
0.0
 11
-0.10583
 21
0.591927
 31
0.0
  0
INSERT
  8
1
 62
   250
  2
STRIP2
 10
-0.141704
 20
0.753362
 30
0.0
 41
0.179372
 42
0.179372
  0
INSERT
  8
1
 62
   250
  2
STRIP2
 10
-0.141704
 20
0.699551
 30
0.0
 41
0.179372
 42
0.179372
  0
INSERT
  8
1
 62
   250
  2
STRIP2
 10
-0.141704
 20
0.681613
 30
0.0
 41
0.179372
 42
0.179372
  0
INSERT
  8
1
 62
   250
  2
STRIP2
 10
-0.141704
 20
0.717488
 30
0.0
 41
0.179372
 42
0.179372
  0
INSERT
  8
1
 62
   250
  2
STRIP2
 10
-0.141704
 20
0.735425
 30
0.0
 41
0.179372
 42
0.179372
  0
INSERT
  8
1
 62
   250
  2
STRIP2
 10
-0.141704
 20
0.807174
 30
0.0
 41
0.179372
 42
0.179372
  0
INSERT
  8
1
 62
   250
  2
STRIP2
 10
-0.141704
 20
0.789237
 30
0.0
 41
0.179372
 42
0.179372
  0
INSERT
  8
1
 62
   250
  2
STRIP2
 10
-0.141704
 20
0.771299
 30
0.0
 41
0.179372
 42
0.179372
  0
INSERT
  8
1
 62
   250
  2
STRIP2
 10
-0.087892
 20
0.663676
 30
0.0
 41
0.179372
 42
0.179372
  0
INSERT
  8
1
 62
   250
  2
STRIP2
 10
-0.078924
 20
0.524663
 30
0.0
 41
0.179372
 42
0.179372
  0
INSERT
  8
1
 62
   250
  2
STRIP2
 10
-0.087892
 20
0.591927
 30
0.0
 41
0.179372
 42
0.179372
  0
TEXT
  8
1
  6
CONTINUOUS
 62
   250
 10
-0.073442
 20
0.533631
 30
0.0
 40
0.008072
  1
CH1
 41
1.233333
  7
SIMPLEX
  0
LINE
  8
1
  6
CONTINUOUS
 62
   250
 10
-0.087892
 20
0.57399
 30
0.0
 11
-0.052018
 21
0.57399
 31
0.0
  0
INSERT
  8
1
 62
   250
  2
STRIP2
 10
-0.087892
 20
0.645739
 30
0.0
 41
0.179372
 42
0.179372
  0
INSERT
  8
1
 62
   250
  2
STRIP2
 10
-0.087892
 20
0.627802
 30
0.0
 41
0.179372
 42
0.179372
  0
INSERT
  8
1
 62
   250
  2
STRIP2
 10
-0.087892
 20
0.609864
 30
0.0
 41
0.179372
 42
0.179372
  0
INSERT
  8
1
 62
   250
  2
STRIP2
 10
-0.087892
 20
0.753362
 30
0.0
 41
0.179372
 42
0.179372
  0
INSERT
  8
1
 62
   250
  2
STRIP2
 10
-0.087892
 20
0.699551
 30
0.0
 41
0.179372
 42
0.179372
  0
INSERT
  8
1
 62
   250
  2
STRIP2
 10
-0.087892
 20
0.681613
 30
0.0
 41
0.179372
 42
0.179372
  0
INSERT
  8
1
 62
   250
  2
STRIP2
 10
-0.087892
 20
0.717488
 30
0.0
 41
0.179372
 42
0.179372
  0
INSERT
  8
1
 62
   250
  2
STRIP2
 10
-0.087892
 20
0.735425
 30
0.0
 41
0.179372
 42
0.179372
  0
INSERT
  8
1
 62
   250
  2
STRIP2
 10
-0.087892
 20
0.807174
 30
0.0
 41
0.179372
 42
0.179372
  0
INSERT
  8
1
 62
   250
  2
STRIP2
 10
-0.087892
 20
0.789237
 30
0.0
 41
0.179372
 42
0.179372
  0
INSERT
  8
1
 62
   250
  2
STRIP2
 10
-0.087892
 20
0.771299
 30
0.0
 41
0.179372
 42
0.179372
  0
TEXT
  8
1
  6
CONTINUOUS
 62
   250
 10
-0.133392
 20
0.83408
 30
0.0
 40
0.0113
  1
INPUT SELECT
 41
1.011111
  7
SIMPLEX
  0
TEXT
  8
1
  6
CONTINUOUS
 62
   250
 10
-0.098356
 20
0.946187
 30
0.0
 40
0.0113
  1
8
 41
1.111111
  7
SIMPLEX
  0
CIRCLE
  8
1
  6
CONTINUOUS
 62
   250
 10
-0.092377
 20
0.932734
 30
0.0
 40
0.008969
  0
LINE
  8
1
  6
CONTINUOUS
 62
   250
 10
-0.098718
 20
0.939076
 30
0.0
 11
-0.086035
 21
0.926394
 31
0.0
  0
TEXT
  8
1
  6
CONTINUOUS
 62
   250
 10
-0.164125
 20
0.919281
 30
0.0
 40
0.008072
  1
LOOP
 50
270.0
 41
1.233333
  7
SIMPLEX
  0
TEXT
  8
1
  6
CONTINUOUS
 62
   250
 10
-0.177578
 20
0.919281
 30
0.0
 40
0.008072
  1
OUT 3
 50
270.0
 41
1.233333
  7
SIMPLEX
  0
LINE
  8
1
  6
CONTINUOUS
 62
   250
 10
-0.182063
 20
0.964125
 30
0.0
 11
-0.182063
 21
0.86547
 31
0.0
  0
LINE
  8
1
  6
CONTINUOUS
 62
   250
 10
-0.170466
 20
0.939076
 30
0.0
 11
-0.157784
 21
0.926394
 31
0.0
  0
CIRCLE
  8
1
  6
CONTINUOUS
 62
   250
 10
-0.164125
 20
0.932734
 30
0.0
 40
0.008968
  0
TEXT
  8
1
  6
CONTINUOUS
 62
   250
 10
-0.183343
 20
0.946187
 30
0.0
 40
0.0113
  1
10
 41
1.011111
  7
SIMPLEX
 72
     1
 11
-0.171645
 21
0.946187
 31
0.0
  0
TEXT
  8
1
  6
CONTINUOUS
 62
   250
 10
-0.141704
 20
0.919281
 30
0.0
 40
0.008072
  1
IN 3
 50
270.0
 41
1.233333
  7
SIMPLEX
  0
TEXT
  8
1
  6
CONTINUOUS
 62
   250
 10
-0.128251
 20
0.919281
 30
0.0
 40
0.008072
  1
LOOP
 50
270.0
 41
1.233333
  7
SIMPLEX
  0
TEXT
  8
1
  6
CONTINUOUS
 62
   250
 10
-0.10583
 20
0.919281
 30
0.0
 40
0.008072
  1
OUT 2
 50
270.0
 41
1.233333
  7
SIMPLEX
  0
TEXT
  8
1
  6
CONTINUOUS
 62
   250
 10
-0.145229
 20
0.816143
 30
0.0
 40
0.0113
  1
CH2
 41
1.011111
  7
SIMPLEX
 72
     2
 11
-0.112585
 21
0.816143
 31
0.0
  0
CIRCLE
  8
1
  6
CONTINUOUS
 62
   250
 10
-0.128251
 20
0.932734
 30
0.0
 40
0.008969
  0
LINE
  8
1
  6
CONTINUOUS
 62
   250
 10
-0.128251
 20
0.923766
 30
0.0
 11
-0.128251
 21
0.941703
 31
0.0
  0
TEXT
  8
1
  6
CONTINUOUS
 62
   250
 10
-0.133931
 20
0.946187
 30
0.0
 40
0.0113
  1
9
 41
1.111111
  7
SIMPLEX
  0
LINE
  8
1
  6
CONTINUOUS
 62
   250
 10
-0.165919
 20
0.982061
 30
0.0
 11
-0.165919
 21
0.999999
 31
0.0
  0
TEXT
  8
1
  6
CONTINUOUS
 62
   250
 10
-0.069955
 20
0.919281
 30
0.0
 40
0.008072
  1
IN 2
 50
270.0
 41
1.233333
  7
SIMPLEX
  0
TEXT
  8
1
  6
CONTINUOUS
 62
   250
 10
-0.092377
 20
0.919281
 30
0.0
 40
0.008072
  1
LOOP
 50
270.0
 41
1.233333
  7
SIMPLEX
  0
TEXT
  8
1
  6
CONTINUOUS
 62
   250
 10
-0.056501
 20
0.919281
 30
0.0
 40
0.008072
  1
LOOP
 50
270.0
 41
1.233333
  7
SIMPLEX
  0
TEXT
  8
1
  6
CONTINUOUS
 62
   250
 10
-0.09062
 20
0.816143
 30
0.0
 40
0.0113
  1
CH3
 41
1.011111
  7
SIMPLEX
 72
     2
 11
-0.057976
 21
0.816143
 31
0.0
  0
CIRCLE
  8
1
  6
CONTINUOUS
 62
   250
 10
-0.056501
 20
0.932734
 30
0.0
 40
0.008968
  0
LINE
  8
1
  6
CONTINUOUS
 62
   250
 10
-0.056501
 20
0.923766
 30
0.0
 11
-0.056501
 21
0.941703
 31
0.0
  0
TEXT
  8
1
  6
CONTINUOUS
 62
   250
 10
-0.062481
 20
0.946187
 30
0.0
 40
0.0113
  1
7
 41
1.111111
  7
SIMPLEX
  0
TEXT
  8
1
  6
CONTINUOUS
 62
   250
 10
-0.034081
 20
0.919281
 30
0.0
 40
0.008072
  1
OUT 1
 50
270.0
 41
1.233333
  7
SIMPLEX
  0
TEXT
  8
1
  6
CONTINUOUS
 62
   250
 10
-0.020628
 20
0.919281
 30
0.0
 40
0.008072
  1
LOOP
 50
270.0
 41
1.233333
  7
SIMPLEX
  0
TEXT
  8
1
  6
CONTINUOUS
 62
   250
 10
-0.026906
 20
0.946187
 30
0.0
 40
0.0113
  1
6
 41
1.111111
  7
SIMPLEX
  0
CIRCLE
  8
1
  6
CONTINUOUS
 62
   250
 10
-0.020628
 20
0.932734
 30
0.0
 40
0.008969
  0
LINE
  8
1
  6
CONTINUOUS
 62
   250
 10
-0.011659
 20
0.932734
 30
0.0
 11
-0.029595
 21
0.932734
 31
0.0
  0
LINE
  8
1
  6
CONTINUOUS
 62
   250
 10
0.160285
 20
0.430492
 30
0.0
 11
0.160285
 21
0.529147
 31
0.0
  0
TEXT
  8
1
  6
CONTINUOUS
 62
   250
 10
0.069058
 20
0.491945
 30
0.0
 40
0.009417
  1
SENSOR 2
 41
1.133333
  7
SIMPLEX
  0
LINE
  8
1
  6
CONTINUOUS
 62
   250
 10
0.291479
 20
0.616142
 30
0.0
 11
0.291479
 21
0.017937
 31
0.0
  0
LINE
  8
1
  6
CONTINUOUS
 62
   250
 10
0.27713
 20
0.566815
 30
0.0
 11
0.27713
 21
0.080717
 31
0.0
  0
LINE
  8
1
  6
CONTINUOUS
 62
   250
 10
0.270852
 20
0.566815
 30
0.0
 11
0.270852
 21
0.085201
 31
0.0
  0
INSERT
  8
1
 62
   250
  2
STRIP2
 10
0.0287
 20
0.506725
 30
0.0
 41
0.179372
 42
0.179372
  0
ARC
  8
1
  6
CONTINUOUS
 62
   250
 10
0.251121
 20
0.040358
 30
0.0
 40
0.040359
 50
90.000259
 51
179.999771
  0
LINE
  8
1
  6
CONTINUOUS
 62
   250
 10
0.09148
 20
0.040359
 30
0.0
 11
0.176682
 21
0.040359
 31
0.0
  0
LINE
  8
1
  6
CONTINUOUS
 62
   250
 10
0.09148
 20
0.040359
 30
0.0
 11
0.09148
 21
0.139012
 31
0.0
  0
LINE
  8
1
  6
CONTINUOUS
 62
   250
 10
0.09148
 20
0.139012
 30
0.0
 11
0.100449
 21
0.139012
 31
0.0
  0
LINE
  8
1
  6
CONTINUOUS
 62
   250
 10
0.170403
 20
0.0
 30
0.0
 11
0.170403
 21
0.017937
 31
0.0
  0
LINE
  8
1
  6
CONTINUOUS
 62
   250
 10
0.131839
 20
0.139012
 30
0.0
 11
0.176682
 21
0.139012
 31
0.0
  0
LINE
  8
1
  6
CONTINUOUS
 62
   250
 10
0.152403
 20
0.065406
 30
0.0
 11
0.165086
 21
0.07809
 31
0.0
  0
CIRCLE
  8
1
  6
CONTINUOUS
 62
   250
 10
0.158744
 20
0.071748
 30
0.0
 40
0.008969
  0
TEXT
  8
1
  6
CONTINUOUS
 62
   250
 10
0.12287
 20
0.085201
 30
0.0
 40
0.009417
  1
LOOP OUT
 50
90.0
 41
1.233333
  7
SIMPLEX
  0
CIRCLE
  8
1
  6
CONTINUOUS
 62
   250
 10
0.118386
 20
0.071748
 30
0.0
 40
0.008969
  0
TEXT
  8
1
  6
CONTINUOUS
 62
   250
 10
0.111809
 20
0.044842
 30
0.0
 40
0.0113
  1
B
 41
1.111111
  7
SIMPLEX
  0
LINE
  8
1
  6
CONTINUOUS
 62
   250
 10
0.127355
 20
0.071748
 30
0.0
 11
0.109417
 21
0.071748
 31
0.0
  0
TEXT
  8
1
  6
CONTINUOUS
 62
   250
 10
0.163229
 20
0.085201
 30
0.0
 40
0.009417
  1
GND
 50
90.0
 41
1.233333
  7
SIMPLEX
  0
LINE
  8
1
  6
CONTINUOUS
 62
   250
 10
0.176682
 20
0.139012
 30
0.0
 11
0.176682
 21
0.040359
 31
0.0
  0
TEXT
  8
1
  6
CONTINUOUS
 62
   250
 10
0.153363
 20
0.044842
 30
0.0
 40
0.0113
  1
A
 41
1.111111
  7
SIMPLEX
  0
TEXT
  8
1
  6
CONTINUOUS
 62
   250
 10
0.069058
 20
0.474009
 30
0.0
 40
0.009417
  1
SENSOR 3
 41
1.133333
  7
SIMPLEX
  0
TEXT
  8
1
  6
CONTINUOUS
 62
   250
 10
0.069058
 20
0.456071
 30
0.0
 40
0.009417
  1
SENSOR 4
 41
1.133333
  7
SIMPLEX
  0
TEXT
  8
1
  6
CONTINUOUS
 62
   250
 10
0.023595
 20
0.408072
 30
0.0
 40
0.0113
  1
TIMER MODE
 41
1.011111
  7
SIMPLEX
  0
TEXT
  8
1
  6
CONTINUOUS
 62
   250
 10
0.073544
 20
0.348447
 30
0.0
 40
0.009417
  1
OFF
 41
1.233333
  7
SIMPLEX
  0
TEXT
  8
1
  6
CONTINUOUS
 62
   250
 10
0.055605
 20
0.366385
 30
0.0
 40
0.009417
  1
UNOCC=LO
 41
1.233333
  7
SIMPLEX
  0
TEXT
  8
1
  6
CONTINUOUS
 62
   250
 10
0.055605
 20
0.384322
 30
0.0
 40
0.009417
  1
UNOCC=HI
 41
1.233333
  7
SIMPLEX
  0
INSERT
  8
1
 62
   250
  2
STRIP2
 10
0.0287
 20
0.488788
 30
0.0
 41
0.179372
 42
0.179372
  0
INSERT
  8
1
 62
   250
  2
STRIP2
 10
0.0287
 20
0.470851
 30
0.0
 41
0.179372
 42
0.179372
  0
LINE
  8
1
  6
CONTINUOUS
 62
   250
 10
0.0287
 20
0.434978
 30
0.0
 11
0.064574
 21
0.434978
 31
0.0
  0
INSERT
  8
1
 62
   250
  2
STRIP2
 10
0.0287
 20
0.452914
 30
0.0
 41
0.179372
 42
0.179372
  0
LINE
  8
1
  6
CONTINUOUS
 62
   250
 10
0.010762
 20
0.34529
 30
0.0
 11
0.046638
 21
0.34529
 31
0.0
  0
INSERT
  8
1
 62
   250
  2
STRIP2
 10
0.010762
 20
0.399102
 30
0.0
 41
0.179372
 42
0.179372
  0
INSERT
  8
1
 62
   250
  2
STRIP2
 10
0.010762
 20
0.381166
 30
0.0
 41
0.179372
 42
0.179372
  0
INSERT
  8
1
 62
   250
  2
STRIP2
 10
0.010762
 20
0.363228
 30
0.0
 41
0.179372
 42
0.179372
  0
TEXT
  8
1
  6
CONTINUOUS
 62
   250
 10
0.069058
 20
0.438133
 30
0.0
 40
0.009417
  1
OFF
 41
1.233333
  7
SIMPLEX
  0
LINE
  8
1
  6
CONTINUOUS
 62
   250
 10
0.160285
 20
0.426008
 30
0.0
 11
0.160285
 21
0.340806
 31
0.0
  0
LINE
  8
1
  6
CONTINUOUS
 62
   250
 10
0.203588
 20
0.085201
 30
0.0
 11
0.203588
 21
0.017937
 31
0.0
  0
LINE
  8
1
  6
CONTINUOUS
 62
   250
 10
0.210762
 20
0.017937
 30
0.0
 11
0.210762
 21
0.040359
 31
0.0
  0
CIRCLE
  8
1
  6
CONTINUOUS
 62
   250
 10
0.251121
 20
0.040359
 30
0.0
 40
0.017579
  0
CIRCLE
  8
1
  6
CONTINUOUS
 62
   250
 10
0.251121
 20
0.040359
 30
0.0
 40
0.028252
  0
ARC
  8
1
  6
CONTINUOUS
 62
   250
 10
0.273542
 20
0.017938
 30
0.0
 40
0.017938
 50
270.002747
 51
359.997253
  0
LINE
  8
1
  6
CONTINUOUS
 62
   250
 10
0.203588
 20
0.085201
 30
0.0
 11
0.270852
 21
0.085201
 31
0.0
  0
LINE
  8
1
  6
CONTINUOUS
 62
   250
 10
0.251121
 20
0.080717
 30
0.0
 11
0.27713
 21
0.080717
 31
0.0
  0
TEXT
  8
1
  6
CONTINUOUS
 62
   250
 10
0.201952
 20
0.89686
 30
0.0
 40
0.008072
  1
J2C
 41
0.8
  7
SIMPLEX
 72
     1
 11
0.210562
 21
0.89686
 31
0.0
  0
ARC
  8
1
  6
CONTINUOUS
 62
   250
 10
0.251121
 20
0.95964
 30
0.0
 40
0.040359
 50
179.998901
 51
269.999786
  0
LINE
  8
1
  6
CONTINUOUS
 62
   250
 10
0.055396
 20
0.569506
 30
0.0
 11
0.055396
 21
0.856501
 31
0.0
  0
TEXT
  8
1
  6
CONTINUOUS
 62
   250
 10
0.069058
 20
0.509882
 30
0.0
 40
0.009417
  1
SENSOR 1
 41
1.133333
  7
SIMPLEX
  0
TEXT
  8
1
  6
CONTINUOUS
 62
   250
 10
0.047065
 20
0.533631
 30
0.0
 40
0.008072
  1
CH3
 41
1.233333
  7
SIMPLEX
 72
     2
 11
0.075509
 21
0.533631
 31
0.0
  0
INSERT
  8
1
 62
   250
  2
STRIP2
 10
0.0287
 20
0.524663
 30
0.0
 41
0.179372
 42
0.179372
  0
LINE
  8
1
  6
CONTINUOUS
 62
   250
 10
0.095754
 20
0.529147
 30
0.0
 11
0.095754
 21
0.565022
 31
0.0
  0
TEXT
  8
1
  6
CONTINUOUS
 62
   250
 10
0.046638
 20
0.919281
 30
0.0
 40
0.0113
  1
+P
 50
270.0
 41
1.011111
  7
SIMPLEX
  0
TEXT
  8
1
  6
CONTINUOUS
 62
   250
 10
0.044844
 20
0.946187
 30
0.0
 40
0.0113
  1
4
 41
1.111111
  7
SIMPLEX
  0
CIRCLE
  8
1
  6
CONTINUOUS
 62
   250
 10
0.051121
 20
0.932734
 30
0.0
 40
0.008969
  0
TEXT
  8
1
  6
CONTINUOUS
 62
   250
 10
0.015247
 20
0.919281
 30
0.0
 40
0.008072
  1
LOOP
 50
270.0
 41
1.233333
  7
SIMPLEX
  0
CIRCLE
  8
1
  6
CONTINUOUS
 62
   250
 10
0.015247
 20
0.932734
 30
0.0
 40
0.008969
  0
LINE
  8
1
  6
CONTINUOUS
 62
   250
 10
0.008905
 20
0.939076
 30
0.0
 11
0.021588
 21
0.926394
 31
0.0
  0
TEXT
  8
1
  6
CONTINUOUS
 62
   250
 10
0.009268
 20
0.946187
 30
0.0
 40
0.0113
  1
5
 41
1.111111
  7
SIMPLEX
  0
LINE
  8
1
  6
CONTINUOUS
 62
   250
 10
0.051121
 20
0.923766
 30
0.0
 11
0.051121
 21
0.941703
 31
0.0
  0
TEXT
  8
1
  6
CONTINUOUS
 62
   250
 10
0.082511
 20
0.919281
 30
0.0
 40
0.009417
  1
GND
 50
270.0
 41
1.233333
  7
SIMPLEX
  0
LINE
  8
1
  6
CONTINUOUS
 62
   250
 10
0.095964
 20
0.932734
 30
0.0
 11
0.078027
 21
0.932734
 31
0.0
  0
CIRCLE
  8
1
  6
CONTINUOUS
 62
   250
 10
0.086996
 20
0.932734
 30
0.0
 40
0.008969
  0
TEXT
  8
1
  6
CONTINUOUS
 62
   250
 10
0.081017
 20
0.946187
 30
0.0
 40
0.0113
  1
3
 41
1.111111
  7
SIMPLEX
  0
CIRCLE
  8
1
  6
CONTINUOUS
 62
   250
 10
0.158744
 20
0.932734
 30
0.0
 40
0.008969
  0
TEXT
  8
1
  6
CONTINUOUS
 62
   250
 10
0.118386
 20
0.919281
 30
0.0
 40
0.009417
  1
TIMER
 50
270.0
 41
1.233333
  7
SIMPLEX
  0
LINE
  8
1
  6
CONTINUOUS
 62
   250
 10
0.116529
 20
0.939076
 30
0.0
 11
0.129212
 21
0.926394
 31
0.0
  0
CIRCLE
  8
1
  6
CONTINUOUS
 62
   250
 10
0.12287
 20
0.932734
 30
0.0
 40
0.008968
  0
TEXT
  8
1
  6
CONTINUOUS
 62
   250
 10
0.116891
 20
0.946187
 30
0.0
 40
0.0113
  1
2
 41
1.111111
  7
SIMPLEX
  0
TEXT
  8
1
  6
CONTINUOUS
 62
   250
 10
0.154261
 20
0.919281
 30
0.0
 40
0.009417
  1
+24V
 50
270.0
 41
1.233333
  7
SIMPLEX
  0
LINE
  8
1
  6
CONTINUOUS
 62
   250
 10
0.176682
 20
0.86547
 30
0.0
 11
0.176682
 21
0.964125
 31
0.0
  0
LINE
  8
1
  6
CONTINUOUS
 62
   250
 10
0.158744
 20
0.923766
 30
0.0
 11
0.158744
 21
0.941703
 31
0.0
  0
TEXT
  8
1
  6
CONTINUOUS
 62
   250
 10
0.153662
 20
0.946187
 30
0.0
 40
0.0113
  1
1
 41
1.111111
  7
SIMPLEX
  0
LINE
  8
1
  6
CONTINUOUS
 62
   250
 10
0.170403
 20
0.999999
 30
0.0
 11
0.170403
 21
0.982061
 31
0.0
  0
CIRCLE
  8
1
  6
CONTINUOUS
 62
   250
 10
0.250672
 20
0.820178
 30
0.0
 40
0.00852
  0
LINE
  8
1
  6
CONTINUOUS
 62
   250
 10
0.282063
 20
0.835874
 30
0.0
 11
0.282063
 21
0.566815
 31
0.0
  0
LINE
  8
1
  6
CONTINUOUS
 62
   250
 10
0.214798
 20
0.835874
 30
0.0
 11
0.214798
 21
0.786546
 31
0.0
  0
LINE
  8
1
  6
CONTINUOUS
 62
   250
 10
0.291479
 20
0.982061
 30
0.0
 11
0.291479
 21
0.786546
 31
0.0
  0
LINE
  8
1
  6
CONTINUOUS
 62
   250
 10
0.282063
 20
0.616142
 30
0.0
 11
0.322421
 21
0.616142
 31
0.0
  0
LINE
  8
1
  6
CONTINUOUS
 62
   250
 10
0.322421
 20
0.786546
 30
0.0
 11
0.282063
 21
0.786546
 31
0.0
  0
TEXT
  8
1
  6
CONTINUOUS
 62
   250
 10
0.252914
 20
0.780268
 30
0.0
 40
0.008072
  1
Female DIN Connector
 50
270.0
 41
1.011111
  7
SIMPLEX
  0
LINE
  8
1
  6
CONTINUOUS
 62
   250
 10
0.241704
 20
0.616142
 30
0.0
 11
0.241704
 21
0.786546
 31
0.0
  0
CIRCLE
  8
1
  6
CONTINUOUS
 62
   250
 10
0.250672
 20
0.58251
 30
0.0
 40
0.00852
  0
LINE
  8
1
  6
CONTINUOUS
 62
   250
 10
0.282063
 20
0.566815
 30
0.0
 11
0.214798
 21
0.566815
 31
0.0
  0
LINE
  8
1
  6
CONTINUOUS
 62
   250
 10
0.214798
 20
0.566815
 30
0.0
 11
0.214798
 21
0.616142
 31
0.0
  0
LINE
  8
1
  6
CONTINUOUS
 62
   250
 10
0.214798
 20
0.616142
 30
0.0
 11
0.241704
 21
0.616142
 31
0.0
  0
LINE
  8
1
  6
CONTINUOUS
 62
   250
 10
0.291479
 20
0.582959
 30
0.0
 11
0.282063
 21
0.582959
 31
0.0
  0
LINE
  8
1
  6
CONTINUOUS
 62
   250
 10
0.214798
 20
0.786546
 30
0.0
 11
0.241704
 21
0.786546
 31
0.0
  0
LINE
  8
1
  6
CONTINUOUS
 62
   250
 10
0.322421
 20
0.616142
 30
0.0
 11
0.322421
 21
0.786546
 31
0.0
  0
LINE
  8
1
  6
CONTINUOUS
 62
   250
 10
0.203588
 20
0.982061
 30
0.0
 11
0.203588
 21
0.919281
 31
0.0
  0
LINE
  8
1
  6
CONTINUOUS
 62
   250
 10
0.203588
 20
0.982061
 30
0.0
 11
0.203588
 21
0.914797
 31
0.0
  0
LINE
  8
1
  6
CONTINUOUS
 62
   250
 10
0.210762
 20
0.959641
 30
0.0
 11
0.210762
 21
0.982061
 31
0.0
  0
CIRCLE
  8
1
  6
CONTINUOUS
 62
   250
 10
0.251121
 20
0.959641
 30
0.0
 40
0.017579
  0
CIRCLE
  8
1
  6
CONTINUOUS
 62
   250
 10
0.251121
 20
0.959641
 30
0.0
 40
0.028252
  0
TEXT
  8
1
  6
CONTINUOUS
 62
   250
 10
0.242206
 20
0.89686
 30
0.0
 40
0.008072
  1
J2A
 41
0.8
  7
SIMPLEX
 72
     1
 11
0.250662
 21
0.89686
 31
0.0
  0
LINE
  8
1
  6
CONTINUOUS
 62
   250
 10
0.270852
 20
0.914797
 30
0.0
 11
0.203588
 21
0.914797
 31
0.0
  0
LINE
  8
1
  6
CONTINUOUS
 62
   250
 10
0.282063
 20
0.835874
 30
0.0
 11
0.214798
 21
0.835874
 31
0.0
  0
LINE
  8
1
  6
CONTINUOUS
 62
   250
 10
0.27713
 20
0.919281
 30
0.0
 11
0.251121
 21
0.919281
 31
0.0
  0
INSERT
  8
1
 62
   250
  2
STRIP2
 10
0.239462
 20
0.856501
 30
0.0
 41
0.179372
 42
0.179372
 50
90.0
  0
INSERT
  8
1
 62
   250
  2
STRIP2
 10
0.221525
 20
0.856501
 30
0.0
 41
0.179372
 42
0.179372
 50
90.0
  0
INSERT
  8
1
 62
   250
  2
STRIP2
 10
0.203588
 20
0.856501
 30
0.0
 41
0.179372
 42
0.179372
 50
90.0
  0
TEXT
  8
1
  6
CONTINUOUS
 62
   250
 10
0.221839
 20
0.89686
 30
0.0
 40
0.008072
  1
J2B
 41
0.8
  7
SIMPLEX
 72
     1
 11
0.230449
 21
0.89686
 31
0.0
  0
LINE
  8
1
  6
CONTINUOUS
 62
   250
 10
0.208072
 20
0.914797
 30
0.0
 11
0.203588
 21
0.914797
 31
0.0
  0
LINE
  8
1
  6
CONTINUOUS
 62
   250
 10
0.270852
 20
0.914797
 30
0.0
 11
0.270852
 21
0.835874
 31
0.0
  0
LINE
  8
1
  6
CONTINUOUS
 62
   250
 10
0.27713
 20
0.919281
 30
0.0
 11
0.27713
 21
0.835874
 31
0.0
  0
LINE
  8
1
  6
CONTINUOUS
 62
   250
 10
0.2574
 20
0.856501
 30
0.0
 11
0.2574
 21
0.892376
 31
0.0
  0
LINE
  8
1
  6
CONTINUOUS
 62
   250
 10
0.291479
 20
0.816142
 30
0.0
 11
0.287892
 21
0.816142
 31
0.0
  0
LINE
  8
1
  6
CONTINUOUS
 62
   250
 10
0.291479
 20
0.816142
 30
0.0
 11
0.282063
 21
0.816142
 31
0.0
  0
ARC
  8
1
  6
CONTINUOUS
 62
   250
 10
0.273543
 20
0.982063
 30
0.0
 40
0.017936
 50
359.994659
 51
90.00248
  0
ENDSEC
  0
EOF
