  0
SECTION
  2
HEADER
  9
$ACADVER
  1
AC1009
  9
$INSBASE
 10
0.0
 20
0.0
 30
0.0
  9
$EXTMIN
 10
-0.294568
 20
0.0
 30
0.0
  9
$EXTMAX
 10
0.294568
 20
0.552097
 30
0.0
  9
$LIMMIN
 10
17.599451
 20
14.581234
  9
$LIMMAX
 10
18.188585
 20
15.133332
  9
$ORTHOMODE
 70
     1
  9
$REGENMODE
 70
     1
  9
$FILLMODE
 70
     1
  9
$QTEXTMODE
 70
     0
  9
$MIRRTEXT
 70
     1
  9
$DRAGMODE
 70
     2
  9
$LTSCALE
 40
1.0
  9
$OSMODE
 70
     0
  9
$ATTMODE
 70
     2
  9
$TEXTSIZE
 40
1.0
  9
$TRACEWID
 40
0.05
  9
$TEXTSTYLE
  7
STANDARD
  9
$CLAYER
  8
0
  9
$CELTYPE
  6
BYLAYER
  9
$CECOLOR
 62
   256
  9
$DIMSCALE
 40
1.0
  9
$DIMASZ
 40
1.0
  9
$DIMEXO
 40
0.5
  9
$DIMDLI
 40
0.38
  9
$DIMRND
 40
0.0
  9
$DIMDLE
 40
0.0
  9
$DIMEXE
 40
0.5
  9
$DIMTP
 40
0.0
  9
$DIMTM
 40
0.0
  9
$DIMTXT
 40
0.18
  9
$DIMCEN
 40
0.09
  9
$DIMTSZ
 40
0.0
  9
$DIMTOL
 70
     0
  9
$DIMLIM
 70
     0
  9
$DIMTIH
 70
     1
  9
$DIMTOH
 70
     1
  9
$DIMSE1
 70
     0
  9
$DIMSE2
 70
     0
  9
$DIMTAD
 70
     0
  9
$DIMZIN
 70
     0
  9
$DIMBLK
  1

  9
$DIMASO
 70
     1
  9
$DIMSHO
 70
     1
  9
$DIMPOST
  1
"
  9
$DIMAPOST
  1

  9
$DIMALT
 70
     0
  9
$DIMALTD
 70
     2
  9
$DIMALTF
 40
25.4
  9
$DIMLFAC
 40
1.0
  9
$DIMTOFL
 70
     0
  9
$DIMTVP
 40
0.0
  9
$DIMTIX
 70
     0
  9
$DIMSOXD
 70
     0
  9
$DIMSAH
 70
     0
  9
$DIMBLK1
  1

  9
$DIMBLK2
  1

  9
$DIMSTYLE
  2
*UNNAMED
  9
$DIMCLRD
 70
     0
  9
$DIMCLRE
 70
     0
  9
$DIMCLRT
 70
     0
  9
$DIMTFAC
 40
1.0
  9
$DIMGAP
 40
0.09
  9
$LUNITS
 70
     2
  9
$LUPREC
 70
     3
  9
$SKETCHINC
 40
0.1
  9
$FILLETRAD
 40
0.0
  9
$AUNITS
 70
     0
  9
$AUPREC
 70
     3
  9
$MENU
  1
acad
  9
$ELEVATION
 40
0.0
  9
$PELEVATION
 40
0.0
  9
$THICKNESS
 40
0.0
  9
$LIMCHECK
 70
     0
  9
$BLIPMODE
 70
     0
  9
$CHAMFERA
 40
0.5
  9
$CHAMFERB
 40
0.5
  9
$SKPOLY
 70
     0
  9
$TDCREATE
 40
2450085.458847800
  9
$TDUPDATE
 40
2450085.458847800
  9
$TDINDWG
 40
0.0000000000
  9
$TDUSRTIMER
 40
0.0000000000
  9
$USRTIMER
 70
     1
  9
$ANGBASE
 50
0.0
  9
$ANGDIR
 70
     0
  9
$PDMODE
 70
     2
  9
$PDSIZE
 40
0.0
  9
$PLINEWID
 40
0.0
  9
$COORDS
 70
     1
  9
$SPLFRAME
 70
     0
  9
$SPLINETYPE
 70
     6
  9
$SPLINESEGS
 70
     8
  9
$ATTDIA
 70
     0
  9
$ATTREQ
 70
     1
  9
$HANDLING
 70
     0
  9
$HANDSEED
  5
0
  9
$SURFTAB1
 70
     6
  9
$SURFTAB2
 70
     6
  9
$SURFTYPE
 70
     6
  9
$SURFU
 70
     6
  9
$SURFV
 70
     6
  9
$UCSNAME
  2

  9
$UCSORG
 10
0.0
 20
0.0
 30
0.0
  9
$UCSXDIR
 10
1.0
 20
0.0
 30
0.0
  9
$UCSYDIR
 10
0.0
 20
1.0
 30
0.0
  9
$PUCSNAME
  2

  9
$PUCSORG
 10
0.0
 20
0.0
 30
0.0
  9
$PUCSXDIR
 10
1.0
 20
0.0
 30
0.0
  9
$PUCSYDIR
 10
0.0
 20
1.0
 30
0.0
  9
$USERI1
 70
     0
  9
$USERI2
 70
     0
  9
$USERI3
 70
     0
  9
$USERI4
 70
     0
  9
$USERI5
 70
     0
  9
$USERR1
 40
0.0
  9
$USERR2
 40
0.0
  9
$USERR3
 40
0.0
  9
$USERR4
 40
0.0
  9
$USERR5
 40
0.0
  9
$WORLDVIEW
 70
     1
  9
$SHADEDGE
 70
     3
  9
$SHADEDIF
 70
    70
  9
$TILEMODE
 70
     1
  9
$MAXACTVP
 70
    16
  9
$PINSBASE
 10
0.625214
 20
50.0
 30
-0.376472
  9
$PLIMCHECK
 70
     0
  9
$PEXTMIN
 10
1.000000E+20
 20
1.000000E+20
 30
1.000000E+20
  9
$PEXTMAX
 10
-1.000000E+20
 20
-1.000000E+20
 30
-1.000000E+20
  9
$PLIMMIN
 10
0.0
 20
0.0
  9
$PLIMMAX
 10
12.0
 20
9.0
  9
$UNITMODE
 70
     0
  9
$VISRETAIN
 70
     0
  9
$PLINEGEN
 70
     0
  9
$PSLTSCALE
 70
     1
  9
$TREEDEPTH
 70
  3020
  9
$DWGCODEPAGE
  3
ascii
  0
ENDSEC
  0
SECTION
  2
TABLES
  0
TABLE
  2
VPORT
 70
     1
  0
VPORT
  2
*ACTIVE
 70
     0
 10
0.0
 20
0.0
 11
1.0
 21
1.0
 12
10.203494
 22
7.566666
 13
0.0
 23
0.0
 14
1.0
 24
1.0
 15
1.0
 25
1.0
 16
0.0
 26
0.0
 36
1.0
 17
0.0
 27
0.0
 37
0.0
 40
15.133332
 41
1.387409
 42
50.0
 43
0.0
 44
0.0
 50
0.0
 51
0.0
 71
     0
 72
   100
 73
     1
 74
     1
 75
     0
 76
     0
 77
     0
 78
     0
  0
ENDTAB
  0
TABLE
  2
LTYPE
 70
     1
  0
LTYPE
  2
CONTINUOUS
 70
    64
  3
SOLID LINE
 72
    65
 73
     0
 40
0.0
  0
ENDTAB
  0
TABLE
  2
LAYER
 70
     2
  0
LAYER
  2
0
 70
    64
 62
     2
  6
CONTINUOUS
  0
LAYER
  2
1
 70
    64
 62
     4
  6
CONTINUOUS
  0
ENDTAB
  0
TABLE
  2
STYLE
 70
     2
  0
STYLE
  2
STANDARD
 70
     0
 40
0.0
 41
1.0
 50
0.0
 71
     0
 42
0.2
  3
txt
  4

  0
STYLE
  2
SIMPLEX
 70
    64
 40
0.0
 41
1.0
 50
0.0
 71
     0
 42
1.0
  3
ROMANS.SHX
  4

  0
ENDTAB
  0
TABLE
  2
VIEW
 70
     0
  0
ENDTAB
  0
TABLE
  2
UCS
 70
     0
  0
ENDTAB
  0
TABLE
  2
APPID
 70
     1
  0
APPID
  2
ACAD
 70
    64
  0
ENDTAB
  0
TABLE
  2
DIMSTYLE
 70
     0
  0
ENDTAB
  0
ENDSEC
  0
SECTION
  2
BLOCKS
  0
BLOCK
  8
0
  2
STRIP3
 70
    64
 10
0.0
 20
0.0
 30
0.0
  3
STRIP3
  0
LINE
  8
1
  6
CONTINUOUS
 62
   250
 10
0.3
 20
0.0
 30
0.0
 11
0.0
 21
0.0
 31
0.0
  0
CIRCLE
  8
1
  6
CONTINUOUS
 62
   250
 10
0.05
 20
-0.05
 30
0.0
 40
0.01
  0
LINE
  8
1
  6
CONTINUOUS
 62
   250
 10
0.0
 20
0.0
 30
0.0
 11
0.0
 21
-0.1
 31
0.0
  0
LINE
  8
1
  6
CONTINUOUS
 62
   250
 10
0.3
 20
-0.1
 30
0.0
 11
0.3
 21
0.0
 31
0.0
  0
CIRCLE
  8
1
  6
CONTINUOUS
 62
   250
 10
0.15
 20
-0.05
 30
0.0
 40
0.01
  0
CIRCLE
  8
1
  6
CONTINUOUS
 62
   250
 10
0.25
 20
-0.05
 30
0.0
 40
0.01
  0
ENDBLK
  8
0
  0
BLOCK
  8
0
  2
BOURNPOT
 70
    64
 10
0.0
 20
0.0
 30
0.0
  3
BOURNPOT
  0
LINE
  8
1
  6
CONTINUOUS
 62
   250
 10
0.110355
 20
-0.085355
 30
0.0
 11
0.039645
 21
-0.014645
 31
0.0
  0
CIRCLE
  8
1
  6
CONTINUOUS
 62
   250
 10
0.075
 20
-0.05
 30
0.0
 40
0.05
  0
LINE
  8
1
  6
CONTINUOUS
 62
   250
 10
0.4
 20
0.0
 30
0.0
 11
0.0
 21
0.0
 31
0.0
  0
LINE
  8
1
  6
CONTINUOUS
 62
   250
 10
0.0
 20
-0.2
 30
0.0
 11
0.4
 21
-0.2
 31
0.0
  0
LINE
  8
1
  6
CONTINUOUS
 62
   250
 10
0.0
 20
0.0
 30
0.0
 11
0.0
 21
-0.2
 31
0.0
  0
LINE
  8
1
  6
CONTINUOUS
 62
   250
 10
0.4
 20
-0.2
 30
0.0
 11
0.4
 21
0.0
 31
0.0
  0
ENDBLK
  8
0
  0
BLOCK
  8
0
  2
TEMP
 70
    64
 10
0.0
 20
0.0
 30
0.0
  3
TEMP
  0
LINE
  8
1
  6
CONTINUOUS
 62
   250
 10
-0.67253
 20
0.357206
 30
0.0
 11
0.723746
 21
0.357206
 31
0.0
  0
LINE
  8
1
  6
CONTINUOUS
 62
   250
 10
-0.67253
 20
1.712911
 30
0.0
 11
0.723746
 21
1.712911
 31
0.0
  0
LINE
  8
1
  6
CONTINUOUS
 62
   250
 10
-0.67253
 20
1.712911
 30
0.0
 11
-0.67253
 21
0.357206
 31
0.0
  0
LINE
  8
1
  6
CONTINUOUS
 62
   250
 10
-0.338687
 20
0.357206
 30
0.0
 11
-0.338687
 21
1.712911
 31
0.0
  0
LINE
  8
1
  6
CONTINUOUS
 62
   250
 10
-0.35861
 20
0.96446
 30
0.0
 11
-0.35861
 21
1.09597
 31
0.0
  0
LINE
  8
1
  6
CONTINUOUS
 62
   250
 10
-0.656592
 20
0.96446
 30
0.0
 11
-0.656592
 21
1.09597
 31
0.0
  0
LINE
  8
1
  6
CONTINUOUS
 62
   250
 10
-0.642362
 20
0.559624
 30
0.0
 11
-0.642362
 21
0.488716
 31
0.0
  0
LINE
  8
1
  6
CONTINUOUS
 62
   250
 10
-0.338687
 20
0.488716
 30
0.0
 11
-0.67253
 21
0.488716
 31
0.0
  0
LINE
  8
1
  6
CONTINUOUS
 62
   250
 10
-0.656592
 20
0.357206
 30
0.0
 11
-0.656592
 21
0.488716
 31
0.0
  0
LINE
  8
1
  6
CONTINUOUS
 62
   250
 10
-0.35861
 20
0.357206
 30
0.0
 11
-0.35861
 21
0.488716
 31
0.0
  0
LINE
  8
1
  6
CONTINUOUS
 62
   250
 10
-0.338687
 20
0.559624
 30
0.0
 11
-0.67253
 21
0.559624
 31
0.0
  0
LINE
  8
1
  6
CONTINUOUS
 62
   250
 10
-0.338687
 20
0.691134
 30
0.0
 11
-0.67253
 21
0.691134
 31
0.0
  0
LINE
  8
1
  6
CONTINUOUS
 62
   250
 10
-0.338687
 20
0.559624
 30
0.0
 11
-0.67253
 21
0.559624
 31
0.0
  0
LINE
  8
1
  6
CONTINUOUS
 62
   250
 10
-0.338687
 20
0.762042
 30
0.0
 11
-0.67253
 21
0.762042
 31
0.0
  0
LINE
  8
1
  6
CONTINUOUS
 62
   250
 10
-0.338687
 20
0.762042
 30
0.0
 11
-0.67253
 21
0.762042
 31
0.0
  0
LINE
  8
1
  6
CONTINUOUS
 62
   250
 10
-0.338687
 20
0.893552
 30
0.0
 11
-0.67253
 21
0.893552
 31
0.0
  0
LINE
  8
1
  6
CONTINUOUS
 62
   250
 10
-0.338687
 20
0.96446
 30
0.0
 11
-0.67253
 21
0.96446
 31
0.0
  0
LINE
  8
1
  6
CONTINUOUS
 62
   250
 10
-0.656592
 20
0.762042
 30
0.0
 11
-0.656592
 21
0.893552
 31
0.0
  0
LINE
  8
1
  6
CONTINUOUS
 62
   250
 10
-0.656592
 20
0.559624
 30
0.0
 11
-0.656592
 21
0.691134
 31
0.0
  0
LINE
  8
1
  6
CONTINUOUS
 62
   250
 10
-0.642362
 20
0.762042
 30
0.0
 11
-0.642362
 21
0.691134
 31
0.0
  0
LINE
  8
1
  6
CONTINUOUS
 62
   250
 10
-0.642362
 20
0.96446
 30
0.0
 11
-0.642362
 21
0.893552
 31
0.0
  0
LINE
  8
1
  6
CONTINUOUS
 62
   250
 10
-0.35861
 20
0.762042
 30
0.0
 11
-0.35861
 21
0.893552
 31
0.0
  0
LINE
  8
1
  6
CONTINUOUS
 62
   250
 10
-0.35861
 20
0.559624
 30
0.0
 11
-0.35861
 21
0.691134
 31
0.0
  0
LINE
  8
1
  6
CONTINUOUS
 62
   250
 10
-0.35861
 20
1.571714
 30
0.0
 11
-0.35861
 21
1.712911
 31
0.0
  0
LINE
  8
1
  6
CONTINUOUS
 62
   250
 10
-0.656592
 20
1.571714
 30
0.0
 11
-0.656592
 21
1.712911
 31
0.0
  0
LINE
  8
1
  6
CONTINUOUS
 62
   250
 10
-0.338687
 20
1.09597
 30
0.0
 11
-0.67253
 21
1.09597
 31
0.0
  0
LINE
  8
1
  6
CONTINUOUS
 62
   250
 10
-0.338687
 20
1.166878
 30
0.0
 11
-0.67253
 21
1.166878
 31
0.0
  0
LINE
  8
1
  6
CONTINUOUS
 62
   250
 10
-0.338687
 20
1.166878
 30
0.0
 11
-0.67253
 21
1.166878
 31
0.0
  0
LINE
  8
1
  6
CONTINUOUS
 62
   250
 10
-0.338687
 20
1.298388
 30
0.0
 11
-0.67253
 21
1.298388
 31
0.0
  0
LINE
  8
1
  6
CONTINUOUS
 62
   250
 10
-0.338687
 20
1.369296
 30
0.0
 11
-0.67253
 21
1.369296
 31
0.0
  0
LINE
  8
1
  6
CONTINUOUS
 62
   250
 10
-0.338687
 20
1.500806
 30
0.0
 11
-0.67253
 21
1.500806
 31
0.0
  0
LINE
  8
1
  6
CONTINUOUS
 62
   250
 10
-0.338687
 20
1.571714
 30
0.0
 11
-0.67253
 21
1.571714
 31
0.0
  0
LINE
  8
1
  6
CONTINUOUS
 62
   250
 10
-0.656592
 20
1.369296
 30
0.0
 11
-0.656592
 21
1.500806
 31
0.0
  0
LINE
  8
1
  6
CONTINUOUS
 62
   250
 10
-0.656592
 20
1.166878
 30
0.0
 11
-0.656592
 21
1.298388
 31
0.0
  0
LINE
  8
1
  6
CONTINUOUS
 62
   250
 10
-0.642362
 20
1.369296
 30
0.0
 11
-0.642362
 21
1.298388
 31
0.0
  0
LINE
  8
1
  6
CONTINUOUS
 62
   250
 10
-0.642362
 20
1.166878
 30
0.0
 11
-0.642362
 21
1.09597
 31
0.0
  0
LINE
  8
1
  6
CONTINUOUS
 62
   250
 10
-0.642362
 20
1.571714
 30
0.0
 11
-0.642362
 21
1.500806
 31
0.0
  0
LINE
  8
1
  6
CONTINUOUS
 62
   250
 10
-0.35861
 20
1.369296
 30
0.0
 11
-0.35861
 21
1.500806
 31
0.0
  0
LINE
  8
1
  6
CONTINUOUS
 62
   250
 10
-0.35861
 20
1.166878
 30
0.0
 11
-0.35861
 21
1.298388
 31
0.0
  0
CIRCLE
  8
1
  6
CONTINUOUS
 62
   250
 10
0.029891
 20
1.049977
 30
0.0
 40
0.070559
  0
LINE
  8
1
  6
CONTINUOUS
 62
   250
 10
0.111478
 20
1.049977
 30
0.0
 11
0.070684
 21
1.120633
 31
0.0
  0
LINE
  8
1
  6
CONTINUOUS
 62
   250
 10
-0.010902
 20
1.120633
 30
0.0
 11
-0.051695
 21
1.049977
 31
0.0
  0
LINE
  8
1
  6
CONTINUOUS
 62
   250
 10
0.707808
 20
0.96446
 30
0.0
 11
0.707808
 21
1.09597
 31
0.0
  0
LINE
  8
1
  6
CONTINUOUS
 62
   250
 10
0.409826
 20
0.96446
 30
0.0
 11
0.409826
 21
1.09597
 31
0.0
  0
LINE
  8
1
  6
CONTINUOUS
 62
   250
 10
0.389904
 20
0.357206
 30
0.0
 11
0.389904
 21
1.712911
 31
0.0
  0
LINE
  8
1
  6
CONTINUOUS
 62
   250
 10
0.723746
 20
1.712911
 30
0.0
 11
0.723746
 21
0.357206
 31
0.0
  0
LINE
  8
1
  6
CONTINUOUS
 62
   250
 10
0.389904
 20
0.96446
 30
0.0
 11
0.723746
 21
0.96446
 31
0.0
  0
LINE
  8
1
  6
CONTINUOUS
 62
   250
 10
0.389904
 20
0.893552
 30
0.0
 11
0.723746
 21
0.893552
 31
0.0
  0
LINE
  8
1
  6
CONTINUOUS
 62
   250
 10
0.389904
 20
0.762042
 30
0.0
 11
0.723746
 21
0.762042
 31
0.0
  0
LINE
  8
1
  6
CONTINUOUS
 62
   250
 10
0.389904
 20
0.762042
 30
0.0
 11
0.723746
 21
0.762042
 31
0.0
  0
LINE
  8
1
  6
CONTINUOUS
 62
   250
 10
0.389904
 20
0.559624
 30
0.0
 11
0.723746
 21
0.559624
 31
0.0
  0
LINE
  8
1
  6
CONTINUOUS
 62
   250
 10
0.389904
 20
0.691134
 30
0.0
 11
0.723746
 21
0.691134
 31
0.0
  0
LINE
  8
1
  6
CONTINUOUS
 62
   250
 10
0.389904
 20
0.559624
 30
0.0
 11
0.723746
 21
0.559624
 31
0.0
  0
LINE
  8
1
  6
CONTINUOUS
 62
   250
 10
0.389904
 20
0.488716
 30
0.0
 11
0.723746
 21
0.488716
 31
0.0
  0
LINE
  8
1
  6
CONTINUOUS
 62
   250
 10
0.138881
 20
0.214772
 30
0.0
 11
0.138881
 21
0.09934
 31
0.0
  0
LINE
  8
1
  6
CONTINUOUS
 62
   250
 10
0.145143
 20
0.097279
 30
0.0
 11
0.145143
 21
0.214772
 31
0.0
  0
LINE
  8
1
  6
CONTINUOUS
 62
   250
 10
0.040408
 20
0.214772
 30
0.0
 11
0.040408
 21
0.09934
 31
0.0
  0
LINE
  8
1
  6
CONTINUOUS
 62
   250
 10
0.046669
 20
0.097279
 30
0.0
 11
0.046669
 21
0.214772
 31
0.0
  0
LINE
  8
1
  6
CONTINUOUS
 62
   250
 10
-0.054082
 20
0.097279
 30
0.0
 11
-0.054082
 21
0.214772
 31
0.0
  0
LINE
  8
1
  6
CONTINUOUS
 62
   250
 10
-0.060343
 20
0.214772
 30
0.0
 11
-0.060343
 21
0.09934
 31
0.0
  0
LINE
  8
1
  6
CONTINUOUS
 62
   250
 10
0.040408
 20
0.09934
 30
0.0
 11
0.015362
 21
0.053167
 31
0.0
  0
LINE
  8
1
  6
CONTINUOUS
 62
   250
 10
0.015362
 20
0.053167
 30
0.0
 11
0.023616
 21
0.053167
 31
0.0
  0
LINE
  8
1
  6
CONTINUOUS
 62
   250
 10
0.023616
 20
0.053167
 30
0.0
 11
0.046669
 21
0.097279
 31
0.0
  0
LINE
  8
1
  6
CONTINUOUS
 62
   250
 10
-0.077135
 20
0.053167
 30
0.0
 11
-0.054082
 21
0.097279
 31
0.0
  0
LINE
  8
1
  6
CONTINUOUS
 62
   250
 10
-0.085388
 20
0.053167
 30
0.0
 11
-0.077135
 21
0.053167
 31
0.0
  0
LINE
  8
1
  6
CONTINUOUS
 62
   250
 10
-0.060343
 20
0.09934
 30
0.0
 11
-0.085388
 21
0.053167
 31
0.0
  0
LINE
  8
1
  6
CONTINUOUS
 62
   250
 10
0.138881
 20
0.09934
 30
0.0
 11
0.113836
 21
0.053167
 31
0.0
  0
LINE
  8
1
  6
CONTINUOUS
 62
   250
 10
0.113836
 20
0.053167
 30
0.0
 11
0.12209
 21
0.053167
 31
0.0
  0
LINE
  8
1
  6
CONTINUOUS
 62
   250
 10
0.12209
 20
0.053167
 30
0.0
 11
0.145143
 21
0.097279
 31
0.0
  0
LINE
  8
1
  6
CONTINUOUS
 62
   250
 10
0.027885
 20
0.357206
 30
0.0
 11
0.027885
 21
0.220956
 31
0.0
  0
LINE
  8
1
  6
CONTINUOUS
 62
   250
 10
0.027885
 20
0.220956
 30
0.0
 11
0.040408
 21
0.214772
 31
0.0
  0
LINE
  8
1
  6
CONTINUOUS
 62
   250
 10
0.046669
 20
0.214772
 30
0.0
 11
0.057199
 21
0.220956
 31
0.0
  0
LINE
  8
1
  6
CONTINUOUS
 62
   250
 10
0.057199
 20
0.220956
 30
0.0
 11
0.057199
 21
0.357206
 31
0.0
  0
LINE
  8
1
  6
CONTINUOUS
 62
   250
 10
-0.043551
 20
0.220956
 30
0.0
 11
-0.043551
 21
0.357206
 31
0.0
  0
LINE
  8
1
  6
CONTINUOUS
 62
   250
 10
-0.054082
 20
0.214772
 30
0.0
 11
-0.043551
 21
0.220956
 31
0.0
  0
LINE
  8
1
  6
CONTINUOUS
 62
   250
 10
-0.072866
 20
0.220956
 30
0.0
 11
-0.060343
 21
0.214772
 31
0.0
  0
LINE
  8
1
  6
CONTINUOUS
 62
   250
 10
-0.072866
 20
0.357206
 30
0.0
 11
-0.072866
 21
0.220956
 31
0.0
  0
LINE
  8
1
  6
CONTINUOUS
 62
   250
 10
0.126359
 20
0.357206
 30
0.0
 11
0.126359
 21
0.220956
 31
0.0
  0
LINE
  8
1
  6
CONTINUOUS
 62
   250
 10
0.126359
 20
0.220956
 30
0.0
 11
0.138881
 21
0.214772
 31
0.0
  0
LINE
  8
1
  6
CONTINUOUS
 62
   250
 10
0.145143
 20
0.214772
 30
0.0
 11
0.155673
 21
0.220956
 31
0.0
  0
LINE
  8
1
  6
CONTINUOUS
 62
   250
 10
0.155673
 20
0.220956
 30
0.0
 11
0.155673
 21
0.357206
 31
0.0
  0
LINE
  8
1
  6
CONTINUOUS
 62
   250
 10
0.409826
 20
0.357206
 30
0.0
 11
0.409826
 21
0.488716
 31
0.0
  0
LINE
  8
1
  6
CONTINUOUS
 62
   250
 10
0.070684
 20
0.979321
 30
0.0
 11
0.111478
 21
1.049977
 31
0.0
  0
CIRCLE
  8
1
  6
CONTINUOUS
 62
   250
 10
0.029891
 20
1.049977
 30
0.0
 40
0.0299
  0
ARC
  8
1
  6
CONTINUOUS
 62
   250
 10
0.029626
 20
1.049689
 30
0.0
 40
0.013062
 50
180.0
 51
0.0
  0
ARC
  8
1
  6
CONTINUOUS
 62
   250
 10
0.029626
 20
1.049689
 30
0.0
 40
0.013062
 50
359.998962
 51
180.001053
  0
CIRCLE
  8
1
  6
CONTINUOUS
 62
   250
 10
0.029891
 20
1.049977
 30
0.0
 40
0.041266
  0
LINE
  8
1
  6
CONTINUOUS
 62
   250
 10
-0.051695
 20
1.049977
 30
0.0
 11
-0.010902
 21
0.979321
 31
0.0
  0
LINE
  8
1
  6
CONTINUOUS
 62
   250
 10
-0.010902
 20
0.979321
 30
0.0
 11
0.070684
 21
0.979321
 31
0.0
  0
LINE
  8
1
  6
CONTINUOUS
 62
   250
 10
0.409826
 20
0.762042
 30
0.0
 11
0.409826
 21
0.893552
 31
0.0
  0
LINE
  8
1
  6
CONTINUOUS
 62
   250
 10
0.409826
 20
0.559624
 30
0.0
 11
0.409826
 21
0.691134
 31
0.0
  0
LINE
  8
1
  6
CONTINUOUS
 62
   250
 10
0.693578
 20
0.559624
 30
0.0
 11
0.693578
 21
0.488716
 31
0.0
  0
LINE
  8
1
  6
CONTINUOUS
 62
   250
 10
0.707808
 20
0.357206
 30
0.0
 11
0.707808
 21
0.488716
 31
0.0
  0
LINE
  8
1
  6
CONTINUOUS
 62
   250
 10
0.707808
 20
0.762042
 30
0.0
 11
0.707808
 21
0.893552
 31
0.0
  0
LINE
  8
1
  6
CONTINUOUS
 62
   250
 10
0.707808
 20
0.559624
 30
0.0
 11
0.707808
 21
0.691134
 31
0.0
  0
LINE
  8
1
  6
CONTINUOUS
 62
   250
 10
0.693578
 20
0.762042
 30
0.0
 11
0.693578
 21
0.691134
 31
0.0
  0
LINE
  8
1
  6
CONTINUOUS
 62
   250
 10
0.693578
 20
0.96446
 30
0.0
 11
0.693578
 21
0.893552
 31
0.0
  0
LINE
  8
1
  6
CONTINUOUS
 62
   250
 10
0.389904
 20
1.571714
 30
0.0
 11
0.723746
 21
1.571714
 31
0.0
  0
LINE
  8
1
  6
CONTINUOUS
 62
   250
 10
0.389904
 20
1.500806
 30
0.0
 11
0.723746
 21
1.500806
 31
0.0
  0
LINE
  8
1
  6
CONTINUOUS
 62
   250
 10
0.389904
 20
1.369296
 30
0.0
 11
0.723746
 21
1.369296
 31
0.0
  0
LINE
  8
1
  6
CONTINUOUS
 62
   250
 10
0.389904
 20
1.298388
 30
0.0
 11
0.723746
 21
1.298388
 31
0.0
  0
LINE
  8
1
  6
CONTINUOUS
 62
   250
 10
0.389904
 20
1.166878
 30
0.0
 11
0.723746
 21
1.166878
 31
0.0
  0
LINE
  8
1
  6
CONTINUOUS
 62
   250
 10
0.389904
 20
1.166878
 30
0.0
 11
0.723746
 21
1.166878
 31
0.0
  0
LINE
  8
1
  6
CONTINUOUS
 62
   250
 10
0.389904
 20
1.09597
 30
0.0
 11
0.723746
 21
1.09597
 31
0.0
  0
LINE
  8
1
  6
CONTINUOUS
 62
   250
 10
0.409826
 20
1.571714
 30
0.0
 11
0.409826
 21
1.712911
 31
0.0
  0
CIRCLE
  8
1
  6
CONTINUOUS
 62
   250
 10
0.029891
 20
1.292796
 30
0.0
 40
0.041701
  0
LINE
  8
1
  6
CONTINUOUS
 62
   250
 10
0.070684
 20
1.120633
 30
0.0
 11
-0.010902
 21
1.120633
 31
0.0
  0
LINE
  8
1
  6
CONTINUOUS
 62
   250
 10
0.409826
 20
1.369296
 30
0.0
 11
0.409826
 21
1.500806
 31
0.0
  0
LINE
  8
1
  6
CONTINUOUS
 62
   250
 10
0.409826
 20
1.166878
 30
0.0
 11
0.409826
 21
1.298388
 31
0.0
  0
LINE
  8
1
  6
CONTINUOUS
 62
   250
 10
0.707808
 20
1.571714
 30
0.0
 11
0.707808
 21
1.712911
 31
0.0
  0
LINE
  8
1
  6
CONTINUOUS
 62
   250
 10
0.707808
 20
1.369296
 30
0.0
 11
0.707808
 21
1.500806
 31
0.0
  0
LINE
  8
1
  6
CONTINUOUS
 62
   250
 10
0.707808
 20
1.166878
 30
0.0
 11
0.707808
 21
1.298388
 31
0.0
  0
LINE
  8
1
  6
CONTINUOUS
 62
   250
 10
0.693578
 20
1.166878
 30
0.0
 11
0.693578
 21
1.09597
 31
0.0
  0
LINE
  8
1
  6
CONTINUOUS
 62
   250
 10
0.693578
 20
1.369296
 30
0.0
 11
0.693578
 21
1.298388
 31
0.0
  0
LINE
  8
1
  6
CONTINUOUS
 62
   250
 10
0.693578
 20
1.571714
 30
0.0
 11
0.693578
 21
1.500806
 31
0.0
  0
ENDBLK
  8
0
  0
ENDSEC
  0
SECTION
  2
ENTITIES
  0
LINE
  8
1
  6
CONTINUOUS
 62
   250
 10
0.293401
 20
0.552097
 30
0.0
 11
-0.293401
 21
0.552097
 31
0.0
  0
LINE
  8
1
  6
CONTINUOUS
 62
   250
 10
0.293401
 20
0.0
 30
0.0
 11
-0.293401
 21
0.0
 31
0.0
  0
LINE
  8
1
  6
CONTINUOUS
 62
   250
 10
-0.294568
 20
0.027298
 30
0.0
 11
0.294568
 21
0.027298
 31
0.0
  0
LINE
  8
1
  6
CONTINUOUS
 62
   250
 10
-0.294568
 20
0.524799
 30
0.0
 11
0.294568
 21
0.524799
 31
0.0
  0
LINE
  8
1
  6
CONTINUOUS
 62
   250
 10
0.268428
 20
0.408415
 30
0.0
 11
0.268428
 21
0.481424
 31
0.0
  0
LINE
  8
1
  6
CONTINUOUS
 62
   250
 10
0.175139
 20
0.408415
 30
0.0
 11
0.175139
 21
0.481424
 31
0.0
  0
LINE
  8
1
  6
CONTINUOUS
 62
   250
 10
-0.177736
 20
0.408415
 30
0.0
 11
-0.177736
 21
0.481424
 31
0.0
  0
TEXT
  8
1
  6
CONTINUOUS
 62
   250
 10
-0.226971
 20
0.47772
 30
0.0
 40
0.020443
  1
-
 50
270.0
 41
1.111111
  7
SIMPLEX
  0
LINE
  8
1
  6
CONTINUOUS
 62
   250
 10
-0.271025
 20
0.408415
 30
0.0
 11
-0.271025
 21
0.481424
 31
0.0
  0
LINE
  8
1
  6
CONTINUOUS
 62
   250
 10
-0.294568
 20
0.027298
 30
0.0
 11
-0.294568
 21
0.524799
 31
0.0
  0
INSERT
  8
1
 62
   250
  2
TEMP
 10
-0.007515
 20
0.181696
 30
0.0
 41
0.148766
 42
0.177653
  0
LINE
  8
1
  6
CONTINUOUS
 62
   250
 10
-0.093684
 20
0.077318
 30
0.0
 11
-0.075437
 21
0.077318
 31
0.0
  0
LINE
  8
1
  6
CONTINUOUS
 62
   250
 10
-0.168358
 20
0.178623
 30
0.0
 11
0.193853
 21
0.178623
 31
0.0
  0
LINE
  8
1
  6
CONTINUOUS
 62
   250
 10
0.193853
 20
0.049034
 30
0.0
 11
-0.168358
 21
0.049034
 31
0.0
  0
LINE
  8
1
  6
CONTINUOUS
 62
   250
 10
0.193853
 20
0.092217
 30
0.0
 11
-0.168358
 21
0.092217
 31
0.0
  0
LINE
  8
1
  6
CONTINUOUS
 62
   250
 10
-0.168358
 20
0.062334
 30
0.0
 11
0.193853
 21
0.062334
 31
0.0
  0
LINE
  8
1
  6
CONTINUOUS
 62
   250
 10
-0.168358
 20
0.049034
 30
0.0
 11
-0.168358
 21
0.178623
 31
0.0
  0
LINE
  8
1
  6
CONTINUOUS
 62
   250
 10
-0.293401
 20
0.0
 30
0.0
 11
-0.294568
 21
0.027298
 31
0.0
  0
LINE
  8
1
  6
CONTINUOUS
 62
   250
 10
-0.119053
 20
0.062334
 30
0.0
 11
-0.10734
 21
0.075045
 31
0.0
  0
LINE
  8
1
  6
CONTINUOUS
 62
   250
 10
-0.10734
 20
0.075045
 30
0.0
 11
-0.125057
 21
0.092217
 31
0.0
  0
LINE
  8
1
  6
CONTINUOUS
 62
   250
 10
-0.168358
 20
0.064072
 30
0.0
 11
-0.158246
 21
0.075045
 31
0.0
  0
LINE
  8
1
  6
CONTINUOUS
 62
   250
 10
-0.158246
 20
0.075045
 30
0.0
 11
-0.168358
 21
0.084845
 31
0.0
  0
LINE
  8
1
  6
CONTINUOUS
 62
   250
 10
-0.147612
 20
0.077318
 30
0.0
 11
-0.129365
 21
0.077318
 31
0.0
  0
LINE
  8
1
  6
CONTINUOUS
 62
   250
 10
-0.217695
 20
0.117596
 30
0.0
 11
-0.225946
 21
0.146552
 31
0.0
  0
LINE
  8
1
  6
CONTINUOUS
 62
   250
 10
-0.188755
 20
0.113471
 30
0.0
 11
-0.217695
 21
0.117596
 31
0.0
  0
LINE
  8
1
  6
CONTINUOUS
 62
   250
 10
-0.168358
 20
0.113829
 30
0.0
 11
-0.191602
 21
0.113829
 31
0.0
  0
TEXT
  8
1
  6
CONTINUOUS
 62
   250
 10
-0.283193
 20
0.341355
 30
0.0
 40
0.010221
  1
WAVE
 41
1.011111
  7
SIMPLEX
  0
TEXT
  8
1
  6
CONTINUOUS
 62
   250
 10
-0.283193
 20
0.357579
 30
0.0
 40
0.010221
  1
HALF
 41
1.011111
  7
SIMPLEX
  0
LINE
  8
1
  6
CONTINUOUS
 62
   250
 10
-0.271025
 20
0.408415
 30
0.0
 11
-0.177736
 21
0.408415
 31
0.0
  0
TEXT
  8
1
  6
CONTINUOUS
 62
   250
 10
-0.266969
 20
0.235898
 30
0.0
 40
0.010221
  1
ADJUST
 41
1.011111
  7
SIMPLEX
  0
INSERT
  8
1
 62
   250
  2
BOURNPOT
 10
-0.271025
 20
0.258342
 30
0.0
 41
0.162242
 42
0.162242
  0
TEXT
  8
1
  6
CONTINUOUS
 62
   250
 10
-0.17368
 20
0.341355
 30
0.0
 40
0.010221
  1
WAVE
 41
1.011111
  7
SIMPLEX
  0
TEXT
  8
1
  6
CONTINUOUS
 62
   250
 10
-0.17368
 20
0.357579
 30
0.0
 40
0.010221
  1
FULL
 41
1.011111
  7
SIMPLEX
  0
CIRCLE
  8
1
  6
CONTINUOUS
 62
   250
 10
-0.243985
 20
0.462496
 30
0.0
 40
0.009013
  0
LINE
  8
1
  6
CONTINUOUS
 62
   250
 10
-0.243985
 20
0.453482
 30
0.0
 11
-0.243985
 21
0.471509
 31
0.0
  0
TEXT
  8
1
  6
CONTINUOUS
 62
   250
 10
-0.226971
 20
0.440555
 30
0.0
 40
0.020443
  1
+
 50
270.0
 41
1.111111
  7
SIMPLEX
  0
CIRCLE
  8
1
  6
CONTINUOUS
 62
   250
 10
-0.243985
 20
0.426442
 30
0.0
 40
0.009013
  0
LINE
  8
1
  6
CONTINUOUS
 62
   250
 10
-0.250358
 20
0.432815
 30
0.0
 11
-0.237612
 21
0.420069
 31
0.0
  0
INSERT
  8
1
 62
   250
  2
STRIP3
 10
-0.230465
 20
0.371911
 30
0.0
 41
0.162242
 42
0.162242
  0
INSERT
  8
1
 62
   250
  2
STRIP3
 10
-0.230465
 20
0.355687
 30
0.0
 41
0.162242
 42
0.162242
  0
LINE
  8
1
  6
CONTINUOUS
 62
   250
 10
-0.230465
 20
0.339463
 30
0.0
 11
-0.181792
 21
0.339463
 31
0.0
  0
TEXT
  8
1
  6
CONTINUOUS
 62
   250
 10
-0.192068
 20
0.282678
 30
0.0
 40
0.010221
  1
R2
 50
270.0
 41
1.011111
  7
SIMPLEX
  0
LINE
  8
1
  6
CONTINUOUS
 62
   250
 10
0.193853
 20
0.178623
 30
0.0
 11
0.193853
 21
0.049034
 31
0.0
  0
LINE
  8
1
  6
CONTINUOUS
 62
   250
 10
0.098227
 20
0.062334
 30
0.0
 11
0.10994
 21
0.075045
 31
0.0
  0
LINE
  8
1
  6
CONTINUOUS
 62
   250
 10
0.10994
 20
0.075045
 30
0.0
 11
0.092223
 21
0.092217
 31
0.0
  0
LINE
  8
1
  6
CONTINUOUS
 62
   250
 10
0.069668
 20
0.077318
 30
0.0
 11
0.087915
 21
0.077318
 31
0.0
  0
LINE
  8
1
  6
CONTINUOUS
 62
   250
 10
0.014985
 20
0.077318
 30
0.0
 11
0.033232
 21
0.077318
 31
0.0
  0
LINE
  8
1
  6
CONTINUOUS
 62
   250
 10
0.043544
 20
0.062334
 30
0.0
 11
0.055257
 21
0.075045
 31
0.0
  0
LINE
  8
1
  6
CONTINUOUS
 62
   250
 10
0.055257
 20
0.075045
 30
0.0
 11
0.03754
 21
0.092217
 31
0.0
  0
LINE
  8
1
  6
CONTINUOUS
 62
   250
 10
-0.038943
 20
0.077318
 30
0.0
 11
-0.020696
 21
0.077318
 31
0.0
  0
LINE
  8
1
  6
CONTINUOUS
 62
   250
 10
-0.065125
 20
0.062334
 30
0.0
 11
-0.053413
 21
0.075045
 31
0.0
  0
LINE
  8
1
  6
CONTINUOUS
 62
   250
 10
-0.053413
 20
0.075045
 30
0.0
 11
-0.071129
 21
0.092217
 31
0.0
  0
LINE
  8
1
  6
CONTINUOUS
 62
   250
 10
-0.010384
 20
0.062334
 30
0.0
 11
0.001329
 21
0.075045
 31
0.0
  0
LINE
  8
1
  6
CONTINUOUS
 62
   250
 10
0.001329
 20
0.075045
 30
0.0
 11
-0.016388
 21
0.092217
 31
0.0
  0
LINE
  8
1
  6
CONTINUOUS
 62
   250
 10
0.24319
 20
0.117596
 30
0.0
 11
0.251442
 21
0.146552
 31
0.0
  0
LINE
  8
1
  6
CONTINUOUS
 62
   250
 10
0.193853
 20
0.113829
 30
0.0
 11
0.217098
 21
0.113829
 31
0.0
  0
LINE
  8
1
  6
CONTINUOUS
 62
   250
 10
0.21425
 20
0.113471
 30
0.0
 11
0.24319
 21
0.117596
 31
0.0
  0
LINE
  8
1
  6
CONTINUOUS
 62
   250
 10
0.152213
 20
0.062334
 30
0.0
 11
0.163926
 21
0.075045
 31
0.0
  0
LINE
  8
1
  6
CONTINUOUS
 62
   250
 10
0.163926
 20
0.075045
 30
0.0
 11
0.146209
 21
0.092217
 31
0.0
  0
LINE
  8
1
  6
CONTINUOUS
 62
   250
 10
0.123654
 20
0.077318
 30
0.0
 11
0.141901
 21
0.077318
 31
0.0
  0
LINE
  8
1
  6
CONTINUOUS
 62
   250
 10
0.177582
 20
0.077318
 30
0.0
 11
0.193853
 21
0.077318
 31
0.0
  0
LINE
  8
1
  6
CONTINUOUS
 62
   250
 10
0.241388
 20
0.453482
 30
0.0
 11
0.241388
 21
0.471509
 31
0.0
  0
CIRCLE
  8
1
  6
CONTINUOUS
 62
   250
 10
0.241388
 20
0.462496
 30
0.0
 40
0.009013
  0
TEXT
  8
1
  6
CONTINUOUS
 62
   250
 10
0.217863
 20
0.457088
 30
0.0
 40
0.010221
  1
3
 50
90.0
 41
1.111111
  7
SIMPLEX
  0
LINE
  8
1
  6
CONTINUOUS
 62
   250
 10
0.247761
 20
0.432815
 30
0.0
 11
0.235014
 21
0.420069
 31
0.0
  0
CIRCLE
  8
1
  6
CONTINUOUS
 62
   250
 10
0.241388
 20
0.426442
 30
0.0
 40
0.009013
  0
TEXT
  8
1
  6
CONTINUOUS
 62
   250
 10
0.217863
 20
0.420583
 30
0.0
 40
0.010221
  1
1
 50
90.0
 41
1.111111
  7
SIMPLEX
  0
LINE
  8
1
  6
CONTINUOUS
 62
   250
 10
0.256316
 20
0.360275
 30
0.0
 11
0.253411
 21
0.360275
 31
0.0
  0
LINE
  8
1
  6
CONTINUOUS
 62
   250
 10
0.256549
 20
0.358002
 30
0.0
 11
0.259861
 21
0.360275
 31
0.0
  0
LINE
  8
1
  6
CONTINUOUS
 62
   250
 10
0.259861
 20
0.360275
 30
0.0
 11
0.256955
 21
0.360275
 31
0.0
  0
LINE
  8
1
  6
CONTINUOUS
 62
   250
 10
0.258641
 20
0.348995
 30
0.0
 11
0.258641
 21
0.356529
 31
0.0
  0
LINE
  8
1
  6
CONTINUOUS
 62
   250
 10
0.258641
 20
0.352531
 30
0.0
 11
0.268868
 21
0.352531
 31
0.0
  0
LINE
  8
1
  6
CONTINUOUS
 62
   250
 10
0.253004
 20
0.352531
 30
0.0
 11
0.253004
 21
0.356319
 31
0.0
  0
LINE
  8
1
  6
CONTINUOUS
 62
   250
 10
0.253004
 20
0.349206
 30
0.0
 11
0.253004
 21
0.352741
 31
0.0
  0
LINE
  8
1
  6
CONTINUOUS
 62
   250
 10
0.238999
 20
0.352531
 30
0.0
 11
0.253004
 21
0.352531
 31
0.0
  0
LINE
  8
1
  6
CONTINUOUS
 62
   250
 10
0.253004
 20
0.356319
 30
0.0
 11
0.258408
 21
0.352531
 31
0.0
  0
LINE
  8
1
  6
CONTINUOUS
 62
   250
 10
0.258408
 20
0.352531
 30
0.0
 11
0.253004
 21
0.349206
 31
0.0
  0
LINE
  8
1
  6
CONTINUOUS
 62
   250
 10
0.253004
 20
0.358002
 30
0.0
 11
0.256316
 21
0.360275
 31
0.0
  0
CIRCLE
  8
1
  6
CONTINUOUS
 62
   250
 10
0.253294
 20
0.353162
 30
0.0
 40
0.016632
  0
LINE
  8
1
  6
CONTINUOUS
 62
   250
 10
0.253411
 20
0.360275
 30
0.0
 11
0.256142
 21
0.363221
 31
0.0
  0
LINE
  8
1
  6
CONTINUOUS
 62
   250
 10
0.256955
 20
0.360275
 30
0.0
 11
0.259687
 21
0.363221
 31
0.0
  0
LINE
  8
1
  6
CONTINUOUS
 62
   250
 10
0.175139
 20
0.408415
 30
0.0
 11
0.268428
 21
0.408415
 31
0.0
  0
LINE
  8
1
  6
CONTINUOUS
 62
   250
 10
-0.271025
 20
0.481424
 30
0.0
 11
-0.177736
 21
0.481424
 31
0.0
  0
LINE
  8
1
  6
CONTINUOUS
 62
   250
 10
-0.293401
 20
0.552097
 30
0.0
 11
-0.294568
 21
0.524799
 31
0.0
  0
LINE
  8
1
  6
CONTINUOUS
 62
   250
 10
0.175139
 20
0.481424
 30
0.0
 11
0.268428
 21
0.481424
 31
0.0
  0
LINE
  8
1
  6
CONTINUOUS
 62
   250
 10
0.294568
 20
0.524799
 30
0.0
 11
0.294568
 21
0.027298
 31
0.0
  0
LINE
  8
1
  6
CONTINUOUS
 62
   250
 10
0.293401
 20
0.0
 30
0.0
 11
0.294568
 21
0.027298
 31
0.0
  0
LINE
  8
1
  6
CONTINUOUS
 62
   250
 10
0.293401
 20
0.552097
 30
0.0
 11
0.294568
 21
0.524799
 31
0.0
  0
ENDSEC
  0
EOF
