  0
SECTION
  2
HEADER
  9
$ACADVER
  1
AC1009
  9
$INSBASE
 10
0.0
 20
0.0
 30
0.0
  9
$EXTMIN
 10
-0.314349
 20
0.0
 30
0.0
  9
$EXTMAX
 10
0.322421
 20
0.999999
 30
0.0
  9
$LIMMIN
 10
13.693688
 20
14.290391
  9
$LIMMAX
 10
14.330459
 20
15.29039
  9
$ORTHOMODE
 70
     1
  9
$REGENMODE
 70
     1
  9
$FILLMODE
 70
     1
  9
$QTEXTMODE
 70
     0
  9
$MIRRTEXT
 70
     1
  9
$DRAGMODE
 70
     2
  9
$LTSCALE
 40
1.0
  9
$OSMODE
 70
     0
  9
$ATTMODE
 70
     2
  9
$TEXTSIZE
 40
1.0
  9
$TRACEWID
 40
0.05
  9
$TEXTSTYLE
  7
STANDARD
  9
$CLAYER
  8
0
  9
$CELTYPE
  6
BYLAYER
  9
$CECOLOR
 62
   256
  9
$DIMSCALE
 40
1.0
  9
$DIMASZ
 40
1.0
  9
$DIMEXO
 40
0.5
  9
$DIMDLI
 40
0.38
  9
$DIMRND
 40
0.0
  9
$DIMDLE
 40
0.0
  9
$DIMEXE
 40
0.5
  9
$DIMTP
 40
0.0
  9
$DIMTM
 40
0.0
  9
$DIMTXT
 40
0.18
  9
$DIMCEN
 40
0.09
  9
$DIMTSZ
 40
0.0
  9
$DIMTOL
 70
     0
  9
$DIMLIM
 70
     0
  9
$DIMTIH
 70
     1
  9
$DIMTOH
 70
     1
  9
$DIMSE1
 70
     0
  9
$DIMSE2
 70
     0
  9
$DIMTAD
 70
     0
  9
$DIMZIN
 70
     0
  9
$DIMBLK
  1

  9
$DIMASO
 70
     1
  9
$DIMSHO
 70
     1
  9
$DIMPOST
  1
"
  9
$DIMAPOST
  1

  9
$DIMALT
 70
     0
  9
$DIMALTD
 70
     2
  9
$DIMALTF
 40
25.4
  9
$DIMLFAC
 40
1.0
  9
$DIMTOFL
 70
     0
  9
$DIMTVP
 40
0.0
  9
$DIMTIX
 70
     0
  9
$DIMSOXD
 70
     0
  9
$DIMSAH
 70
     0
  9
$DIMBLK1
  1

  9
$DIMBLK2
  1

  9
$DIMSTYLE
  2
*UNNAMED
  9
$DIMCLRD
 70
     0
  9
$DIMCLRE
 70
     0
  9
$DIMCLRT
 70
     0
  9
$DIMTFAC
 40
1.0
  9
$DIMGAP
 40
0.09
  9
$LUNITS
 70
     2
  9
$LUPREC
 70
     3
  9
$SKETCHINC
 40
0.1
  9
$FILLETRAD
 40
0.0
  9
$AUNITS
 70
     0
  9
$AUPREC
 70
     3
  9
$MENU
  1
acad
  9
$ELEVATION
 40
0.0
  9
$PELEVATION
 40
0.0
  9
$THICKNESS
 40
0.0
  9
$LIMCHECK
 70
     0
  9
$BLIPMODE
 70
     0
  9
$CHAMFERA
 40
0.5
  9
$CHAMFERB
 40
0.5
  9
$SKPOLY
 70
     0
  9
$TDCREATE
 40
2450081.667415856
  9
$TDUPDATE
 40
2450081.667415856
  9
$TDINDWG
 40
0.0000000000
  9
$TDUSRTIMER
 40
0.0000000000
  9
$USRTIMER
 70
     1
  9
$ANGBASE
 50
0.0
  9
$ANGDIR
 70
     0
  9
$PDMODE
 70
     2
  9
$PDSIZE
 40
0.0
  9
$PLINEWID
 40
0.0
  9
$COORDS
 70
     1
  9
$SPLFRAME
 70
     0
  9
$SPLINETYPE
 70
     6
  9
$SPLINESEGS
 70
     8
  9
$ATTDIA
 70
     0
  9
$ATTREQ
 70
     1
  9
$HANDLING
 70
     0
  9
$HANDSEED
  5
0
  9
$SURFTAB1
 70
     6
  9
$SURFTAB2
 70
     6
  9
$SURFTYPE
 70
     6
  9
$SURFU
 70
     6
  9
$SURFV
 70
     6
  9
$UCSNAME
  2

  9
$UCSORG
 10
0.0
 20
0.0
 30
0.0
  9
$UCSXDIR
 10
1.0
 20
0.0
 30
0.0
  9
$UCSYDIR
 10
0.0
 20
1.0
 30
0.0
  9
$PUCSNAME
  2

  9
$PUCSORG
 10
0.0
 20
0.0
 30
0.0
  9
$PUCSXDIR
 10
1.0
 20
0.0
 30
0.0
  9
$PUCSYDIR
 10
0.0
 20
1.0
 30
0.0
  9
$USERI1
 70
     0
  9
$USERI2
 70
     0
  9
$USERI3
 70
     0
  9
$USERI4
 70
     0
  9
$USERI5
 70
     0
  9
$USERR1
 40
0.0
  9
$USERR2
 40
0.0
  9
$USERR3
 40
0.0
  9
$USERR4
 40
0.0
  9
$USERR5
 40
0.0
  9
$WORLDVIEW
 70
     1
  9
$SHADEDGE
 70
     3
  9
$SHADEDIF
 70
    70
  9
$TILEMODE
 70
     1
  9
$MAXACTVP
 70
    16
  9
$PINSBASE
 10
-0.139527
 20
50.0
 30
0.05193
  9
$PLIMCHECK
 70
     0
  9
$PEXTMIN
 10
1.000000E+20
 20
1.000000E+20
 30
1.000000E+20
  9
$PEXTMAX
 10
-1.000000E+20
 20
-1.000000E+20
 30
-1.000000E+20
  9
$PLIMMIN
 10
0.0
 20
0.0
  9
$PLIMMAX
 10
12.0
 20
9.0
  9
$UNITMODE
 70
     0
  9
$VISRETAIN
 70
     0
  9
$PLINEGEN
 70
     0
  9
$PSLTSCALE
 70
     1
  9
$TREEDEPTH
 70
  3020
  9
$DWGCODEPAGE
  3
ascii
  0
ENDSEC
  0
SECTION
  2
TABLES
  0
TABLE
  2
VPORT
 70
     1
  0
VPORT
  2
*ACTIVE
 70
     0
 10
0.0
 20
0.0
 11
1.0
 21
1.0
 12
10.295242
 22
7.643338
 13
0.0
 23
0.0
 14
1.0
 24
1.0
 15
1.0
 25
1.0
 16
0.0
 26
0.0
 36
1.0
 17
0.0
 27
0.0
 37
0.0
 40
15.294105
 41
1.387409
 42
50.0
 43
0.0
 44
0.0
 50
0.0
 51
0.0
 71
     0
 72
   100
 73
     1
 74
     1
 75
     0
 76
     0
 77
     0
 78
     0
  0
ENDTAB
  0
TABLE
  2
LTYPE
 70
     1
  0
LTYPE
  2
CONTINUOUS
 70
    64
  3
SOLID LINE
 72
    65
 73
     0
 40
0.0
  0
ENDTAB
  0
TABLE
  2
LAYER
 70
     2
  0
LAYER
  2
0
 70
    64
 62
     2
  6
CONTINUOUS
  0
LAYER
  2
1
 70
    64
 62
     4
  6
CONTINUOUS
  0
ENDTAB
  0
TABLE
  2
STYLE
 70
     2
  0
STYLE
  2
STANDARD
 70
     0
 40
0.0
 41
1.0
 50
0.0
 71
     0
 42
0.2
  3
txt
  4

  0
STYLE
  2
SIMPLEX
 70
    64
 40
0.0
 41
1.0
 50
0.0
 71
     0
 42
1.0
  3
ROMANS.SHX
  4

  0
ENDTAB
  0
TABLE
  2
VIEW
 70
     0
  0
ENDTAB
  0
TABLE
  2
UCS
 70
     0
  0
ENDTAB
  0
TABLE
  2
APPID
 70
     1
  0
APPID
  2
ACAD
 70
    64
  0
ENDTAB
  0
TABLE
  2
DIMSTYLE
 70
     0
  0
ENDTAB
  0
ENDSEC
  0
SECTION
  2
BLOCKS
  0
BLOCK
  8
0
  2
STRIP3
 70
    64
 10
0.0
 20
0.0
 30
0.0
  3
STRIP3
  0
LINE
  8
1
  6
CONTINUOUS
 62
   250
 10
0.3
 20
0.0
 30
0.0
 11
0.0
 21
0.0
 31
0.0
  0
LINE
  8
1
  6
CONTINUOUS
 62
   250
 10
0.0
 20
0.0
 30
0.0
 11
0.0
 21
-0.1
 31
0.0
  0
CIRCLE
  8
1
  6
CONTINUOUS
 62
   250
 10
0.05
 20
-0.05
 30
0.0
 40
0.01
  0
CIRCLE
  8
1
  6
CONTINUOUS
 62
   250
 10
0.25
 20
-0.05
 30
0.0
 40
0.01
  0
CIRCLE
  8
1
  6
CONTINUOUS
 62
   250
 10
0.15
 20
-0.05
 30
0.0
 40
0.01
  0
LINE
  8
1
  6
CONTINUOUS
 62
   250
 10
0.3
 20
-0.1
 30
0.0
 11
0.3
 21
0.0
 31
0.0
  0
ENDBLK
  8
0
  0
ENDSEC
  0
SECTION
  2
ENTITIES
  0
LINE
  8
1
  6
CONTINUOUS
 62
   250
 10
0.138565
 20
0.825111
 30
0.0
 11
0.201345
 21
0.825111
 31
0.0
  0
LINE
  8
1
  6
CONTINUOUS
 62
   250
 10
0.138565
 20
0.887891
 30
0.0
 11
0.201345
 21
0.887891
 31
0.0
  0
TEXT
  8
1
  6
CONTINUOUS
 62
   250
 10
0.158139
 20
0.792528
 30
0.0
 40
0.035314
  1
{
 50
90.0
 41
1.111111
  7
SIMPLEX
  0
TEXT
  8
1
  6
CONTINUOUS
 62
   250
 10
0.121168
 20
0.746486
 30
0.0
 40
0.0113
  1
24VAC
 41
1.011111
  7
SIMPLEX
 72
     1
 11
0.147556
 21
0.746486
 31
0.0
  0
TEXT
  8
1
  6
CONTINUOUS
 62
   250
 10
0.114542
 20
0.766815
 30
0.0
 40
0.0113
  1
230VAC
 41
1.011111
  7
SIMPLEX
 72
     1
 11
0.14637
 21
0.766815
 31
0.0
  0
LINE
  8
1
  6
CONTINUOUS
 62
   250
 10
0.203587
 20
0.905829
 30
0.0
 11
0.136323
 21
0.905829
 31
0.0
  0
LINE
  8
1
  6
CONTINUOUS
 62
   250
 10
0.136323
 20
0.807174
 30
0.0
 11
0.203587
 21
0.807174
 31
0.0
  0
LINE
  8
1
  6
CONTINUOUS
 62
   250
 10
0.172197
 20
0.089685
 30
0.0
 11
0.127354
 21
0.089685
 31
0.0
  0
LINE
  8
1
  6
CONTINUOUS
 62
   250
 10
0.127354
 20
0.049326
 30
0.0
 11
0.172197
 21
0.049326
 31
0.0
  0
LINE
  8
1
  6
CONTINUOUS
 62
   250
 10
0.176682
 20
0.0426
 30
0.0
 11
0.12287
 21
0.0426
 31
0.0
  0
LINE
  8
1
  6
CONTINUOUS
 62
   250
 10
0.12287
 20
0.096412
 30
0.0
 11
0.176682
 21
0.096412
 31
0.0
  0
LINE
  8
1
  6
CONTINUOUS
 62
   250
 10
-0.23139
 20
0.15695
 30
0.0
 11
0.234978
 21
0.15695
 31
0.0
  0
LINE
  8
1
  6
CONTINUOUS
 62
   250
 10
-0.23139
 20
0.5426
 30
0.0
 11
0.234978
 21
0.5426
 31
0.0
  0
LINE
  8
1
  6
CONTINUOUS
 62
   250
 10
-0.210762
 20
0.017937
 30
0.0
 11
0.210762
 21
0.017937
 31
0.0
  0
LINE
  8
1
  6
CONTINUOUS
 62
   250
 10
0.273542
 20
0.0
 30
0.0
 11
-0.273542
 21
0.0
 31
0.0
  0
LINE
  8
1
  6
CONTINUOUS
 62
   250
 10
0.210762
 20
0.982062
 30
0.0
 11
-0.210762
 21
0.982062
 31
0.0
  0
LINE
  8
1
  6
CONTINUOUS
 62
   250
 10
0.273542
 20
0.999999
 30
0.0
 11
-0.273542
 21
0.999999
 31
0.0
  0
LINE
  8
1
  6
CONTINUOUS
 62
   250
 10
-0.23139
 20
0.15695
 30
0.0
 11
-0.23139
 21
0.5426
 31
0.0
  0
LINE
  8
1
  6
CONTINUOUS
 62
   250
 10
-0.27713
 20
0.566815
 30
0.0
 11
-0.27713
 21
0.080717
 31
0.0
  0
LINE
  8
1
  6
CONTINUOUS
 62
   250
 10
-0.291479
 20
0.58251
 30
0.0
 11
-0.291479
 21
0.017937
 31
0.0
  0
LINE
  8
1
  6
CONTINUOUS
 62
   250
 10
-0.267264
 20
0.085202
 30
0.0
 11
-0.267264
 21
0.566815
 31
0.0
  0
LINE
  8
1
  6
CONTINUOUS
 62
   250
 10
-0.143561
 20
0.056438
 30
0.0
 11
-0.130878
 21
0.069121
 31
0.0
  0
TEXT
  8
1
  6
CONTINUOUS
 62
   250
 10
-0.132735
 20
0.080716
 30
0.0
 40
0.0113
  1
GND
 50
90.0
 41
1.011111
  7
SIMPLEX
  0
CIRCLE
  8
1
  6
CONTINUOUS
 62
   250
 10
-0.13722
 20
0.062779
 30
0.0
 40
0.008969
  0
LINE
  8
1
  6
CONTINUOUS
 62
   250
 10
-0.162892
 20
0.12556
 30
0.0
 11
-0.114798
 21
0.12556
 31
0.0
  0
LINE
  8
1
  6
CONTINUOUS
 62
   250
 10
-0.191031
 20
0.026905
 30
0.0
 11
-0.083408
 21
0.026905
 31
0.0
  0
ARC
  8
1
  6
CONTINUOUS
 62
   250
 10
-0.273542
 20
0.017937
 30
0.0
 40
0.017937
 50
179.999725
 51
270.000275
  0
LINE
  8
1
  6
CONTINUOUS
 62
   250
 10
-0.191031
 20
0.12556
 30
0.0
 11
-0.186547
 21
0.12556
 31
0.0
  0
TEXT
  8
1
  6
CONTINUOUS
 62
   250
 10
-0.178176
 20
0.035873
 30
0.0
 40
0.0113
  1
1
 41
1.111111
  7
SIMPLEX
  0
CIRCLE
  8
1
  6
CONTINUOUS
 62
   250
 10
-0.173094
 20
0.062779
 30
0.0
 40
0.008969
  0
LINE
  8
1
  6
CONTINUOUS
 62
   250
 10
-0.164126
 20
0.062779
 30
0.0
 11
-0.182063
 21
0.062779
 31
0.0
  0
TEXT
  8
1
  6
CONTINUOUS
 62
   250
 10
-0.16861
 20
0.080716
 30
0.0
 40
0.0113
  1
TIMER
 50
90.0
 41
1.011111
  7
SIMPLEX
  0
LINE
  8
1
  6
CONTINUOUS
 62
   250
 10
-0.170403
 20
0.0
 30
0.0
 11
-0.170403
 21
0.017937
 31
0.0
  0
LINE
  8
1
  6
CONTINUOUS
 62
   250
 10
-0.191031
 20
0.026905
 30
0.0
 11
-0.191031
 21
0.12556
 31
0.0
  0
LINE
  8
1
  6
CONTINUOUS
 62
   250
 10
-0.27713
 20
0.080717
 30
0.0
 11
-0.251121
 21
0.080717
 31
0.0
  0
ARC
  8
1
  6
CONTINUOUS
 62
   250
 10
-0.251121
 20
0.040359
 30
0.0
 40
0.040359
 50
359.999756
 51
90.000206
  0
LINE
  8
1
  6
CONTINUOUS
 62
   250
 10
-0.267264
 20
0.085202
 30
0.0
 11
-0.2
 21
0.085202
 31
0.0
  0
CIRCLE
  8
1
  6
CONTINUOUS
 62
   250
 10
-0.251121
 20
0.040359
 30
0.0
 40
0.028251
  0
CIRCLE
  8
1
  6
CONTINUOUS
 62
   250
 10
-0.251121
 20
0.040359
 30
0.0
 40
0.017578
  0
LINE
  8
1
  6
CONTINUOUS
 62
   250
 10
-0.210762
 20
0.040359
 30
0.0
 11
-0.210762
 21
0.017937
 31
0.0
  0
LINE
  8
1
  6
CONTINUOUS
 62
   250
 10
-0.2
 20
0.085202
 30
0.0
 11
-0.2
 21
0.017937
 31
0.0
  0
LINE
  8
1
  6
CONTINUOUS
 62
   250
 10
-0.007175
 20
0.049326
 30
0.0
 11
0.127354
 21
0.049326
 31
0.0
  0
LINE
  8
1
  6
CONTINUOUS
 62
   250
 10
0.127354
 20
0.089685
 30
0.0
 11
-0.007175
 21
0.089685
 31
0.0
  0
LINE
  8
1
  6
CONTINUOUS
 62
   250
 10
0.127354
 20
0.062779
 30
0.0
 11
-0.007175
 21
0.076232
 31
0.0
  0
LINE
  8
1
  6
CONTINUOUS
 62
   250
 10
-0.002691
 20
0.089685
 30
0.0
 11
-0.002691
 21
0.096412
 31
0.0
  0
LINE
  8
1
  6
CONTINUOUS
 62
   250
 10
-0.002691
 20
0.0426
 30
0.0
 11
-0.002691
 21
0.049326
 31
0.0
  0
LINE
  8
1
  6
CONTINUOUS
 62
   250
 10
-0.007175
 20
0.049326
 30
0.0
 11
-0.007175
 21
0.089685
 31
0.0
  0
LINE
  8
1
  6
CONTINUOUS
 62
   250
 10
-0.092377
 20
0.12556
 30
0.0
 11
-0.083408
 21
0.12556
 31
0.0
  0
LINE
  8
1
  6
CONTINUOUS
 62
   250
 10
-0.065471
 20
0.076232
 30
0.0
 11
-0.056502
 21
0.076232
 31
0.0
  0
LINE
  8
1
  6
CONTINUOUS
 62
   250
 10
-0.056502
 20
0.062779
 30
0.0
 11
-0.065471
 21
0.062779
 31
0.0
  0
LINE
  8
1
  6
CONTINUOUS
 62
   250
 10
-0.052018
 20
0.089685
 30
0.0
 11
-0.052018
 21
0.049326
 31
0.0
  0
LINE
  8
1
  6
CONTINUOUS
 62
   250
 10
-0.056502
 20
0.0426
 30
0.0
 11
-0.056502
 21
0.096412
 31
0.0
  0
LINE
  8
1
  6
CONTINUOUS
 62
   250
 10
-0.065471
 20
0.062779
 30
0.0
 11
-0.065471
 21
0.076232
 31
0.0
  0
LINE
  8
1
  6
CONTINUOUS
 62
   250
 10
-0.052018
 20
0.049326
 30
0.0
 11
-0.007175
 21
0.049326
 31
0.0
  0
LINE
  8
1
  6
CONTINUOUS
 62
   250
 10
-0.007175
 20
0.089685
 30
0.0
 11
-0.052018
 21
0.089685
 31
0.0
  0
LINE
  8
1
  6
CONTINUOUS
 62
   250
 10
-0.056502
 20
0.0426
 30
0.0
 11
-0.002691
 21
0.0426
 31
0.0
  0
LINE
  8
1
  6
CONTINUOUS
 62
   250
 10
-0.056502
 20
0.096412
 30
0.0
 11
-0.002691
 21
0.096412
 31
0.0
  0
LINE
  8
1
  6
CONTINUOUS
 62
   250
 10
-0.083408
 20
0.12556
 30
0.0
 11
-0.083408
 21
0.026905
 31
0.0
  0
TEXT
  8
1
  6
CONTINUOUS
 62
   250
 10
-0.107324
 20
0.035873
 30
0.0
 40
0.0113
  1
3
 41
1.111111
  7
SIMPLEX
  0
TEXT
  8
1
  6
CONTINUOUS
 62
   250
 10
-0.143199
 20
0.035873
 30
0.0
 40
0.0113
  1
2
 41
1.111111
  7
SIMPLEX
  0
TEXT
  8
1
  6
CONTINUOUS
 62
   250
 10
-0.096861
 20
0.080716
 30
0.0
 40
0.0113
  1
+VDC
 50
90.0
 41
1.011111
  7
SIMPLEX
  0
LINE
  8
1
  6
CONTINUOUS
 62
   250
 10
-0.107687
 20
0.056438
 30
0.0
 11
-0.095004
 21
0.069121
 31
0.0
  0
CIRCLE
  8
1
  6
CONTINUOUS
 62
   250
 10
-0.101345
 20
0.062779
 30
0.0
 40
0.008969
  0
LINE
  8
1
  6
CONTINUOUS
 62
   250
 10
0.12287
 20
0.089685
 30
0.0
 11
0.12287
 21
0.096412
 31
0.0
  0
LINE
  8
1
  6
CONTINUOUS
 62
   250
 10
0.12287
 20
0.0426
 30
0.0
 11
0.12287
 21
0.049326
 31
0.0
  0
LINE
  8
1
  6
CONTINUOUS
 62
   250
 10
0.127354
 20
0.049326
 30
0.0
 11
0.127354
 21
0.089685
 31
0.0
  0
TEXT
  8
1
  6
CONTINUOUS
 62
   250
 10
0.015352
 20
0.12556
 30
0.0
 40
0.0113
  1
2A/250V
 41
1.011111
  7
SIMPLEX
 72
     2
 11
0.08989
 21
0.12556
 31
0.0
  0
TEXT
  8
1
  6
CONTINUOUS
 62
   250
 10
0.013671
 20
0.105231
 30
0.0
 40
0.0113
  1
3AG FUSE
 41
1.011111
  7
SIMPLEX
 72
     2
 11
0.099091
 21
0.105231
 31
0.0
  0
TEXT
  8
1
  6
CONTINUOUS
 62
   250
 10
0.05201
 20
0.026905
 30
0.0
 40
0.0113
  1
F1
 41
1.011111
  7
SIMPLEX
 72
     1
 11
0.060987
 21
0.026905
 31
0.0
  0
LINE
  8
1
  6
CONTINUOUS
 62
   250
 10
-0.177578
 20
0.95964
 30
0.0
 11
-0.10583
 21
0.95964
 31
0.0
  0
LINE
  8
1
  6
CONTINUOUS
 62
   250
 10
-0.177578
 20
0.856501
 30
0.0
 11
-0.10583
 21
0.856501
 31
0.0
  0
TEXT
  8
1
  6
CONTINUOUS
 62
   250
 10
-0.16181
 20
0.901344
 30
0.0
 40
0.0113
  1
TIME
 41
1.011111
  7
SIMPLEX
 72
     1
 11
-0.143856
 21
0.901344
 31
0.0
  0
TEXT
  8
1
  6
CONTINUOUS
 62
   250
 10
-0.17318
 20
0.881015
 30
0.0
 40
0.0113
  1
CLOCK
 41
1.011111
  7
SIMPLEX
 72
     1
 11
-0.145432
 21
0.881015
 31
0.0
  0
TEXT
  8
1
  6
CONTINUOUS
 62
   250
 10
-0.171152
 20
0.860687
 30
0.0
 40
0.0113
  1
INPUT
 41
1.011111
  7
SIMPLEX
 72
     1
 11
-0.146125
 21
0.860687
 31
0.0
  0
CIRCLE
  8
1
  6
CONTINUOUS
 62
   250
 10
-0.096861
 20
0.672645
 30
0.0
 40
0.121076
  0
LINE
  8
1
  6
CONTINUOUS
 62
   250
 10
-0.240359
 20
0.802241
 30
0.0
 11
-0.240359
 21
0.600448
 31
0.0
  0
LINE
  8
1
  6
CONTINUOUS
 62
   250
 10
-0.314349
 20
0.820178
 30
0.0
 11
-0.314349
 21
0.58251
 31
0.0
  0
LINE
  8
1
  6
CONTINUOUS
 62
   250
 10
-0.278475
 20
0.835873
 30
0.0
 11
-0.278475
 21
0.566815
 31
0.0
  0
LINE
  8
1
  6
CONTINUOUS
 62
   250
 10
-0.314349
 20
0.58251
 30
0.0
 11
-0.278475
 21
0.58251
 31
0.0
  0
LINE
  8
1
  6
CONTINUOUS
 62
   250
 10
-0.233632
 20
0.600448
 30
0.0
 11
-0.240359
 21
0.600448
 31
0.0
  0
LINE
  8
1
  6
CONTINUOUS
 62
   250
 10
-0.233632
 20
0.566815
 30
0.0
 11
-0.233632
 21
0.600448
 31
0.0
  0
CIRCLE
  8
1
  6
CONTINUOUS
 62
   250
 10
-0.247085
 20
0.58251
 30
0.0
 40
0.00852
  0
LINE
  8
1
  6
CONTINUOUS
 62
   250
 10
-0.278475
 20
0.566815
 30
0.0
 11
-0.234305
 21
0.566815
 31
0.0
  0
TEXT
  8
1
  6
CONTINUOUS
 62
   250
 10
-0.256876
 20
0.772262
 30
0.0
 40
0.008072
  1
Male DIN Connector
 50
270.0
 41
1.011111
  7
SIMPLEX
  0
ARC
  8
1
  6
CONTINUOUS
 62
   250
 10
-0.273542
 20
0.982062
 30
0.0
 40
0.017937
 50
89.999908
 51
180.000381
  0
LINE
  8
1
  6
CONTINUOUS
 62
   250
 10
-0.278475
 20
0.820178
 30
0.0
 11
-0.314349
 21
0.820178
 31
0.0
  0
LINE
  8
1
  6
CONTINUOUS
 62
   250
 10
-0.291479
 20
0.982062
 30
0.0
 11
-0.291479
 21
0.820178
 31
0.0
  0
LINE
  8
1
  6
CONTINUOUS
 62
   250
 10
-0.165919
 20
0.982062
 30
0.0
 11
-0.165919
 21
0.999999
 31
0.0
  0
TEXT
  8
1
  6
CONTINUOUS
 62
   250
 10
-0.165022
 20
0.941703
 30
0.0
 40
0.0113
  1
A
 41
1.111111
  7
SIMPLEX
  0
LINE
  8
1
  6
CONTINUOUS
 62
   250
 10
-0.150673
 20
0.92825
 30
0.0
 11
-0.16861
 21
0.92825
 31
0.0
  0
CIRCLE
  8
1
  6
CONTINUOUS
 62
   250
 10
-0.159641
 20
0.92825
 30
0.0
 40
0.008969
  0
LINE
  8
1
  6
CONTINUOUS
 62
   250
 10
-0.177578
 20
0.95964
 30
0.0
 11
-0.177578
 21
0.856501
 31
0.0
  0
LINE
  8
1
  6
CONTINUOUS
 62
   250
 10
-0.251121
 20
0.919281
 30
0.0
 11
-0.27713
 21
0.919281
 31
0.0
  0
LINE
  8
1
  6
CONTINUOUS
 62
   250
 10
-0.267264
 20
0.835873
 30
0.0
 11
-0.267264
 21
0.914797
 31
0.0
  0
LINE
  8
1
  6
CONTINUOUS
 62
   250
 10
-0.27713
 20
0.919281
 30
0.0
 11
-0.27713
 21
0.835873
 31
0.0
  0
ARC
  8
1
  6
CONTINUOUS
 62
   250
 10
-0.251121
 20
0.95964
 30
0.0
 40
0.040359
 50
270.000092
 51
0.0
  0
LINE
  8
1
  6
CONTINUOUS
 62
   250
 10
-0.233632
 20
0.835873
 30
0.0
 11
-0.278475
 21
0.835873
 31
0.0
  0
LINE
  8
1
  6
CONTINUOUS
 62
   250
 10
-0.2
 20
0.914797
 30
0.0
 11
-0.267264
 21
0.914797
 31
0.0
  0
CIRCLE
  8
1
  6
CONTINUOUS
 62
   250
 10
-0.251121
 20
0.95964
 30
0.0
 40
0.028251
  0
CIRCLE
  8
1
  6
CONTINUOUS
 62
   250
 10
-0.251121
 20
0.95964
 30
0.0
 40
0.017578
  0
LINE
  8
1
  6
CONTINUOUS
 62
   250
 10
-0.210762
 20
0.982062
 30
0.0
 11
-0.210762
 21
0.95964
 31
0.0
  0
LINE
  8
1
  6
CONTINUOUS
 62
   250
 10
-0.2
 20
0.982062
 30
0.0
 11
-0.2
 21
0.914797
 31
0.0
  0
LINE
  8
1
  6
CONTINUOUS
 62
   250
 10
-0.233632
 20
0.802241
 30
0.0
 11
-0.240359
 21
0.802241
 31
0.0
  0
CIRCLE
  8
1
  6
CONTINUOUS
 62
   250
 10
-0.247085
 20
0.820178
 30
0.0
 40
0.00852
  0
LINE
  8
1
  6
CONTINUOUS
 62
   250
 10
-0.233632
 20
0.835873
 30
0.0
 11
-0.233632
 21
0.802241
 31
0.0
  0
TEXT
  8
1
  6
CONTINUOUS
 62
   250
 10
0.031337
 20
0.766815
 30
0.0
 40
0.0113
  1
115VAC
 41
1.011111
  7
SIMPLEX
 72
     1
 11
0.063981
 21
0.766815
 31
0.0
  0
LINE
  8
1
  6
CONTINUOUS
 62
   250
 10
-0.007175
 20
0.807174
 30
0.0
 11
0.06009
 21
0.807174
 31
0.0
  0
LINE
  8
1
  6
CONTINUOUS
 62
   250
 10
0.06009
 20
0.905829
 30
0.0
 11
-0.007175
 21
0.905829
 31
0.0
  0
LINE
  8
1
  6
CONTINUOUS
 62
   250
 10
-0.004933
 20
0.825111
 30
0.0
 11
0.057848
 21
0.825111
 31
0.0
  0
LINE
  8
1
  6
CONTINUOUS
 62
   250
 10
-0.004933
 20
0.887891
 30
0.0
 11
0.057848
 21
0.887891
 31
0.0
  0
LINE
  8
1
  6
CONTINUOUS
 62
   250
 10
-0.007175
 20
0.910313
 30
0.0
 11
-0.011659
 21
0.910313
 31
0.0
  0
LINE
  8
1
  6
CONTINUOUS
 62
   250
 10
-0.004933
 20
0.887891
 30
0.0
 11
-0.004933
 21
0.825111
 31
0.0
  0
LINE
  8
1
  6
CONTINUOUS
 62
   250
 10
-0.043049
 20
0.829595
 30
0.0
 11
-0.043049
 21
0.883407
 31
0.0
  0
INSERT
  8
1
 62
   250
  2
STRIP3
 10
-0.078924
 20
0.829595
 30
0.0
 41
0.179372
 42
0.179372
 50
90.0
  0
INSERT
  8
1
 62
   250
  2
STRIP3
 10
-0.060987
 20
0.829595
 30
0.0
 41
0.179372
 42
0.179372
 50
90.0
  0
TEXT
  8
1
  6
CONTINUOUS
 62
   250
 10
-0.087892
 20
0.892376
 30
0.0
 40
0.0113
  1
230VAC
 41
1.011111
  7
SIMPLEX
  0
TEXT
  8
1
  6
CONTINUOUS
 62
   250
 10
-0.130344
 20
0.941703
 30
0.0
 40
0.0113
  1
B
 41
1.111111
  7
SIMPLEX
  0
CIRCLE
  8
1
  6
CONTINUOUS
 62
   250
 10
-0.123767
 20
0.92825
 30
0.0
 40
0.008969
  0
LINE
  8
1
  6
CONTINUOUS
 62
   250
 10
-0.130109
 20
0.934592
 30
0.0
 11
-0.117425
 21
0.921908
 31
0.0
  0
LINE
  8
1
  6
CONTINUOUS
 62
   250
 10
-0.10583
 20
0.856501
 30
0.0
 11
-0.10583
 21
0.95964
 31
0.0
  0
LINE
  8
1
  6
CONTINUOUS
 62
   250
 10
-0.101345
 20
0.914797
 30
0.0
 11
-0.016143
 21
0.914797
 31
0.0
  0
LINE
  8
1
  6
CONTINUOUS
 62
   250
 10
-0.011659
 20
0.80269
 30
0.0
 11
-0.007175
 21
0.80269
 31
0.0
  0
LINE
  8
1
  6
CONTINUOUS
 62
   250
 10
-0.016143
 20
0.798205
 30
0.0
 11
-0.101345
 21
0.798205
 31
0.0
  0
LINE
  8
1
  6
CONTINUOUS
 62
   250
 10
-0.011659
 20
0.910313
 30
0.0
 11
-0.011659
 21
0.80269
 31
0.0
  0
LINE
  8
1
  6
CONTINUOUS
 62
   250
 10
-0.007175
 20
0.80269
 30
0.0
 11
-0.007175
 21
0.910313
 31
0.0
  0
LINE
  8
1
  6
CONTINUOUS
 62
   250
 10
-0.016143
 20
0.914797
 30
0.0
 11
-0.016143
 21
0.798205
 31
0.0
  0
LINE
  8
1
  6
CONTINUOUS
 62
   250
 10
-0.101345
 20
0.798205
 30
0.0
 11
-0.101345
 21
0.914797
 31
0.0
  0
TEXT
  8
1
  6
CONTINUOUS
 62
   250
 10
-0.082893
 20
0.807174
 30
0.0
 40
0.0113
  1
115VAC
 41
1.011111
  7
SIMPLEX
  0
LINE
  8
1
  6
CONTINUOUS
 62
   250
 10
0.136323
 20
0.910313
 30
0.0
 11
0.131839
 21
0.910313
 31
0.0
  0
LINE
  8
1
  6
CONTINUOUS
 62
   250
 10
0.129596
 20
0.887891
 30
0.0
 11
0.129596
 21
0.825111
 31
0.0
  0
LINE
  8
1
  6
CONTINUOUS
 62
   250
 10
0.138565
 20
0.887891
 30
0.0
 11
0.138565
 21
0.825111
 31
0.0
  0
LINE
  8
1
  6
CONTINUOUS
 62
   250
 10
0.064574
 20
0.910313
 30
0.0
 11
0.06009
 21
0.910313
 31
0.0
  0
LINE
  8
1
  6
CONTINUOUS
 62
   250
 10
0.057848
 20
0.887891
 30
0.0
 11
0.057848
 21
0.825111
 31
0.0
  0
LINE
  8
1
  6
CONTINUOUS
 62
   250
 10
0.066816
 20
0.887891
 30
0.0
 11
0.066816
 21
0.825111
 31
0.0
  0
LINE
  8
1
  6
CONTINUOUS
 62
   250
 10
0.026457
 20
0.878923
 30
0.0
 11
0.026457
 21
0.83408
 31
0.0
  0
LINE
  8
1
  6
CONTINUOUS
 62
   250
 10
0.131839
 20
0.905829
 30
0.0
 11
0.064574
 21
0.905829
 31
0.0
  0
LINE
  8
1
  6
CONTINUOUS
 62
   250
 10
0.120628
 20
0.856501
 30
0.0
 11
0.075785
 21
0.856501
 31
0.0
  0
LINE
  8
1
  6
CONTINUOUS
 62
   250
 10
0.066816
 20
0.825111
 30
0.0
 11
0.129596
 21
0.825111
 31
0.0
  0
LINE
  8
1
  6
CONTINUOUS
 62
   250
 10
0.066816
 20
0.887891
 30
0.0
 11
0.129596
 21
0.887891
 31
0.0
  0
CIRCLE
  8
1
  6
CONTINUOUS
 62
   250
 10
0.098206
 20
0.856501
 30
0.0
 40
0.022422
  0
LINE
  8
1
  6
CONTINUOUS
 62
   250
 10
0.131839
 20
0.80269
 30
0.0
 11
0.136323
 21
0.80269
 31
0.0
  0
LINE
  8
1
  6
CONTINUOUS
 62
   250
 10
0.06009
 20
0.80269
 30
0.0
 11
0.064574
 21
0.80269
 31
0.0
  0
TEXT
  8
1
  6
CONTINUOUS
 62
   250
 10
0.081906
 20
0.792528
 30
0.0
 40
0.035314
  1
{
 50
90.0
 41
1.111111
  7
SIMPLEX
  0
LINE
  8
1
  6
CONTINUOUS
 62
   250
 10
0.064574
 20
0.807174
 30
0.0
 11
0.131839
 21
0.807174
 31
0.0
  0
LINE
  8
1
  6
CONTINUOUS
 62
   250
 10
0.064574
 20
0.80269
 30
0.0
 11
0.064574
 21
0.910313
 31
0.0
  0
LINE
  8
1
  6
CONTINUOUS
 62
   250
 10
0.06009
 20
0.910313
 30
0.0
 11
0.06009
 21
0.80269
 31
0.0
  0
LINE
  8
1
  6
CONTINUOUS
 62
   250
 10
0.136323
 20
0.80269
 30
0.0
 11
0.136323
 21
0.910313
 31
0.0
  0
LINE
  8
1
  6
CONTINUOUS
 62
   250
 10
0.131839
 20
0.910313
 30
0.0
 11
0.131839
 21
0.80269
 31
0.0
  0
CIRCLE
  8
1
  6
CONTINUOUS
 62
   250
 10
0.026457
 20
0.856501
 30
0.0
 40
0.022422
  0
LINE
  8
1
  6
CONTINUOUS
 62
   250
 10
0.234978
 20
0.15695
 30
0.0
 11
0.234978
 21
0.5426
 31
0.0
  0
LINE
  8
1
  6
CONTINUOUS
 62
   250
 10
0.270852
 20
0.566815
 30
0.0
 11
0.270852
 21
0.085202
 31
0.0
  0
LINE
  8
1
  6
CONTINUOUS
 62
   250
 10
0.27713
 20
0.566815
 30
0.0
 11
0.27713
 21
0.080717
 31
0.0
  0
LINE
  8
1
  6
CONTINUOUS
 62
   250
 10
0.291479
 20
0.616143
 30
0.0
 11
0.291479
 21
0.017937
 31
0.0
  0
ARC
  8
1
  6
CONTINUOUS
 62
   250
 10
0.273542
 20
0.017937
 30
0.0
 40
0.017937
 50
270.0
 51
0.00003
  0
LINE
  8
1
  6
CONTINUOUS
 62
   250
 10
0.251121
 20
0.080717
 30
0.0
 11
0.27713
 21
0.080717
 31
0.0
  0
LINE
  8
1
  6
CONTINUOUS
 62
   250
 10
0.203587
 20
0.085202
 30
0.0
 11
0.270852
 21
0.085202
 31
0.0
  0
CIRCLE
  8
1
  6
CONTINUOUS
 62
   250
 10
0.251121
 20
0.040359
 30
0.0
 40
0.028251
  0
CIRCLE
  8
1
  6
CONTINUOUS
 62
   250
 10
0.251121
 20
0.040359
 30
0.0
 40
0.017578
  0
LINE
  8
1
  6
CONTINUOUS
 62
   250
 10
0.210762
 20
0.017937
 30
0.0
 11
0.210762
 21
0.040359
 31
0.0
  0
LINE
  8
1
  6
CONTINUOUS
 62
   250
 10
0.203587
 20
0.085202
 30
0.0
 11
0.203587
 21
0.017937
 31
0.0
  0
LINE
  8
1
  6
CONTINUOUS
 62
   250
 10
0.18565
 20
0.062779
 30
0.0
 11
0.18565
 21
0.076232
 31
0.0
  0
LINE
  8
1
  6
CONTINUOUS
 62
   250
 10
0.172197
 20
0.049326
 30
0.0
 11
0.172197
 21
0.089685
 31
0.0
  0
LINE
  8
1
  6
CONTINUOUS
 62
   250
 10
0.176682
 20
0.0426
 30
0.0
 11
0.176682
 21
0.096412
 31
0.0
  0
LINE
  8
1
  6
CONTINUOUS
 62
   250
 10
0.18565
 20
0.076232
 30
0.0
 11
0.176682
 21
0.076232
 31
0.0
  0
LINE
  8
1
  6
CONTINUOUS
 62
   250
 10
0.176682
 20
0.062779
 30
0.0
 11
0.18565
 21
0.062779
 31
0.0
  0
LINE
  8
1
  6
CONTINUOUS
 62
   250
 10
0.170403
 20
0.0
 30
0.0
 11
0.170403
 21
0.017937
 31
0.0
  0
ARC
  8
1
  6
CONTINUOUS
 62
   250
 10
0.251121
 20
0.040359
 30
0.0
 40
0.040359
 50
89.999794
 51
180.000214
  0
LINE
  8
1
  6
CONTINUOUS
 62
   250
 10
0.322421
 20
0.616143
 30
0.0
 11
0.322421
 21
0.786546
 31
0.0
  0
LINE
  8
1
  6
CONTINUOUS
 62
   250
 10
0.241704
 20
0.616143
 30
0.0
 11
0.241704
 21
0.786546
 31
0.0
  0
TEXT
  8
1
  6
CONTINUOUS
 62
   250
 10
0.252915
 20
0.780268
 30
0.0
 40
0.008072
  1
Female DIN Connector
 50
270.0
 41
1.011111
  7
SIMPLEX
  0
LINE
  8
1
  6
CONTINUOUS
 62
   250
 10
0.282062
 20
0.835873
 30
0.0
 11
0.282062
 21
0.566815
 31
0.0
  0
LINE
  8
1
  6
CONTINUOUS
 62
   250
 10
0.291479
 20
0.582959
 30
0.0
 11
0.282062
 21
0.582959
 31
0.0
  0
LINE
  8
1
  6
CONTINUOUS
 62
   250
 10
0.282062
 20
0.616143
 30
0.0
 11
0.322421
 21
0.616143
 31
0.0
  0
LINE
  8
1
  6
CONTINUOUS
 62
   250
 10
0.214798
 20
0.616143
 30
0.0
 11
0.241704
 21
0.616143
 31
0.0
  0
LINE
  8
1
  6
CONTINUOUS
 62
   250
 10
0.214798
 20
0.566815
 30
0.0
 11
0.214798
 21
0.616143
 31
0.0
  0
LINE
  8
1
  6
CONTINUOUS
 62
   250
 10
0.282062
 20
0.566815
 30
0.0
 11
0.214798
 21
0.566815
 31
0.0
  0
CIRCLE
  8
1
  6
CONTINUOUS
 62
   250
 10
0.250672
 20
0.58251
 30
0.0
 40
0.00852
  0
ARC
  8
1
  6
CONTINUOUS
 62
   250
 10
0.273542
 20
0.982062
 30
0.0
 40
0.017937
 50
359.999634
 51
90.000282
  0
LINE
  8
1
  6
CONTINUOUS
 62
   250
 10
0.291479
 20
0.816142
 30
0.0
 11
0.282062
 21
0.816142
 31
0.0
  0
LINE
  8
1
  6
CONTINUOUS
 62
   250
 10
0.322421
 20
0.786546
 30
0.0
 11
0.282062
 21
0.786546
 31
0.0
  0
LINE
  8
1
  6
CONTINUOUS
 62
   250
 10
0.27713
 20
0.919281
 30
0.0
 11
0.27713
 21
0.835873
 31
0.0
  0
LINE
  8
1
  6
CONTINUOUS
 62
   250
 10
0.270852
 20
0.914797
 30
0.0
 11
0.270852
 21
0.835873
 31
0.0
  0
LINE
  8
1
  6
CONTINUOUS
 62
   250
 10
0.208072
 20
0.910313
 30
0.0
 11
0.203587
 21
0.910313
 31
0.0
  0
LINE
  8
1
  6
CONTINUOUS
 62
   250
 10
0.208072
 20
0.914797
 30
0.0
 11
0.203587
 21
0.914797
 31
0.0
  0
LINE
  8
1
  6
CONTINUOUS
 62
   250
 10
0.27713
 20
0.919281
 30
0.0
 11
0.251121
 21
0.919281
 31
0.0
  0
LINE
  8
1
  6
CONTINUOUS
 62
   250
 10
0.282062
 20
0.835873
 30
0.0
 11
0.214798
 21
0.835873
 31
0.0
  0
LINE
  8
1
  6
CONTINUOUS
 62
   250
 10
0.270852
 20
0.914797
 30
0.0
 11
0.203587
 21
0.914797
 31
0.0
  0
CIRCLE
  8
1
  6
CONTINUOUS
 62
   250
 10
0.251121
 20
0.95964
 30
0.0
 40
0.028251
  0
CIRCLE
  8
1
  6
CONTINUOUS
 62
   250
 10
0.251121
 20
0.95964
 30
0.0
 40
0.017578
  0
LINE
  8
1
  6
CONTINUOUS
 62
   250
 10
0.210762
 20
0.95964
 30
0.0
 11
0.210762
 21
0.982062
 31
0.0
  0
LINE
  8
1
  6
CONTINUOUS
 62
   250
 10
0.203587
 20
0.982062
 30
0.0
 11
0.203587
 21
0.914797
 31
0.0
  0
LINE
  8
1
  6
CONTINUOUS
 62
   250
 10
0.203587
 20
0.982062
 30
0.0
 11
0.203587
 21
0.919281
 31
0.0
  0
LINE
  8
1
  6
CONTINUOUS
 62
   250
 10
0.203587
 20
0.80269
 30
0.0
 11
0.208072
 21
0.80269
 31
0.0
  0
LINE
  8
1
  6
CONTINUOUS
 62
   250
 10
0.214798
 20
0.786546
 30
0.0
 11
0.241704
 21
0.786546
 31
0.0
  0
LINE
  8
1
  6
CONTINUOUS
 62
   250
 10
0.208072
 20
0.80269
 30
0.0
 11
0.208072
 21
0.910313
 31
0.0
  0
LINE
  8
1
  6
CONTINUOUS
 62
   250
 10
0.203587
 20
0.80269
 30
0.0
 11
0.203587
 21
0.910313
 31
0.0
  0
LINE
  8
1
  6
CONTINUOUS
 62
   250
 10
0.214798
 20
0.835873
 30
0.0
 11
0.214798
 21
0.786546
 31
0.0
  0
CIRCLE
  8
1
  6
CONTINUOUS
 62
   250
 10
0.250672
 20
0.820178
 30
0.0
 40
0.00852
  0
LINE
  8
1
  6
CONTINUOUS
 62
   250
 10
0.170403
 20
0.999999
 30
0.0
 11
0.170403
 21
0.982062
 31
0.0
  0
LINE
  8
1
  6
CONTINUOUS
 62
   250
 10
0.201345
 20
0.887891
 30
0.0
 11
0.201345
 21
0.825111
 31
0.0
  0
LINE
  8
1
  6
CONTINUOUS
 62
   250
 10
0.154101
 20
0.872356
 30
0.0
 11
0.18581
 21
0.840647
 31
0.0
  0
CIRCLE
  8
1
  6
CONTINUOUS
 62
   250
 10
0.169955
 20
0.856501
 30
0.0
 40
0.022422
  0
ARC
  8
1
  6
CONTINUOUS
 62
   250
 10
0.251121
 20
0.95964
 30
0.0
 40
0.040359
 50
180.0
 51
270.0
  0
LINE
  8
1
  6
CONTINUOUS
 62
   250
 10
0.291479
 20
0.816142
 30
0.0
 11
0.287892
 21
0.816142
 31
0.0
  0
LINE
  8
1
  6
CONTINUOUS
 62
   250
 10
0.291479
 20
0.982062
 30
0.0
 11
0.291479
 21
0.786546
 31
0.0
  0
ENDSEC
  0
EOF
