  0
SECTION
  2
HEADER
  9
$ACADVER
  1
AC1009
  9
$INSBASE
 10
0.0
 20
0.0
 30
0.0
  9
$EXTMIN
 10
6.75004
 20
2.4376
 30
0.0
  9
$EXTMAX
 10
7.67448
 20
2.5652
 30
0.0
  9
$LIMMIN
 10
0.0
 20
0.0
  9
$LIMMAX
 10
12.0
 20
9.0
  9
$ORTHOMODE
 70
     0
  9
$REGENMODE
 70
     1
  9
$FILLMODE
 70
     1
  9
$QTEXTMODE
 70
     0
  9
$MIRRTEXT
 70
     1
  9
$DRAGMODE
 70
     2
  9
$LTSCALE
 40
0.044
  9
$OSMODE
 70
     0
  9
$ATTMODE
 70
     1
  9
$TEXTSIZE
 40
0.2
  9
$TRACEWID
 40
0.05
  9
$TEXTSTYLE
  7
STANDARD
  9
$CLAYER
  8
0
  9
$CELTYPE
  6
BYLAYER
  9
$CECOLOR
 62
   256
  9
$DIMSCALE
 40
1.0
  9
$DIMASZ
 40
0.18
  9
$DIMEXO
 40
0.0625
  9
$DIMDLI
 40
0.38
  9
$DIMRND
 40
0.0
  9
$DIMDLE
 40
0.0
  9
$DIMEXE
 40
0.18
  9
$DIMTP
 40
0.0
  9
$DIMTM
 40
0.0
  9
$DIMTXT
 40
0.18
  9
$DIMCEN
 40
0.09
  9
$DIMTSZ
 40
0.0
  9
$DIMTOL
 70
     0
  9
$DIMLIM
 70
     0
  9
$DIMTIH
 70
     1
  9
$DIMTOH
 70
     1
  9
$DIMSE1
 70
     0
  9
$DIMSE2
 70
     0
  9
$DIMTAD
 70
     0
  9
$DIMZIN
 70
     0
  9
$DIMBLK
  1

  9
$DIMASO
 70
     1
  9
$DIMSHO
 70
     1
  9
$DIMPOST
  1

  9
$DIMAPOST
  1

  9
$DIMALT
 70
     0
  9
$DIMALTD
 70
     2
  9
$DIMALTF
 40
25.4
  9
$DIMLFAC
 40
1.0
  9
$DIMTOFL
 70
     0
  9
$DIMTVP
 40
0.0
  9
$DIMTIX
 70
     0
  9
$DIMSOXD
 70
     0
  9
$DIMSAH
 70
     0
  9
$DIMBLK1
  1

  9
$DIMBLK2
  1

  9
$DIMSTYLE
  2
*UNNAMED
  9
$DIMCLRD
 70
     0
  9
$DIMCLRE
 70
     0
  9
$DIMCLRT
 70
     0
  9
$DIMTFAC
 40
1.0
  9
$DIMGAP
 40
0.09
  9
$LUNITS
 70
     2
  9
$LUPREC
 70
     4
  9
$SKETCHINC
 40
0.1
  9
$FILLETRAD
 40
0.0
  9
$AUNITS
 70
     0
  9
$AUPREC
 70
     0
  9
$MENU
  1
acad
  9
$ELEVATION
 40
0.0
  9
$PELEVATION
 40
0.0
  9
$THICKNESS
 40
0.0
  9
$LIMCHECK
 70
     0
  9
$BLIPMODE
 70
     0
  9
$CHAMFERA
 40
0.0
  9
$CHAMFERB
 40
0.0
  9
$SKPOLY
 70
     0
  9
$TDCREATE
 40
2451092.597172338
  9
$TDUPDATE
 40
2451092.597172338
  9
$TDINDWG
 40
0.0000000000
  9
$TDUSRTIMER
 40
0.0000000000
  9
$USRTIMER
 70
     1
  9
$ANGBASE
 50
0.0
  9
$ANGDIR
 70
     0
  9
$PDMODE
 70
    35
  9
$PDSIZE
 40
0.0352
  9
$PLINEWID
 40
0.0
  9
$COORDS
 70
     1
  9
$SPLFRAME
 70
     0
  9
$SPLINETYPE
 70
     6
  9
$SPLINESEGS
 70
     8
  9
$ATTDIA
 70
     0
  9
$ATTREQ
 70
     1
  9
$HANDLING
 70
     0
  9
$HANDSEED
  5
0
  9
$SURFTAB1
 70
     6
  9
$SURFTAB2
 70
     6
  9
$SURFTYPE
 70
     6
  9
$SURFU
 70
     6
  9
$SURFV
 70
     6
  9
$UCSNAME
  2

  9
$UCSORG
 10
0.0
 20
0.0
 30
0.0
  9
$UCSXDIR
 10
1.0
 20
0.0
 30
0.0
  9
$UCSYDIR
 10
0.0
 20
1.0
 30
0.0
  9
$PUCSNAME
  2

  9
$PUCSORG
 10
0.0
 20
0.0
 30
0.0
  9
$PUCSXDIR
 10
1.0
 20
0.0
 30
0.0
  9
$PUCSYDIR
 10
0.0
 20
1.0
 30
0.0
  9
$USERI1
 70
     0
  9
$USERI2
 70
     0
  9
$USERI3
 70
     0
  9
$USERI4
 70
     0
  9
$USERI5
 70
     0
  9
$USERR1
 40
0.0
  9
$USERR2
 40
0.0
  9
$USERR3
 40
0.0
  9
$USERR4
 40
0.0
  9
$USERR5
 40
0.0
  9
$WORLDVIEW
 70
     1
  9
$SHADEDGE
 70
     3
  9
$SHADEDIF
 70
    70
  9
$TILEMODE
 70
     1
  9
$MAXACTVP
 70
    16
  9
$PINSBASE
 10
0.0
 20
0.0
 30
0.0
  9
$PLIMCHECK
 70
     0
  9
$PEXTMIN
 10
1.000000E+20
 20
1.000000E+20
 30
1.000000E+20
  9
$PEXTMAX
 10
-1.000000E+20
 20
-1.000000E+20
 30
-1.000000E+20
  9
$PLIMMIN
 10
0.0
 20
0.0
  9
$PLIMMAX
 10
12.0
 20
9.0
  9
$UNITMODE
 70
     0
  9
$VISRETAIN
 70
     0
  9
$PLINEGEN
 70
     0
  9
$PSLTSCALE
 70
     1
  9
$TREEDEPTH
 70
  3020
  9
$DWGCODEPAGE
  3
ascii
  0
ENDSEC
  0
SECTION
  2
TABLES
  0
TABLE
  2
VPORT
 70
     2
  0
VPORT
  2
*ACTIVE
 70
     0
 10
0.0
 20
0.0
 11
1.0
 21
1.0
 12
7.298401
 22
2.839759
 13
0.0
 23
0.0
 14
1.0
 24
1.0
 15
0.0
 25
0.0
 16
0.0
 26
0.0
 36
1.0
 17
0.0
 27
0.0
 37
0.0
 40
1.222997
 41
1.387409
 42
50.0
 43
0.0
 44
0.0
 50
0.0
 51
0.0
 71
     0
 72
   100
 73
     1
 74
     1
 75
     0
 76
     0
 77
     0
 78
     0
  0
ENDTAB
  0
TABLE
  2
LTYPE
 70
    10
  0
LTYPE
  2
CONTINUOUS
 70
    64
  3
Solid line
 72
    65
 73
     0
 40
0.0
  0
LTYPE
  2
DASHED
 70
    64
  3
__ __ __ __ __ __ __ __ __ __ __ __ __ __ __
 72
    65
 73
     2
 40
0.00033
 49
0.00022
 49
-0.00011
  0
LTYPE
  2
HIDDEN
 70
    64
  3
 _ _ _ _ _ _ _ _ _ _ _ _ _ _ _ _ _ _ _ _ _ _
 72
    65
 73
     2
 40
0.000165
 49
0.00011
 49
-0.000055
  0
LTYPE
  2
CENTER
 70
    64
  3
____ _ ____ _ ____ _ ____ _ ____ _ ____ _ ____
 72
    65
 73
     4
 40
0.00088
 49
0.00055
 49
-0.00011
 49
0.00011
 49
-0.00011
  0
LTYPE
  2
PHANTOM
 70
    64
  3
_____ _ _ _____ _ _ _____ _ _ _____ _ _ ____
 72
    65
 73
     6
 40
0.0011
 49
0.00055
 49
-0.00011
 49
0.00011
 49
-0.00011
 49
0.00011
 49
-0.00011
  0
LTYPE
  2
DOT
 70
    64
  3
...............................................
 72
    65
 73
     2
 40
0.00011
 49
0.0
 49
-0.00011
  0
LTYPE
  2
DASHDOT
 70
    64
  3
__ . __ . __ . __ . __ . __ . __ . __ . __ . __
 72
    65
 73
     4
 40
0.00044
 49
0.00022
 49
-0.00011
 49
0.0
 49
-0.00011
  0
LTYPE
  2
BORDER
 70
    64
  3
__ __ . __ __ . __ __ . __ __ . __ __ . __ __
 72
    65
 73
     6
 40
0.00077
 49
0.00022
 49
-0.00011
 49
0.00022
 49
-0.00011
 49
0.0
 49
-0.00011
  0
LTYPE
  2
DIVIDE
 70
    64
  3
__ . . __ . . __ . . __ . . __ . . __ . . __
 72
    65
 73
     6
 40
0.00055
 49
0.00022
 49
-0.00011
 49
0.0
 49
-0.00011
 49
0.0
 49
-0.00011
  0
LTYPE
  2
DOTDOT
 70
    64
  3
 . .  . .  . .  . .  . .  . . 
 72
    65
 73
     5
 40
0.000242
 49
-0.00011
 49
0.0
 49
-0.00011
 49
0.0
 49
-0.00011
  0
ENDTAB
  0
TABLE
  2
LAYER
 70
     3
  0
LAYER
  2
0
 70
    64
 62
     7
  6
CONTINUOUS
  0
LAYER
  2
FOREGROUND
 70
    64
 62
     7
  6
CONTINUOUS
  0
LAYER
  2
BACKGROUND
 70
    65
 62
    -7
  6
CONTINUOUS
  0
ENDTAB
  0
TABLE
  2
STYLE
 70
     1
  0
STYLE
  2
STANDARD
 70
     0
 40
0.0
 41
1.0
 50
0.0
 71
     0
 42
0.2
  3
txt
  4

  0
ENDTAB
  0
TABLE
  2
VIEW
 70
     0
  0
ENDTAB
  0
TABLE
  2
UCS
 70
     0
  0
ENDTAB
  0
TABLE
  2
APPID
 70
     1
  0
APPID
  2
ACAD
 70
    64
  0
ENDTAB
  0
TABLE
  2
DIMSTYLE
 70
     0
  0
ENDTAB
  0
ENDSEC
  0
SECTION
  2
BLOCKS
  0
ENDSEC
  0
SECTION
  2
ENTITIES
  0
LINE
  8
0
  6
CONTINUOUS
 62
   250
 10
6.7958
 20
2.52736
 30
0.0
 11
7.61992
 21
2.52736
 31
0.0
  0
LINE
  8
0
  6
CONTINUOUS
 62
   250
 10
7.61728
 20
2.53748
 30
0.0
 11
6.7958
 21
2.53748
 31
0.0
  0
LINE
  8
0
  6
CONTINUOUS
 62
   250
 10
6.7958
 20
2.54804
 30
0.0
 11
7.61772
 21
2.54804
 31
0.0
  0
LINE
  8
0
  6
CONTINUOUS
 62
   250
 10
7.634
 20
2.55376
 30
0.0
 11
7.66876
 21
2.55376
 31
0.0
  0
LINE
  8
0
  6
CONTINUOUS
 62
   250
 10
7.66876
 20
2.55376
 30
0.0
 11
7.66876
 21
2.55948
 31
0.0
  0
LINE
  8
0
  6
CONTINUOUS
 62
   250
 10
7.66876
 20
2.55948
 30
0.0
 11
7.634
 21
2.55948
 31
0.0
  0
LINE
  8
0
  6
CONTINUOUS
 62
   250
 10
7.634
 20
2.55948
 30
0.0
 11
7.634
 21
2.55376
 31
0.0
  0
LINE
  8
0
  6
CONTINUOUS
 62
   250
 10
7.62828
 20
2.5652
 30
0.0
 11
7.67448
 21
2.5652
 31
0.0
  0
LINE
  8
0
  6
CONTINUOUS
 62
   250
 10
7.67448
 20
2.5652
 30
0.0
 11
7.67448
 21
2.4376
 31
0.0
  0
LINE
  8
0
  6
CONTINUOUS
 62
   250
 10
7.67448
 20
2.4376
 30
0.0
 11
7.62828
 21
2.4376
 31
0.0
  0
LINE
  8
0
  6
CONTINUOUS
 62
   250
 10
7.62828
 20
2.4376
 30
0.0
 11
7.62828
 21
2.5652
 31
0.0
  0
LINE
  8
0
  6
CONTINUOUS
 62
   250
 10
7.62036
 20
2.5168
 30
0.0
 11
6.8046
 21
2.5168
 31
0.0
  0
LINE
  8
0
  6
CONTINUOUS
 62
   250
 10
6.8046
 20
2.5168
 30
0.0
 11
6.7958
 21
2.5168
 31
0.0
  0
LINE
  8
0
  6
CONTINUOUS
 62
   250
 10
6.7958
 20
2.50668
 30
0.0
 11
6.8046
 21
2.50668
 31
0.0
  0
LINE
  8
0
  6
CONTINUOUS
 62
   250
 10
6.8046
 20
2.50668
 30
0.0
 11
7.61904
 21
2.50668
 31
0.0
  0
LINE
  8
0
  6
CONTINUOUS
 62
   250
 10
7.62036
 20
2.49656
 30
0.0
 11
6.80592
 21
2.49656
 31
0.0
  0
LINE
  8
0
  6
CONTINUOUS
 62
   250
 10
6.80592
 20
2.49656
 30
0.0
 11
6.7958
 21
2.49656
 31
0.0
  0
LINE
  8
0
  6
CONTINUOUS
 62
   250
 10
6.7958
 20
2.486
 30
0.0
 11
6.8046
 21
2.486
 31
0.0
  0
LINE
  8
0
  6
CONTINUOUS
 62
   250
 10
6.8046
 20
2.486
 30
0.0
 11
7.61596
 21
2.486
 31
0.0
  0
LINE
  8
0
  6
CONTINUOUS
 62
   250
 10
7.61552
 20
2.47588
 30
0.0
 11
6.80724
 21
2.47588
 31
0.0
  0
LINE
  8
0
  6
CONTINUOUS
 62
   250
 10
6.80724
 20
2.47588
 30
0.0
 11
6.7958
 21
2.47588
 31
0.0
  0
LINE
  8
0
  6
CONTINUOUS
 62
   250
 10
6.7958
 20
2.46532
 30
0.0
 11
6.80944
 21
2.46532
 31
0.0
  0
LINE
  8
0
  6
CONTINUOUS
 62
   250
 10
6.80944
 20
2.46532
 30
0.0
 11
7.61684
 21
2.46532
 31
0.0
  0
LINE
  8
0
  6
CONTINUOUS
 62
   250
 10
7.61728
 20
2.4552
 30
0.0
 11
6.80856
 21
2.4552
 31
0.0
  0
LINE
  8
0
  6
CONTINUOUS
 62
   250
 10
6.80856
 20
2.4552
 30
0.0
 11
6.7958
 21
2.4552
 31
0.0
  0
LINE
  8
0
  6
CONTINUOUS
 62
   250
 10
6.7958
 20
2.4376
 30
0.0
 11
6.7958
 21
2.5652
 31
0.0
  0
LINE
  8
0
  6
CONTINUOUS
 62
   250
 10
7.61728
 20
2.4552
 30
0.0
 11
7.62828
 21
2.4552
 31
0.0
  0
LINE
  8
0
  6
CONTINUOUS
 62
   250
 10
7.62828
 20
2.46532
 30
0.0
 11
7.61684
 21
2.46532
 31
0.0
  0
LINE
  8
0
  6
CONTINUOUS
 62
   250
 10
7.61552
 20
2.47588
 30
0.0
 11
7.62828
 21
2.47588
 31
0.0
  0
LINE
  8
0
  6
CONTINUOUS
 62
   250
 10
7.62828
 20
2.486
 30
0.0
 11
7.61596
 21
2.486
 31
0.0
  0
LINE
  8
0
  6
CONTINUOUS
 62
   250
 10
7.62036
 20
2.49656
 30
0.0
 11
7.62828
 21
2.49656
 31
0.0
  0
LINE
  8
0
  6
CONTINUOUS
 62
   250
 10
7.62828
 20
2.50668
 30
0.0
 11
7.61904
 21
2.50668
 31
0.0
  0
LINE
  8
0
  6
CONTINUOUS
 62
   250
 10
7.62036
 20
2.5168
 30
0.0
 11
7.62828
 21
2.5168
 31
0.0
  0
LINE
  8
0
  6
CONTINUOUS
 62
   250
 10
7.62828
 20
2.52736
 30
0.0
 11
7.61992
 21
2.52736
 31
0.0
  0
LINE
  8
0
  6
CONTINUOUS
 62
   250
 10
7.61728
 20
2.53748
 30
0.0
 11
7.62828
 21
2.53748
 31
0.0
  0
LINE
  8
0
  6
CONTINUOUS
 62
   250
 10
7.62828
 20
2.54804
 30
0.0
 11
7.61772
 21
2.54804
 31
0.0
  0
LINE
  8
0
  6
CONTINUOUS
 62
   250
 10
7.67448
 20
2.54804
 30
0.0
 11
7.67448
 21
2.4552
 31
0.0
  0
LINE
  8
0
  6
CONTINUOUS
 62
   250
 10
7.66876
 20
2.44948
 30
0.0
 11
7.634
 21
2.44948
 31
0.0
  0
LINE
  8
0
  6
CONTINUOUS
 62
   250
 10
7.634
 20
2.44948
 30
0.0
 11
7.634
 21
2.44332
 31
0.0
  0
LINE
  8
0
  6
CONTINUOUS
 62
   250
 10
7.634
 20
2.44332
 30
0.0
 11
7.66876
 21
2.44332
 31
0.0
  0
LINE
  8
0
  6
CONTINUOUS
 62
   250
 10
7.66876
 20
2.44332
 30
0.0
 11
7.66876
 21
2.44948
 31
0.0
  0
LINE
  8
0
  6
CONTINUOUS
 62
   250
 10
6.75004
 20
2.4376
 30
0.0
 11
6.76104
 21
2.4376
 31
0.0
  0
LINE
  8
0
  6
CONTINUOUS
 62
   250
 10
6.75004
 20
2.4376
 30
0.0
 11
6.75004
 21
2.5652
 31
0.0
  0
LINE
  8
0
  6
CONTINUOUS
 62
   250
 10
6.75004
 20
2.5652
 30
0.0
 11
6.76104
 21
2.5652
 31
0.0
  0
LINE
  8
0
  6
CONTINUOUS
 62
   250
 10
6.76104
 20
2.5652
 30
0.0
 11
6.76104
 21
2.54188
 31
0.0
  0
LINE
  8
0
  6
CONTINUOUS
 62
   250
 10
6.76104
 20
2.54188
 30
0.0
 11
6.78436
 21
2.54188
 31
0.0
  0
LINE
  8
0
  6
CONTINUOUS
 62
   250
 10
6.78436
 20
2.54188
 30
0.0
 11
6.78436
 21
2.5652
 31
0.0
  0
LINE
  8
0
  6
CONTINUOUS
 62
   250
 10
6.7958
 20
2.5652
 30
0.0
 11
6.7958
 21
2.4376
 31
0.0
  0
LINE
  8
0
  6
CONTINUOUS
 62
   250
 10
6.78436
 20
2.4376
 30
0.0
 11
6.78436
 21
2.46092
 31
0.0
  0
LINE
  8
0
  6
CONTINUOUS
 62
   250
 10
6.78436
 20
2.46092
 30
0.0
 11
6.76104
 21
2.46092
 31
0.0
  0
LINE
  8
0
  6
CONTINUOUS
 62
   250
 10
6.76104
 20
2.46092
 30
0.0
 11
6.76104
 21
2.4376
 31
0.0
  0
LINE
  8
0
  6
CONTINUOUS
 62
   250
 10
6.78436
 20
2.4376
 30
0.0
 11
6.7958
 21
2.4376
 31
0.0
  0
LINE
  8
0
  6
CONTINUOUS
 62
   250
 10
6.7958
 20
2.5652
 30
0.0
 11
6.78436
 21
2.5652
 31
0.0
  0
ENDSEC
  0
EOF
