  0
SECTION
  2
HEADER
  9
$ACADVER
  1
AC1009
  9
$INSBASE
 10
0.0
 20
0.0
 30
0.0
  9
$EXTMIN
 10
-0.31435
 20
0.0
 30
0.0
  9
$EXTMAX
 10
0.322421
 20
1.0
 30
0.0
  9
$LIMMIN
 10
15.672007
 20
11.236536
  9
$LIMMAX
 10
16.308777
 20
12.236536
  9
$ORTHOMODE
 70
     1
  9
$REGENMODE
 70
     1
  9
$FILLMODE
 70
     1
  9
$QTEXTMODE
 70
     0
  9
$MIRRTEXT
 70
     1
  9
$DRAGMODE
 70
     2
  9
$LTSCALE
 40
1.0
  9
$OSMODE
 70
     0
  9
$ATTMODE
 70
     2
  9
$TEXTSIZE
 40
1.0
  9
$TRACEWID
 40
0.05
  9
$TEXTSTYLE
  7
STANDARD
  9
$CLAYER
  8
0
  9
$CELTYPE
  6
BYLAYER
  9
$CECOLOR
 62
   256
  9
$DIMSCALE
 40
1.0
  9
$DIMASZ
 40
1.0
  9
$DIMEXO
 40
0.5
  9
$DIMDLI
 40
0.38
  9
$DIMRND
 40
0.0
  9
$DIMDLE
 40
0.0
  9
$DIMEXE
 40
0.5
  9
$DIMTP
 40
0.0
  9
$DIMTM
 40
0.0
  9
$DIMTXT
 40
0.18
  9
$DIMCEN
 40
0.09
  9
$DIMTSZ
 40
0.0
  9
$DIMTOL
 70
     0
  9
$DIMLIM
 70
     0
  9
$DIMTIH
 70
     1
  9
$DIMTOH
 70
     1
  9
$DIMSE1
 70
     0
  9
$DIMSE2
 70
     0
  9
$DIMTAD
 70
     0
  9
$DIMZIN
 70
     0
  9
$DIMBLK
  1

  9
$DIMASO
 70
     1
  9
$DIMSHO
 70
     1
  9
$DIMPOST
  1
"
  9
$DIMAPOST
  1

  9
$DIMALT
 70
     0
  9
$DIMALTD
 70
     2
  9
$DIMALTF
 40
25.4
  9
$DIMLFAC
 40
1.0
  9
$DIMTOFL
 70
     0
  9
$DIMTVP
 40
0.0
  9
$DIMTIX
 70
     0
  9
$DIMSOXD
 70
     0
  9
$DIMSAH
 70
     0
  9
$DIMBLK1
  1

  9
$DIMBLK2
  1

  9
$DIMSTYLE
  2
*UNNAMED
  9
$DIMCLRD
 70
     0
  9
$DIMCLRE
 70
     0
  9
$DIMCLRT
 70
     0
  9
$DIMTFAC
 40
1.0
  9
$DIMGAP
 40
0.09
  9
$LUNITS
 70
     2
  9
$LUPREC
 70
     3
  9
$SKETCHINC
 40
0.1
  9
$FILLETRAD
 40
0.0
  9
$AUNITS
 70
     0
  9
$AUPREC
 70
     3
  9
$MENU
  1
acad
  9
$ELEVATION
 40
0.0
  9
$PELEVATION
 40
0.0
  9
$THICKNESS
 40
0.0
  9
$LIMCHECK
 70
     0
  9
$BLIPMODE
 70
     0
  9
$CHAMFERA
 40
0.5
  9
$CHAMFERB
 40
0.5
  9
$SKPOLY
 70
     0
  9
$TDCREATE
 40
2450081.663006597
  9
$TDUPDATE
 40
2450081.663006597
  9
$TDINDWG
 40
0.0000000000
  9
$TDUSRTIMER
 40
0.0000000000
  9
$USRTIMER
 70
     1
  9
$ANGBASE
 50
0.0
  9
$ANGDIR
 70
     0
  9
$PDMODE
 70
     2
  9
$PDSIZE
 40
0.0
  9
$PLINEWID
 40
0.0
  9
$COORDS
 70
     1
  9
$SPLFRAME
 70
     0
  9
$SPLINETYPE
 70
     6
  9
$SPLINESEGS
 70
     8
  9
$ATTDIA
 70
     0
  9
$ATTREQ
 70
     1
  9
$HANDLING
 70
     0
  9
$HANDSEED
  5
0
  9
$SURFTAB1
 70
     6
  9
$SURFTAB2
 70
     6
  9
$SURFTYPE
 70
     6
  9
$SURFU
 70
     6
  9
$SURFV
 70
     6
  9
$UCSNAME
  2

  9
$UCSORG
 10
0.0
 20
0.0
 30
0.0
  9
$UCSXDIR
 10
1.0
 20
0.0
 30
0.0
  9
$UCSYDIR
 10
0.0
 20
1.0
 30
0.0
  9
$PUCSNAME
  2

  9
$PUCSORG
 10
0.0
 20
0.0
 30
0.0
  9
$PUCSXDIR
 10
1.0
 20
0.0
 30
0.0
  9
$PUCSYDIR
 10
0.0
 20
1.0
 30
0.0
  9
$USERI1
 70
     0
  9
$USERI2
 70
     0
  9
$USERI3
 70
     0
  9
$USERI4
 70
     0
  9
$USERI5
 70
     0
  9
$USERR1
 40
0.0
  9
$USERR2
 40
0.0
  9
$USERR3
 40
0.0
  9
$USERR4
 40
0.0
  9
$USERR5
 40
0.0
  9
$WORLDVIEW
 70
     1
  9
$SHADEDGE
 70
     3
  9
$SHADEDIF
 70
    70
  9
$TILEMODE
 70
     1
  9
$MAXACTVP
 70
    16
  9
$PINSBASE
 10
0.205281
 20
50.0
 30
0.759707
  9
$PLIMCHECK
 70
     0
  9
$PEXTMIN
 10
1.000000E+20
 20
1.000000E+20
 30
1.000000E+20
  9
$PEXTMAX
 10
-1.000000E+20
 20
-1.000000E+20
 30
-1.000000E+20
  9
$PLIMMIN
 10
0.0
 20
0.0
  9
$PLIMMAX
 10
12.0
 20
9.0
  9
$UNITMODE
 70
     0
  9
$VISRETAIN
 70
     0
  9
$PLINEGEN
 70
     0
  9
$PSLTSCALE
 70
     1
  9
$TREEDEPTH
 70
  3020
  9
$DWGCODEPAGE
  3
ascii
  0
ENDSEC
  0
SECTION
  2
TABLES
  0
TABLE
  2
VPORT
 70
     1
  0
VPORT
  2
*ACTIVE
 70
     0
 10
0.0
 20
0.0
 11
1.0
 21
1.0
 12
8.176769
 22
6.11641
 13
0.0
 23
0.0
 14
1.0
 24
1.0
 15
1.0
 25
1.0
 16
0.0
 26
0.0
 36
1.0
 17
0.0
 27
0.0
 37
0.0
 40
12.240251
 41
1.387409
 42
50.0
 43
0.0
 44
0.0
 50
0.0
 51
0.0
 71
     0
 72
   100
 73
     1
 74
     1
 75
     0
 76
     0
 77
     0
 78
     0
  0
ENDTAB
  0
TABLE
  2
LTYPE
 70
     1
  0
LTYPE
  2
CONTINUOUS
 70
    64
  3
SOLID LINE
 72
    65
 73
     0
 40
0.0
  0
ENDTAB
  0
TABLE
  2
LAYER
 70
     2
  0
LAYER
  2
0
 70
    64
 62
     2
  6
CONTINUOUS
  0
LAYER
  2
1
 70
    64
 62
     4
  6
CONTINUOUS
  0
ENDTAB
  0
TABLE
  2
STYLE
 70
     2
  0
STYLE
  2
STANDARD
 70
     0
 40
0.0
 41
1.0
 50
0.0
 71
     0
 42
0.2
  3
txt
  4

  0
STYLE
  2
SIMPLEX
 70
    64
 40
0.0
 41
1.0
 50
0.0
 71
     0
 42
1.0
  3
ROMANS.SHX
  4

  0
ENDTAB
  0
TABLE
  2
VIEW
 70
     0
  0
ENDTAB
  0
TABLE
  2
UCS
 70
     0
  0
ENDTAB
  0
TABLE
  2
APPID
 70
     1
  0
APPID
  2
ACAD
 70
    64
  0
ENDTAB
  0
TABLE
  2
DIMSTYLE
 70
     0
  0
ENDTAB
  0
ENDSEC
  0
SECTION
  2
BLOCKS
  0
BLOCK
  8
0
  2
STRIP2
 70
    64
 10
0.0
 20
0.0
 30
0.0
  3
STRIP2
  0
CIRCLE
  8
1
  6
CONTINUOUS
 62
   250
 10
0.15
 20
-0.05
 30
0.0
 40
0.01
  0
LINE
  8
1
  6
CONTINUOUS
 62
   250
 10
0.2
 20
0.0
 30
0.0
 11
0.0
 21
0.0
 31
0.0
  0
CIRCLE
  8
1
  6
CONTINUOUS
 62
   250
 10
0.05
 20
-0.05
 30
0.0
 40
0.01
  0
LINE
  8
1
  6
CONTINUOUS
 62
   250
 10
0.0
 20
0.0
 30
0.0
 11
0.0
 21
-0.1
 31
0.0
  0
LINE
  8
1
  6
CONTINUOUS
 62
   250
 10
0.2
 20
-0.1
 30
0.0
 11
0.2
 21
0.0
 31
0.0
  0
ENDBLK
  8
0
  0
ENDSEC
  0
SECTION
  2
ENTITIES
  0
LINE
  8
1
  6
CONTINUOUS
 62
   250
 10
0.208072
 20
0.914797
 30
0.0
 11
0.203587
 21
0.914797
 31
0.0
  0
LINE
  8
1
  6
CONTINUOUS
 62
   250
 10
0.270851
 20
0.914797
 30
0.0
 11
0.203587
 21
0.914797
 31
0.0
  0
TEXT
  8
1
  6
CONTINUOUS
 62
   250
 10
0.179654
 20
0.869953
 30
0.0
 40
0.0113
  1
J2A
 41
1.011111
  7
SIMPLEX
 72
     2
 11
0.20849
 21
0.869953
 31
0.0
  0
TEXT
  8
1
  6
CONTINUOUS
 62
   250
 10
0.177274
 20
0.852016
 30
0.0
 40
0.0113
  1
J2B
 41
1.011111
  7
SIMPLEX
 72
     2
 11
0.206654
 21
0.852016
 31
0.0
  0
ARC
  8
1
  6
CONTINUOUS
 62
   250
 10
0.251122
 20
0.959641
 30
0.0
 40
0.04036
 50
180.00119
 51
269.998779
  0
LINE
  8
1
  6
CONTINUOUS
 62
   250
 10
0.203587
 20
0.085201
 30
0.0
 11
0.270851
 21
0.085201
 31
0.0
  0
ARC
  8
1
  6
CONTINUOUS
 62
   250
 10
0.251119
 20
0.04036
 30
0.0
 40
0.040357
 50
89.997925
 51
180.000717
  0
LINE
  8
1
  6
CONTINUOUS
 62
   250
 10
-0.210762
 20
0.017937
 30
0.0
 11
0.210762
 21
0.017937
 31
0.0
  0
LINE
  8
1
  6
CONTINUOUS
 62
   250
 10
0.273542
 20
0.0
 30
0.0
 11
-0.273542
 21
0.0
 31
0.0
  0
LINE
  8
1
  6
CONTINUOUS
 62
   250
 10
0.210762
 20
0.982061
 30
0.0
 11
-0.210762
 21
0.982061
 31
0.0
  0
LINE
  8
1
  6
CONTINUOUS
 62
   250
 10
0.273542
 20
1.0
 30
0.0
 11
-0.273542
 21
1.0
 31
0.0
  0
ARC
  8
1
  6
CONTINUOUS
 62
   250
 10
0.001782
 20
0.376681
 30
0.0
 40
0.042153
 50
337.339996
 51
22.660006
  0
ARC
  8
1
  6
CONTINUOUS
 62
   250
 10
0.001802
 20
0.37668
 30
0.0
 40
0.035859
 50
338.622467
 51
21.377632
  0
LINE
  8
1
  6
CONTINUOUS
 62
   250
 10
0.06009
 20
0.318386
 30
0.0
 11
0.06009
 21
0.434978
 31
0.0
  0
ARC
  8
1
  6
CONTINUOUS
 62
   250
 10
0.001794
 20
0.376681
 30
0.0
 40
0.042142
 50
157.333588
 51
202.666412
  0
ARC
  8
1
  6
CONTINUOUS
 62
   250
 10
0.001787
 20
0.37668
 30
0.0
 40
0.035859
 50
158.622314
 51
201.377594
  0
LINE
  8
1
  6
CONTINUOUS
 62
   250
 10
-0.069955
 20
0.434978
 30
0.0
 11
-0.069955
 21
0.318386
 31
0.0
  0
LINE
  8
1
  6
CONTINUOUS
 62
   250
 10
-0.056501
 20
0.434978
 30
0.0
 11
-0.056501
 21
0.318386
 31
0.0
  0
LINE
  8
1
  6
CONTINUOUS
 62
   250
 10
-0.27713
 20
0.566814
 30
0.0
 11
-0.27713
 21
0.080717
 31
0.0
  0
LINE
  8
1
  6
CONTINUOUS
 62
   250
 10
-0.291479
 20
0.58251
 30
0.0
 11
-0.291479
 21
0.017937
 31
0.0
  0
LINE
  8
1
  6
CONTINUOUS
 62
   250
 10
-0.267264
 20
0.085201
 30
0.0
 11
-0.267264
 21
0.566814
 31
0.0
  0
CIRCLE
  8
1
  6
CONTINUOUS
 62
   250
 10
0.001794
 20
0.376682
 30
0.0
 40
0.033624
  0
ARC
  8
1
  6
CONTINUOUS
 62
   250
 10
-0.273545
 20
0.017934
 30
0.0
 40
0.017934
 50
179.99234
 51
270.007629
  0
LINE
  8
1
  6
CONTINUOUS
 62
   250
 10
-0.170403
 20
0.0
 30
0.0
 11
-0.170403
 21
0.017937
 31
0.0
  0
LINE
  8
1
  6
CONTINUOUS
 62
   250
 10
-0.27713
 20
0.080717
 30
0.0
 11
-0.251121
 21
0.080717
 31
0.0
  0
ARC
  8
1
  6
CONTINUOUS
 62
   250
 10
-0.251119
 20
0.04036
 30
0.0
 40
0.040357
 50
359.999298
 51
90.003426
  0
LINE
  8
1
  6
CONTINUOUS
 62
   250
 10
-0.267264
 20
0.085201
 30
0.0
 11
-0.2
 21
0.085201
 31
0.0
  0
CIRCLE
  8
1
  6
CONTINUOUS
 62
   250
 10
-0.251121
 20
0.040359
 30
0.0
 40
0.028251
  0
CIRCLE
  8
1
  6
CONTINUOUS
 62
   250
 10
-0.251121
 20
0.040359
 30
0.0
 40
0.017578
  0
LINE
  8
1
  6
CONTINUOUS
 62
   250
 10
-0.210762
 20
0.040359
 30
0.0
 11
-0.210762
 21
0.017937
 31
0.0
  0
LINE
  8
1
  6
CONTINUOUS
 62
   250
 10
-0.2
 20
0.085201
 30
0.0
 11
-0.2
 21
0.017937
 31
0.0
  0
TEXT
  8
1
  6
CONTINUOUS
 62
   250
 10
0.131839
 20
0.085201
 30
0.0
 40
0.009417
  1
LOOP OUT
 50
90.0
 41
1.233333
  7
SIMPLEX
  0
LINE
  8
1
  6
CONTINUOUS
 62
   250
 10
0.203587
 20
0.085201
 30
0.0
 11
0.203587
 21
0.017937
 31
0.0
  0
TEXT
  8
1
  6
CONTINUOUS
 62
   250
 10
0.153363
 20
0.044842
 30
0.0
 40
0.0113
  1
A
 41
1.111111
  7
SIMPLEX
  0
LINE
  8
1
  6
CONTINUOUS
 62
   250
 10
0.176682
 20
0.139011
 30
0.0
 11
0.176682
 21
0.040358
 31
0.0
  0
TEXT
  8
1
  6
CONTINUOUS
 62
   250
 10
0.163229
 20
0.085201
 30
0.0
 40
0.009417
  1
GND
 50
90.0
 41
1.233333
  7
SIMPLEX
  0
LINE
  8
1
  6
CONTINUOUS
 62
   250
 10
0.127354
 20
0.071747
 30
0.0
 11
0.109417
 21
0.071747
 31
0.0
  0
TEXT
  8
1
  6
CONTINUOUS
 62
   250
 10
0.111809
 20
0.044842
 30
0.0
 40
0.0113
  1
B
 41
1.111111
  7
SIMPLEX
  0
CIRCLE
  8
1
  6
CONTINUOUS
 62
   250
 10
0.118385
 20
0.071747
 30
0.0
 40
0.00897
  0
TEXT
  8
1
  6
CONTINUOUS
 62
   250
 10
0.113901
 20
0.085201
 30
0.0
 40
0.009417
  1
CNTRL
 50
90.0
 41
1.233333
  7
SIMPLEX
  0
CIRCLE
  8
1
  6
CONTINUOUS
 62
   250
 10
0.158744
 20
0.071747
 30
0.0
 40
0.008969
  0
LINE
  8
1
  6
CONTINUOUS
 62
   250
 10
0.152403
 20
0.065407
 30
0.0
 11
0.165086
 21
0.078091
 31
0.0
  0
LINE
  8
1
  6
CONTINUOUS
 62
   250
 10
0.136323
 20
0.139011
 30
0.0
 11
0.176682
 21
0.139011
 31
0.0
  0
LINE
  8
1
  6
CONTINUOUS
 62
   250
 10
0.170403
 20
0.0
 30
0.0
 11
0.170403
 21
0.017937
 31
0.0
  0
LINE
  8
1
  6
CONTINUOUS
 62
   250
 10
0.095964
 20
0.040358
 30
0.0
 11
0.095964
 21
0.139011
 31
0.0
  0
LINE
  8
1
  6
CONTINUOUS
 62
   250
 10
0.095964
 20
0.040358
 30
0.0
 11
0.176682
 21
0.040358
 31
0.0
  0
LINE
  8
1
  6
CONTINUOUS
 62
   250
 10
0.095964
 20
0.139011
 30
0.0
 11
0.109417
 21
0.139011
 31
0.0
  0
LINE
  8
1
  6
CONTINUOUS
 62
   250
 10
-0.069955
 20
0.318386
 30
0.0
 11
0.06009
 21
0.318386
 31
0.0
  0
TEXT
  8
1
  6
CONTINUOUS
 62
   250
 10
-0.055506
 20
0.273542
 30
0.0
 40
0.0113
  1
ADJUSTMENT
 41
1.011111
  7
SIMPLEX
  0
ARC
  8
1
  6
CONTINUOUS
 62
   250
 10
0.001749
 20
0.376707
 30
0.0
 40
0.039952
 50
322.259521
 51
337.739349
  0
LINE
  8
1
  6
CONTINUOUS
 62
   250
 10
0.033228
 20
0.364744
 30
0.0
 11
0.040681
 21
0.360441
 31
0.0
  0
LINE
  8
1
  6
CONTINUOUS
 62
   250
 10
0.035301
 20
0.351124
 30
0.0
 11
0.027847
 21
0.355427
 31
0.0
  0
LINE
  8
1
  6
CONTINUOUS
 62
   250
 10
0.007174
 20
0.334883
 30
0.0
 11
0.007174
 21
0.343491
 31
0.0
  0
ARC
  8
1
  6
CONTINUOUS
 62
   250
 10
0.001799
 20
0.376674
 30
0.0
 40
0.042133
 50
277.329041
 51
322.669922
  0
ARC
  8
1
  6
CONTINUOUS
 62
   250
 10
0.001803
 20
0.376667
 30
0.0
 40
0.03585
 50
278.616058
 51
321.382843
  0
LINE
  8
1
  6
CONTINUOUS
 62
   250
 10
0.004484
 20
0.376682
 30
0.0
 11
0.004484
 21
0.343166
 31
0.0
  0
LINE
  8
1
  6
CONTINUOUS
 62
   250
 10
-0.02426
 20
0.355427
 30
0.0
 11
-0.031713
 21
0.351124
 31
0.0
  0
LINE
  8
1
  6
CONTINUOUS
 62
   250
 10
-0.037094
 20
0.360441
 30
0.0
 11
-0.02964
 21
0.364744
 31
0.0
  0
ARC
  8
1
  6
CONTINUOUS
 62
   250
 10
0.001835
 20
0.376698
 30
0.0
 40
0.039944
 50
202.251205
 51
217.732422
  0
LINE
  8
1
  6
CONTINUOUS
 62
   250
 10
-0.003586
 20
0.343491
 30
0.0
 11
-0.003586
 21
0.334883
 31
0.0
  0
ARC
  8
1
  6
CONTINUOUS
 62
   250
 10
0.001789
 20
0.376674
 30
0.0
 40
0.042133
 50
217.330109
 51
262.67099
  0
ARC
  8
1
  6
CONTINUOUS
 62
   250
 10
0.001788
 20
0.376673
 30
0.0
 40
0.035857
 50
218.621124
 51
261.379913
  0
LINE
  8
1
  6
CONTINUOUS
 62
   250
 10
-0.000896
 20
0.376682
 30
0.0
 11
-0.000896
 21
0.343166
 31
0.0
  0
ARC
  8
1
  6
CONTINUOUS
 62
   250
 10
0.001794
 20
0.376892
 30
0.0
 40
0.040111
 50
262.292297
 51
277.707703
  0
LINE
  8
1
  6
CONTINUOUS
 62
   250
 10
-0.000896
 20
0.376682
 30
0.0
 11
0.004484
 21
0.376682
 31
0.0
  0
TEXT
  8
1
  6
CONTINUOUS
 62
   250
 10
-0.024117
 20
0.291479
 30
0.0
 40
0.0113
  1
RESET
 41
1.011111
  7
SIMPLEX
  0
TEXT
  8
1
  6
CONTINUOUS
 62
   250
 10
-0.213453
 20
0.852016
 30
0.0
 40
0.0113
  1
L
 41
1.111111
  7
SIMPLEX
  0
LINE
  8
1
  6
CONTINUOUS
 62
   250
 10
-0.267264
 20
0.835873
 30
0.0
 11
-0.267264
 21
0.914797
 31
0.0
  0
LINE
  8
1
  6
CONTINUOUS
 62
   250
 10
-0.27713
 20
0.919281
 30
0.0
 11
-0.27713
 21
0.835873
 31
0.0
  0
INSERT
  8
1
 62
   250
  2
STRIP2
 10
-0.253812
 20
0.865471
 30
0.0
 41
0.179372
 42
0.179372
  0
LINE
  8
1
  6
CONTINUOUS
 62
   250
 10
-0.291479
 20
0.982061
 30
0.0
 11
-0.291479
 21
0.820179
 31
0.0
  0
TEXT
  8
1
  6
CONTINUOUS
 62
   250
 10
-0.176582
 20
0.83408
 30
0.0
 40
0.0113
  1
INPUT SELECT
 41
1.011111
  7
SIMPLEX
  0
TEXT
  8
1
  6
CONTINUOUS
 62
   250
 10
-0.150673
 20
0.617506
 30
0.0
 40
0.009417
  1
HISEL 2
 41
1.233333
  7
SIMPLEX
  0
TEXT
  8
1
  6
CONTINUOUS
 62
   250
 10
-0.150673
 20
0.635443
 30
0.0
 40
0.009417
  1
HISEL 1
 41
1.233333
  7
SIMPLEX
  0
TEXT
  8
1
  6
CONTINUOUS
 62
   250
 10
-0.150673
 20
0.707191
 30
0.0
 40
0.009417
  1
SENSOR 4
 41
1.233333
  7
SIMPLEX
  0
TEXT
  8
1
  6
CONTINUOUS
 62
   250
 10
-0.150673
 20
0.725128
 30
0.0
 40
0.009417
  1
SENSOR 3
 41
1.233333
  7
SIMPLEX
  0
TEXT
  8
1
  6
CONTINUOUS
 62
   250
 10
-0.150673
 20
0.743065
 30
0.0
 40
0.009417
  1
SENSOR 2
 41
1.233333
  7
SIMPLEX
  0
TEXT
  8
1
  6
CONTINUOUS
 62
   250
 10
-0.150673
 20
0.761002
 30
0.0
 40
0.009417
  1
SENSOR 1
 41
1.233333
  7
SIMPLEX
  0
TEXT
  8
1
  6
CONTINUOUS
 62
   250
 10
-0.150673
 20
0.599567
 30
0.0
 40
0.009417
  1
LOSEL 1
 41
1.233333
  7
SIMPLEX
  0
TEXT
  8
1
  6
CONTINUOUS
 62
   250
 10
-0.150673
 20
0.581631
 30
0.0
 40
0.009417
  1
LOSEL 2
 41
1.233333
  7
SIMPLEX
  0
TEXT
  8
1
  6
CONTINUOUS
 62
   250
 10
-0.150673
 20
0.671318
 30
0.0
 40
0.009417
  1
CONTROL 2
 41
1.133333
  7
SIMPLEX
  0
TEXT
  8
1
  6
CONTINUOUS
 62
   250
 10
-0.150673
 20
0.689255
 30
0.0
 40
0.009417
  1
CONTROL 1
 41
1.133333
  7
SIMPLEX
  0
TEXT
  8
1
  6
CONTINUOUS
 62
   250
 10
-0.150673
 20
0.77894
 30
0.0
 40
0.009417
  1
EXTERNAL
 41
1.133333
  7
SIMPLEX
  0
TEXT
  8
1
  6
CONTINUOUS
 62
   250
 10
-0.150673
 20
0.653381
 30
0.0
 40
0.009417
  1
CONTROL 3
 41
1.133333
  7
SIMPLEX
  0
LINE
  8
1
  6
CONTINUOUS
 62
   250
 10
-0.2
 20
0.820627
 30
0.0
 11
-0.020628
 21
0.820627
 31
0.0
  0
LINE
  8
1
  6
CONTINUOUS
 62
   250
 10
-0.2
 20
0.57399
 30
0.0
 11
0.136323
 21
0.57399
 31
0.0
  0
LINE
  8
1
  6
CONTINUOUS
 62
   250
 10
-0.2
 20
0.856501
 30
0.0
 11
0.149776
 21
0.856501
 31
0.0
  0
LINE
  8
1
  6
CONTINUOUS
 62
   250
 10
-0.240358
 20
0.802242
 30
0.0
 11
-0.240358
 21
0.600449
 31
0.0
  0
LINE
  8
1
  6
CONTINUOUS
 62
   250
 10
-0.2
 20
0.57399
 30
0.0
 11
-0.2
 21
0.856501
 31
0.0
  0
LINE
  8
1
  6
CONTINUOUS
 62
   250
 10
-0.31435
 20
0.820179
 30
0.0
 11
-0.31435
 21
0.58251
 31
0.0
  0
LINE
  8
1
  6
CONTINUOUS
 62
   250
 10
-0.278475
 20
0.835873
 30
0.0
 11
-0.278475
 21
0.566814
 31
0.0
  0
INSERT
  8
1
 62
   250
  2
STRIP2
 10
-0.195517
 20
0.632286
 30
0.0
 41
0.179372
 42
0.179372
  0
LINE
  8
1
  6
CONTINUOUS
 62
   250
 10
-0.31435
 20
0.58251
 30
0.0
 11
-0.278475
 21
0.58251
 31
0.0
  0
LINE
  8
1
  6
CONTINUOUS
 62
   250
 10
-0.233632
 20
0.600449
 30
0.0
 11
-0.240358
 21
0.600449
 31
0.0
  0
LINE
  8
1
  6
CONTINUOUS
 62
   250
 10
-0.233632
 20
0.566814
 30
0.0
 11
-0.233632
 21
0.600449
 31
0.0
  0
CIRCLE
  8
1
  6
CONTINUOUS
 62
   250
 10
-0.247086
 20
0.58251
 30
0.0
 40
0.00852
  0
LINE
  8
1
  6
CONTINUOUS
 62
   250
 10
-0.278475
 20
0.566814
 30
0.0
 11
-0.234304
 21
0.566814
 31
0.0
  0
INSERT
  8
1
 62
   250
  2
STRIP2
 10
-0.195517
 20
0.614349
 30
0.0
 41
0.179372
 42
0.179372
  0
INSERT
  8
1
 62
   250
  2
STRIP2
 10
-0.195517
 20
0.596413
 30
0.0
 41
0.179372
 42
0.179372
  0
LINE
  8
1
  6
CONTINUOUS
 62
   250
 10
-0.195517
 20
0.578474
 30
0.0
 11
-0.159641
 21
0.578474
 31
0.0
  0
LINE
  8
1
  6
CONTINUOUS
 62
   250
 10
-0.278475
 20
0.820179
 30
0.0
 11
-0.31435
 21
0.820179
 31
0.0
  0
LINE
  8
1
  6
CONTINUOUS
 62
   250
 10
-0.253812
 20
0.847534
 30
0.0
 11
-0.217937
 21
0.847534
 31
0.0
  0
LINE
  8
1
  6
CONTINUOUS
 62
   250
 10
-0.233632
 20
0.835873
 30
0.0
 11
-0.278475
 21
0.835873
 31
0.0
  0
LINE
  8
1
  6
CONTINUOUS
 62
   250
 10
-0.233632
 20
0.802242
 30
0.0
 11
-0.240358
 21
0.802242
 31
0.0
  0
TEXT
  8
1
  6
CONTINUOUS
 62
   250
 10
-0.256876
 20
0.772263
 30
0.0
 40
0.008072
  1
Male DIN Connector
 50
270.0
 41
1.011111
  7
SIMPLEX
  0
CIRCLE
  8
1
  6
CONTINUOUS
 62
   250
 10
-0.247086
 20
0.820179
 30
0.0
 40
0.00852
  0
LINE
  8
1
  6
CONTINUOUS
 62
   250
 10
-0.233632
 20
0.835873
 30
0.0
 11
-0.233632
 21
0.802242
 31
0.0
  0
INSERT
  8
1
 62
   250
  2
STRIP2
 10
-0.195517
 20
0.79372
 30
0.0
 41
0.179372
 42
0.179372
  0
INSERT
  8
1
 62
   250
  2
STRIP2
 10
-0.195517
 20
0.775784
 30
0.0
 41
0.179372
 42
0.179372
  0
INSERT
  8
1
 62
   250
  2
STRIP2
 10
-0.195517
 20
0.757847
 30
0.0
 41
0.179372
 42
0.179372
  0
INSERT
  8
1
 62
   250
  2
STRIP2
 10
-0.195517
 20
0.73991
 30
0.0
 41
0.179372
 42
0.179372
  0
INSERT
  8
1
 62
   250
  2
STRIP2
 10
-0.195517
 20
0.721973
 30
0.0
 41
0.179372
 42
0.179372
  0
INSERT
  8
1
 62
   250
  2
STRIP2
 10
-0.195517
 20
0.686098
 30
0.0
 41
0.179372
 42
0.179372
  0
INSERT
  8
1
 62
   250
  2
STRIP2
 10
-0.195517
 20
0.668159
 30
0.0
 41
0.179372
 42
0.179372
  0
INSERT
  8
1
 62
   250
  2
STRIP2
 10
-0.195517
 20
0.650223
 30
0.0
 41
0.179372
 42
0.179372
  0
INSERT
  8
1
 62
   250
  2
STRIP2
 10
-0.195517
 20
0.704035
 30
0.0
 41
0.179372
 42
0.179372
  0
TEXT
  8
1
  6
CONTINUOUS
 62
   250
 10
-0.199004
 20
0.798206
 30
0.0
 40
0.0113
  1
PRIMARY
 41
1.011111
  7
SIMPLEX
  0
LINE
  8
1
  6
CONTINUOUS
 62
   250
 10
0.131839
 20
0.699551
 30
0.0
 11
0.131839
 21
0.57399
 31
0.0
  0
TEXT
  8
1
  6
CONTINUOUS
 62
   250
 10
0.0287
 20
0.617506
 30
0.0
 40
0.0113
  1
CONTROL 2
 41
1.011111
  7
SIMPLEX
  0
INSERT
  8
1
 62
   250
  2
STRIP2
 10
-0.060987
 20
0.632286
 30
0.0
 41
0.179372
 42
0.179372
  0
LINE
  8
1
  6
CONTINUOUS
 62
   250
 10
-0.020628
 20
0.466366
 30
0.0
 11
-0.020628
 21
0.856501
 31
0.0
  0
INSERT
  8
1
 62
   250
  2
STRIP2
 10
-0.016143
 20
0.632286
 30
0.0
 41
0.179372
 42
0.179372
  0
TEXT
  8
1
  6
CONTINUOUS
 62
   250
 10
0.025211
 20
0.538116
 30
0.0
 40
0.0113
  1
SELECT
 41
1.011111
  7
SIMPLEX
  0
TEXT
  8
1
  6
CONTINUOUS
 62
   250
 10
0.0287
 20
0.581631
 30
0.0
 40
0.0113
  1
OFF
 41
1.011111
  7
SIMPLEX
  0
TEXT
  8
1
  6
CONTINUOUS
 62
   250
 10
0.0287
 20
0.509882
 30
0.0
 40
0.0113
  1
UNOCC=HI
 41
1.011111
  7
SIMPLEX
  0
TEXT
  8
1
  6
CONTINUOUS
 62
   250
 10
0.0287
 20
0.599567
 30
0.0
 40
0.0113
  1
CONTROL 3
 41
1.011111
  7
SIMPLEX
  0
TEXT
  8
1
  6
CONTINUOUS
 62
   250
 10
0.0287
 20
0.474007
 30
0.0
 40
0.0113
  1
OFF
 41
1.011111
  7
SIMPLEX
  0
TEXT
  8
1
  6
CONTINUOUS
 62
   250
 10
0.0287
 20
0.491945
 30
0.0
 40
0.0113
  1
UNOCC=LO
 41
1.011111
  7
SIMPLEX
  0
LINE
  8
1
  6
CONTINUOUS
 62
   250
 10
0.06009
 20
0.434978
 30
0.0
 11
-0.069955
 21
0.434978
 31
0.0
  0
TEXT
  8
1
  6
CONTINUOUS
 62
   250
 10
-0.001694
 20
0.556053
 30
0.0
 40
0.0113
  1
TIMER MODE
 41
1.011111
  7
SIMPLEX
  0
LINE
  8
1
  6
CONTINUOUS
 62
   250
 10
-0.020628
 20
0.529148
 30
0.0
 11
0.136323
 21
0.529148
 31
0.0
  0
LINE
  8
1
  6
CONTINUOUS
 62
   250
 10
-0.020628
 20
0.466366
 30
0.0
 11
0.136323
 21
0.466366
 31
0.0
  0
LINE
  8
1
  6
CONTINUOUS
 62
   250
 10
0.040681
 20
0.392921
 30
0.0
 11
0.033228
 21
0.388618
 31
0.0
  0
ARC
  8
1
  6
CONTINUOUS
 62
   250
 10
0.001839
 20
0.376706
 30
0.0
 40
0.039848
 50
22.240456
 51
37.760731
  0
LINE
  8
1
  6
CONTINUOUS
 62
   250
 10
0.007174
 20
0.40987
 30
0.0
 11
0.007174
 21
0.418478
 31
0.0
  0
ARC
  8
1
  6
CONTINUOUS
 62
   250
 10
0.001799
 20
0.376689
 30
0.0
 40
0.042133
 50
37.330093
 51
82.670952
  0
ARC
  8
1
  6
CONTINUOUS
 62
   250
 10
0.0018
 20
0.376686
 30
0.0
 40
0.035859
 50
38.626945
 51
81.38134
  0
LINE
  8
1
  6
CONTINUOUS
 62
   250
 10
0.027847
 20
0.397934
 30
0.0
 11
0.035301
 21
0.402237
 31
0.0
  0
LINE
  8
1
  6
CONTINUOUS
 62
   250
 10
-0.060987
 20
0.578474
 30
0.0
 11
-0.025112
 21
0.578474
 31
0.0
  0
INSERT
  8
1
 62
   250
  2
STRIP2
 10
-0.060987
 20
0.596413
 30
0.0
 41
0.179372
 42
0.179372
  0
INSERT
  8
1
 62
   250
  2
STRIP2
 10
-0.060987
 20
0.614349
 30
0.0
 41
0.179372
 42
0.179372
  0
LINE
  8
1
  6
CONTINUOUS
 62
   250
 10
-0.003586
 20
0.418478
 30
0.0
 11
-0.003586
 21
0.40987
 31
0.0
  0
LINE
  8
1
  6
CONTINUOUS
 62
   250
 10
-0.031713
 20
0.402237
 30
0.0
 11
-0.02426
 21
0.397934
 31
0.0
  0
ARC
  8
1
  6
CONTINUOUS
 62
   250
 10
0.001744
 20
0.376715
 30
0.0
 40
0.039841
 50
142.247375
 51
157.769043
  0
LINE
  8
1
  6
CONTINUOUS
 62
   250
 10
-0.02964
 20
0.388618
 30
0.0
 11
-0.037094
 21
0.392921
 31
0.0
  0
ARC
  8
1
  6
CONTINUOUS
 62
   250
 10
0.001789
 20
0.376689
 30
0.0
 40
0.042133
 50
97.329025
 51
142.669952
  0
ARC
  8
1
  6
CONTINUOUS
 62
   250
 10
0.001791
 20
0.37668
 30
0.0
 40
0.035865
 50
98.622696
 51
141.369003
  0
ARC
  8
1
  6
CONTINUOUS
 62
   250
 10
0.001794
 20
0.376469
 30
0.0
 40
0.040111
 50
82.292305
 51
97.707695
  0
INSERT
  8
1
 62
   250
  2
STRIP2
 10
-0.016143
 20
0.614349
 30
0.0
 41
0.179372
 42
0.179372
  0
INSERT
  8
1
 62
   250
  2
STRIP2
 10
-0.016143
 20
0.596413
 30
0.0
 41
0.179372
 42
0.179372
  0
LINE
  8
1
  6
CONTINUOUS
 62
   250
 10
-0.016143
 20
0.578474
 30
0.0
 11
0.019732
 21
0.578474
 31
0.0
  0
INSERT
  8
1
 62
   250
  2
STRIP2
 10
-0.016143
 20
0.488789
 30
0.0
 41
0.179372
 42
0.179372
  0
INSERT
  8
1
 62
   250
  2
STRIP2
 10
-0.016143
 20
0.506725
 30
0.0
 41
0.179372
 42
0.179372
  0
INSERT
  8
1
 62
   250
  2
STRIP2
 10
-0.016143
 20
0.524662
 30
0.0
 41
0.179372
 42
0.179372
  0
LINE
  8
1
  6
CONTINUOUS
 62
   250
 10
-0.016143
 20
0.470852
 30
0.0
 11
0.019732
 21
0.470852
 31
0.0
  0
LINE
  8
1
  6
CONTINUOUS
 62
   250
 10
0.136323
 20
0.57399
 30
0.0
 11
0.136323
 21
0.466366
 31
0.0
  0
TEXT
  8
1
  6
CONTINUOUS
 62
   250
 10
0.03418
 20
0.820627
 30
0.0
 40
0.0113
  1
SELECT
 41
1.011111
  7
SIMPLEX
  0
TEXT
  8
1
  6
CONTINUOUS
 62
   250
 10
0.020727
 20
0.663677
 30
0.0
 40
0.0113
  1
SELECT
 41
1.011111
  7
SIMPLEX
  0
TEXT
  8
1
  6
CONTINUOUS
 62
   250
 10
0.0287
 20
0.707191
 30
0.0
 40
0.009417
  1
OFF
 41
1.233333
  7
SIMPLEX
  0
TEXT
  8
1
  6
CONTINUOUS
 62
   250
 10
0.0287
 20
0.635443
 30
0.0
 40
0.0113
  1
CONTROL 1
 41
1.011111
  7
SIMPLEX
  0
TEXT
  8
1
  6
CONTINUOUS
 62
   250
 10
0.0287
 20
0.77894
 30
0.0
 40
0.009417
  1
SENSOR 1
 41
1.133333
  7
SIMPLEX
  0
TEXT
  8
1
  6
CONTINUOUS
 62
   250
 10
0.0287
 20
0.761002
 30
0.0
 40
0.009417
  1
SENSOR 2
 41
1.133333
  7
SIMPLEX
  0
TEXT
  8
1
  6
CONTINUOUS
 62
   250
 10
0.0287
 20
0.743065
 30
0.0
 40
0.009417
  1
SENSOR 3
 41
1.133333
  7
SIMPLEX
  0
TEXT
  8
1
  6
CONTINUOUS
 62
   250
 10
0.0287
 20
0.725128
 30
0.0
 40
0.009417
  1
SENSOR 4
 41
1.133333
  7
SIMPLEX
  0
TEXT
  8
1
  6
CONTINUOUS
 62
   250
 10
-0.019632
 20
0.798206
 30
0.0
 40
0.0113
  1
PRIMARY
 41
1.011111
  7
SIMPLEX
  0
LINE
  8
1
  6
CONTINUOUS
 62
   250
 10
-0.020628
 20
0.816143
 30
0.0
 11
0.149776
 21
0.816143
 31
0.0
  0
LINE
  8
1
  6
CONTINUOUS
 62
   250
 10
-0.020628
 20
0.699551
 30
0.0
 11
0.149776
 21
0.699551
 31
0.0
  0
LINE
  8
1
  6
CONTINUOUS
 62
   250
 10
-0.020628
 20
0.654709
 30
0.0
 11
0.131839
 21
0.654709
 31
0.0
  0
TEXT
  8
1
  6
CONTINUOUS
 62
   250
 10
-0.015147
 20
0.681614
 30
0.0
 40
0.0113
  1
CNTRL OUTPUT
 41
1.011111
  7
SIMPLEX
  0
TEXT
  8
1
  6
CONTINUOUS
 62
   250
 10
-0.006367
 20
0.838564
 30
0.0
 40
0.0113
  1
SENSOR OUTPUT
 41
1.011111
  7
SIMPLEX
  0
INSERT
  8
1
 62
   250
  2
STRIP2
 10
-0.060987
 20
0.704035
 30
0.0
 41
0.179372
 42
0.179372
  0
INSERT
  8
1
 62
   250
  2
STRIP2
 10
-0.060987
 20
0.686098
 30
0.0
 41
0.179372
 42
0.179372
  0
INSERT
  8
1
 62
   250
  2
STRIP2
 10
-0.060987
 20
0.721973
 30
0.0
 41
0.179372
 42
0.179372
  0
INSERT
  8
1
 62
   250
  2
STRIP2
 10
-0.060987
 20
0.73991
 30
0.0
 41
0.179372
 42
0.179372
  0
INSERT
  8
1
 62
   250
  2
STRIP2
 10
-0.060987
 20
0.757847
 30
0.0
 41
0.179372
 42
0.179372
  0
INSERT
  8
1
 62
   250
  2
STRIP2
 10
-0.060987
 20
0.775784
 30
0.0
 41
0.179372
 42
0.179372
  0
INSERT
  8
1
 62
   250
  2
STRIP2
 10
-0.060987
 20
0.79372
 30
0.0
 41
0.179372
 42
0.179372
  0
TEXT
  8
1
  6
CONTINUOUS
 62
   250
 10
-0.080486
 20
0.798206
 30
0.0
 40
0.0113
  1
RESET
 41
1.011111
  7
SIMPLEX
 72
     2
 11
-0.029343
 21
0.798206
 31
0.0
  0
INSERT
  8
1
 62
   250
  2
STRIP2
 10
-0.060987
 20
0.650223
 30
0.0
 41
0.179372
 42
0.179372
  0
INSERT
  8
1
 62
   250
  2
STRIP2
 10
-0.060987
 20
0.668159
 30
0.0
 41
0.179372
 42
0.179372
  0
INSERT
  8
1
 62
   250
  2
STRIP2
 10
-0.016143
 20
0.721973
 30
0.0
 41
0.179372
 42
0.179372
  0
INSERT
  8
1
 62
   250
  2
STRIP2
 10
-0.016143
 20
0.73991
 30
0.0
 41
0.179372
 42
0.179372
  0
INSERT
  8
1
 62
   250
  2
STRIP2
 10
-0.016143
 20
0.757847
 30
0.0
 41
0.179372
 42
0.179372
  0
INSERT
  8
1
 62
   250
  2
STRIP2
 10
-0.016143
 20
0.775784
 30
0.0
 41
0.179372
 42
0.179372
  0
INSERT
  8
1
 62
   250
  2
STRIP2
 10
-0.016143
 20
0.79372
 30
0.0
 41
0.179372
 42
0.179372
  0
LINE
  8
1
  6
CONTINUOUS
 62
   250
 10
-0.016143
 20
0.704035
 30
0.0
 11
0.019732
 21
0.704035
 31
0.0
  0
INSERT
  8
1
 62
   250
  2
STRIP2
 10
-0.016143
 20
0.650223
 30
0.0
 41
0.179372
 42
0.179372
  0
INSERT
  8
1
 62
   250
  2
STRIP2
 10
0.109417
 20
0.79372
 30
0.0
 41
0.179372
 42
0.179372
  0
INSERT
  8
1
 62
   250
  2
STRIP2
 10
0.109417
 20
0.775784
 30
0.0
 41
0.179372
 42
0.179372
  0
INSERT
  8
1
 62
   250
  2
STRIP2
 10
0.109417
 20
0.757847
 30
0.0
 41
0.179372
 42
0.179372
  0
INSERT
  8
1
 62
   250
  2
STRIP2
 10
0.109417
 20
0.721973
 30
0.0
 41
0.179372
 42
0.179372
  0
LINE
  8
1
  6
CONTINUOUS
 62
   250
 10
0.109417
 20
0.704035
 30
0.0
 11
0.14529
 21
0.704035
 31
0.0
  0
INSERT
  8
1
 62
   250
  2
STRIP2
 10
0.109417
 20
0.73991
 30
0.0
 41
0.179372
 42
0.179372
  0
TEXT
  8
1
  6
CONTINUOUS
 62
   250
 10
0.089917
 20
0.798206
 30
0.0
 40
0.0113
  1
RESET
 41
1.011111
  7
SIMPLEX
 72
     2
 11
0.14106
 21
0.798206
 31
0.0
  0
LINE
  8
1
  6
CONTINUOUS
 62
   250
 10
0.149776
 20
0.699551
 30
0.0
 11
0.149776
 21
0.856501
 31
0.0
  0
ARC
  8
1
  6
CONTINUOUS
 62
   250
 10
-0.273542
 20
0.982062
 30
0.0
 40
0.017938
 50
90.002853
 51
180.003235
  0
LINE
  8
1
  6
CONTINUOUS
 62
   250
 10
-0.165919
 20
0.982061
 30
0.0
 11
-0.165919
 21
1.0
 31
0.0
  0
LINE
  8
1
  6
CONTINUOUS
 62
   250
 10
-0.251121
 20
0.919281
 30
0.0
 11
-0.27713
 21
0.919281
 31
0.0
  0
ARC
  8
1
  6
CONTINUOUS
 62
   250
 10
-0.251122
 20
0.959641
 30
0.0
 40
0.04036
 50
270.002563
 51
359.998718
  0
LINE
  8
1
  6
CONTINUOUS
 62
   250
 10
-0.2
 20
0.914797
 30
0.0
 11
-0.267264
 21
0.914797
 31
0.0
  0
CIRCLE
  8
1
  6
CONTINUOUS
 62
   250
 10
-0.251121
 20
0.959641
 30
0.0
 40
0.028251
  0
CIRCLE
  8
1
  6
CONTINUOUS
 62
   250
 10
-0.251121
 20
0.959641
 30
0.0
 40
0.017578
  0
LINE
  8
1
  6
CONTINUOUS
 62
   250
 10
-0.210762
 20
0.982061
 30
0.0
 11
-0.210762
 21
0.959641
 31
0.0
  0
LINE
  8
1
  6
CONTINUOUS
 62
   250
 10
-0.2
 20
0.982061
 30
0.0
 11
-0.2
 21
0.914797
 31
0.0
  0
CIRCLE
  8
1
  6
CONTINUOUS
 62
   250
 10
0.051121
 20
0.941772
 30
0.0
 40
0.008969
  0
LINE
  8
1
  6
CONTINUOUS
 62
   250
 10
0.028182
 20
0.874508
 30
0.0
 11
0.176682
 21
0.874508
 31
0.0
  0
LINE
  8
1
  6
CONTINUOUS
 62
   250
 10
-0.110313
 20
0.973162
 30
0.0
 11
0.176682
 21
0.973162
 31
0.0
  0
CIRCLE
  8
1
  6
CONTINUOUS
 62
   250
 10
0.015247
 20
0.941772
 30
0.0
 40
0.008968
  0
LINE
  8
1
  6
CONTINUOUS
 62
   250
 10
0.008905
 20
0.948112
 30
0.0
 11
0.021587
 21
0.935429
 31
0.0
  0
TEXT
  8
1
  6
CONTINUOUS
 62
   250
 10
0.009268
 20
0.955223
 30
0.0
 40
0.0113
  1
5
 41
1.111111
  7
SIMPLEX
  0
TEXT
  8
1
  6
CONTINUOUS
 62
   250
 10
0.015247
 20
0.928318
 30
0.0
 40
0.008072
  1
PRIMARY
 50
270.0
 41
1.133333
  7
SIMPLEX
  0
LINE
  8
1
  6
CONTINUOUS
 62
   250
 10
-0.01166
 20
0.941772
 30
0.0
 11
-0.029596
 21
0.941772
 31
0.0
  0
CIRCLE
  8
1
  6
CONTINUOUS
 62
   250
 10
-0.020628
 20
0.941772
 30
0.0
 40
0.008968
  0
TEXT
  8
1
  6
CONTINUOUS
 62
   250
 10
-0.026906
 20
0.955223
 30
0.0
 40
0.0113
  1
6
 41
1.111111
  7
SIMPLEX
  0
LINE
  8
1
  6
CONTINUOUS
 62
   250
 10
-0.008719
 20
0.874508
 30
0.0
 11
-0.001577
 21
0.874508
 31
0.0
  0
TEXT
  8
1
  6
CONTINUOUS
 62
   250
 10
-0.020628
 20
0.928318
 30
0.0
 40
0.008072
  1
PRIMARY
 50
270.0
 41
1.133333
  7
SIMPLEX
  0
TEXT
  8
1
  6
CONTINUOUS
 62
   250
 10
-0.034081
 20
0.928318
 30
0.0
 40
0.008072
  1
LOOP OUT
 50
270.0
 41
1.133333
  7
SIMPLEX
  0
LINE
  8
1
  6
CONTINUOUS
 62
   250
 10
-0.056501
 20
0.932804
 30
0.0
 11
-0.056501
 21
0.950741
 31
0.0
  0
CIRCLE
  8
1
  6
CONTINUOUS
 62
   250
 10
-0.056501
 20
0.941772
 30
0.0
 40
0.008968
  0
TEXT
  8
1
  6
CONTINUOUS
 62
   250
 10
-0.062481
 20
0.955223
 30
0.0
 40
0.0113
  1
7
 41
1.111111
  7
SIMPLEX
  0
LINE
  8
1
  6
CONTINUOUS
 62
   250
 10
-0.092377
 20
0.874508
 30
0.0
 11
-0.074189
 21
0.874508
 31
0.0
  0
TEXT
  8
1
  6
CONTINUOUS
 62
   250
 10
-0.056501
 20
0.928318
 30
0.0
 40
0.008072
  1
RESET
 50
270.0
 41
1.133333
  7
SIMPLEX
  0
TEXT
  8
1
  6
CONTINUOUS
 62
   250
 10
-0.092377
 20
0.928318
 30
0.0
 40
0.008072
  1
RESET
 50
270.0
 41
1.133333
  7
SIMPLEX
  0
TEXT
  8
1
  6
CONTINUOUS
 62
   250
 10
-0.069955
 20
0.928318
 30
0.0
 40
0.008072
  1
LOOP IN
 50
270.0
 41
1.133333
  7
SIMPLEX
  0
LINE
  8
1
  6
CONTINUOUS
 62
   250
 10
-0.056929
 20
0.874508
 30
0.0
 11
-0.038565
 21
0.874508
 31
0.0
  0
TEXT
  8
1
  6
CONTINUOUS
 62
   250
 10
-0.10583
 20
0.928318
 30
0.0
 40
0.008072
  1
LOOP OUT
 50
270.0
 41
1.133333
  7
SIMPLEX
  0
LINE
  8
1
  6
CONTINUOUS
 62
   250
 10
-0.110313
 20
0.973162
 30
0.0
 11
-0.110313
 21
0.874508
 31
0.0
  0
LINE
  8
1
  6
CONTINUOUS
 62
   250
 10
-0.098719
 20
0.948112
 30
0.0
 11
-0.086035
 21
0.935429
 31
0.0
  0
CIRCLE
  8
1
  6
CONTINUOUS
 62
   250
 10
-0.092377
 20
0.941772
 30
0.0
 40
0.008968
  0
TEXT
  8
1
  6
CONTINUOUS
 62
   250
 10
-0.098356
 20
0.955223
 30
0.0
 40
0.0113
  1
8
 41
1.111111
  7
SIMPLEX
  0
TEXT
  8
1
  6
CONTINUOUS
 62
   250
 10
0.001794
 20
0.928318
 30
0.0
 40
0.008072
  1
LOOP IN
 50
270.0
 41
1.133333
  7
SIMPLEX
  0
LINE
  8
1
  6
CONTINUOUS
 62
   250
 10
0.203587
 20
0.982061
 30
0.0
 11
0.203587
 21
0.914797
 31
0.0
  0
LINE
  8
1
  6
CONTINUOUS
 62
   250
 10
0.203587
 20
0.982061
 30
0.0
 11
0.203587
 21
0.919281
 31
0.0
  0
LINE
  8
1
  6
CONTINUOUS
 62
   250
 10
0.170403
 20
1.0
 30
0.0
 11
0.170403
 21
0.982061
 31
0.0
  0
TEXT
  8
1
  6
CONTINUOUS
 62
   250
 10
0.153662
 20
0.955223
 30
0.0
 40
0.0113
  1
1
 41
1.111111
  7
SIMPLEX
  0
LINE
  8
1
  6
CONTINUOUS
 62
   250
 10
0.158744
 20
0.932804
 30
0.0
 11
0.158744
 21
0.950741
 31
0.0
  0
TEXT
  8
1
  6
CONTINUOUS
 62
   250
 10
0.154261
 20
0.928318
 30
0.0
 40
0.009417
  1
+24V
 50
270.0
 41
1.233333
  7
SIMPLEX
  0
TEXT
  8
1
  6
CONTINUOUS
 62
   250
 10
0.116891
 20
0.955223
 30
0.0
 40
0.0113
  1
2
 41
1.111111
  7
SIMPLEX
  0
CIRCLE
  8
1
  6
CONTINUOUS
 62
   250
 10
0.122869
 20
0.941772
 30
0.0
 40
0.008969
  0
LINE
  8
1
  6
CONTINUOUS
 62
   250
 10
0.116528
 20
0.948112
 30
0.0
 11
0.129211
 21
0.935429
 31
0.0
  0
TEXT
  8
1
  6
CONTINUOUS
 62
   250
 10
0.118385
 20
0.928318
 30
0.0
 40
0.009417
  1
TIMER
 50
270.0
 41
1.233333
  7
SIMPLEX
  0
CIRCLE
  8
1
  6
CONTINUOUS
 62
   250
 10
0.158744
 20
0.941772
 30
0.0
 40
0.008969
  0
LINE
  8
1
  6
CONTINUOUS
 62
   250
 10
0.176682
 20
0.874508
 30
0.0
 11
0.176682
 21
0.973162
 31
0.0
  0
TEXT
  8
1
  6
CONTINUOUS
 62
   250
 10
0.081017
 20
0.955223
 30
0.0
 40
0.0113
  1
3
 41
1.111111
  7
SIMPLEX
  0
TEXT
  8
1
  6
CONTINUOUS
 62
   250
 10
0.082511
 20
0.928318
 30
0.0
 40
0.009417
  1
GND
 50
270.0
 41
1.233333
  7
SIMPLEX
  0
CIRCLE
  8
1
  6
CONTINUOUS
 62
   250
 10
0.086996
 20
0.941772
 30
0.0
 40
0.008968
  0
LINE
  8
1
  6
CONTINUOUS
 62
   250
 10
0.095964
 20
0.941772
 30
0.0
 11
0.078027
 21
0.941772
 31
0.0
  0
LINE
  8
1
  6
CONTINUOUS
 62
   250
 10
0.051121
 20
0.932804
 30
0.0
 11
0.051121
 21
0.950741
 31
0.0
  0
TEXT
  8
1
  6
CONTINUOUS
 62
   250
 10
0.044844
 20
0.955223
 30
0.0
 40
0.0113
  1
4
 41
1.111111
  7
SIMPLEX
  0
TEXT
  8
1
  6
CONTINUOUS
 62
   250
 10
0.046637
 20
0.928318
 30
0.0
 40
0.009417
  1
+P
 50
270.0
 41
1.233333
  7
SIMPLEX
  0
LINE
  8
1
  6
CONTINUOUS
 62
   250
 10
0.270851
 20
0.566814
 30
0.0
 11
0.270851
 21
0.085201
 31
0.0
  0
LINE
  8
1
  6
CONTINUOUS
 62
   250
 10
0.27713
 20
0.566814
 30
0.0
 11
0.27713
 21
0.080717
 31
0.0
  0
LINE
  8
1
  6
CONTINUOUS
 62
   250
 10
0.291479
 20
0.616142
 30
0.0
 11
0.291479
 21
0.017937
 31
0.0
  0
LINE
  8
1
  6
CONTINUOUS
 62
   250
 10
0.251122
 20
0.080717
 30
0.0
 11
0.27713
 21
0.080717
 31
0.0
  0
ARC
  8
1
  6
CONTINUOUS
 62
   250
 10
0.273545
 20
0.017934
 30
0.0
 40
0.017934
 50
269.992371
 51
0.007659
  0
CIRCLE
  8
1
  6
CONTINUOUS
 62
   250
 10
0.251122
 20
0.040359
 30
0.0
 40
0.02825
  0
CIRCLE
  8
1
  6
CONTINUOUS
 62
   250
 10
0.251122
 20
0.040359
 30
0.0
 40
0.017578
  0
LINE
  8
1
  6
CONTINUOUS
 62
   250
 10
0.210762
 20
0.017937
 30
0.0
 11
0.210762
 21
0.040359
 31
0.0
  0
LINE
  8
1
  6
CONTINUOUS
 62
   250
 10
0.27713
 20
0.919281
 30
0.0
 11
0.27713
 21
0.835873
 31
0.0
  0
LINE
  8
1
  6
CONTINUOUS
 62
   250
 10
0.270851
 20
0.914797
 30
0.0
 11
0.270851
 21
0.835873
 31
0.0
  0
INSERT
  8
1
 62
   250
  2
STRIP2
 10
0.21704
 20
0.865471
 30
0.0
 41
0.179372
 42
0.179372
  0
LINE
  8
1
  6
CONTINUOUS
 62
   250
 10
0.291479
 20
0.982061
 30
0.0
 11
0.291479
 21
0.786545
 31
0.0
  0
LINE
  8
1
  6
CONTINUOUS
 62
   250
 10
0.322421
 20
0.616142
 30
0.0
 11
0.322421
 21
0.786545
 31
0.0
  0
LINE
  8
1
  6
CONTINUOUS
 62
   250
 10
0.241704
 20
0.616142
 30
0.0
 11
0.241704
 21
0.786545
 31
0.0
  0
LINE
  8
1
  6
CONTINUOUS
 62
   250
 10
0.282063
 20
0.835873
 30
0.0
 11
0.282063
 21
0.566814
 31
0.0
  0
LINE
  8
1
  6
CONTINUOUS
 62
   250
 10
0.291479
 20
0.582958
 30
0.0
 11
0.282063
 21
0.582958
 31
0.0
  0
LINE
  8
1
  6
CONTINUOUS
 62
   250
 10
0.214798
 20
0.616142
 30
0.0
 11
0.241704
 21
0.616142
 31
0.0
  0
LINE
  8
1
  6
CONTINUOUS
 62
   250
 10
0.214798
 20
0.566814
 30
0.0
 11
0.214798
 21
0.616142
 31
0.0
  0
LINE
  8
1
  6
CONTINUOUS
 62
   250
 10
0.282063
 20
0.566814
 30
0.0
 11
0.214798
 21
0.566814
 31
0.0
  0
CIRCLE
  8
1
  6
CONTINUOUS
 62
   250
 10
0.250672
 20
0.58251
 30
0.0
 40
0.00852
  0
LINE
  8
1
  6
CONTINUOUS
 62
   250
 10
0.282063
 20
0.616142
 30
0.0
 11
0.322421
 21
0.616142
 31
0.0
  0
LINE
  8
1
  6
CONTINUOUS
 62
   250
 10
0.291479
 20
0.816143
 30
0.0
 11
0.282063
 21
0.816143
 31
0.0
  0
LINE
  8
1
  6
CONTINUOUS
 62
   250
 10
0.291479
 20
0.816143
 30
0.0
 11
0.287891
 21
0.816143
 31
0.0
  0
LINE
  8
1
  6
CONTINUOUS
 62
   250
 10
0.21704
 20
0.847534
 30
0.0
 11
0.252914
 21
0.847534
 31
0.0
  0
LINE
  8
1
  6
CONTINUOUS
 62
   250
 10
0.282063
 20
0.835873
 30
0.0
 11
0.214798
 21
0.835873
 31
0.0
  0
LINE
  8
1
  6
CONTINUOUS
 62
   250
 10
0.214798
 20
0.786545
 30
0.0
 11
0.241704
 21
0.786545
 31
0.0
  0
TEXT
  8
1
  6
CONTINUOUS
 62
   250
 10
0.252914
 20
0.780268
 30
0.0
 40
0.008072
  1
Female DIN Connector
 50
270.0
 41
1.011111
  7
SIMPLEX
  0
LINE
  8
1
  6
CONTINUOUS
 62
   250
 10
0.322421
 20
0.786545
 30
0.0
 11
0.282063
 21
0.786545
 31
0.0
  0
LINE
  8
1
  6
CONTINUOUS
 62
   250
 10
0.214798
 20
0.835873
 30
0.0
 11
0.214798
 21
0.786545
 31
0.0
  0
CIRCLE
  8
1
  6
CONTINUOUS
 62
   250
 10
0.250672
 20
0.820179
 30
0.0
 40
0.00852
  0
ARC
  8
1
  6
CONTINUOUS
 62
   250
 10
0.273542
 20
0.982062
 30
0.0
 40
0.017938
 50
359.996765
 51
89.997147
  0
INSERT
  8
1
 62
   250
  2
STRIP2
 10
0.21704
 20
0.883408
 30
0.0
 41
0.179372
 42
0.179372
  0
LINE
  8
1
  6
CONTINUOUS
 62
   250
 10
0.27713
 20
0.919281
 30
0.0
 11
0.251122
 21
0.919281
 31
0.0
  0
CIRCLE
  8
1
  6
CONTINUOUS
 62
   250
 10
0.251122
 20
0.959641
 30
0.0
 40
0.02825
  0
CIRCLE
  8
1
  6
CONTINUOUS
 62
   250
 10
0.251122
 20
0.959641
 30
0.0
 40
0.017578
  0
LINE
  8
1
  6
CONTINUOUS
 62
   250
 10
0.210762
 20
0.959641
 30
0.0
 11
0.210762
 21
0.982061
 31
0.0
  0
ENDSEC
  0
EOF
