  0
SECTION
  2
HEADER
  9
$ACADVER
  1
AC1009
  9
$INSBASE
 10
0.0
 20
0.0
 30
0.0
  9
$EXTMIN
 10
-0.31435
 20
0.0
 30
0.0
  9
$EXTMAX
 10
0.322422
 20
1.000001
 30
0.0
  9
$LIMMIN
 10
16.133848
 20
12.516552
  9
$LIMMAX
 10
16.77062
 20
13.516553
  9
$ORTHOMODE
 70
     1
  9
$REGENMODE
 70
     1
  9
$FILLMODE
 70
     1
  9
$QTEXTMODE
 70
     0
  9
$MIRRTEXT
 70
     1
  9
$DRAGMODE
 70
     2
  9
$LTSCALE
 40
1.0
  9
$OSMODE
 70
     0
  9
$ATTMODE
 70
     2
  9
$TEXTSIZE
 40
1.0
  9
$TRACEWID
 40
0.05
  9
$TEXTSTYLE
  7
STANDARD
  9
$CLAYER
  8
0
  9
$CELTYPE
  6
BYLAYER
  9
$CECOLOR
 62
   256
  9
$DIMSCALE
 40
1.0
  9
$DIMASZ
 40
1.0
  9
$DIMEXO
 40
0.5
  9
$DIMDLI
 40
0.38
  9
$DIMRND
 40
0.0
  9
$DIMDLE
 40
0.0
  9
$DIMEXE
 40
0.5
  9
$DIMTP
 40
0.0
  9
$DIMTM
 40
0.0
  9
$DIMTXT
 40
0.18
  9
$DIMCEN
 40
0.09
  9
$DIMTSZ
 40
0.0
  9
$DIMTOL
 70
     0
  9
$DIMLIM
 70
     0
  9
$DIMTIH
 70
     1
  9
$DIMTOH
 70
     1
  9
$DIMSE1
 70
     0
  9
$DIMSE2
 70
     0
  9
$DIMTAD
 70
     0
  9
$DIMZIN
 70
     0
  9
$DIMBLK
  1

  9
$DIMASO
 70
     1
  9
$DIMSHO
 70
     1
  9
$DIMPOST
  1
"
  9
$DIMAPOST
  1

  9
$DIMALT
 70
     0
  9
$DIMALTD
 70
     2
  9
$DIMALTF
 40
25.4
  9
$DIMLFAC
 40
1.0
  9
$DIMTOFL
 70
     0
  9
$DIMTVP
 40
0.0
  9
$DIMTIX
 70
     0
  9
$DIMSOXD
 70
     0
  9
$DIMSAH
 70
     0
  9
$DIMBLK1
  1

  9
$DIMBLK2
  1

  9
$DIMSTYLE
  2
*UNNAMED
  9
$DIMCLRD
 70
     0
  9
$DIMCLRE
 70
     0
  9
$DIMCLRT
 70
     0
  9
$DIMTFAC
 40
1.0
  9
$DIMGAP
 40
0.09
  9
$LUNITS
 70
     2
  9
$LUPREC
 70
     3
  9
$SKETCHINC
 40
0.1
  9
$FILLETRAD
 40
0.0
  9
$AUNITS
 70
     0
  9
$AUPREC
 70
     3
  9
$MENU
  1
acad
  9
$ELEVATION
 40
0.0
  9
$PELEVATION
 40
0.0
  9
$THICKNESS
 40
0.0
  9
$LIMCHECK
 70
     0
  9
$BLIPMODE
 70
     0
  9
$CHAMFERA
 40
0.5
  9
$CHAMFERB
 40
0.5
  9
$SKPOLY
 70
     0
  9
$TDCREATE
 40
2450081.654810301
  9
$TDUPDATE
 40
2450081.654810301
  9
$TDINDWG
 40
0.0000000000
  9
$TDUSRTIMER
 40
0.0000000000
  9
$USRTIMER
 70
     1
  9
$ANGBASE
 50
0.0
  9
$ANGDIR
 70
     0
  9
$PDMODE
 70
     2
  9
$PDSIZE
 40
0.0
  9
$PLINEWID
 40
0.0
  9
$COORDS
 70
     1
  9
$SPLFRAME
 70
     0
  9
$SPLINETYPE
 70
     6
  9
$SPLINESEGS
 70
     8
  9
$ATTDIA
 70
     0
  9
$ATTREQ
 70
     1
  9
$HANDLING
 70
     0
  9
$HANDSEED
  5
0
  9
$SURFTAB1
 70
     6
  9
$SURFTAB2
 70
     6
  9
$SURFTYPE
 70
     6
  9
$SURFU
 70
     6
  9
$SURFV
 70
     6
  9
$UCSNAME
  2

  9
$UCSORG
 10
0.0
 20
0.0
 30
0.0
  9
$UCSXDIR
 10
1.0
 20
0.0
 30
0.0
  9
$UCSYDIR
 10
0.0
 20
1.0
 30
0.0
  9
$PUCSNAME
  2

  9
$PUCSORG
 10
0.0
 20
0.0
 30
0.0
  9
$PUCSXDIR
 10
1.0
 20
0.0
 30
0.0
  9
$PUCSYDIR
 10
0.0
 20
1.0
 30
0.0
  9
$USERI1
 70
     0
  9
$USERI2
 70
     0
  9
$USERI3
 70
     0
  9
$USERI4
 70
     0
  9
$USERI5
 70
     0
  9
$USERR1
 40
0.0
  9
$USERR2
 40
0.0
  9
$USERR3
 40
0.0
  9
$USERR4
 40
0.0
  9
$USERR5
 40
0.0
  9
$WORLDVIEW
 70
     1
  9
$SHADEDGE
 70
     3
  9
$SHADEDIF
 70
    70
  9
$TILEMODE
 70
     1
  9
$MAXACTVP
 70
    16
  9
$PINSBASE
 10
-0.057096
 20
50.0
 30
-0.239539
  9
$PLIMCHECK
 70
     0
  9
$PEXTMIN
 10
1.000000E+20
 20
1.000000E+20
 30
1.000000E+20
  9
$PEXTMAX
 10
-1.000000E+20
 20
-1.000000E+20
 30
-1.000000E+20
  9
$PLIMMIN
 10
0.0
 20
0.0
  9
$PLIMMAX
 10
12.0
 20
9.0
  9
$UNITMODE
 70
     0
  9
$VISRETAIN
 70
     0
  9
$PLINEGEN
 70
     0
  9
$PSLTSCALE
 70
     1
  9
$TREEDEPTH
 70
  3020
  9
$DWGCODEPAGE
  3
ascii
  0
ENDSEC
  0
SECTION
  2
TABLES
  0
TABLE
  2
VPORT
 70
     2
  0
VPORT
  2
*ACTIVE
 70
     0
 10
0.0
 20
0.0
 11
1.0
 21
1.0
 12
9.064722
 22
6.756419
 13
0.0
 23
0.0
 14
1.0
 24
1.0
 15
1.0
 25
1.0
 16
0.0
 26
0.0
 36
1.0
 17
0.0
 27
0.0
 37
0.0
 40
13.520268
 41
1.387409
 42
50.0
 43
0.0
 44
0.0
 50
0.0
 51
0.0
 71
     0
 72
   100
 73
     1
 74
     1
 75
     0
 76
     0
 77
     0
 78
     0
  0
ENDTAB
  0
TABLE
  2
LTYPE
 70
     1
  0
LTYPE
  2
CONTINUOUS
 70
    64
  3
SOLID LINE
 72
    65
 73
     0
 40
0.0
  0
ENDTAB
  0
TABLE
  2
LAYER
 70
     3
  0
LAYER
  2
0
 70
    64
 62
   250
  6
CONTINUOUS
  0
LAYER
  2
1
 70
    64
 62
   250
  6
CONTINUOUS
  0
LAYER
  2
2
 70
    64
 62
   250
  6
CONTINUOUS
  0
ENDTAB
  0
TABLE
  2
STYLE
 70
     2
  0
STYLE
  2
STANDARD
 70
     0
 40
0.0
 41
1.0
 50
0.0
 71
     0
 42
0.2
  3
txt
  4

  0
STYLE
  2
SIMPLEX
 70
    64
 40
0.0
 41
1.0
 50
0.0
 71
     0
 42
1.0
  3
ROMANS.SHX
  4

  0
ENDTAB
  0
TABLE
  2
VIEW
 70
     0
  0
ENDTAB
  0
TABLE
  2
UCS
 70
     0
  0
ENDTAB
  0
TABLE
  2
APPID
 70
     1
  0
APPID
  2
ACAD
 70
    64
  0
ENDTAB
  0
TABLE
  2
DIMSTYLE
 70
     0
  0
ENDTAB
  0
ENDSEC
  0
SECTION
  2
BLOCKS
  0
BLOCK
  8
0
  2
STRIP2
 70
    64
 10
0.0
 20
0.0
 30
0.0
  3
STRIP2
  0
LINE
  8
1
  6
CONTINUOUS
 62
   250
 10
0.2
 20
0.0
 30
0.0
 11
0.0
 21
0.0
 31
0.0
  0
CIRCLE
  8
1
  6
CONTINUOUS
 62
   250
 10
0.05
 20
-0.05
 30
0.0
 40
0.01
  0
LINE
  8
1
  6
CONTINUOUS
 62
   250
 10
0.0
 20
0.0
 30
0.0
 11
0.0
 21
-0.1
 31
0.0
  0
CIRCLE
  8
1
  6
CONTINUOUS
 62
   250
 10
0.15
 20
-0.05
 30
0.0
 40
0.01
  0
LINE
  8
1
  6
CONTINUOUS
 62
   250
 10
0.2
 20
-0.1
 30
0.0
 11
0.2
 21
0.0
 31
0.0
  0
ENDBLK
  8
0
  0
BLOCK
  8
0
  2
STRIP3
 70
    64
 10
0.0
 20
0.0
 30
0.0
  3
STRIP3
  0
LINE
  8
1
  6
CONTINUOUS
 62
   250
 10
0.3
 20
-0.1
 30
0.0
 11
0.3
 21
0.0
 31
0.0
  0
LINE
  8
1
  6
CONTINUOUS
 62
   250
 10
0.0
 20
0.0
 30
0.0
 11
0.0
 21
-0.1
 31
0.0
  0
CIRCLE
  8
1
  6
CONTINUOUS
 62
   250
 10
0.05
 20
-0.05
 30
0.0
 40
0.01
  0
CIRCLE
  8
1
  6
CONTINUOUS
 62
   250
 10
0.15
 20
-0.05
 30
0.0
 40
0.01
  0
CIRCLE
  8
1
  6
CONTINUOUS
 62
   250
 10
0.25
 20
-0.05
 30
0.0
 40
0.01
  0
LINE
  8
1
  6
CONTINUOUS
 62
   250
 10
0.3
 20
0.0
 30
0.0
 11
0.0
 21
0.0
 31
0.0
  0
ENDBLK
  8
0
  0
BLOCK
  8
0
  2
POT
 70
    64
 10
0.0
 20
0.0
 30
0.0
  3
POT
  0
CIRCLE
  8
1
  6
CONTINUOUS
 62
   250
 10
0.0
 20
0.0
 30
0.0
 40
0.22
  0
ARC
  8
1
  6
CONTINUOUS
 62
   250
 10
0.191511
 20
0.160697
 30
0.0
 40
0.028
 50
133.210312
 51
306.789673
  0
ARC
  8
1
  6
CONTINUOUS
 62
   250
 10
0.191511
 20
-0.160697
 30
0.0
 40
0.028
 50
53.210331
 51
226.789688
  0
ARC
  8
1
  6
CONTINUOUS
 62
   250
 10
-0.000001
 20
-0.000001
 30
0.0
 40
0.25
 50
46.420486
 51
53.579491
  0
ARC
  8
1
  6
CONTINUOUS
 62
   250
 10
-0.000002
 20
0.000003
 30
0.0
 40
0.250003
 50
306.420563
 51
313.579498
  0
ARC
  8
1
  6
CONTINUOUS
 62
   250
 10
-0.191511
 20
0.160697
 30
0.0
 40
0.028
 50
233.210297
 51
46.789707
  0
LINE
  8
1
  6
CONTINUOUS
 62
   250
 10
-0.036
 20
0.144
 30
0.0
 11
0.0
 21
0.208
 31
0.0
  0
LINE
  8
1
  6
CONTINUOUS
 62
   250
 10
0.0
 20
0.208
 30
0.0
 11
0.036
 21
0.144
 31
0.0
  0
ARC
  8
1
  6
CONTINUOUS
 62
   250
 10
-0.191511
 20
-0.160697
 30
0.0
 40
0.028
 50
313.210327
 51
126.789665
  0
ARC
  8
1
  6
CONTINUOUS
 62
   250
 10
-0.234923
 20
-0.085505
 30
0.0
 40
0.028
 50
293.210266
 51
106.789757
  0
ARC
  8
1
  6
CONTINUOUS
 62
   250
 10
0.000001
 20
0.000001
 30
0.0
 40
0.250001
 50
206.420456
 51
213.579468
  0
ARC
  8
1
  6
CONTINUOUS
 62
   250
 10
-0.25
 20
0.0
 30
0.0
 40
0.028
 50
273.210266
 51
86.789742
  0
ARC
  8
1
  6
CONTINUOUS
 62
   250
 10
-0.234923
 20
0.085505
 30
0.0
 40
0.028
 50
253.210236
 51
66.789742
  0
ARC
  8
1
  6
CONTINUOUS
 62
   250
 10
-0.000003
 20
0.0
 30
0.0
 40
0.249996
 50
186.420425
 51
193.579559
  0
ARC
  8
1
  6
CONTINUOUS
 62
   250
 10
-0.000003
 20
0.0
 30
0.0
 40
0.249996
 50
166.420441
 51
173.579575
  0
ARC
  8
1
  6
CONTINUOUS
 62
   250
 10
0.000001
 20
-0.000001
 30
0.0
 40
0.250001
 50
146.420532
 51
153.579544
  0
ARC
  8
1
  6
CONTINUOUS
 62
   250
 10
-0.043412
 20
-0.246202
 30
0.0
 40
0.028
 50
353.210236
 51
166.789764
  0
ARC
  8
1
  6
CONTINUOUS
 62
   250
 10
0.0
 20
0.000019
 30
0.0
 40
0.250019
 50
266.420746
 51
273.579224
  0
ARC
  8
1
  6
CONTINUOUS
 62
   250
 10
-0.125
 20
-0.216506
 30
0.0
 40
0.028
 50
333.210175
 51
146.78981
  0
ARC
  8
1
  6
CONTINUOUS
 62
   250
 10
0.0
 20
0.0
 30
0.0
 40
0.25
 50
246.420486
 51
253.579529
  0
ARC
  8
1
  6
CONTINUOUS
 62
   250
 10
0.000001
 20
0.000001
 30
0.0
 40
0.250001
 50
226.420486
 51
233.579483
  0
ARC
  8
1
  6
CONTINUOUS
 62
   250
 10
0.125
 20
-0.216506
 30
0.0
 40
0.028
 50
33.210293
 51
206.789734
  0
ARC
  8
1
  6
CONTINUOUS
 62
   250
 10
0.043412
 20
-0.246202
 30
0.0
 40
0.028
 50
13.210233
 51
186.789749
  0
ARC
  8
1
  6
CONTINUOUS
 62
   250
 10
0.000003
 20
-0.000006
 30
0.0
 40
0.249993
 50
286.420349
 51
293.57959
  0
LINE
  8
1
  6
CONTINUOUS
 62
   250
 10
-0.016
 20
0.1
 30
0.0
 11
0.016
 21
0.1
 31
0.0
  0
LINE
  8
1
  6
CONTINUOUS
 62
   250
 10
0.016
 20
-0.1
 30
0.0
 11
-0.016
 21
-0.1
 31
0.0
  0
LINE
  8
1
  6
CONTINUOUS
 62
   250
 10
-0.012
 20
0.12
 30
0.0
 11
0.012
 21
0.12
 31
0.0
  0
LINE
  8
1
  6
CONTINUOUS
 62
   250
 10
-0.016
 20
-0.1
 30
0.0
 11
-0.016
 21
0.1
 31
0.0
  0
LINE
  8
1
  6
CONTINUOUS
 62
   250
 10
-0.012
 20
0.12
 30
0.0
 11
-0.012
 21
0.144
 31
0.0
  0
LINE
  8
1
  6
CONTINUOUS
 62
   250
 10
-0.012
 20
0.144
 30
0.0
 11
-0.036
 21
0.144
 31
0.0
  0
LINE
  8
1
  6
CONTINUOUS
 62
   250
 10
0.016
 20
0.1
 30
0.0
 11
0.016
 21
-0.1
 31
0.0
  0
LINE
  8
1
  6
CONTINUOUS
 62
   250
 10
0.012
 20
0.12
 30
0.0
 11
0.012
 21
0.144
 31
0.0
  0
LINE
  8
1
  6
CONTINUOUS
 62
   250
 10
0.012
 20
0.144
 30
0.0
 11
0.036
 21
0.144
 31
0.0
  0
ARC
  8
1
  6
CONTINUOUS
 62
   250
 10
0.0
 20
0.0
 30
0.0
 40
0.25
 50
66.420486
 51
113.579521
  0
ARC
  8
1
  6
CONTINUOUS
 62
   250
 10
-0.125
 20
0.216506
 30
0.0
 40
0.028
 50
213.21019
 51
26.789835
  0
ARC
  8
1
  6
CONTINUOUS
 62
   250
 10
-0.000002
 20
0.000002
 30
0.0
 40
0.249998
 50
126.420471
 51
133.579544
  0
ARC
  8
1
  6
CONTINUOUS
 62
   250
 10
0.125
 20
0.216506
 30
0.0
 40
0.028
 50
153.210266
 51
326.789703
  0
ARC
  8
1
  6
CONTINUOUS
 62
   250
 10
0.234923
 20
-0.085505
 30
0.0
 40
0.028
 50
73.210243
 51
246.789749
  0
ARC
  8
1
  6
CONTINUOUS
 62
   250
 10
-0.000003
 20
0.000001
 30
0.0
 40
0.250004
 50
326.420563
 51
333.579498
  0
ARC
  8
1
  6
CONTINUOUS
 62
   250
 10
0.25
 20
0.0
 30
0.0
 40
0.028
 50
93.210258
 51
266.789734
  0
ARC
  8
1
  6
CONTINUOUS
 62
   250
 10
0.234923
 20
0.085505
 30
0.0
 40
0.028
 50
113.210258
 51
286.789764
  0
ARC
  8
1
  6
CONTINUOUS
 62
   250
 10
0.000001
 20
0.000001
 30
0.0
 40
0.249999
 50
26.420479
 51
33.579536
  0
ARC
  8
1
  6
CONTINUOUS
 62
   250
 10
-0.000001
 20
0.0
 30
0.0
 40
0.250001
 50
6.420507
 51
13.579508
  0
ARC
  8
1
  6
CONTINUOUS
 62
   250
 10
-0.000001
 20
0.0
 30
0.0
 40
0.250001
 50
346.420502
 51
353.579498
  0
ENDBLK
  8
0
  0
ENDSEC
  0
SECTION
  2
ENTITIES
  0
TEXT
  8
1
  6
CONTINUOUS
 62
   250
 10
0.149855
 20
0.275535
 30
0.0
 40
0.009552
  1
SENSOR OUTPUT
 41
0.745071
  7
SIMPLEX
  0
TEXT
  8
1
  6
CONTINUOUS
 62
   250
 10
0.190135
 20
0.182529
 30
0.0
 40
0.010673
  1
SENSOR 4
 41
0.782353
  7
SIMPLEX
  0
TEXT
  8
1
  6
CONTINUOUS
 62
   250
 10
0.190135
 20
0.200466
 30
0.0
 40
0.010673
  1
SENSOR 3
 41
0.782353
  7
SIMPLEX
  0
TEXT
  8
1
  6
CONTINUOUS
 62
   250
 10
0.190135
 20
0.218403
 30
0.0
 40
0.010673
  1
SENSOR 2
 41
0.782353
  7
SIMPLEX
  0
TEXT
  8
1
  6
CONTINUOUS
 62
   250
 10
0.190135
 20
0.236341
 30
0.0
 40
0.010673
  1
SENSOR 1
 41
0.782353
  7
SIMPLEX
  0
TEXT
  8
1
  6
CONTINUOUS
 62
   250
 10
0.186646
 20
0.26009
 30
0.0
 40
0.009955
  1
SELECT
 41
0.710811
  7
SIMPLEX
  0
LINE
  8
1
  6
CONTINUOUS
 62
   250
 10
0.270852
 20
0.914798
 30
0.0
 11
0.203587
 21
0.914798
 31
0.0
  0
LINE
  8
1
  6
CONTINUOUS
 62
   250
 10
0.203587
 20
0.085202
 30
0.0
 11
0.270852
 21
0.085202
 31
0.0
  0
LINE
  8
1
  6
CONTINUOUS
 62
   250
 10
0.282063
 20
0.566816
 30
0.0
 11
0.214798
 21
0.566816
 31
0.0
  0
LINE
  8
1
  6
CONTINUOUS
 62
   250
 10
0.282063
 20
0.835874
 30
0.0
 11
0.214798
 21
0.835874
 31
0.0
  0
LINE
  8
1
  6
CONTINUOUS
 62
   250
 10
0.214798
 20
0.786547
 30
0.0
 11
0.241704
 21
0.786547
 31
0.0
  0
LINE
  8
1
  6
CONTINUOUS
 62
   250
 10
0.214798
 20
0.616144
 30
0.0
 11
0.241704
 21
0.616144
 31
0.0
  0
LINE
  8
1
  6
CONTINUOUS
 62
   250
 10
0.273542
 20
1.0
 30
0.0
 11
-0.273542
 21
1.0
 31
0.0
  0
LINE
  8
1
  6
CONTINUOUS
 62
   250
 10
0.273542
 20
0.0
 30
0.0
 11
-0.273542
 21
0.0
 31
0.0
  0
ARC
  8
1
  6
CONTINUOUS
 62
   250
 10
0.251121
 20
0.959641
 30
0.0
 40
0.040359
 50
180.000092
 51
270.00116
  0
ARC
  8
1
  6
CONTINUOUS
 62
   250
 10
0.251121
 20
0.040359
 30
0.0
 40
0.040359
 50
89.998901
 51
180.001099
  0
LINE
  8
1
  6
CONTINUOUS
 62
   250
 10
0.167713
 20
0.412556
 30
0.0
 11
0.270852
 21
0.412556
 31
0.0
  0
LINE
  8
1
  6
CONTINUOUS
 62
   250
 10
0.167713
 20
0.313901
 30
0.0
 11
0.270852
 21
0.313901
 31
0.0
  0
LINE
  8
1
  6
CONTINUOUS
 62
   250
 10
0.167713
 20
0.434978
 30
0.0
 11
0.270852
 21
0.434978
 31
0.0
  0
LINE
  8
1
  6
CONTINUOUS
 62
   250
 10
0.140807
 20
0.29148
 30
0.0
 11
0.270852
 21
0.29148
 31
0.0
  0
INSERT
  8
1
 62
   250
  2
STRIP2
 10
0.21704
 20
0.883408
 30
0.0
 41
0.179372
 42
0.179372
  0
LINE
  8
1
  6
CONTINUOUS
 62
   250
 10
0.21704
 20
0.865471
 30
0.0
 11
0.252914
 21
0.865471
 31
0.0
  0
LINE
  8
1
  6
CONTINUOUS
 62
   250
 10
0.140807
 20
0.156951
 30
0.0
 11
0.270852
 21
0.156951
 31
0.0
  0
LINE
  8
1
  6
CONTINUOUS
 62
   250
 10
0.140807
 20
0.255605
 30
0.0
 11
0.270852
 21
0.255605
 31
0.0
  0
ARC
  8
1
  6
CONTINUOUS
 62
   250
 10
0.001789
 20
0.37669
 30
0.0
 40
0.042133
 50
97.328957
 51
142.669937
  0
ARC
  8
1
  6
CONTINUOUS
 62
   250
 10
0.001799
 20
0.37669
 30
0.0
 40
0.042133
 50
37.330173
 51
82.670898
  0
LINE
  8
1
  6
CONTINUOUS
 62
   250
 10
-0.267265
 20
0.085202
 30
0.0
 11
-0.267265
 21
0.566816
 31
0.0
  0
LINE
  8
1
  6
CONTINUOUS
 62
   250
 10
-0.267265
 20
0.5
 30
0.0
 11
-0.267265
 21
0.365471
 31
0.0
  0
LINE
  8
1
  6
CONTINUOUS
 62
   250
 10
-0.29148
 20
0.582511
 30
0.0
 11
-0.29148
 21
0.017937
 31
0.0
  0
LINE
  8
1
  6
CONTINUOUS
 62
   250
 10
-0.27713
 20
0.566816
 30
0.0
 11
-0.27713
 21
0.080717
 31
0.0
  0
LINE
  8
2
  6
CONTINUOUS
 62
   250
 10
-0.087893
 20
0.165919
 30
0.0
 11
-0.087893
 21
0.44843
 31
0.0
  0
LINE
  8
2
  6
CONTINUOUS
 62
   250
 10
-0.26278
 20
0.44843
 30
0.0
 11
-0.26278
 21
0.112108
 31
0.0
  0
TEXT
  8
1
  6
CONTINUOUS
 62
   250
 10
-0.202611
 20
0.412556
 30
0.0
 40
0.011426
  1
SETBACK
 41
0.889011
  7
SIMPLEX
 72
     1
 11
-0.169719
 21
0.412556
 31
0.0
  0
TEXT
  8
1
  6
CONTINUOUS
 62
   250
 10
0.191132
 20
0.41704
 30
0.0
 40
0.011426
  1
PID
 41
0.889011
  7
SIMPLEX
  0
LINE
  8
1
  6
CONTINUOUS
 62
   250
 10
0.167713
 20
0.434978
 30
0.0
 11
0.167713
 21
0.313901
 31
0.0
  0
LINE
  8
1
  6
CONTINUOUS
 62
   250
 10
-0.056501
 20
0.434978
 30
0.0
 11
-0.056501
 21
0.318386
 31
0.0
  0
LINE
  8
1
  6
CONTINUOUS
 62
   250
 10
-0.069955
 20
0.434978
 30
0.0
 11
-0.069955
 21
0.318386
 31
0.0
  0
LINE
  8
1
  6
CONTINUOUS
 62
   250
 10
0.06009
 20
0.318386
 30
0.0
 11
0.06009
 21
0.434978
 31
0.0
  0
TEXT
  8
1
  6
CONTINUOUS
 62
   250
 10
-0.173094
 20
0.092843
 30
0.0
 40
0.011614
  1
UNOCC=HI
 41
0.710811
  7
SIMPLEX
  0
TEXT
  8
1
  6
CONTINUOUS
 62
   250
 10
-0.173094
 20
0.074906
 30
0.0
 40
0.010673
  1
UNOCC=LO
 41
0.782353
  7
SIMPLEX
  0
TEXT
  8
1
  6
CONTINUOUS
 62
   250
 10
-0.136224
 20
0.116592
 30
0.0
 40
0.009955
  1
SELECT
 41
0.710811
  7
SIMPLEX
  0
TEXT
  8
1
  6
CONTINUOUS
 62
   250
 10
-0.149677
 20
0.134529
 30
0.0
 40
0.009955
  1
TIMER MODE
 41
0.710811
  7
SIMPLEX
  0
LINE
  8
1
  6
CONTINUOUS
 62
   250
 10
-0.210762
 20
0.017937
 30
0.0
 11
0.210762
 21
0.017937
 31
0.0
  0
LINE
  8
1
  6
CONTINUOUS
 62
   250
 10
-0.141705
 20
0.152466
 30
0.0
 11
-0.052018
 21
0.152466
 31
0.0
  0
LINE
  8
1
  6
CONTINUOUS
 62
   250
 10
-0.177578
 20
0.049327
 30
0.0
 11
-0.052018
 21
0.049327
 31
0.0
  0
LINE
  8
1
  6
CONTINUOUS
 62
   250
 10
-0.177578
 20
0.112108
 30
0.0
 11
-0.052018
 21
0.112108
 31
0.0
  0
LINE
  8
1
  6
CONTINUOUS
 62
   250
 10
-0.26278
 20
0.233184
 30
0.0
 11
-0.26278
 21
0.112108
 31
0.0
  0
LINE
  8
1
  6
CONTINUOUS
 62
   250
 10
-0.217937
 20
0.112108
 30
0.0
 11
-0.217937
 21
0.233184
 31
0.0
  0
INSERT
  8
1
 62
   250
  2
POT
 10
-0.164125
 20
0.192825
 30
0.0
 41
0.179372
 42
0.179372
  0
ARC
  8
1
  6
CONTINUOUS
 62
   250
 10
-0.273543
 20
0.017938
 30
0.0
 40
0.017938
 50
180.002594
 51
270.000488
  0
TEXT
  8
1
  6
CONTINUOUS
 62
   250
 10
-0.155157
 20
0.056968
 30
0.0
 40
0.011614
  1
OFF
 41
0.710811
  7
SIMPLEX
  0
LINE
  8
1
  6
CONTINUOUS
 62
   250
 10
-0.267265
 20
0.085202
 30
0.0
 11
-0.2
 21
0.085202
 31
0.0
  0
LINE
  8
1
  6
CONTINUOUS
 62
   250
 10
-0.2
 20
0.085202
 30
0.0
 11
-0.2
 21
0.017937
 31
0.0
  0
LINE
  8
1
  6
CONTINUOUS
 62
   250
 10
-0.27713
 20
0.080717
 30
0.0
 11
-0.251122
 21
0.080717
 31
0.0
  0
LINE
  8
1
  6
CONTINUOUS
 62
   250
 10
-0.210762
 20
0.040359
 30
0.0
 11
-0.210762
 21
0.017937
 31
0.0
  0
CIRCLE
  8
1
  6
CONTINUOUS
 62
   250
 10
-0.251122
 20
0.040359
 30
0.0
 40
0.017578
  0
ARC
  8
1
  6
CONTINUOUS
 62
   250
 10
-0.251121
 20
0.040359
 30
0.0
 40
0.040359
 50
359.998871
 51
90.001053
  0
CIRCLE
  8
1
  6
CONTINUOUS
 62
   250
 10
-0.251122
 20
0.040359
 30
0.0
 40
0.028252
  0
LINE
  8
1
  6
CONTINUOUS
 62
   250
 10
-0.26278
 20
0.112108
 30
0.0
 11
-0.217937
 21
0.112108
 31
0.0
  0
CIRCLE
  8
1
  6
CONTINUOUS
 62
   250
 10
-0.240358
 20
0.130045
 30
0.0
 40
0.001793
  0
CIRCLE
  8
1
  6
CONTINUOUS
 62
   250
 10
-0.240358
 20
0.147982
 30
0.0
 40
0.001793
  0
LINE
  8
2
  6
CONTINUOUS
 62
   250
 10
-0.26278
 20
0.112108
 30
0.0
 11
-0.186546
 21
0.112108
 31
0.0
  0
LINE
  8
1
  6
CONTINUOUS
 62
   250
 10
-0.177578
 20
0.147982
 30
0.0
 11
-0.177578
 21
0.049327
 31
0.0
  0
LINE
  8
1
  6
CONTINUOUS
 62
   250
 10
-0.267265
 20
0.241881
 30
0.0
 11
-0.267265
 21
0.2078
 31
0.0
  0
TEXT
  8
1
  6
CONTINUOUS
 62
   250
 10
-0.231988
 20
0.249327
 30
0.0
 40
0.012556
  1
1
 41
0.9
  7
SIMPLEX
  0
CIRCLE
  8
1
  6
CONTINUOUS
 62
   250
 10
-0.240358
 20
0.255605
 30
0.0
 40
0.001793
  0
CIRCLE
  8
1
  6
CONTINUOUS
 62
   250
 10
-0.240358
 20
0.237668
 30
0.0
 40
0.001793
  0
LINE
  8
1
  6
CONTINUOUS
 62
   250
 10
-0.217937
 20
0.233184
 30
0.0
 11
-0.26278
 21
0.233184
 31
0.0
  0
CIRCLE
  8
1
  6
CONTINUOUS
 62
   250
 10
-0.240358
 20
0.201794
 30
0.0
 40
0.001793
  0
CIRCLE
  8
1
  6
CONTINUOUS
 62
   250
 10
-0.240358
 20
0.219731
 30
0.0
 40
0.001793
  0
CIRCLE
  8
1
  6
CONTINUOUS
 62
   250
 10
-0.240358
 20
0.165919
 30
0.0
 40
0.001793
  0
CIRCLE
  8
1
  6
CONTINUOUS
 62
   250
 10
-0.240358
 20
0.183857
 30
0.0
 40
0.001793
  0
TEXT
  8
1
  6
CONTINUOUS
 62
   250
 10
-0.215106
 20
0.392227
 30
0.0
 40
0.011426
  1
ACCESSORY
 41
0.889011
  7
SIMPLEX
 72
     1
 11
-0.171572
 21
0.392227
 31
0.0
  0
TEXT
  8
1
  6
CONTINUOUS
 62
   250
 10
-0.203392
 20
0.371898
 30
0.0
 40
0.011426
  1
MODULE
 41
0.889011
  7
SIMPLEX
 72
     1
 11
-0.172677
 21
0.371898
 31
0.0
  0
TEXT
  8
1
  6
CONTINUOUS
 62
   250
 10
-0.20621
 20
0.349477
 30
0.0
 40
0.011426
  1
(OPTIONAL)
 41
0.889011
  7
SIMPLEX
 72
     1
 11
-0.164128
 21
0.349477
 31
0.0
  0
TEXT
  8
1
  6
CONTINUOUS
 62
   250
 10
0.001794
 20
0.092843
 30
0.0
 40
0.010673
  1
CONTROL 1
 41
0.782353
  7
SIMPLEX
  0
TEXT
  8
1
  6
CONTINUOUS
 62
   250
 10
0.001794
 20
0.074906
 30
0.0
 40
0.010673
  1
CONTROL 2
 41
0.782353
  7
SIMPLEX
  0
TEXT
  8
1
  6
CONTINUOUS
 62
   250
 10
0.001794
 20
0.056968
 30
0.0
 40
0.010673
  1
CONTROL 3
 41
0.782353
  7
SIMPLEX
  0
TEXT
  8
1
  6
CONTINUOUS
 62
   250
 10
-0.019632
 20
0.134529
 30
0.0
 40
0.009955
  1
CNTRL OUTPUT
 41
0.710811
  7
SIMPLEX
  0
LINE
  8
1
  6
CONTINUOUS
 62
   250
 10
0.09148
 20
0.03139
 30
0.0
 11
-0.047534
 21
0.03139
 31
0.0
  0
LINE
  8
1
  6
CONTINUOUS
 62
   250
 10
0.09148
 20
0.152466
 30
0.0
 11
-0.047534
 21
0.152466
 31
0.0
  0
LINE
  8
1
  6
CONTINUOUS
 62
   250
 10
-0.047534
 20
0.112108
 30
0.0
 11
0.09148
 21
0.112108
 31
0.0
  0
TEXT
  8
1
  6
CONTINUOUS
 62
   250
 10
0.007275
 20
0.116592
 30
0.0
 40
0.009955
  1
SELECT
 41
0.710811
  7
SIMPLEX
  0
TEXT
  8
1
  6
CONTINUOUS
 62
   250
 10
0.001794
 20
0.039031
 30
0.0
 40
0.011614
  1
OFF
 41
0.710811
  7
SIMPLEX
  0
LINE
  8
1
  6
CONTINUOUS
 62
   250
 10
-0.047534
 20
0.03139
 30
0.0
 11
-0.047534
 21
0.152466
 31
0.0
  0
LINE
  8
1
  6
CONTINUOUS
 62
   250
 10
-0.052018
 20
0.152466
 30
0.0
 11
-0.052018
 21
0.049327
 31
0.0
  0
LINE
  8
1
  6
CONTINUOUS
 62
   250
 10
-0.092377
 20
0.053812
 30
0.0
 11
-0.056501
 21
0.053812
 31
0.0
  0
INSERT
  8
1
 62
   250
  2
STRIP2
 10
-0.092377
 20
0.107623
 30
0.0
 41
0.179372
 42
0.179372
  0
INSERT
  8
1
 62
   250
  2
STRIP2
 10
-0.092377
 20
0.089686
 30
0.0
 41
0.179372
 42
0.179372
  0
INSERT
  8
1
 62
   250
  2
STRIP2
 10
-0.092377
 20
0.071749
 30
0.0
 41
0.179372
 42
0.179372
  0
LINE
  8
1
  6
CONTINUOUS
 62
   250
 10
-0.043049
 20
0.035874
 30
0.0
 11
-0.007175
 21
0.035874
 31
0.0
  0
INSERT
  8
1
 62
   250
  2
STRIP2
 10
-0.043049
 20
0.053812
 30
0.0
 41
0.179372
 42
0.179372
  0
INSERT
  8
1
 62
   250
  2
STRIP2
 10
-0.043049
 20
0.071749
 30
0.0
 41
0.179372
 42
0.179372
  0
INSERT
  8
1
 62
   250
  2
STRIP2
 10
-0.043049
 20
0.089686
 30
0.0
 41
0.179372
 42
0.179372
  0
INSERT
  8
1
 62
   250
  2
STRIP2
 10
-0.043049
 20
0.107623
 30
0.0
 41
0.179372
 42
0.179372
  0
TEXT
  8
1
  6
CONTINUOUS
 62
   250
 10
0.113901
 20
0.085202
 30
0.0
 40
0.009955
  1
CTRTL
 50
90.0
 41
0.710811
  7
SIMPLEX
  0
TEXT
  8
1
  6
CONTINUOUS
 62
   250
 10
0.163229
 20
0.085202
 30
0.0
 40
0.011614
  1
GND
 50
90.0
 41
0.710811
  7
SIMPLEX
  0
TEXT
  8
1
  6
CONTINUOUS
 62
   250
 10
0.131839
 20
0.085202
 30
0.0
 40
0.009955
  1
LOOP OUT
 50
90.0
 41
0.710811
  7
SIMPLEX
  0
LINE
  8
1
  6
CONTINUOUS
 62
   250
 10
0.203587
 20
0.085202
 30
0.0
 11
0.203587
 21
0.017937
 31
0.0
  0
LINE
  8
1
  6
CONTINUOUS
 62
   250
 10
0.210762
 20
0.017937
 30
0.0
 11
0.210762
 21
0.040359
 31
0.0
  0
LINE
  8
1
  6
CONTINUOUS
 62
   250
 10
0.09148
 20
0.152466
 30
0.0
 11
0.09148
 21
0.03139
 31
0.0
  0
LINE
  8
1
  6
CONTINUOUS
 62
   250
 10
0.136323
 20
0.139013
 30
0.0
 11
0.176682
 21
0.139013
 31
0.0
  0
LINE
  8
1
  6
CONTINUOUS
 62
   250
 10
0.127354
 20
0.071749
 30
0.0
 11
0.109417
 21
0.071749
 31
0.0
  0
LINE
  8
1
  6
CONTINUOUS
 62
   250
 10
0.152403
 20
0.065407
 30
0.0
 11
0.165086
 21
0.078091
 31
0.0
  0
LINE
  8
1
  6
CONTINUOUS
 62
   250
 10
0.176682
 20
0.139013
 30
0.0
 11
0.176682
 21
0.040359
 31
0.0
  0
LINE
  8
1
  6
CONTINUOUS
 62
   250
 10
0.095964
 20
0.139013
 30
0.0
 11
0.113901
 21
0.139013
 31
0.0
  0
LINE
  8
1
  6
CONTINUOUS
 62
   250
 10
0.095964
 20
0.040359
 30
0.0
 11
0.176682
 21
0.040359
 31
0.0
  0
LINE
  8
1
  6
CONTINUOUS
 62
   250
 10
0.095964
 20
0.040359
 30
0.0
 11
0.095964
 21
0.139013
 31
0.0
  0
CIRCLE
  8
1
  6
CONTINUOUS
 62
   250
 10
0.118385
 20
0.071749
 30
0.0
 40
0.00897
  0
CIRCLE
  8
1
  6
CONTINUOUS
 62
   250
 10
0.158744
 20
0.071749
 30
0.0
 40
0.008969
  0
TEXT
  8
1
  6
CONTINUOUS
 62
   250
 10
0.111809
 20
0.044843
 30
0.0
 40
0.012556
  1
B
 41
0.9
  7
SIMPLEX
  0
TEXT
  8
1
  6
CONTINUOUS
 62
   250
 10
0.153363
 20
0.044843
 30
0.0
 40
0.012556
  1
A
 41
0.9
  7
SIMPLEX
  0
LINE
  8
1
  6
CONTINUOUS
 62
   250
 10
0.06009
 20
0.313901
 30
0.0
 11
-0.083408
 21
0.313901
 31
0.0
  0
LINE
  8
1
  6
CONTINUOUS
 62
   250
 10
0.06009
 20
0.273543
 30
0.0
 11
-0.083408
 21
0.273543
 31
0.0
  0
INSERT
  8
1
 62
   250
  2
STRIP2
 10
0.019732
 20
0.269058
 30
0.0
 41
0.179372
 42
0.179372
  0
INSERT
  8
1
 62
   250
  2
STRIP2
 10
0.019732
 20
0.251122
 30
0.0
 41
0.179372
 42
0.179372
  0
INSERT
  8
1
 62
   250
  2
STRIP2
 10
0.019732
 20
0.233184
 30
0.0
 41
0.179372
 42
0.179372
  0
INSERT
  8
1
 62
   250
  2
STRIP2
 10
0.019732
 20
0.215247
 30
0.0
 41
0.179372
 42
0.179372
  0
INSERT
  8
1
 62
   250
  2
STRIP2
 10
0.019732
 20
0.197309
 30
0.0
 41
0.179372
 42
0.179372
  0
INSERT
  8
1
 62
   250
  2
STRIP2
 10
0.019732
 20
0.179372
 30
0.0
 41
0.179372
 42
0.179372
  0
LINE
  8
1
  6
CONTINUOUS
 62
   250
 10
0.019732
 20
0.161435
 30
0.0
 11
0.055605
 21
0.161435
 31
0.0
  0
LINE
  8
1
  6
CONTINUOUS
 62
   250
 10
-0.069955
 20
0.318386
 30
0.0
 11
0.06009
 21
0.318386
 31
0.0
  0
LINE
  8
1
  6
CONTINUOUS
 62
   250
 10
0.06009
 20
0.156951
 30
0.0
 11
-0.083408
 21
0.156951
 31
0.0
  0
TEXT
  8
1
  6
CONTINUOUS
 62
   250
 10
-0.047976
 20
0.295964
 30
0.0
 40
0.009332
  1
SETPOINT
 41
1.432126
  7
SIMPLEX
  0
TEXT
  8
1
  6
CONTINUOUS
 62
   250
 10
-0.069955
 20
0.182529
 30
0.0
 40
0.010673
  1
SETPOINT 3
 41
0.782353
  7
SIMPLEX
  0
TEXT
  8
1
  6
CONTINUOUS
 62
   250
 10
-0.069955
 20
0.200466
 30
0.0
 40
0.010673
  1
SETPOINT 2
 41
0.782353
  7
SIMPLEX
  0
TEXT
  8
1
  6
CONTINUOUS
 62
   250
 10
-0.069955
 20
0.218403
 30
0.0
 40
0.010673
  1
SETPOINT 1
 41
0.782353
  7
SIMPLEX
  0
TEXT
  8
1
  6
CONTINUOUS
 62
   250
 10
-0.024705
 20
0.278027
 30
0.0
 40
0.009332
  1
I/O
 41
1.432126
  7
SIMPLEX
  0
TEXT
  8
1
  6
CONTINUOUS
 62
   250
 10
-0.043049
 20
0.236341
 30
0.0
 40
0.011614
  1
MASTER
 41
0.710811
  7
SIMPLEX
  0
TEXT
  8
1
  6
CONTINUOUS
 62
   250
 10
-0.029596
 20
0.254278
 30
0.0
 40
0.011614
  1
SLAVE
 41
0.710811
  7
SIMPLEX
  0
TEXT
  8
1
  6
CONTINUOUS
 62
   250
 10
-0.016143
 20
0.164592
 30
0.0
 40
0.011614
  1
OFF
 41
0.710811
  7
SIMPLEX
  0
LINE
  8
1
  6
CONTINUOUS
 62
   250
 10
0.019732
 20
0.233184
 30
0.0
 11
-0.083408
 21
0.233184
 31
0.0
  0
LINE
  8
1
  6
CONTINUOUS
 62
   250
 10
0.004484
 20
0.376682
 30
0.0
 11
0.004484
 21
0.343166
 31
0.0
  0
LINE
  8
1
  6
CONTINUOUS
 62
   250
 10
-0.000896
 20
0.376682
 30
0.0
 11
-0.000896
 21
0.343166
 31
0.0
  0
LINE
  8
1
  6
CONTINUOUS
 62
   250
 10
-0.000896
 20
0.376682
 30
0.0
 11
0.004484
 21
0.376682
 31
0.0
  0
LINE
  8
1
  6
CONTINUOUS
 62
   250
 10
0.007174
 20
0.409872
 30
0.0
 11
0.007174
 21
0.418479
 31
0.0
  0
LINE
  8
1
  6
CONTINUOUS
 62
   250
 10
-0.003586
 20
0.343491
 30
0.0
 11
-0.003586
 21
0.334884
 31
0.0
  0
LINE
  8
1
  6
CONTINUOUS
 62
   250
 10
0.027847
 20
0.397936
 30
0.0
 11
0.035301
 21
0.402239
 31
0.0
  0
LINE
  8
1
  6
CONTINUOUS
 62
   250
 10
-0.02964
 20
0.388618
 30
0.0
 11
-0.037094
 21
0.392921
 31
0.0
  0
LINE
  8
1
  6
CONTINUOUS
 62
   250
 10
0.033228
 20
0.364745
 30
0.0
 11
0.040681
 21
0.360442
 31
0.0
  0
LINE
  8
1
  6
CONTINUOUS
 62
   250
 10
-0.02426
 20
0.355427
 30
0.0
 11
-0.031713
 21
0.351124
 31
0.0
  0
ARC
  8
1
  6
CONTINUOUS
 62
   250
 10
0.001761
 20
0.376705
 30
0.0
 40
0.039861
 50
142.249252
 51
157.762131
  0
ARC
  8
1
  6
CONTINUOUS
 62
   250
 10
0.001806
 20
0.376684
 30
0.0
 40
0.039912
 50
202.248138
 51
217.740448
  0
ARC
  8
1
  6
CONTINUOUS
 62
   250
 10
0.001794
 20
0.37658
 30
0.0
 40
0.0398
 50
262.231689
 51
277.768311
  0
ARC
  8
1
  6
CONTINUOUS
 62
   250
 10
0.001778
 20
0.376693
 30
0.0
 40
0.039919
 50
322.251282
 51
337.742401
  0
ARC
  8
1
  6
CONTINUOUS
 62
   250
 10
0.001822
 20
0.376696
 30
0.0
 40
0.039869
 50
22.247604
 51
37.75861
  0
ARC
  8
1
  6
CONTINUOUS
 62
   250
 10
0.001796
 20
0.376675
 30
0.0
 40
0.035872
 50
98.628349
 51
141.367035
  0
ARC
  8
1
  6
CONTINUOUS
 62
   250
 10
0.001787
 20
0.376682
 30
0.0
 40
0.035859
 50
158.62236
 51
201.37764
  0
ARC
  8
1
  6
CONTINUOUS
 62
   250
 10
0.001794
 20
0.376684
 30
0.0
 40
0.035868
 50
218.627991
 51
261.373016
  0
ARC
  8
1
  6
CONTINUOUS
 62
   250
 10
0.001797
 20
0.376678
 30
0.0
 40
0.035861
 50
278.623108
 51
321.375854
  0
ARC
  8
1
  6
CONTINUOUS
 62
   250
 10
0.001802
 20
0.376682
 30
0.0
 40
0.035859
 50
338.622345
 51
21.37756
  0
ARC
  8
1
  6
CONTINUOUS
 62
   250
 10
0.001792
 20
0.376682
 30
0.0
 40
0.04214
 50
157.332916
 51
202.667084
  0
ARC
  8
1
  6
CONTINUOUS
 62
   250
 10
0.001793
 20
0.376679
 30
0.0
 40
0.042139
 50
217.331711
 51
262.666473
  0
ARC
  8
1
  6
CONTINUOUS
 62
   250
 10
0.001795
 20
0.376679
 30
0.0
 40
0.042139
 50
277.333527
 51
322.668304
  0
ARC
  8
1
  6
CONTINUOUS
 62
   250
 10
0.001785
 20
0.376682
 30
0.0
 40
0.042151
 50
337.339355
 51
22.660633
  0
LINE
  8
1
  6
CONTINUOUS
 62
   250
 10
0.007174
 20
0.334884
 30
0.0
 11
0.007174
 21
0.343491
 31
0.0
  0
LINE
  8
1
  6
CONTINUOUS
 62
   250
 10
-0.003586
 20
0.418479
 30
0.0
 11
-0.003586
 21
0.409872
 31
0.0
  0
LINE
  8
1
  6
CONTINUOUS
 62
   250
 10
-0.037094
 20
0.360442
 30
0.0
 11
-0.02964
 21
0.364745
 31
0.0
  0
LINE
  8
1
  6
CONTINUOUS
 62
   250
 10
0.040681
 20
0.392921
 30
0.0
 11
0.033228
 21
0.388618
 31
0.0
  0
LINE
  8
1
  6
CONTINUOUS
 62
   250
 10
0.035301
 20
0.351124
 30
0.0
 11
0.027847
 21
0.355427
 31
0.0
  0
LINE
  8
1
  6
CONTINUOUS
 62
   250
 10
-0.031713
 20
0.402239
 30
0.0
 11
-0.02426
 21
0.397936
 31
0.0
  0
ARC
  8
1
  6
CONTINUOUS
 62
   250
 10
0.001794
 20
0.376677
 30
0.0
 40
0.039905
 50
82.252335
 51
97.747986
  0
ARC
  8
1
  6
CONTINUOUS
 62
   250
 10
0.001795
 20
0.376681
 30
0.0
 40
0.035866
 50
38.629162
 51
81.375633
  0
CIRCLE
  8
1
  6
CONTINUOUS
 62
   250
 10
0.001794
 20
0.376682
 30
0.0
 40
0.033624
  0
LINE
  8
1
  6
CONTINUOUS
 62
   250
 10
-0.083408
 20
0.156951
 30
0.0
 11
-0.083408
 21
0.313901
 31
0.0
  0
TEXT
  8
1
  6
CONTINUOUS
 62
   250
 10
0.074856
 20
0.26009
 30
0.0
 40
0.009955
  1
DIRECT
 41
0.710811
  7
SIMPLEX
  0
TEXT
  8
1
  6
CONTINUOUS
 62
   250
 10
0.07408
 20
0.174888
 30
0.0
 40
0.009148
  1
REVERSE
 41
0.782353
  7
SIMPLEX
  0
TEXT
  8
1
  6
CONTINUOUS
 62
   250
 10
0.176682
 20
0.393291
 30
0.0
 40
0.012556
  1
P
 41
0.75
  7
SIMPLEX
  0
TEXT
  8
1
  6
CONTINUOUS
 62
   250
 10
0.176682
 20
0.375354
 30
0.0
 40
0.011614
  1
PI
 41
0.710811
  7
SIMPLEX
  0
TEXT
  8
1
  6
CONTINUOUS
 62
   250
 10
0.176682
 20
0.357417
 30
0.0
 40
0.011614
  1
PID
 41
0.710811
  7
SIMPLEX
  0
TEXT
  8
1
  6
CONTINUOUS
 62
   250
 10
0.176682
 20
0.33948
 30
0.0
 40
0.011614
  1
SLOW
 41
0.710811
  7
SIMPLEX
  0
TEXT
  8
1
  6
CONTINUOUS
 62
   250
 10
0.176682
 20
0.321542
 30
0.0
 40
0.011614
  1
FAST
 41
0.710811
  7
SIMPLEX
  0
TEXT
  8
1
  6
CONTINUOUS
 62
   250
 10
0.190135
 20
0.164592
 30
0.0
 40
0.011614
  1
OFF
 41
0.710811
  7
SIMPLEX
  0
LINE
  8
1
  6
CONTINUOUS
 62
   250
 10
0.136323
 20
0.29148
 30
0.0
 11
0.064574
 21
0.29148
 31
0.0
  0
LINE
  8
1
  6
CONTINUOUS
 62
   250
 10
0.082511
 20
0.251122
 30
0.0
 11
0.082511
 21
0.197309
 31
0.0
  0
INSERT
  8
1
 62
   250
  2
STRIP3
 10
0.118385
 20
0.251122
 30
0.0
 41
0.179372
 42
0.179372
 50
270.0
  0
INSERT
  8
1
 62
   250
  2
STRIP3
 10
0.100449
 20
0.251122
 30
0.0
 41
0.179372
 42
0.179372
 50
270.0
  0
LINE
  8
1
  6
CONTINUOUS
 62
   250
 10
0.14529
 20
0.161435
 30
0.0
 11
0.181166
 21
0.161435
 31
0.0
  0
INSERT
  8
1
 62
   250
  2
STRIP2
 10
0.14529
 20
0.251122
 30
0.0
 41
0.179372
 42
0.179372
  0
INSERT
  8
1
 62
   250
  2
STRIP2
 10
0.14529
 20
0.233184
 30
0.0
 41
0.179372
 42
0.179372
  0
INSERT
  8
1
 62
   250
  2
STRIP2
 10
0.14529
 20
0.215247
 30
0.0
 41
0.179372
 42
0.179372
  0
INSERT
  8
1
 62
   250
  2
STRIP2
 10
0.14529
 20
0.197309
 30
0.0
 41
0.179372
 42
0.179372
  0
INSERT
  8
1
 62
   250
  2
STRIP2
 10
0.14529
 20
0.179372
 30
0.0
 41
0.179372
 42
0.179372
  0
LINE
  8
1
  6
CONTINUOUS
 62
   250
 10
0.064574
 20
0.156951
 30
0.0
 11
0.136323
 21
0.156951
 31
0.0
  0
LINE
  8
1
  6
CONTINUOUS
 62
   250
 10
0.064574
 20
0.29148
 30
0.0
 11
0.064574
 21
0.156951
 31
0.0
  0
LINE
  8
1
  6
CONTINUOUS
 62
   250
 10
0.06009
 20
0.313901
 30
0.0
 11
0.06009
 21
0.156951
 31
0.0
  0
LINE
  8
1
  6
CONTINUOUS
 62
   250
 10
0.136323
 20
0.156951
 30
0.0
 11
0.136323
 21
0.29148
 31
0.0
  0
LINE
  8
1
  6
CONTINUOUS
 62
   250
 10
0.140807
 20
0.29148
 30
0.0
 11
0.140807
 21
0.156951
 31
0.0
  0
LINE
  8
1
  6
CONTINUOUS
 62
   250
 10
-0.2
 20
0.982063
 30
0.0
 11
-0.2
 21
0.914798
 31
0.0
  0
LINE
  8
1
  6
CONTINUOUS
 62
   250
 10
0.203587
 20
0.982063
 30
0.0
 11
0.203587
 21
0.919282
 31
0.0
  0
LINE
  8
1
  6
CONTINUOUS
 62
   250
 10
0.203587
 20
0.982063
 30
0.0
 11
0.203587
 21
0.914798
 31
0.0
  0
LINE
  8
1
  6
CONTINUOUS
 62
   250
 10
-0.29148
 20
0.982063
 30
0.0
 11
-0.29148
 21
0.820179
 31
0.0
  0
CIRCLE
  8
1
  6
CONTINUOUS
 62
   250
 10
-0.251122
 20
0.959641
 30
0.0
 40
0.017578
  0
ARC
  8
1
  6
CONTINUOUS
 62
   250
 10
-0.251121
 20
0.959641
 30
0.0
 40
0.040359
 50
269.99884
 51
359.999908
  0
CIRCLE
  8
1
  6
CONTINUOUS
 62
   250
 10
-0.251122
 20
0.959641
 30
0.0
 40
0.028252
  0
TEXT
  8
1
  6
CONTINUOUS
 62
   250
 10
-0.026906
 20
0.946188
 30
0.0
 40
0.012556
  1
6
 41
0.9
  7
SIMPLEX
  0
TEXT
  8
1
  6
CONTINUOUS
 62
   250
 10
0.009268
 20
0.946188
 30
0.0
 40
0.012556
  1
5
 41
0.9
  7
SIMPLEX
  0
TEXT
  8
1
  6
CONTINUOUS
 62
   250
 10
0.044844
 20
0.946188
 30
0.0
 40
0.012556
  1
4
 41
0.9
  7
SIMPLEX
  0
LINE
  8
1
  6
CONTINUOUS
 62
   250
 10
0.176682
 20
0.865471
 30
0.0
 11
0.176682
 21
0.964126
 31
0.0
  0
LINE
  8
1
  6
CONTINUOUS
 62
   250
 10
-0.038565
 20
0.964126
 30
0.0
 11
-0.038565
 21
0.865471
 31
0.0
  0
TEXT
  8
1
  6
CONTINUOUS
 62
   250
 10
0.153662
 20
0.946188
 30
0.0
 40
0.012556
  1
1
 41
0.9
  7
SIMPLEX
  0
TEXT
  8
1
  6
CONTINUOUS
 62
   250
 10
0.116891
 20
0.946188
 30
0.0
 40
0.012556
  1
2
 41
0.9
  7
SIMPLEX
  0
TEXT
  8
1
  6
CONTINUOUS
 62
   250
 10
0.081017
 20
0.946188
 30
0.0
 40
0.012556
  1
3
 41
0.9
  7
SIMPLEX
  0
LINE
  8
1
  6
CONTINUOUS
 62
   250
 10
-0.191031
 20
0.690583
 30
0.0
 11
-0.191031
 21
0.950673
 31
0.0
  0
LINE
  8
1
  6
CONTINUOUS
 62
   250
 10
-0.056501
 20
0.690583
 30
0.0
 11
-0.056501
 21
0.950673
 31
0.0
  0
TEXT
  8
1
  6
CONTINUOUS
 62
   250
 10
-0.183708
 20
0.928251
 30
0.0
 40
0.011426
  1
INPUT SELECT
 41
0.889011
  7
SIMPLEX
  0
TEXT
  8
1
  6
CONTINUOUS
 62
   250
 10
-0.144274
 20
0.895533
 30
0.0
 40
0.010673
  1
EXTERNAL
 41
0.782353
  7
SIMPLEX
  0
TEXT
  8
1
  6
CONTINUOUS
 62
   250
 10
-0.145559
 20
0.769973
 30
0.0
 40
0.010673
  1
CONTROL 3
 41
0.782353
  7
SIMPLEX
  0
TEXT
  8
1
  6
CONTINUOUS
 62
   250
 10
-0.145559
 20
0.805847
 30
0.0
 40
0.010673
  1
CONTROL 1
 41
0.782353
  7
SIMPLEX
  0
TEXT
  8
1
  6
CONTINUOUS
 62
   250
 10
-0.145559
 20
0.78791
 30
0.0
 40
0.010673
  1
CONTROL 2
 41
0.782353
  7
SIMPLEX
  0
TEXT
  8
1
  6
CONTINUOUS
 62
   250
 10
-0.141705
 20
0.698224
 30
0.0
 40
0.011614
  1
LOSEL 2
 41
0.710811
  7
SIMPLEX
  0
TEXT
  8
1
  6
CONTINUOUS
 62
   250
 10
-0.141705
 20
0.716161
 30
0.0
 40
0.011614
  1
LOSEL 1
 41
0.710811
  7
SIMPLEX
  0
TEXT
  8
1
  6
CONTINUOUS
 62
   250
 10
-0.141705
 20
0.877596
 30
0.0
 40
0.011614
  1
SENSOR 1
 41
0.710811
  7
SIMPLEX
  0
TEXT
  8
1
  6
CONTINUOUS
 62
   250
 10
-0.141705
 20
0.859659
 30
0.0
 40
0.011614
  1
SENSOR 2
 41
0.710811
  7
SIMPLEX
  0
TEXT
  8
1
  6
CONTINUOUS
 62
   250
 10
-0.141705
 20
0.841722
 30
0.0
 40
0.011614
  1
SENSOR 3
 41
0.710811
  7
SIMPLEX
  0
TEXT
  8
1
  6
CONTINUOUS
 62
   250
 10
-0.141705
 20
0.823785
 30
0.0
 40
0.011614
  1
SENSOR 4
 41
0.710811
  7
SIMPLEX
  0
TEXT
  8
1
  6
CONTINUOUS
 62
   250
 10
-0.141705
 20
0.752036
 30
0.0
 40
0.011614
  1
HISEL 1
 41
0.710811
  7
SIMPLEX
  0
TEXT
  8
1
  6
CONTINUOUS
 62
   250
 10
-0.141705
 20
0.734098
 30
0.0
 40
0.011614
  1
HISEL 2
 41
0.710811
  7
SIMPLEX
  0
LINE
  8
2
  6
CONTINUOUS
 62
   250
 10
-0.087893
 20
0.44843
 30
0.0
 11
-0.26278
 21
0.44843
 31
0.0
  0
LINE
  8
1
  6
CONTINUOUS
 62
   250
 10
-0.191031
 20
0.690583
 30
0.0
 11
-0.056501
 21
0.690583
 31
0.0
  0
LINE
  8
1
  6
CONTINUOUS
 62
   250
 10
-0.191031
 20
0.914798
 30
0.0
 11
-0.056501
 21
0.914798
 31
0.0
  0
TEXT
  8
1
  6
CONTINUOUS
 62
   250
 10
-0.256876
 20
0.772263
 30
0.0
 40
0.008162
  1
Male DIN Connector
 50
270.0
 41
0.889011
  7
SIMPLEX
  0
LINE
  8
1
  6
CONTINUOUS
 62
   250
 10
-0.278475
 20
0.835874
 30
0.0
 11
-0.278475
 21
0.566816
 31
0.0
  0
LINE
  8
1
  6
CONTINUOUS
 62
   250
 10
-0.240358
 20
0.802242
 30
0.0
 11
-0.240358
 21
0.600448
 31
0.0
  0
LINE
  8
1
  6
CONTINUOUS
 62
   250
 10
-0.31435
 20
0.820179
 30
0.0
 11
-0.31435
 21
0.582511
 31
0.0
  0
LINE
  8
1
  6
CONTINUOUS
 62
   250
 10
-0.31435
 20
0.582511
 30
0.0
 11
-0.278475
 21
0.582511
 31
0.0
  0
LINE
  8
1
  6
CONTINUOUS
 62
   250
 10
-0.278475
 20
0.566816
 30
0.0
 11
-0.234304
 21
0.566816
 31
0.0
  0
LINE
  8
1
  6
CONTINUOUS
 62
   250
 10
-0.233632
 20
0.566816
 30
0.0
 11
-0.233632
 21
0.600448
 31
0.0
  0
LINE
  8
1
  6
CONTINUOUS
 62
   250
 10
-0.233632
 20
0.600448
 30
0.0
 11
-0.240358
 21
0.600448
 31
0.0
  0
CIRCLE
  8
1
  6
CONTINUOUS
 62
   250
 10
-0.247086
 20
0.582511
 30
0.0
 40
0.00852
  0
LINE
  8
1
  6
CONTINUOUS
 62
   250
 10
-0.278475
 20
0.820179
 30
0.0
 11
-0.31435
 21
0.820179
 31
0.0
  0
LINE
  8
1
  6
CONTINUOUS
 62
   250
 10
-0.2
 20
0.914798
 30
0.0
 11
-0.267265
 21
0.914798
 31
0.0
  0
LINE
  8
1
  6
CONTINUOUS
 62
   250
 10
-0.233632
 20
0.835874
 30
0.0
 11
-0.278475
 21
0.835874
 31
0.0
  0
LINE
  8
1
  6
CONTINUOUS
 62
   250
 10
-0.233632
 20
0.835874
 30
0.0
 11
-0.233632
 21
0.802242
 31
0.0
  0
LINE
  8
1
  6
CONTINUOUS
 62
   250
 10
-0.233632
 20
0.802242
 30
0.0
 11
-0.240358
 21
0.802242
 31
0.0
  0
CIRCLE
  8
1
  6
CONTINUOUS
 62
   250
 10
-0.247086
 20
0.820179
 30
0.0
 40
0.00852
  0
LINE
  8
1
  6
CONTINUOUS
 62
   250
 10
-0.27713
 20
0.919282
 30
0.0
 11
-0.27713
 21
0.835874
 31
0.0
  0
LINE
  8
1
  6
CONTINUOUS
 62
   250
 10
-0.251122
 20
0.919282
 30
0.0
 11
-0.27713
 21
0.919282
 31
0.0
  0
LINE
  8
1
  6
CONTINUOUS
 62
   250
 10
-0.267265
 20
0.835874
 30
0.0
 11
-0.267265
 21
0.914798
 31
0.0
  0
TEXT
  8
1
  6
CONTINUOUS
 62
   250
 10
-0.217937
 20
0.878924
 30
0.0
 40
0.012556
  1
L
 41
0.9
  7
SIMPLEX
  0
LINE
  8
1
  6
CONTINUOUS
 62
   250
 10
-0.258296
 20
0.874439
 30
0.0
 11
-0.222422
 21
0.874439
 31
0.0
  0
INSERT
  8
1
 62
   250
  2
STRIP2
 10
-0.258296
 20
0.892377
 30
0.0
 41
0.179372
 42
0.179372
  0
TEXT
  8
1
  6
CONTINUOUS
 62
   250
 10
-0.217937
 20
0.852018
 30
0.0
 40
0.012556
  1
R
 41
0.9
  7
SIMPLEX
  0
INSERT
  8
1
 62
   250
  2
STRIP2
 10
-0.258296
 20
0.865471
 30
0.0
 41
0.179372
 42
0.179372
  0
LINE
  8
1
  6
CONTINUOUS
 62
   250
 10
-0.258296
 20
0.847534
 30
0.0
 11
-0.222422
 21
0.847534
 31
0.0
  0
INSERT
  8
1
 62
   250
  2
STRIP2
 10
-0.186546
 20
0.820628
 30
0.0
 41
0.179372
 42
0.179372
  0
LINE
  8
1
  6
CONTINUOUS
 62
   250
 10
-0.186546
 20
0.695067
 30
0.0
 11
-0.150673
 21
0.695067
 31
0.0
  0
INSERT
  8
1
 62
   250
  2
STRIP2
 10
-0.186546
 20
0.713004
 30
0.0
 41
0.179372
 42
0.179372
  0
INSERT
  8
1
 62
   250
  2
STRIP2
 10
-0.186546
 20
0.730942
 30
0.0
 41
0.179372
 42
0.179372
  0
INSERT
  8
1
 62
   250
  2
STRIP2
 10
-0.186546
 20
0.748879
 30
0.0
 41
0.179372
 42
0.179372
  0
INSERT
  8
1
 62
   250
  2
STRIP2
 10
-0.186546
 20
0.766816
 30
0.0
 41
0.179372
 42
0.179372
  0
INSERT
  8
1
 62
   250
  2
STRIP2
 10
-0.186546
 20
0.784753
 30
0.0
 41
0.179372
 42
0.179372
  0
INSERT
  8
1
 62
   250
  2
STRIP2
 10
-0.186546
 20
0.802691
 30
0.0
 41
0.179372
 42
0.179372
  0
INSERT
  8
1
 62
   250
  2
STRIP2
 10
-0.186546
 20
0.838565
 30
0.0
 41
0.179372
 42
0.179372
  0
INSERT
  8
1
 62
   250
  2
STRIP2
 10
-0.186546
 20
0.856502
 30
0.0
 41
0.179372
 42
0.179372
  0
INSERT
  8
1
 62
   250
  2
STRIP2
 10
-0.186546
 20
0.874439
 30
0.0
 41
0.179372
 42
0.179372
  0
INSERT
  8
1
 62
   250
  2
STRIP2
 10
-0.186546
 20
0.892377
 30
0.0
 41
0.179372
 42
0.179372
  0
INSERT
  8
1
 62
   250
  2
STRIP2
 10
-0.186546
 20
0.910314
 30
0.0
 41
0.179372
 42
0.179372
  0
TEXT
  8
1
  6
CONTINUOUS
 62
   250
 10
-0.086896
 20
0.627803
 30
0.0
 40
0.011426
  1
THROTTLING RANGE
 41
0.889011
  7
SIMPLEX
  0
LINE
  8
1
  6
CONTINUOUS
 62
   250
 10
0.06009
 20
0.434978
 30
0.0
 11
-0.069955
 21
0.434978
 31
0.0
  0
TEXT
  8
1
  6
CONTINUOUS
 62
   250
 10
-0.05999
 20
0.609865
 30
0.0
 40
0.011426
  1
ADJUSTMENT
 41
0.889011
  7
SIMPLEX
  0
INSERT
  8
1
 62
   250
  2
POT
 10
0.001794
 20
0.556054
 30
0.0
 41
0.179372
 42
0.179372
  0
TEXT
  8
1
  6
CONTINUOUS
 62
   250
 10
-0.05999
 20
0.44843
 30
0.0
 40
0.011426
  1
ADJUSTMENT
 41
0.889011
  7
SIMPLEX
  0
TEXT
  8
1
  6
CONTINUOUS
 62
   250
 10
-0.042053
 20
0.466368
 30
0.0
 40
0.011426
  1
SETPOINT
 41
0.889011
  7
SIMPLEX
  0
LINE
  8
1
  6
CONTINUOUS
 62
   250
 10
0.214798
 20
0.566816
 30
0.0
 11
0.214798
 21
0.616144
 31
0.0
  0
LINE
  8
1
  6
CONTINUOUS
 62
   250
 10
0.025536
 20
0.865471
 30
0.0
 11
0.176682
 21
0.865471
 31
0.0
  0
TEXT
  8
1
  6
CONTINUOUS
 62
   250
 10
0.046637
 20
0.919282
 30
0.0
 40
0.011614
  1
+P
 50
270.0
 41
0.710811
  7
SIMPLEX
  0
CIRCLE
  8
1
  6
CONTINUOUS
 62
   250
 10
0.051121
 20
0.932735
 30
0.0
 40
0.008969
  0
LINE
  8
1
  6
CONTINUOUS
 62
   250
 10
0.004958
 20
0.865471
 30
0.0
 11
-0.00824
 21
0.865471
 31
0.0
  0
TEXT
  8
1
  6
CONTINUOUS
 62
   250
 10
-0.025112
 20
0.919282
 30
0.0
 40
0.009955
  1
LOOP OUT
 50
270.0
 41
0.710811
  7
SIMPLEX
  0
TEXT
  8
1
  6
CONTINUOUS
 62
   250
 10
0.010762
 20
0.919282
 30
0.0
 40
0.009955
  1
LOOP IN
 50
270.0
 41
0.710811
  7
SIMPLEX
  0
LINE
  8
1
  6
CONTINUOUS
 62
   250
 10
-0.038565
 20
0.865471
 30
0.0
 11
-0.034081
 21
0.865471
 31
0.0
  0
CIRCLE
  8
1
  6
CONTINUOUS
 62
   250
 10
0.015247
 20
0.932735
 30
0.0
 40
0.008968
  0
CIRCLE
  8
1
  6
CONTINUOUS
 62
   250
 10
-0.020628
 20
0.932735
 30
0.0
 40
0.008968
  0
LINE
  8
1
  6
CONTINUOUS
 62
   250
 10
0.008905
 20
0.939077
 30
0.0
 11
0.021587
 21
0.926394
 31
0.0
  0
LINE
  8
1
  6
CONTINUOUS
 62
   250
 10
-0.01166
 20
0.932735
 30
0.0
 11
-0.029596
 21
0.932735
 31
0.0
  0
LINE
  8
1
  6
CONTINUOUS
 62
   250
 10
0.051121
 20
0.923767
 30
0.0
 11
0.051121
 21
0.941704
 31
0.0
  0
TEXT
  8
1
  6
CONTINUOUS
 62
   250
 10
0.117945
 20
0.812673
 30
0.0
 40
0.011426
  1
CONNECTOR
 50
270.0
 41
0.889011
  7
SIMPLEX
 72
     1
 11
0.117945
 21
0.767688
 31
0.0
  0
TEXT
  8
1
  6
CONTINUOUS
 62
   250
 10
0.134023
 20
0.798236
 30
0.0
 40
0.011426
  1
DISPLAY
 50
270.0
 41
0.889011
  7
SIMPLEX
 72
     1
 11
0.134023
 21
0.767763
 31
0.0
  0
TEXT
  8
1
  6
CONTINUOUS
 62
   250
 10
0.082511
 20
0.919282
 30
0.0
 40
0.011614
  1
GND
 50
270.0
 41
0.710811
  7
SIMPLEX
  0
TEXT
  8
1
  6
CONTINUOUS
 62
   250
 10
0.118385
 20
0.919282
 30
0.0
 40
0.011614
  1
TIMER
 50
270.0
 41
0.710811
  7
SIMPLEX
  0
TEXT
  8
1
  6
CONTINUOUS
 62
   250
 10
0.154261
 20
0.919282
 30
0.0
 40
0.011614
  1
+24V
 50
270.0
 41
0.710811
  7
SIMPLEX
  0
LINE
  8
1
  6
CONTINUOUS
 62
   250
 10
0.208073
 20
0.914798
 30
0.0
 11
0.203587
 21
0.914798
 31
0.0
  0
LINE
  8
1
  6
CONTINUOUS
 62
   250
 10
0.214798
 20
0.835874
 30
0.0
 11
0.214798
 21
0.786547
 31
0.0
  0
TEXT
  8
1
  6
CONTINUOUS
 62
   250
 10
0.153662
 20
0.798206
 30
0.0
 40
0.012556
  1
1
 41
0.9
  7
SIMPLEX
  0
LINE
  8
1
  6
CONTINUOUS
 62
   250
 10
0.203587
 20
0.721973
 30
0.0
 11
0.167713
 21
0.721973
 31
0.0
  0
LINE
  8
1
  6
CONTINUOUS
 62
   250
 10
0.167713
 20
0.811659
 30
0.0
 11
0.167713
 21
0.721973
 31
0.0
  0
LINE
  8
1
  6
CONTINUOUS
 62
   250
 10
0.203587
 20
0.721973
 30
0.0
 11
0.203587
 21
0.811659
 31
0.0
  0
LINE
  8
1
  6
CONTINUOUS
 62
   250
 10
0.203587
 20
0.811659
 30
0.0
 11
0.167713
 21
0.811659
 31
0.0
  0
CIRCLE
  8
1
  6
CONTINUOUS
 62
   250
 10
0.194619
 20
0.802691
 30
0.0
 40
0.001794
  0
CIRCLE
  8
1
  6
CONTINUOUS
 62
   250
 10
0.176682
 20
0.802691
 30
0.0
 40
0.001795
  0
CIRCLE
  8
1
  6
CONTINUOUS
 62
   250
 10
0.194619
 20
0.784753
 30
0.0
 40
0.001794
  0
CIRCLE
  8
1
  6
CONTINUOUS
 62
   250
 10
0.176682
 20
0.784753
 30
0.0
 40
0.001795
  0
CIRCLE
  8
1
  6
CONTINUOUS
 62
   250
 10
0.194619
 20
0.766816
 30
0.0
 40
0.001794
  0
CIRCLE
  8
1
  6
CONTINUOUS
 62
   250
 10
0.176682
 20
0.766816
 30
0.0
 40
0.001795
  0
CIRCLE
  8
1
  6
CONTINUOUS
 62
   250
 10
0.194619
 20
0.748879
 30
0.0
 40
0.001794
  0
CIRCLE
  8
1
  6
CONTINUOUS
 62
   250
 10
0.176682
 20
0.748879
 30
0.0
 40
0.001795
  0
CIRCLE
  8
1
  6
CONTINUOUS
 62
   250
 10
0.194619
 20
0.730942
 30
0.0
 40
0.001794
  0
CIRCLE
  8
1
  6
CONTINUOUS
 62
   250
 10
0.176682
 20
0.730942
 30
0.0
 40
0.001795
  0
TEXT
  8
1
  6
CONTINUOUS
 62
   250
 10
0.199463
 20
0.869955
 30
0.0
 40
0.011426
  1
J2
 41
0.889011
  7
SIMPLEX
 72
     2
 11
0.215425
 21
0.869955
 31
0.0
  0
LINE
  8
1
  6
CONTINUOUS
 62
   250
 10
0.158744
 20
0.923767
 30
0.0
 11
0.158744
 21
0.941704
 31
0.0
  0
LINE
  8
1
  6
CONTINUOUS
 62
   250
 10
0.095964
 20
0.932735
 30
0.0
 11
0.078027
 21
0.932735
 31
0.0
  0
LINE
  8
1
  6
CONTINUOUS
 62
   250
 10
0.116528
 20
0.939077
 30
0.0
 11
0.129211
 21
0.926394
 31
0.0
  0
CIRCLE
  8
1
  6
CONTINUOUS
 62
   250
 10
0.086996
 20
0.932735
 30
0.0
 40
0.008968
  0
CIRCLE
  8
1
  6
CONTINUOUS
 62
   250
 10
0.158744
 20
0.932735
 30
0.0
 40
0.008969
  0
CIRCLE
  8
1
  6
CONTINUOUS
 62
   250
 10
0.122869
 20
0.932735
 30
0.0
 40
0.008969
  0
LINE
  8
1
  6
CONTINUOUS
 62
   250
 10
0.210762
 20
0.982063
 30
0.0
 11
-0.210762
 21
0.982063
 31
0.0
  0
LINE
  8
1
  6
CONTINUOUS
 62
   250
 10
-0.191031
 20
0.950673
 30
0.0
 11
-0.056501
 21
0.950673
 31
0.0
  0
ARC
  8
1
  6
CONTINUOUS
 62
   250
 10
-0.273543
 20
0.982063
 30
0.0
 40
0.017937
 50
89.999619
 51
179.997528
  0
LINE
  8
1
  6
CONTINUOUS
 62
   250
 10
-0.210762
 20
0.982063
 30
0.0
 11
-0.210762
 21
0.959641
 31
0.0
  0
LINE
  8
1
  6
CONTINUOUS
 62
   250
 10
-0.038565
 20
0.964126
 30
0.0
 11
0.176682
 21
0.964126
 31
0.0
  0
LINE
  8
1
  6
CONTINUOUS
 62
   250
 10
0.210762
 20
0.959641
 30
0.0
 11
0.210762
 21
0.982063
 31
0.0
  0
LINE
  8
1
  6
CONTINUOUS
 62
   250
 10
0.29148
 20
0.616144
 30
0.0
 11
0.29148
 21
0.017937
 31
0.0
  0
LINE
  8
1
  6
CONTINUOUS
 62
   250
 10
0.27713
 20
0.566816
 30
0.0
 11
0.27713
 21
0.080717
 31
0.0
  0
LINE
  8
1
  6
CONTINUOUS
 62
   250
 10
0.270852
 20
0.566816
 30
0.0
 11
0.270852
 21
0.085202
 31
0.0
  0
ARC
  8
1
  6
CONTINUOUS
 62
   250
 10
0.273543
 20
0.017938
 30
0.0
 40
0.017938
 50
269.999512
 51
359.997375
  0
LINE
  8
1
  6
CONTINUOUS
 62
   250
 10
0.251122
 20
0.080717
 30
0.0
 11
0.27713
 21
0.080717
 31
0.0
  0
CIRCLE
  8
1
  6
CONTINUOUS
 62
   250
 10
0.251122
 20
0.040359
 30
0.0
 40
0.017578
  0
CIRCLE
  8
1
  6
CONTINUOUS
 62
   250
 10
0.251122
 20
0.040359
 30
0.0
 40
0.028251
  0
INSERT
  8
1
 62
   250
  2
STRIP2
 10
0.221525
 20
0.408072
 30
0.0
 41
0.179372
 42
0.179372
  0
INSERT
  8
1
 62
   250
  2
STRIP2
 10
0.221525
 20
0.336323
 30
0.0
 41
0.179372
 42
0.179372
  0
INSERT
  8
1
 62
   250
  2
STRIP2
 10
0.221525
 20
0.35426
 30
0.0
 41
0.179372
 42
0.179372
  0
INSERT
  8
1
 62
   250
  2
STRIP2
 10
0.221525
 20
0.372197
 30
0.0
 41
0.179372
 42
0.179372
  0
INSERT
  8
1
 62
   250
  2
STRIP2
 10
0.221525
 20
0.390135
 30
0.0
 41
0.179372
 42
0.179372
  0
LINE
  8
1
  6
CONTINUOUS
 62
   250
 10
0.221525
 20
0.318386
 30
0.0
 11
0.257399
 21
0.318386
 31
0.0
  0
LINE
  8
1
  6
CONTINUOUS
 62
   250
 10
0.29148
 20
0.982063
 30
0.0
 11
0.29148
 21
0.786547
 31
0.0
  0
CIRCLE
  8
1
  6
CONTINUOUS
 62
   250
 10
0.251122
 20
0.959641
 30
0.0
 40
0.017578
  0
CIRCLE
  8
1
  6
CONTINUOUS
 62
   250
 10
0.251122
 20
0.959641
 30
0.0
 40
0.028251
  0
TEXT
  8
1
  6
CONTINUOUS
 62
   250
 10
0.252914
 20
0.780269
 30
0.0
 40
0.008162
  1
Female DIN Connector
 50
270.0
 41
0.889011
  7
SIMPLEX
  0
LINE
  8
1
  6
CONTINUOUS
 62
   250
 10
0.282063
 20
0.835874
 30
0.0
 11
0.282063
 21
0.566816
 31
0.0
  0
LINE
  8
1
  6
CONTINUOUS
 62
   250
 10
0.241704
 20
0.616144
 30
0.0
 11
0.241704
 21
0.786547
 31
0.0
  0
LINE
  8
1
  6
CONTINUOUS
 62
   250
 10
0.322422
 20
0.616144
 30
0.0
 11
0.322422
 21
0.786547
 31
0.0
  0
CIRCLE
  8
1
  6
CONTINUOUS
 62
   250
 10
0.250673
 20
0.582511
 30
0.0
 40
0.00852
  0
LINE
  8
1
  6
CONTINUOUS
 62
   250
 10
0.282063
 20
0.616144
 30
0.0
 11
0.322422
 21
0.616144
 31
0.0
  0
LINE
  8
1
  6
CONTINUOUS
 62
   250
 10
0.29148
 20
0.58296
 30
0.0
 11
0.282063
 21
0.58296
 31
0.0
  0
LINE
  8
1
  6
CONTINUOUS
 62
   250
 10
0.270852
 20
0.914798
 30
0.0
 11
0.270852
 21
0.835874
 31
0.0
  0
CIRCLE
  8
1
  6
CONTINUOUS
 62
   250
 10
0.250673
 20
0.820179
 30
0.0
 40
0.00852
  0
LINE
  8
1
  6
CONTINUOUS
 62
   250
 10
0.322422
 20
0.786547
 30
0.0
 11
0.282063
 21
0.786547
 31
0.0
  0
LINE
  8
1
  6
CONTINUOUS
 62
   250
 10
0.29148
 20
0.816144
 30
0.0
 11
0.287891
 21
0.816144
 31
0.0
  0
LINE
  8
1
  6
CONTINUOUS
 62
   250
 10
0.29148
 20
0.816144
 30
0.0
 11
0.282063
 21
0.816144
 31
0.0
  0
LINE
  8
1
  6
CONTINUOUS
 62
   250
 10
0.27713
 20
0.919282
 30
0.0
 11
0.27713
 21
0.835874
 31
0.0
  0
LINE
  8
1
  6
CONTINUOUS
 62
   250
 10
0.27713
 20
0.919282
 30
0.0
 11
0.251122
 21
0.919282
 31
0.0
  0
ARC
  8
1
  6
CONTINUOUS
 62
   250
 10
0.273543
 20
0.982063
 30
0.0
 40
0.017938
 50
0.002094
 51
90.000763
  0
TEXT
  8
1
  6
CONTINUOUS
 62
   250
 10
0.149855
 20
0.275535
 30
0.0
 40
0.009552
  1
SENSOR OUTPUT
 41
0.745071
  7
SIMPLEX
  0
TEXT
  8
1
  6
CONTINUOUS
 62
   250
 10
0.190135
 20
0.182529
 30
0.0
 40
0.010673
  1
SENSOR 4
 41
0.782353
  7
SIMPLEX
  0
TEXT
  8
1
  6
CONTINUOUS
 62
   250
 10
0.190135
 20
0.200466
 30
0.0
 40
0.010673
  1
SENSOR 3
 41
0.782353
  7
SIMPLEX
  0
TEXT
  8
1
  6
CONTINUOUS
 62
   250
 10
0.190135
 20
0.218403
 30
0.0
 40
0.010673
  1
SENSOR 2
 41
0.782353
  7
SIMPLEX
  0
TEXT
  8
1
  6
CONTINUOUS
 62
   250
 10
0.190135
 20
0.236341
 30
0.0
 40
0.010673
  1
SENSOR 1
 41
0.782353
  7
SIMPLEX
  0
TEXT
  8
1
  6
CONTINUOUS
 62
   250
 10
0.186646
 20
0.26009
 30
0.0
 40
0.009955
  1
SELECT
 41
0.710811
  7
SIMPLEX
  0
LINE
  8
1
  6
CONTINUOUS
 62
   250
 10
0.270852
 20
0.914798
 30
0.0
 11
0.203587
 21
0.914798
 31
0.0
  0
LINE
  8
1
  6
CONTINUOUS
 62
   250
 10
0.203587
 20
0.085202
 30
0.0
 11
0.270852
 21
0.085202
 31
0.0
  0
LINE
  8
1
  6
CONTINUOUS
 62
   250
 10
0.282063
 20
0.566816
 30
0.0
 11
0.214798
 21
0.566816
 31
0.0
  0
LINE
  8
1
  6
CONTINUOUS
 62
   250
 10
0.282063
 20
0.835874
 30
0.0
 11
0.214798
 21
0.835874
 31
0.0
  0
LINE
  8
1
  6
CONTINUOUS
 62
   250
 10
0.214798
 20
0.786547
 30
0.0
 11
0.241704
 21
0.786547
 31
0.0
  0
LINE
  8
1
  6
CONTINUOUS
 62
   250
 10
0.214798
 20
0.616144
 30
0.0
 11
0.241704
 21
0.616144
 31
0.0
  0
LINE
  8
1
  6
CONTINUOUS
 62
   250
 10
0.273542
 20
1.0
 30
0.0
 11
-0.273542
 21
1.0
 31
0.0
  0
LINE
  8
1
  6
CONTINUOUS
 62
   250
 10
0.273542
 20
0.0
 30
0.0
 11
-0.273542
 21
0.0
 31
0.0
  0
ARC
  8
1
  6
CONTINUOUS
 62
   250
 10
0.251121
 20
0.959641
 30
0.0
 40
0.040359
 50
180.000092
 51
270.00116
  0
ARC
  8
1
  6
CONTINUOUS
 62
   250
 10
0.251121
 20
0.040359
 30
0.0
 40
0.040359
 50
89.998901
 51
180.001099
  0
LINE
  8
1
  6
CONTINUOUS
 62
   250
 10
0.167713
 20
0.412556
 30
0.0
 11
0.270852
 21
0.412556
 31
0.0
  0
LINE
  8
1
  6
CONTINUOUS
 62
   250
 10
0.167713
 20
0.313901
 30
0.0
 11
0.270852
 21
0.313901
 31
0.0
  0
LINE
  8
1
  6
CONTINUOUS
 62
   250
 10
0.167713
 20
0.434978
 30
0.0
 11
0.270852
 21
0.434978
 31
0.0
  0
LINE
  8
1
  6
CONTINUOUS
 62
   250
 10
0.140807
 20
0.29148
 30
0.0
 11
0.270852
 21
0.29148
 31
0.0
  0
INSERT
  8
1
 62
   250
  2
STRIP2
 10
0.21704
 20
0.883408
 30
0.0
 41
0.179372
 42
0.179372
  0
LINE
  8
1
  6
CONTINUOUS
 62
   250
 10
0.21704
 20
0.865471
 30
0.0
 11
0.252914
 21
0.865471
 31
0.0
  0
LINE
  8
1
  6
CONTINUOUS
 62
   250
 10
0.140807
 20
0.156951
 30
0.0
 11
0.270852
 21
0.156951
 31
0.0
  0
LINE
  8
1
  6
CONTINUOUS
 62
   250
 10
0.140807
 20
0.255605
 30
0.0
 11
0.270852
 21
0.255605
 31
0.0
  0
ARC
  8
1
  6
CONTINUOUS
 62
   250
 10
0.001789
 20
0.37669
 30
0.0
 40
0.042133
 50
97.328957
 51
142.669937
  0
ARC
  8
1
  6
CONTINUOUS
 62
   250
 10
0.001799
 20
0.37669
 30
0.0
 40
0.042133
 50
37.330173
 51
82.670898
  0
LINE
  8
1
  6
CONTINUOUS
 62
   250
 10
-0.267265
 20
0.085202
 30
0.0
 11
-0.267265
 21
0.566816
 31
0.0
  0
LINE
  8
1
  6
CONTINUOUS
 62
   250
 10
-0.267265
 20
0.5
 30
0.0
 11
-0.267265
 21
0.365471
 31
0.0
  0
LINE
  8
1
  6
CONTINUOUS
 62
   250
 10
-0.29148
 20
0.582511
 30
0.0
 11
-0.29148
 21
0.017937
 31
0.0
  0
LINE
  8
1
  6
CONTINUOUS
 62
   250
 10
-0.27713
 20
0.566816
 30
0.0
 11
-0.27713
 21
0.080717
 31
0.0
  0
LINE
  8
2
  6
CONTINUOUS
 62
   250
 10
-0.087893
 20
0.165919
 30
0.0
 11
-0.087893
 21
0.44843
 31
0.0
  0
LINE
  8
2
  6
CONTINUOUS
 62
   250
 10
-0.26278
 20
0.44843
 30
0.0
 11
-0.26278
 21
0.112108
 31
0.0
  0
TEXT
  8
1
  6
CONTINUOUS
 62
   250
 10
-0.202611
 20
0.412556
 30
0.0
 40
0.011426
  1
SETBACK
 41
0.889011
  7
SIMPLEX
 72
     1
 11
-0.169719
 21
0.412556
 31
0.0
  0
TEXT
  8
1
  6
CONTINUOUS
 62
   250
 10
0.191132
 20
0.41704
 30
0.0
 40
0.011426
  1
PID
 41
0.889011
  7
SIMPLEX
  0
LINE
  8
1
  6
CONTINUOUS
 62
   250
 10
0.167713
 20
0.434978
 30
0.0
 11
0.167713
 21
0.313901
 31
0.0
  0
LINE
  8
1
  6
CONTINUOUS
 62
   250
 10
-0.056501
 20
0.434978
 30
0.0
 11
-0.056501
 21
0.318386
 31
0.0
  0
LINE
  8
1
  6
CONTINUOUS
 62
   250
 10
-0.069955
 20
0.434978
 30
0.0
 11
-0.069955
 21
0.318386
 31
0.0
  0
LINE
  8
1
  6
CONTINUOUS
 62
   250
 10
0.06009
 20
0.318386
 30
0.0
 11
0.06009
 21
0.434978
 31
0.0
  0
TEXT
  8
1
  6
CONTINUOUS
 62
   250
 10
-0.173094
 20
0.092843
 30
0.0
 40
0.011614
  1
UNOCC=HI
 41
0.710811
  7
SIMPLEX
  0
TEXT
  8
1
  6
CONTINUOUS
 62
   250
 10
-0.173094
 20
0.074906
 30
0.0
 40
0.010673
  1
UNOCC=LO
 41
0.782353
  7
SIMPLEX
  0
TEXT
  8
1
  6
CONTINUOUS
 62
   250
 10
-0.136224
 20
0.116592
 30
0.0
 40
0.009955
  1
SELECT
 41
0.710811
  7
SIMPLEX
  0
TEXT
  8
1
  6
CONTINUOUS
 62
   250
 10
-0.149677
 20
0.134529
 30
0.0
 40
0.009955
  1
TIMER MODE
 41
0.710811
  7
SIMPLEX
  0
LINE
  8
1
  6
CONTINUOUS
 62
   250
 10
-0.210762
 20
0.017937
 30
0.0
 11
0.210762
 21
0.017937
 31
0.0
  0
LINE
  8
1
  6
CONTINUOUS
 62
   250
 10
-0.141705
 20
0.152466
 30
0.0
 11
-0.052018
 21
0.152466
 31
0.0
  0
LINE
  8
1
  6
CONTINUOUS
 62
   250
 10
-0.177578
 20
0.049327
 30
0.0
 11
-0.052018
 21
0.049327
 31
0.0
  0
LINE
  8
1
  6
CONTINUOUS
 62
   250
 10
-0.177578
 20
0.112108
 30
0.0
 11
-0.052018
 21
0.112108
 31
0.0
  0
LINE
  8
1
  6
CONTINUOUS
 62
   250
 10
-0.26278
 20
0.233184
 30
0.0
 11
-0.26278
 21
0.112108
 31
0.0
  0
LINE
  8
1
  6
CONTINUOUS
 62
   250
 10
-0.217937
 20
0.112108
 30
0.0
 11
-0.217937
 21
0.233184
 31
0.0
  0
INSERT
  8
1
 62
   250
  2
POT
 10
-0.164125
 20
0.192825
 30
0.0
 41
0.179372
 42
0.179372
  0
ARC
  8
1
  6
CONTINUOUS
 62
   250
 10
-0.273543
 20
0.017938
 30
0.0
 40
0.017938
 50
180.002594
 51
270.000488
  0
TEXT
  8
1
  6
CONTINUOUS
 62
   250
 10
-0.155157
 20
0.056968
 30
0.0
 40
0.011614
  1
OFF
 41
0.710811
  7
SIMPLEX
  0
LINE
  8
1
  6
CONTINUOUS
 62
   250
 10
-0.267265
 20
0.085202
 30
0.0
 11
-0.2
 21
0.085202
 31
0.0
  0
LINE
  8
1
  6
CONTINUOUS
 62
   250
 10
-0.2
 20
0.085202
 30
0.0
 11
-0.2
 21
0.017937
 31
0.0
  0
LINE
  8
1
  6
CONTINUOUS
 62
   250
 10
-0.27713
 20
0.080717
 30
0.0
 11
-0.251122
 21
0.080717
 31
0.0
  0
LINE
  8
1
  6
CONTINUOUS
 62
   250
 10
-0.210762
 20
0.040359
 30
0.0
 11
-0.210762
 21
0.017937
 31
0.0
  0
CIRCLE
  8
1
  6
CONTINUOUS
 62
   250
 10
-0.251122
 20
0.040359
 30
0.0
 40
0.017578
  0
ARC
  8
1
  6
CONTINUOUS
 62
   250
 10
-0.251121
 20
0.040359
 30
0.0
 40
0.040359
 50
359.998871
 51
90.001053
  0
CIRCLE
  8
1
  6
CONTINUOUS
 62
   250
 10
-0.251122
 20
0.040359
 30
0.0
 40
0.028252
  0
LINE
  8
1
  6
CONTINUOUS
 62
   250
 10
-0.26278
 20
0.112108
 30
0.0
 11
-0.217937
 21
0.112108
 31
0.0
  0
CIRCLE
  8
1
  6
CONTINUOUS
 62
   250
 10
-0.240358
 20
0.130045
 30
0.0
 40
0.001793
  0
CIRCLE
  8
1
  6
CONTINUOUS
 62
   250
 10
-0.240358
 20
0.147982
 30
0.0
 40
0.001793
  0
LINE
  8
2
  6
CONTINUOUS
 62
   250
 10
-0.26278
 20
0.112108
 30
0.0
 11
-0.186546
 21
0.112108
 31
0.0
  0
LINE
  8
1
  6
CONTINUOUS
 62
   250
 10
-0.177578
 20
0.147982
 30
0.0
 11
-0.177578
 21
0.049327
 31
0.0
  0
LINE
  8
1
  6
CONTINUOUS
 62
   250
 10
-0.267265
 20
0.241881
 30
0.0
 11
-0.267265
 21
0.2078
 31
0.0
  0
TEXT
  8
1
  6
CONTINUOUS
 62
   250
 10
-0.231988
 20
0.249327
 30
0.0
 40
0.012556
  1
1
 41
0.9
  7
SIMPLEX
  0
CIRCLE
  8
1
  6
CONTINUOUS
 62
   250
 10
-0.240358
 20
0.255605
 30
0.0
 40
0.001793
  0
CIRCLE
  8
1
  6
CONTINUOUS
 62
   250
 10
-0.240358
 20
0.237668
 30
0.0
 40
0.001793
  0
LINE
  8
1
  6
CONTINUOUS
 62
   250
 10
-0.217937
 20
0.233184
 30
0.0
 11
-0.26278
 21
0.233184
 31
0.0
  0
CIRCLE
  8
1
  6
CONTINUOUS
 62
   250
 10
-0.240358
 20
0.201794
 30
0.0
 40
0.001793
  0
CIRCLE
  8
1
  6
CONTINUOUS
 62
   250
 10
-0.240358
 20
0.219731
 30
0.0
 40
0.001793
  0
CIRCLE
  8
1
  6
CONTINUOUS
 62
   250
 10
-0.240358
 20
0.165919
 30
0.0
 40
0.001793
  0
CIRCLE
  8
1
  6
CONTINUOUS
 62
   250
 10
-0.240358
 20
0.183857
 30
0.0
 40
0.001793
  0
TEXT
  8
1
  6
CONTINUOUS
 62
   250
 10
-0.215106
 20
0.392227
 30
0.0
 40
0.011426
  1
ACCESSORY
 41
0.889011
  7
SIMPLEX
 72
     1
 11
-0.171572
 21
0.392227
 31
0.0
  0
TEXT
  8
1
  6
CONTINUOUS
 62
   250
 10
-0.203392
 20
0.371898
 30
0.0
 40
0.011426
  1
MODULE
 41
0.889011
  7
SIMPLEX
 72
     1
 11
-0.172677
 21
0.371898
 31
0.0
  0
TEXT
  8
1
  6
CONTINUOUS
 62
   250
 10
-0.20621
 20
0.349477
 30
0.0
 40
0.011426
  1
(OPTIONAL)
 41
0.889011
  7
SIMPLEX
 72
     1
 11
-0.164128
 21
0.349477
 31
0.0
  0
TEXT
  8
1
  6
CONTINUOUS
 62
   250
 10
0.001794
 20
0.092843
 30
0.0
 40
0.010673
  1
CONTROL 1
 41
0.782353
  7
SIMPLEX
  0
TEXT
  8
1
  6
CONTINUOUS
 62
   250
 10
0.001794
 20
0.074906
 30
0.0
 40
0.010673
  1
CONTROL 2
 41
0.782353
  7
SIMPLEX
  0
TEXT
  8
1
  6
CONTINUOUS
 62
   250
 10
0.001794
 20
0.056968
 30
0.0
 40
0.010673
  1
CONTROL 3
 41
0.782353
  7
SIMPLEX
  0
TEXT
  8
1
  6
CONTINUOUS
 62
   250
 10
-0.019632
 20
0.134529
 30
0.0
 40
0.009955
  1
CNTRL OUTPUT
 41
0.710811
  7
SIMPLEX
  0
LINE
  8
1
  6
CONTINUOUS
 62
   250
 10
0.09148
 20
0.03139
 30
0.0
 11
-0.047534
 21
0.03139
 31
0.0
  0
LINE
  8
1
  6
CONTINUOUS
 62
   250
 10
0.09148
 20
0.152466
 30
0.0
 11
-0.047534
 21
0.152466
 31
0.0
  0
LINE
  8
1
  6
CONTINUOUS
 62
   250
 10
-0.047534
 20
0.112108
 30
0.0
 11
0.09148
 21
0.112108
 31
0.0
  0
TEXT
  8
1
  6
CONTINUOUS
 62
   250
 10
0.007275
 20
0.116592
 30
0.0
 40
0.009955
  1
SELECT
 41
0.710811
  7
SIMPLEX
  0
TEXT
  8
1
  6
CONTINUOUS
 62
   250
 10
0.001794
 20
0.039031
 30
0.0
 40
0.011614
  1
OFF
 41
0.710811
  7
SIMPLEX
  0
LINE
  8
1
  6
CONTINUOUS
 62
   250
 10
-0.047534
 20
0.03139
 30
0.0
 11
-0.047534
 21
0.152466
 31
0.0
  0
LINE
  8
1
  6
CONTINUOUS
 62
   250
 10
-0.052018
 20
0.152466
 30
0.0
 11
-0.052018
 21
0.049327
 31
0.0
  0
LINE
  8
1
  6
CONTINUOUS
 62
   250
 10
-0.092377
 20
0.053812
 30
0.0
 11
-0.056501
 21
0.053812
 31
0.0
  0
INSERT
  8
1
 62
   250
  2
STRIP2
 10
-0.092377
 20
0.107623
 30
0.0
 41
0.179372
 42
0.179372
  0
INSERT
  8
1
 62
   250
  2
STRIP2
 10
-0.092377
 20
0.089686
 30
0.0
 41
0.179372
 42
0.179372
  0
INSERT
  8
1
 62
   250
  2
STRIP2
 10
-0.092377
 20
0.071749
 30
0.0
 41
0.179372
 42
0.179372
  0
LINE
  8
1
  6
CONTINUOUS
 62
   250
 10
-0.043049
 20
0.035874
 30
0.0
 11
-0.007175
 21
0.035874
 31
0.0
  0
INSERT
  8
1
 62
   250
  2
STRIP2
 10
-0.043049
 20
0.053812
 30
0.0
 41
0.179372
 42
0.179372
  0
INSERT
  8
1
 62
   250
  2
STRIP2
 10
-0.043049
 20
0.071749
 30
0.0
 41
0.179372
 42
0.179372
  0
INSERT
  8
1
 62
   250
  2
STRIP2
 10
-0.043049
 20
0.089686
 30
0.0
 41
0.179372
 42
0.179372
  0
INSERT
  8
1
 62
   250
  2
STRIP2
 10
-0.043049
 20
0.107623
 30
0.0
 41
0.179372
 42
0.179372
  0
TEXT
  8
1
  6
CONTINUOUS
 62
   250
 10
0.113901
 20
0.085202
 30
0.0
 40
0.009955
  1
CTRTL
 50
90.0
 41
0.710811
  7
SIMPLEX
  0
TEXT
  8
1
  6
CONTINUOUS
 62
   250
 10
0.163229
 20
0.085202
 30
0.0
 40
0.011614
  1
GND
 50
90.0
 41
0.710811
  7
SIMPLEX
  0
TEXT
  8
1
  6
CONTINUOUS
 62
   250
 10
0.131839
 20
0.085202
 30
0.0
 40
0.009955
  1
LOOP OUT
 50
90.0
 41
0.710811
  7
SIMPLEX
  0
LINE
  8
1
  6
CONTINUOUS
 62
   250
 10
0.203587
 20
0.085202
 30
0.0
 11
0.203587
 21
0.017937
 31
0.0
  0
LINE
  8
1
  6
CONTINUOUS
 62
   250
 10
0.210762
 20
0.017937
 30
0.0
 11
0.210762
 21
0.040359
 31
0.0
  0
LINE
  8
1
  6
CONTINUOUS
 62
   250
 10
0.09148
 20
0.152466
 30
0.0
 11
0.09148
 21
0.03139
 31
0.0
  0
LINE
  8
1
  6
CONTINUOUS
 62
   250
 10
0.136323
 20
0.139013
 30
0.0
 11
0.176682
 21
0.139013
 31
0.0
  0
LINE
  8
1
  6
CONTINUOUS
 62
   250
 10
0.127354
 20
0.071749
 30
0.0
 11
0.109417
 21
0.071749
 31
0.0
  0
LINE
  8
1
  6
CONTINUOUS
 62
   250
 10
0.152403
 20
0.065407
 30
0.0
 11
0.165086
 21
0.078091
 31
0.0
  0
LINE
  8
1
  6
CONTINUOUS
 62
   250
 10
0.176682
 20
0.139013
 30
0.0
 11
0.176682
 21
0.040359
 31
0.0
  0
LINE
  8
1
  6
CONTINUOUS
 62
   250
 10
0.095964
 20
0.139013
 30
0.0
 11
0.113901
 21
0.139013
 31
0.0
  0
LINE
  8
1
  6
CONTINUOUS
 62
   250
 10
0.095964
 20
0.040359
 30
0.0
 11
0.176682
 21
0.040359
 31
0.0
  0
LINE
  8
1
  6
CONTINUOUS
 62
   250
 10
0.095964
 20
0.040359
 30
0.0
 11
0.095964
 21
0.139013
 31
0.0
  0
CIRCLE
  8
1
  6
CONTINUOUS
 62
   250
 10
0.118385
 20
0.071749
 30
0.0
 40
0.00897
  0
CIRCLE
  8
1
  6
CONTINUOUS
 62
   250
 10
0.158744
 20
0.071749
 30
0.0
 40
0.008969
  0
TEXT
  8
1
  6
CONTINUOUS
 62
   250
 10
0.111809
 20
0.044843
 30
0.0
 40
0.012556
  1
B
 41
0.9
  7
SIMPLEX
  0
TEXT
  8
1
  6
CONTINUOUS
 62
   250
 10
0.153363
 20
0.044843
 30
0.0
 40
0.012556
  1
A
 41
0.9
  7
SIMPLEX
  0
LINE
  8
1
  6
CONTINUOUS
 62
   250
 10
0.06009
 20
0.313901
 30
0.0
 11
-0.083408
 21
0.313901
 31
0.0
  0
LINE
  8
1
  6
CONTINUOUS
 62
   250
 10
0.06009
 20
0.273543
 30
0.0
 11
-0.083408
 21
0.273543
 31
0.0
  0
INSERT
  8
1
 62
   250
  2
STRIP2
 10
0.019732
 20
0.269058
 30
0.0
 41
0.179372
 42
0.179372
  0
INSERT
  8
1
 62
   250
  2
STRIP2
 10
0.019732
 20
0.251122
 30
0.0
 41
0.179372
 42
0.179372
  0
INSERT
  8
1
 62
   250
  2
STRIP2
 10
0.019732
 20
0.233184
 30
0.0
 41
0.179372
 42
0.179372
  0
INSERT
  8
1
 62
   250
  2
STRIP2
 10
0.019732
 20
0.215247
 30
0.0
 41
0.179372
 42
0.179372
  0
INSERT
  8
1
 62
   250
  2
STRIP2
 10
0.019732
 20
0.197309
 30
0.0
 41
0.179372
 42
0.179372
  0
INSERT
  8
1
 62
   250
  2
STRIP2
 10
0.019732
 20
0.179372
 30
0.0
 41
0.179372
 42
0.179372
  0
LINE
  8
1
  6
CONTINUOUS
 62
   250
 10
0.019732
 20
0.161435
 30
0.0
 11
0.055605
 21
0.161435
 31
0.0
  0
LINE
  8
1
  6
CONTINUOUS
 62
   250
 10
-0.069955
 20
0.318386
 30
0.0
 11
0.06009
 21
0.318386
 31
0.0
  0
LINE
  8
1
  6
CONTINUOUS
 62
   250
 10
0.06009
 20
0.156951
 30
0.0
 11
-0.083408
 21
0.156951
 31
0.0
  0
TEXT
  8
1
  6
CONTINUOUS
 62
   250
 10
-0.047976
 20
0.295964
 30
0.0
 40
0.009332
  1
SETPOINT
 41
1.432126
  7
SIMPLEX
  0
TEXT
  8
1
  6
CONTINUOUS
 62
   250
 10
-0.069955
 20
0.182529
 30
0.0
 40
0.010673
  1
SETPOINT 3
 41
0.782353
  7
SIMPLEX
  0
TEXT
  8
1
  6
CONTINUOUS
 62
   250
 10
-0.069955
 20
0.200466
 30
0.0
 40
0.010673
  1
SETPOINT 2
 41
0.782353
  7
SIMPLEX
  0
TEXT
  8
1
  6
CONTINUOUS
 62
   250
 10
-0.069955
 20
0.218403
 30
0.0
 40
0.010673
  1
SETPOINT 1
 41
0.782353
  7
SIMPLEX
  0
TEXT
  8
1
  6
CONTINUOUS
 62
   250
 10
-0.024705
 20
0.278027
 30
0.0
 40
0.009332
  1
I/O
 41
1.432126
  7
SIMPLEX
  0
TEXT
  8
1
  6
CONTINUOUS
 62
   250
 10
-0.043049
 20
0.236341
 30
0.0
 40
0.011614
  1
MASTER
 41
0.710811
  7
SIMPLEX
  0
TEXT
  8
1
  6
CONTINUOUS
 62
   250
 10
-0.029596
 20
0.254278
 30
0.0
 40
0.011614
  1
SLAVE
 41
0.710811
  7
SIMPLEX
  0
TEXT
  8
1
  6
CONTINUOUS
 62
   250
 10
-0.016143
 20
0.164592
 30
0.0
 40
0.011614
  1
OFF
 41
0.710811
  7
SIMPLEX
  0
LINE
  8
1
  6
CONTINUOUS
 62
   250
 10
0.019732
 20
0.233184
 30
0.0
 11
-0.083408
 21
0.233184
 31
0.0
  0
LINE
  8
1
  6
CONTINUOUS
 62
   250
 10
0.004484
 20
0.376682
 30
0.0
 11
0.004484
 21
0.343166
 31
0.0
  0
LINE
  8
1
  6
CONTINUOUS
 62
   250
 10
-0.000896
 20
0.376682
 30
0.0
 11
-0.000896
 21
0.343166
 31
0.0
  0
LINE
  8
1
  6
CONTINUOUS
 62
   250
 10
-0.000896
 20
0.376682
 30
0.0
 11
0.004484
 21
0.376682
 31
0.0
  0
LINE
  8
1
  6
CONTINUOUS
 62
   250
 10
0.007174
 20
0.409872
 30
0.0
 11
0.007174
 21
0.418479
 31
0.0
  0
LINE
  8
1
  6
CONTINUOUS
 62
   250
 10
-0.003586
 20
0.343491
 30
0.0
 11
-0.003586
 21
0.334884
 31
0.0
  0
LINE
  8
1
  6
CONTINUOUS
 62
   250
 10
0.027847
 20
0.397936
 30
0.0
 11
0.035301
 21
0.402239
 31
0.0
  0
LINE
  8
1
  6
CONTINUOUS
 62
   250
 10
-0.02964
 20
0.388618
 30
0.0
 11
-0.037094
 21
0.392921
 31
0.0
  0
LINE
  8
1
  6
CONTINUOUS
 62
   250
 10
0.033228
 20
0.364745
 30
0.0
 11
0.040681
 21
0.360442
 31
0.0
  0
LINE
  8
1
  6
CONTINUOUS
 62
   250
 10
-0.02426
 20
0.355427
 30
0.0
 11
-0.031713
 21
0.351124
 31
0.0
  0
ARC
  8
1
  6
CONTINUOUS
 62
   250
 10
0.001761
 20
0.376705
 30
0.0
 40
0.039861
 50
142.249252
 51
157.762131
  0
ARC
  8
1
  6
CONTINUOUS
 62
   250
 10
0.001806
 20
0.376684
 30
0.0
 40
0.039912
 50
202.248138
 51
217.740448
  0
ARC
  8
1
  6
CONTINUOUS
 62
   250
 10
0.001794
 20
0.37658
 30
0.0
 40
0.0398
 50
262.231689
 51
277.768311
  0
ARC
  8
1
  6
CONTINUOUS
 62
   250
 10
0.001778
 20
0.376693
 30
0.0
 40
0.039919
 50
322.251282
 51
337.742401
  0
ARC
  8
1
  6
CONTINUOUS
 62
   250
 10
0.001822
 20
0.376696
 30
0.0
 40
0.039869
 50
22.247604
 51
37.75861
  0
ARC
  8
1
  6
CONTINUOUS
 62
   250
 10
0.001796
 20
0.376675
 30
0.0
 40
0.035872
 50
98.628349
 51
141.367035
  0
ARC
  8
1
  6
CONTINUOUS
 62
   250
 10
0.001787
 20
0.376682
 30
0.0
 40
0.035859
 50
158.62236
 51
201.37764
  0
ARC
  8
1
  6
CONTINUOUS
 62
   250
 10
0.001794
 20
0.376684
 30
0.0
 40
0.035868
 50
218.627991
 51
261.373016
  0
ARC
  8
1
  6
CONTINUOUS
 62
   250
 10
0.001797
 20
0.376678
 30
0.0
 40
0.035861
 50
278.623108
 51
321.375854
  0
ARC
  8
1
  6
CONTINUOUS
 62
   250
 10
0.001802
 20
0.376682
 30
0.0
 40
0.035859
 50
338.622345
 51
21.37756
  0
ARC
  8
1
  6
CONTINUOUS
 62
   250
 10
0.001792
 20
0.376682
 30
0.0
 40
0.04214
 50
157.332916
 51
202.667084
  0
ARC
  8
1
  6
CONTINUOUS
 62
   250
 10
0.001793
 20
0.376679
 30
0.0
 40
0.042139
 50
217.331711
 51
262.666473
  0
ARC
  8
1
  6
CONTINUOUS
 62
   250
 10
0.001795
 20
0.376679
 30
0.0
 40
0.042139
 50
277.333527
 51
322.668304
  0
ARC
  8
1
  6
CONTINUOUS
 62
   250
 10
0.001785
 20
0.376682
 30
0.0
 40
0.042151
 50
337.339355
 51
22.660633
  0
LINE
  8
1
  6
CONTINUOUS
 62
   250
 10
0.007174
 20
0.334884
 30
0.0
 11
0.007174
 21
0.343491
 31
0.0
  0
LINE
  8
1
  6
CONTINUOUS
 62
   250
 10
-0.003586
 20
0.418479
 30
0.0
 11
-0.003586
 21
0.409872
 31
0.0
  0
LINE
  8
1
  6
CONTINUOUS
 62
   250
 10
-0.037094
 20
0.360442
 30
0.0
 11
-0.02964
 21
0.364745
 31
0.0
  0
LINE
  8
1
  6
CONTINUOUS
 62
   250
 10
0.040681
 20
0.392921
 30
0.0
 11
0.033228
 21
0.388618
 31
0.0
  0
LINE
  8
1
  6
CONTINUOUS
 62
   250
 10
0.035301
 20
0.351124
 30
0.0
 11
0.027847
 21
0.355427
 31
0.0
  0
LINE
  8
1
  6
CONTINUOUS
 62
   250
 10
-0.031713
 20
0.402239
 30
0.0
 11
-0.02426
 21
0.397936
 31
0.0
  0
ARC
  8
1
  6
CONTINUOUS
 62
   250
 10
0.001794
 20
0.376677
 30
0.0
 40
0.039905
 50
82.252335
 51
97.747986
  0
ARC
  8
1
  6
CONTINUOUS
 62
   250
 10
0.001795
 20
0.376681
 30
0.0
 40
0.035866
 50
38.629162
 51
81.375633
  0
CIRCLE
  8
1
  6
CONTINUOUS
 62
   250
 10
0.001794
 20
0.376682
 30
0.0
 40
0.033624
  0
LINE
  8
1
  6
CONTINUOUS
 62
   250
 10
-0.083408
 20
0.156951
 30
0.0
 11
-0.083408
 21
0.313901
 31
0.0
  0
TEXT
  8
1
  6
CONTINUOUS
 62
   250
 10
0.074856
 20
0.26009
 30
0.0
 40
0.009955
  1
DIRECT
 41
0.710811
  7
SIMPLEX
  0
TEXT
  8
1
  6
CONTINUOUS
 62
   250
 10
0.07408
 20
0.174888
 30
0.0
 40
0.009148
  1
REVERSE
 41
0.782353
  7
SIMPLEX
  0
TEXT
  8
1
  6
CONTINUOUS
 62
   250
 10
0.176682
 20
0.393291
 30
0.0
 40
0.012556
  1
P
 41
0.75
  7
SIMPLEX
  0
TEXT
  8
1
  6
CONTINUOUS
 62
   250
 10
0.176682
 20
0.375354
 30
0.0
 40
0.011614
  1
PI
 41
0.710811
  7
SIMPLEX
  0
TEXT
  8
1
  6
CONTINUOUS
 62
   250
 10
0.176682
 20
0.357417
 30
0.0
 40
0.011614
  1
PID
 41
0.710811
  7
SIMPLEX
  0
TEXT
  8
1
  6
CONTINUOUS
 62
   250
 10
0.176682
 20
0.33948
 30
0.0
 40
0.011614
  1
SLOW
 41
0.710811
  7
SIMPLEX
  0
TEXT
  8
1
  6
CONTINUOUS
 62
   250
 10
0.176682
 20
0.321542
 30
0.0
 40
0.011614
  1
FAST
 41
0.710811
  7
SIMPLEX
  0
TEXT
  8
1
  6
CONTINUOUS
 62
   250
 10
0.190135
 20
0.164592
 30
0.0
 40
0.011614
  1
OFF
 41
0.710811
  7
SIMPLEX
  0
LINE
  8
1
  6
CONTINUOUS
 62
   250
 10
0.136323
 20
0.29148
 30
0.0
 11
0.064574
 21
0.29148
 31
0.0
  0
LINE
  8
1
  6
CONTINUOUS
 62
   250
 10
0.082511
 20
0.251122
 30
0.0
 11
0.082511
 21
0.197309
 31
0.0
  0
INSERT
  8
1
 62
   250
  2
STRIP3
 10
0.118385
 20
0.251122
 30
0.0
 41
0.179372
 42
0.179372
 50
270.0
  0
INSERT
  8
1
 62
   250
  2
STRIP3
 10
0.100449
 20
0.251122
 30
0.0
 41
0.179372
 42
0.179372
 50
270.0
  0
LINE
  8
1
  6
CONTINUOUS
 62
   250
 10
0.14529
 20
0.161435
 30
0.0
 11
0.181166
 21
0.161435
 31
0.0
  0
INSERT
  8
1
 62
   250
  2
STRIP2
 10
0.14529
 20
0.251122
 30
0.0
 41
0.179372
 42
0.179372
  0
INSERT
  8
1
 62
   250
  2
STRIP2
 10
0.14529
 20
0.233184
 30
0.0
 41
0.179372
 42
0.179372
  0
INSERT
  8
1
 62
   250
  2
STRIP2
 10
0.14529
 20
0.215247
 30
0.0
 41
0.179372
 42
0.179372
  0
INSERT
  8
1
 62
   250
  2
STRIP2
 10
0.14529
 20
0.197309
 30
0.0
 41
0.179372
 42
0.179372
  0
INSERT
  8
1
 62
   250
  2
STRIP2
 10
0.14529
 20
0.179372
 30
0.0
 41
0.179372
 42
0.179372
  0
LINE
  8
1
  6
CONTINUOUS
 62
   250
 10
0.064574
 20
0.156951
 30
0.0
 11
0.136323
 21
0.156951
 31
0.0
  0
LINE
  8
1
  6
CONTINUOUS
 62
   250
 10
0.064574
 20
0.29148
 30
0.0
 11
0.064574
 21
0.156951
 31
0.0
  0
LINE
  8
1
  6
CONTINUOUS
 62
   250
 10
0.06009
 20
0.313901
 30
0.0
 11
0.06009
 21
0.156951
 31
0.0
  0
LINE
  8
1
  6
CONTINUOUS
 62
   250
 10
0.136323
 20
0.156951
 30
0.0
 11
0.136323
 21
0.29148
 31
0.0
  0
LINE
  8
1
  6
CONTINUOUS
 62
   250
 10
0.140807
 20
0.29148
 30
0.0
 11
0.140807
 21
0.156951
 31
0.0
  0
LINE
  8
1
  6
CONTINUOUS
 62
   250
 10
-0.2
 20
0.982063
 30
0.0
 11
-0.2
 21
0.914798
 31
0.0
  0
LINE
  8
1
  6
CONTINUOUS
 62
   250
 10
0.203587
 20
0.982063
 30
0.0
 11
0.203587
 21
0.919282
 31
0.0
  0
LINE
  8
1
  6
CONTINUOUS
 62
   250
 10
0.203587
 20
0.982063
 30
0.0
 11
0.203587
 21
0.914798
 31
0.0
  0
LINE
  8
1
  6
CONTINUOUS
 62
   250
 10
-0.29148
 20
0.982063
 30
0.0
 11
-0.29148
 21
0.820179
 31
0.0
  0
CIRCLE
  8
1
  6
CONTINUOUS
 62
   250
 10
-0.251122
 20
0.959641
 30
0.0
 40
0.017578
  0
ARC
  8
1
  6
CONTINUOUS
 62
   250
 10
-0.251121
 20
0.959641
 30
0.0
 40
0.040359
 50
269.99884
 51
359.999908
  0
CIRCLE
  8
1
  6
CONTINUOUS
 62
   250
 10
-0.251122
 20
0.959641
 30
0.0
 40
0.028252
  0
TEXT
  8
1
  6
CONTINUOUS
 62
   250
 10
-0.026906
 20
0.946188
 30
0.0
 40
0.012556
  1
6
 41
0.9
  7
SIMPLEX
  0
TEXT
  8
1
  6
CONTINUOUS
 62
   250
 10
0.009268
 20
0.946188
 30
0.0
 40
0.012556
  1
5
 41
0.9
  7
SIMPLEX
  0
TEXT
  8
1
  6
CONTINUOUS
 62
   250
 10
0.044844
 20
0.946188
 30
0.0
 40
0.012556
  1
4
 41
0.9
  7
SIMPLEX
  0
LINE
  8
1
  6
CONTINUOUS
 62
   250
 10
0.176682
 20
0.865471
 30
0.0
 11
0.176682
 21
0.964126
 31
0.0
  0
LINE
  8
1
  6
CONTINUOUS
 62
   250
 10
-0.038565
 20
0.964126
 30
0.0
 11
-0.038565
 21
0.865471
 31
0.0
  0
TEXT
  8
1
  6
CONTINUOUS
 62
   250
 10
0.153662
 20
0.946188
 30
0.0
 40
0.012556
  1
1
 41
0.9
  7
SIMPLEX
  0
TEXT
  8
1
  6
CONTINUOUS
 62
   250
 10
0.116891
 20
0.946188
 30
0.0
 40
0.012556
  1
2
 41
0.9
  7
SIMPLEX
  0
TEXT
  8
1
  6
CONTINUOUS
 62
   250
 10
0.081017
 20
0.946188
 30
0.0
 40
0.012556
  1
3
 41
0.9
  7
SIMPLEX
  0
LINE
  8
1
  6
CONTINUOUS
 62
   250
 10
-0.191031
 20
0.690583
 30
0.0
 11
-0.191031
 21
0.950673
 31
0.0
  0
LINE
  8
1
  6
CONTINUOUS
 62
   250
 10
-0.056501
 20
0.690583
 30
0.0
 11
-0.056501
 21
0.950673
 31
0.0
  0
TEXT
  8
1
  6
CONTINUOUS
 62
   250
 10
-0.183708
 20
0.928251
 30
0.0
 40
0.011426
  1
INPUT SELECT
 41
0.889011
  7
SIMPLEX
  0
TEXT
  8
1
  6
CONTINUOUS
 62
   250
 10
-0.144274
 20
0.895533
 30
0.0
 40
0.010673
  1
EXTERNAL
 41
0.782353
  7
SIMPLEX
  0
TEXT
  8
1
  6
CONTINUOUS
 62
   250
 10
-0.145559
 20
0.769973
 30
0.0
 40
0.010673
  1
CONTROL 3
 41
0.782353
  7
SIMPLEX
  0
TEXT
  8
1
  6
CONTINUOUS
 62
   250
 10
-0.145559
 20
0.805847
 30
0.0
 40
0.010673
  1
CONTROL 1
 41
0.782353
  7
SIMPLEX
  0
TEXT
  8
1
  6
CONTINUOUS
 62
   250
 10
-0.145559
 20
0.78791
 30
0.0
 40
0.010673
  1
CONTROL 2
 41
0.782353
  7
SIMPLEX
  0
TEXT
  8
1
  6
CONTINUOUS
 62
   250
 10
-0.141705
 20
0.698224
 30
0.0
 40
0.011614
  1
LOSEL 2
 41
0.710811
  7
SIMPLEX
  0
TEXT
  8
1
  6
CONTINUOUS
 62
   250
 10
-0.141705
 20
0.716161
 30
0.0
 40
0.011614
  1
LOSEL 1
 41
0.710811
  7
SIMPLEX
  0
TEXT
  8
1
  6
CONTINUOUS
 62
   250
 10
-0.141705
 20
0.877596
 30
0.0
 40
0.011614
  1
SENSOR 1
 41
0.710811
  7
SIMPLEX
  0
TEXT
  8
1
  6
CONTINUOUS
 62
   250
 10
-0.141705
 20
0.859659
 30
0.0
 40
0.011614
  1
SENSOR 2
 41
0.710811
  7
SIMPLEX
  0
TEXT
  8
1
  6
CONTINUOUS
 62
   250
 10
-0.141705
 20
0.841722
 30
0.0
 40
0.011614
  1
SENSOR 3
 41
0.710811
  7
SIMPLEX
  0
TEXT
  8
1
  6
CONTINUOUS
 62
   250
 10
-0.141705
 20
0.823785
 30
0.0
 40
0.011614
  1
SENSOR 4
 41
0.710811
  7
SIMPLEX
  0
TEXT
  8
1
  6
CONTINUOUS
 62
   250
 10
-0.141705
 20
0.752036
 30
0.0
 40
0.011614
  1
HISEL 1
 41
0.710811
  7
SIMPLEX
  0
TEXT
  8
1
  6
CONTINUOUS
 62
   250
 10
-0.141705
 20
0.734098
 30
0.0
 40
0.011614
  1
HISEL 2
 41
0.710811
  7
SIMPLEX
  0
LINE
  8
2
  6
CONTINUOUS
 62
   250
 10
-0.087893
 20
0.44843
 30
0.0
 11
-0.26278
 21
0.44843
 31
0.0
  0
LINE
  8
1
  6
CONTINUOUS
 62
   250
 10
-0.191031
 20
0.690583
 30
0.0
 11
-0.056501
 21
0.690583
 31
0.0
  0
LINE
  8
1
  6
CONTINUOUS
 62
   250
 10
-0.191031
 20
0.914798
 30
0.0
 11
-0.056501
 21
0.914798
 31
0.0
  0
TEXT
  8
1
  6
CONTINUOUS
 62
   250
 10
-0.256876
 20
0.772263
 30
0.0
 40
0.008162
  1
Male DIN Connector
 50
270.0
 41
0.889011
  7
SIMPLEX
  0
LINE
  8
1
  6
CONTINUOUS
 62
   250
 10
-0.278475
 20
0.835874
 30
0.0
 11
-0.278475
 21
0.566816
 31
0.0
  0
LINE
  8
1
  6
CONTINUOUS
 62
   250
 10
-0.240358
 20
0.802242
 30
0.0
 11
-0.240358
 21
0.600448
 31
0.0
  0
LINE
  8
1
  6
CONTINUOUS
 62
   250
 10
-0.31435
 20
0.820179
 30
0.0
 11
-0.31435
 21
0.582511
 31
0.0
  0
LINE
  8
1
  6
CONTINUOUS
 62
   250
 10
-0.31435
 20
0.582511
 30
0.0
 11
-0.278475
 21
0.582511
 31
0.0
  0
LINE
  8
1
  6
CONTINUOUS
 62
   250
 10
-0.278475
 20
0.566816
 30
0.0
 11
-0.234304
 21
0.566816
 31
0.0
  0
LINE
  8
1
  6
CONTINUOUS
 62
   250
 10
-0.233632
 20
0.566816
 30
0.0
 11
-0.233632
 21
0.600448
 31
0.0
  0
LINE
  8
1
  6
CONTINUOUS
 62
   250
 10
-0.233632
 20
0.600448
 30
0.0
 11
-0.240358
 21
0.600448
 31
0.0
  0
CIRCLE
  8
1
  6
CONTINUOUS
 62
   250
 10
-0.247086
 20
0.582511
 30
0.0
 40
0.00852
  0
LINE
  8
1
  6
CONTINUOUS
 62
   250
 10
-0.278475
 20
0.820179
 30
0.0
 11
-0.31435
 21
0.820179
 31
0.0
  0
LINE
  8
1
  6
CONTINUOUS
 62
   250
 10
-0.2
 20
0.914798
 30
0.0
 11
-0.267265
 21
0.914798
 31
0.0
  0
LINE
  8
1
  6
CONTINUOUS
 62
   250
 10
-0.233632
 20
0.835874
 30
0.0
 11
-0.278475
 21
0.835874
 31
0.0
  0
LINE
  8
1
  6
CONTINUOUS
 62
   250
 10
-0.233632
 20
0.835874
 30
0.0
 11
-0.233632
 21
0.802242
 31
0.0
  0
LINE
  8
1
  6
CONTINUOUS
 62
   250
 10
-0.233632
 20
0.802242
 30
0.0
 11
-0.240358
 21
0.802242
 31
0.0
  0
CIRCLE
  8
1
  6
CONTINUOUS
 62
   250
 10
-0.247086
 20
0.820179
 30
0.0
 40
0.00852
  0
LINE
  8
1
  6
CONTINUOUS
 62
   250
 10
-0.27713
 20
0.919282
 30
0.0
 11
-0.27713
 21
0.835874
 31
0.0
  0
LINE
  8
1
  6
CONTINUOUS
 62
   250
 10
-0.251122
 20
0.919282
 30
0.0
 11
-0.27713
 21
0.919282
 31
0.0
  0
LINE
  8
1
  6
CONTINUOUS
 62
   250
 10
-0.267265
 20
0.835874
 30
0.0
 11
-0.267265
 21
0.914798
 31
0.0
  0
TEXT
  8
1
  6
CONTINUOUS
 62
   250
 10
-0.217937
 20
0.878924
 30
0.0
 40
0.012556
  1
L
 41
0.9
  7
SIMPLEX
  0
LINE
  8
1
  6
CONTINUOUS
 62
   250
 10
-0.258296
 20
0.874439
 30
0.0
 11
-0.222422
 21
0.874439
 31
0.0
  0
INSERT
  8
1
 62
   250
  2
STRIP2
 10
-0.258296
 20
0.892377
 30
0.0
 41
0.179372
 42
0.179372
  0
TEXT
  8
1
  6
CONTINUOUS
 62
   250
 10
-0.217937
 20
0.852018
 30
0.0
 40
0.012556
  1
R
 41
0.9
  7
SIMPLEX
  0
INSERT
  8
1
 62
   250
  2
STRIP2
 10
-0.258296
 20
0.865471
 30
0.0
 41
0.179372
 42
0.179372
  0
LINE
  8
1
  6
CONTINUOUS
 62
   250
 10
-0.258296
 20
0.847534
 30
0.0
 11
-0.222422
 21
0.847534
 31
0.0
  0
INSERT
  8
1
 62
   250
  2
STRIP2
 10
-0.186546
 20
0.820628
 30
0.0
 41
0.179372
 42
0.179372
  0
LINE
  8
1
  6
CONTINUOUS
 62
   250
 10
-0.186546
 20
0.695067
 30
0.0
 11
-0.150673
 21
0.695067
 31
0.0
  0
INSERT
  8
1
 62
   250
  2
STRIP2
 10
-0.186546
 20
0.713004
 30
0.0
 41
0.179372
 42
0.179372
  0
INSERT
  8
1
 62
   250
  2
STRIP2
 10
-0.186546
 20
0.730942
 30
0.0
 41
0.179372
 42
0.179372
  0
INSERT
  8
1
 62
   250
  2
STRIP2
 10
-0.186546
 20
0.748879
 30
0.0
 41
0.179372
 42
0.179372
  0
INSERT
  8
1
 62
   250
  2
STRIP2
 10
-0.186546
 20
0.766816
 30
0.0
 41
0.179372
 42
0.179372
  0
INSERT
  8
1
 62
   250
  2
STRIP2
 10
-0.186546
 20
0.784753
 30
0.0
 41
0.179372
 42
0.179372
  0
INSERT
  8
1
 62
   250
  2
STRIP2
 10
-0.186546
 20
0.802691
 30
0.0
 41
0.179372
 42
0.179372
  0
INSERT
  8
1
 62
   250
  2
STRIP2
 10
-0.186546
 20
0.838565
 30
0.0
 41
0.179372
 42
0.179372
  0
INSERT
  8
1
 62
   250
  2
STRIP2
 10
-0.186546
 20
0.856502
 30
0.0
 41
0.179372
 42
0.179372
  0
INSERT
  8
1
 62
   250
  2
STRIP2
 10
-0.186546
 20
0.874439
 30
0.0
 41
0.179372
 42
0.179372
  0
INSERT
  8
1
 62
   250
  2
STRIP2
 10
-0.186546
 20
0.892377
 30
0.0
 41
0.179372
 42
0.179372
  0
INSERT
  8
1
 62
   250
  2
STRIP2
 10
-0.186546
 20
0.910314
 30
0.0
 41
0.179372
 42
0.179372
  0
TEXT
  8
1
  6
CONTINUOUS
 62
   250
 10
-0.086896
 20
0.627803
 30
0.0
 40
0.011426
  1
THROTTLING RANGE
 41
0.889011
  7
SIMPLEX
  0
LINE
  8
1
  6
CONTINUOUS
 62
   250
 10
0.06009
 20
0.434978
 30
0.0
 11
-0.069955
 21
0.434978
 31
0.0
  0
TEXT
  8
1
  6
CONTINUOUS
 62
   250
 10
-0.05999
 20
0.609865
 30
0.0
 40
0.011426
  1
ADJUSTMENT
 41
0.889011
  7
SIMPLEX
  0
INSERT
  8
1
 62
   250
  2
POT
 10
0.001794
 20
0.556054
 30
0.0
 41
0.179372
 42
0.179372
  0
TEXT
  8
1
  6
CONTINUOUS
 62
   250
 10
-0.05999
 20
0.44843
 30
0.0
 40
0.011426
  1
ADJUSTMENT
 41
0.889011
  7
SIMPLEX
  0
TEXT
  8
1
  6
CONTINUOUS
 62
   250
 10
-0.042053
 20
0.466368
 30
0.0
 40
0.011426
  1
SETPOINT
 41
0.889011
  7
SIMPLEX
  0
LINE
  8
1
  6
CONTINUOUS
 62
   250
 10
0.214798
 20
0.566816
 30
0.0
 11
0.214798
 21
0.616144
 31
0.0
  0
LINE
  8
1
  6
CONTINUOUS
 62
   250
 10
0.025536
 20
0.865471
 30
0.0
 11
0.176682
 21
0.865471
 31
0.0
  0
TEXT
  8
1
  6
CONTINUOUS
 62
   250
 10
0.046637
 20
0.919282
 30
0.0
 40
0.011614
  1
+P
 50
270.0
 41
0.710811
  7
SIMPLEX
  0
CIRCLE
  8
1
  6
CONTINUOUS
 62
   250
 10
0.051121
 20
0.932735
 30
0.0
 40
0.008969
  0
LINE
  8
1
  6
CONTINUOUS
 62
   250
 10
0.004958
 20
0.865471
 30
0.0
 11
-0.00824
 21
0.865471
 31
0.0
  0
TEXT
  8
1
  6
CONTINUOUS
 62
   250
 10
-0.025112
 20
0.919282
 30
0.0
 40
0.009955
  1
LOOP OUT
 50
270.0
 41
0.710811
  7
SIMPLEX
  0
TEXT
  8
1
  6
CONTINUOUS
 62
   250
 10
0.010762
 20
0.919282
 30
0.0
 40
0.009955
  1
LOOP IN
 50
270.0
 41
0.710811
  7
SIMPLEX
  0
LINE
  8
1
  6
CONTINUOUS
 62
   250
 10
-0.038565
 20
0.865471
 30
0.0
 11
-0.034081
 21
0.865471
 31
0.0
  0
CIRCLE
  8
1
  6
CONTINUOUS
 62
   250
 10
0.015247
 20
0.932735
 30
0.0
 40
0.008968
  0
CIRCLE
  8
1
  6
CONTINUOUS
 62
   250
 10
-0.020628
 20
0.932735
 30
0.0
 40
0.008968
  0
LINE
  8
1
  6
CONTINUOUS
 62
   250
 10
0.008905
 20
0.939077
 30
0.0
 11
0.021587
 21
0.926394
 31
0.0
  0
LINE
  8
1
  6
CONTINUOUS
 62
   250
 10
-0.01166
 20
0.932735
 30
0.0
 11
-0.029596
 21
0.932735
 31
0.0
  0
LINE
  8
1
  6
CONTINUOUS
 62
   250
 10
0.051121
 20
0.923767
 30
0.0
 11
0.051121
 21
0.941704
 31
0.0
  0
TEXT
  8
1
  6
CONTINUOUS
 62
   250
 10
0.117945
 20
0.812673
 30
0.0
 40
0.011426
  1
CONNECTOR
 50
270.0
 41
0.889011
  7
SIMPLEX
 72
     1
 11
0.117945
 21
0.767688
 31
0.0
  0
TEXT
  8
1
  6
CONTINUOUS
 62
   250
 10
0.134023
 20
0.798237
 30
0.0
 40
0.011426
  1
DISPLAY
 50
270.0
 41
0.889011
  7
SIMPLEX
 72
     1
 11
0.134023
 21
0.767763
 31
0.0
  0
TEXT
  8
1
  6
CONTINUOUS
 62
   250
 10
0.082511
 20
0.919282
 30
0.0
 40
0.011614
  1
GND
 50
270.0
 41
0.710811
  7
SIMPLEX
  0
TEXT
  8
1
  6
CONTINUOUS
 62
   250
 10
0.118385
 20
0.919282
 30
0.0
 40
0.011614
  1
TIMER
 50
270.0
 41
0.710811
  7
SIMPLEX
  0
TEXT
  8
1
  6
CONTINUOUS
 62
   250
 10
0.154261
 20
0.919282
 30
0.0
 40
0.011614
  1
+24V
 50
270.0
 41
0.710811
  7
SIMPLEX
  0
LINE
  8
1
  6
CONTINUOUS
 62
   250
 10
0.208073
 20
0.914798
 30
0.0
 11
0.203587
 21
0.914798
 31
0.0
  0
LINE
  8
1
  6
CONTINUOUS
 62
   250
 10
0.214798
 20
0.835874
 30
0.0
 11
0.214798
 21
0.786547
 31
0.0
  0
TEXT
  8
1
  6
CONTINUOUS
 62
   250
 10
0.153662
 20
0.798206
 30
0.0
 40
0.012556
  1
1
 41
0.9
  7
SIMPLEX
  0
LINE
  8
1
  6
CONTINUOUS
 62
   250
 10
0.203587
 20
0.721973
 30
0.0
 11
0.167713
 21
0.721973
 31
0.0
  0
LINE
  8
1
  6
CONTINUOUS
 62
   250
 10
0.167713
 20
0.811659
 30
0.0
 11
0.167713
 21
0.721973
 31
0.0
  0
LINE
  8
1
  6
CONTINUOUS
 62
   250
 10
0.203587
 20
0.721973
 30
0.0
 11
0.203587
 21
0.811659
 31
0.0
  0
LINE
  8
1
  6
CONTINUOUS
 62
   250
 10
0.203587
 20
0.811659
 30
0.0
 11
0.167713
 21
0.811659
 31
0.0
  0
CIRCLE
  8
1
  6
CONTINUOUS
 62
   250
 10
0.194619
 20
0.802691
 30
0.0
 40
0.001794
  0
CIRCLE
  8
1
  6
CONTINUOUS
 62
   250
 10
0.176682
 20
0.802691
 30
0.0
 40
0.001795
  0
CIRCLE
  8
1
  6
CONTINUOUS
 62
   250
 10
0.194619
 20
0.784753
 30
0.0
 40
0.001794
  0
CIRCLE
  8
1
  6
CONTINUOUS
 62
   250
 10
0.176682
 20
0.784753
 30
0.0
 40
0.001795
  0
CIRCLE
  8
1
  6
CONTINUOUS
 62
   250
 10
0.194619
 20
0.766816
 30
0.0
 40
0.001794
  0
CIRCLE
  8
1
  6
CONTINUOUS
 62
   250
 10
0.176682
 20
0.766816
 30
0.0
 40
0.001795
  0
CIRCLE
  8
1
  6
CONTINUOUS
 62
   250
 10
0.194619
 20
0.748879
 30
0.0
 40
0.001794
  0
CIRCLE
  8
1
  6
CONTINUOUS
 62
   250
 10
0.176682
 20
0.748879
 30
0.0
 40
0.001795
  0
CIRCLE
  8
1
  6
CONTINUOUS
 62
   250
 10
0.194619
 20
0.730942
 30
0.0
 40
0.001794
  0
CIRCLE
  8
1
  6
CONTINUOUS
 62
   250
 10
0.176682
 20
0.730942
 30
0.0
 40
0.001795
  0
TEXT
  8
1
  6
CONTINUOUS
 62
   250
 10
0.199463
 20
0.869955
 30
0.0
 40
0.011426
  1
J2
 41
0.889011
  7
SIMPLEX
 72
     2
 11
0.215425
 21
0.869955
 31
0.0
  0
LINE
  8
1
  6
CONTINUOUS
 62
   250
 10
0.158744
 20
0.923767
 30
0.0
 11
0.158744
 21
0.941704
 31
0.0
  0
LINE
  8
1
  6
CONTINUOUS
 62
   250
 10
0.095964
 20
0.932735
 30
0.0
 11
0.078027
 21
0.932735
 31
0.0
  0
LINE
  8
1
  6
CONTINUOUS
 62
   250
 10
0.116528
 20
0.939077
 30
0.0
 11
0.129211
 21
0.926394
 31
0.0
  0
CIRCLE
  8
1
  6
CONTINUOUS
 62
   250
 10
0.086996
 20
0.932735
 30
0.0
 40
0.008968
  0
CIRCLE
  8
1
  6
CONTINUOUS
 62
   250
 10
0.158744
 20
0.932735
 30
0.0
 40
0.008969
  0
CIRCLE
  8
1
  6
CONTINUOUS
 62
   250
 10
0.122869
 20
0.932735
 30
0.0
 40
0.008969
  0
LINE
  8
1
  6
CONTINUOUS
 62
   250
 10
0.210762
 20
0.982063
 30
0.0
 11
-0.210762
 21
0.982063
 31
0.0
  0
LINE
  8
1
  6
CONTINUOUS
 62
   250
 10
-0.191031
 20
0.950673
 30
0.0
 11
-0.056501
 21
0.950673
 31
0.0
  0
ARC
  8
1
  6
CONTINUOUS
 62
   250
 10
-0.273543
 20
0.982063
 30
0.0
 40
0.017937
 50
89.999619
 51
179.997528
  0
LINE
  8
1
  6
CONTINUOUS
 62
   250
 10
-0.210762
 20
0.982063
 30
0.0
 11
-0.210762
 21
0.959641
 31
0.0
  0
LINE
  8
1
  6
CONTINUOUS
 62
   250
 10
-0.038565
 20
0.964126
 30
0.0
 11
0.176682
 21
0.964126
 31
0.0
  0
LINE
  8
1
  6
CONTINUOUS
 62
   250
 10
0.210762
 20
0.959641
 30
0.0
 11
0.210762
 21
0.982063
 31
0.0
  0
LINE
  8
1
  6
CONTINUOUS
 62
   250
 10
0.29148
 20
0.616144
 30
0.0
 11
0.29148
 21
0.017937
 31
0.0
  0
LINE
  8
1
  6
CONTINUOUS
 62
   250
 10
0.27713
 20
0.566816
 30
0.0
 11
0.27713
 21
0.080717
 31
0.0
  0
LINE
  8
1
  6
CONTINUOUS
 62
   250
 10
0.270852
 20
0.566816
 30
0.0
 11
0.270852
 21
0.085202
 31
0.0
  0
ARC
  8
1
  6
CONTINUOUS
 62
   250
 10
0.273543
 20
0.017938
 30
0.0
 40
0.017938
 50
269.999512
 51
359.997375
  0
LINE
  8
1
  6
CONTINUOUS
 62
   250
 10
0.251122
 20
0.080717
 30
0.0
 11
0.27713
 21
0.080717
 31
0.0
  0
CIRCLE
  8
1
  6
CONTINUOUS
 62
   250
 10
0.251122
 20
0.040359
 30
0.0
 40
0.017578
  0
CIRCLE
  8
1
  6
CONTINUOUS
 62
   250
 10
0.251122
 20
0.040359
 30
0.0
 40
0.028251
  0
INSERT
  8
1
 62
   250
  2
STRIP2
 10
0.221525
 20
0.408072
 30
0.0
 41
0.179372
 42
0.179372
  0
INSERT
  8
1
 62
   250
  2
STRIP2
 10
0.221525
 20
0.336323
 30
0.0
 41
0.179372
 42
0.179372
  0
INSERT
  8
1
 62
   250
  2
STRIP2
 10
0.221525
 20
0.35426
 30
0.0
 41
0.179372
 42
0.179372
  0
INSERT
  8
1
 62
   250
  2
STRIP2
 10
0.221525
 20
0.372197
 30
0.0
 41
0.179372
 42
0.179372
  0
INSERT
  8
1
 62
   250
  2
STRIP2
 10
0.221525
 20
0.390135
 30
0.0
 41
0.179372
 42
0.179372
  0
LINE
  8
1
  6
CONTINUOUS
 62
   250
 10
0.221525
 20
0.318386
 30
0.0
 11
0.257399
 21
0.318386
 31
0.0
  0
LINE
  8
1
  6
CONTINUOUS
 62
   250
 10
0.29148
 20
0.982063
 30
0.0
 11
0.29148
 21
0.786547
 31
0.0
  0
CIRCLE
  8
1
  6
CONTINUOUS
 62
   250
 10
0.251122
 20
0.959641
 30
0.0
 40
0.017578
  0
CIRCLE
  8
1
  6
CONTINUOUS
 62
   250
 10
0.251122
 20
0.959641
 30
0.0
 40
0.028251
  0
TEXT
  8
1
  6
CONTINUOUS
 62
   250
 10
0.252914
 20
0.780269
 30
0.0
 40
0.008162
  1
Female DIN Connector
 50
270.0
 41
0.889011
  7
SIMPLEX
  0
LINE
  8
1
  6
CONTINUOUS
 62
   250
 10
0.282063
 20
0.835874
 30
0.0
 11
0.282063
 21
0.566816
 31
0.0
  0
LINE
  8
1
  6
CONTINUOUS
 62
   250
 10
0.241704
 20
0.616144
 30
0.0
 11
0.241704
 21
0.786547
 31
0.0
  0
LINE
  8
1
  6
CONTINUOUS
 62
   250
 10
0.322422
 20
0.616144
 30
0.0
 11
0.322422
 21
0.786547
 31
0.0
  0
CIRCLE
  8
1
  6
CONTINUOUS
 62
   250
 10
0.250673
 20
0.582511
 30
0.0
 40
0.00852
  0
LINE
  8
1
  6
CONTINUOUS
 62
   250
 10
0.282063
 20
0.616144
 30
0.0
 11
0.322422
 21
0.616144
 31
0.0
  0
LINE
  8
1
  6
CONTINUOUS
 62
   250
 10
0.29148
 20
0.58296
 30
0.0
 11
0.282063
 21
0.58296
 31
0.0
  0
LINE
  8
1
  6
CONTINUOUS
 62
   250
 10
0.270852
 20
0.914798
 30
0.0
 11
0.270852
 21
0.835874
 31
0.0
  0
CIRCLE
  8
1
  6
CONTINUOUS
 62
   250
 10
0.250673
 20
0.820179
 30
0.0
 40
0.00852
  0
LINE
  8
1
  6
CONTINUOUS
 62
   250
 10
0.322422
 20
0.786547
 30
0.0
 11
0.282063
 21
0.786547
 31
0.0
  0
LINE
  8
1
  6
CONTINUOUS
 62
   250
 10
0.29148
 20
0.816144
 30
0.0
 11
0.287891
 21
0.816144
 31
0.0
  0
LINE
  8
1
  6
CONTINUOUS
 62
   250
 10
0.29148
 20
0.816144
 30
0.0
 11
0.282063
 21
0.816144
 31
0.0
  0
LINE
  8
1
  6
CONTINUOUS
 62
   250
 10
0.27713
 20
0.919282
 30
0.0
 11
0.27713
 21
0.835874
 31
0.0
  0
LINE
  8
1
  6
CONTINUOUS
 62
   250
 10
0.27713
 20
0.919282
 30
0.0
 11
0.251122
 21
0.919282
 31
0.0
  0
ARC
  8
1
  6
CONTINUOUS
 62
   250
 10
0.273543
 20
0.982063
 30
0.0
 40
0.017938
 50
0.002094
 51
90.000763
  0
ENDSEC
  0
EOF
