  0
SECTION
  2
HEADER
  9
$EXTMIN
 10
0.490160
 20
1.394360
  9
$EXTMAX
 10
7.985560
 20
3.702160
  9
$LTSCALE
 40
0.044000
  9
$PDMODE
 70
    35
  9
$PDSIZE
 40
0.035200
  0
ENDSEC
  0
SECTION
  2
TABLES
  0
TABLE
  2
LTYPE
 70
     9
  0
LTYPE
  2
CONTINUOUS
 70
    64
  3
Solid line
 72
    65
 73
     0
 40
0.000000
  0
LTYPE
  2
DASHED
 70
    64
  3
__ __ __ __ __ __ __ __ __ __ __ __ __ __ __
 72
    65
 73
     2
 40
0.000330
 49
0.000220
 49
-0.000110
  0
LTYPE
  2
HIDDEN
 70
    64
  3
 _ _ _ _ _ _ _ _ _ _ _ _ _ _ _ _ _ _ _ _ _ _
 72
    65
 73
     2
 40
0.000165
 49
0.000110
 49
-0.000055
  0
LTYPE
  2
CENTER
 70
    64
  3
____ _ ____ _ ____ _ ____ _ ____ _ ____ _ ____
 72
    65
 73
     4
 40
0.000880
 49
0.000550
 49
-0.000110
 49
0.000110
 49
-0.000110
  0
LTYPE
  2
PHANTOM
 70
    64
  3
_____ _ _ _____ _ _ _____ _ _ _____ _ _ ____
 72
    65
 73
     6
 40
0.001100
 49
0.000550
 49
-0.000110
 49
0.000110
 49
-0.000110
 49
0.000110
 49
-0.000110
  0
LTYPE
  2
DOT
 70
    64
  3
...............................................
 72
    65
 73
     2
 40
0.000110
 49
0.000000
 49
-0.000110
  0
LTYPE
  2
DASHDOT
 70
    64
  3
__ . __ . __ . __ . __ . __ . __ . __ . __ . __
 72
    65
 73
     4
 40
0.000440
 49
0.000220
 49
-0.000110
 49
0.000000
 49
-0.000110
  0
LTYPE
  2
BORDER
 70
    64
  3
__ __ . __ __ . __ __ . __ __ . __ __ . __ __
 72
    65
 73
     6
 40
0.000770
 49
0.000220
 49
-0.000110
 49
0.000220
 49
-0.000110
 49
0.000000
 49
-0.000110
  0
LTYPE
  2
DIVIDE
 70
    64
  3
__ . . __ . . __ . . __ . . __ . . __ . . __
 72
    65
 73
     6
 40
0.000550
 49
0.000220
 49
-0.000110
 49
0.000000
 49
-0.000110
 49
0.000000
 49
-0.000110
  0
LTYPE
  2
DOTDOT
 70
    64
  3
 . .  . .  . .  . .  . .  . . 
 72
    65
 73
     5
 40
0.000242
 49
-0.000110
 49
0.000000
 49
-0.000110
 49
0.000000
 49
-0.000110
  0
ENDTAB
  0
TABLE
  2
STYLE
 70
     2
  0
STYLE
 70
     0
  2
SN0
 40
0.000000
 41
0.000440
 50
0.000000
 71
     0
 42
0.000000
  3
ROMANS
  0
STYLE
 70
    68
  2
SV0
 40
0.000000
 41
0.000440
 50
0.000000
 71
     0
 42
0.000000
  3
ROMANS
  0
ENDTAB
  0
TABLE
  2
LAYER
 70
     3
  0
LAYER
  2
FOREGROUND
 70
    64
 62
     7
  6
CONTINUOUS
  0
LAYER
  2
BACKGROUND
 70
    65
 62
    -7
  6
CONTINUOUS
  0
LAYER
  2
0
 70
    64
 62
     7
  6
CONTINUOUS
  0
ENDTAB
  0
ENDSEC
  0
SECTION
  2
ENTITIES
  0
LINE
  8
0
 62
     0
  6
CONTINUOUS
 10
1.513160
 20
2.895640
 11
1.513160
 21
3.090120
  0
LINE
  8
0
 62
     0
  6
CONTINUOUS
 10
1.513160
 20
3.187360
 11
1.513160
 21
3.381840
  0
LINE
  8
0
 62
     0
  6
CONTINUOUS
 10
1.513160
 20
3.481280
 11
1.513160
 21
3.701720
  0
LINE
  8
0
 62
     0
  6
CONTINUOUS
 10
5.373720
 20
3.401200
 11
5.393080
 21
3.468520
  0
LINE
  8
0
 62
     0
  6
CONTINUOUS
 10
5.393080
 20
3.468520
 11
5.436640
 21
3.468520
  0
LINE
  8
0
 62
     0
  6
CONTINUOUS
 10
5.466560
 20
3.468520
 11
5.423440
 21
3.401200
  0
LINE
  8
0
 62
     0
  6
CONTINUOUS
 10
5.438400
 20
3.423200
 11
5.470960
 21
3.423200
  0
LINE
  8
0
 62
     0
  6
CONTINUOUS
 10
5.475360
 20
3.401200
 11
5.466560
 21
3.468520
  0
LINE
  8
0
 62
     0
  6
CONTINUOUS
 10
5.507920
 20
3.468520
 11
5.492520
 21
3.401200
  0
LINE
  8
0
 62
     0
  6
CONTINUOUS
 10
5.535640
 20
3.401200
 11
5.507920
 21
3.468520
  0
LINE
  8
0
 62
     0
  6
CONTINUOUS
 10
5.555440
 20
3.468520
 11
5.535640
 21
3.401200
  0
LINE
  8
0
 62
     0
  6
CONTINUOUS
 10
5.410680
 20
3.435960
 11
5.384720
 21
3.435960
  0
LINE
  8
0
 62
     0
  6
CONTINUOUS
 10
1.532520
 20
2.975280
 11
1.517560
 21
2.960320
  0
LINE
  8
0
 62
     0
  6
CONTINUOUS
 10
1.517560
 20
2.960320
 11
1.536920
 21
2.969120
  0
LINE
  8
0
 62
     0
  6
CONTINUOUS
 10
1.536920
 20
2.969120
 11
1.517560
 21
2.960320
  0
LINE
  8
0
 62
     0
  6
CONTINUOUS
 10
1.517560
 20
2.960320
 11
1.539120
 21
2.960320
  0
LINE
  8
0
 62
     0
  6
CONTINUOUS
 10
1.539120
 20
2.960320
 11
1.536920
 21
2.969120
  0
LINE
  8
0
 62
     0
  6
CONTINUOUS
 10
1.536920
 20
2.969120
 11
1.532520
 21
2.975280
  0
LINE
  8
0
 62
     0
  6
CONTINUOUS
 10
1.532520
 20
2.975280
 11
1.524160
 21
2.979680
  0
LINE
  8
0
 62
     0
  6
CONTINUOUS
 10
1.524160
 20
2.979680
 11
1.517560
 21
2.960320
  0
LINE
  8
0
 62
     0
  6
CONTINUOUS
 10
1.517560
 20
2.960320
 11
1.532520
 21
2.975280
  0
LINE
  8
0
 62
     0
  6
CONTINUOUS
 10
1.524160
 20
2.979680
 11
1.517560
 21
2.981880
  0
LINE
  8
0
 62
     0
  6
CONTINUOUS
 10
1.517560
 20
2.981880
 11
1.517560
 21
2.960320
  0
LINE
  8
0
 62
     0
  6
CONTINUOUS
 10
1.517560
 20
2.960320
 11
1.524160
 21
2.979680
  0
LINE
  8
0
 62
     0
  6
CONTINUOUS
 10
1.524160
 20
2.979680
 11
1.524160
 21
2.969120
  0
LINE
  8
0
 62
     0
  6
CONTINUOUS
 10
1.517560
 20
2.960320
 11
1.517560
 21
2.981880
  0
LINE
  8
0
 62
     0
  6
CONTINUOUS
 10
1.517560
 20
2.981880
 11
1.517560
 21
2.960320
  0
LINE
  8
0
 62
     0
  6
CONTINUOUS
 10
1.517560
 20
2.960320
 11
1.517560
 21
2.981880
  0
LINE
  8
0
 62
     0
  6
CONTINUOUS
 10
1.517560
 20
2.981880
 11
1.506560
 21
2.979680
  0
LINE
  8
0
 62
     0
  6
CONTINUOUS
 10
1.506560
 20
2.979680
 11
1.517560
 21
2.960320
  0
LINE
  8
0
 62
     0
  6
CONTINUOUS
 10
1.517560
 20
2.960320
 11
1.506560
 21
2.979680
  0
LINE
  8
0
 62
     0
  6
CONTINUOUS
 10
1.506560
 20
2.979680
 11
1.500400
 21
2.975280
  0
LINE
  8
0
 62
     0
  6
CONTINUOUS
 10
1.500400
 20
2.975280
 11
1.517560
 21
2.960320
  0
LINE
  8
0
 62
     0
  6
CONTINUOUS
 10
1.517560
 20
2.960320
 11
1.500400
 21
2.975280
  0
LINE
  8
0
 62
     0
  6
CONTINUOUS
 10
1.500400
 20
2.975280
 11
1.493800
 21
2.969120
  0
LINE
  8
0
 62
     0
  6
CONTINUOUS
 10
1.493800
 20
2.969120
 11
1.517560
 21
2.960320
  0
LINE
  8
0
 62
     0
  6
CONTINUOUS
 10
1.517560
 20
2.960320
 11
1.493800
 21
2.969120
  0
LINE
  8
0
 62
     0
  6
CONTINUOUS
 10
1.493800
 20
2.969120
 11
1.493800
 21
2.960320
  0
LINE
  8
0
 62
     0
  6
CONTINUOUS
 10
1.493800
 20
2.960320
 11
1.517560
 21
2.960320
  0
LINE
  8
0
 62
     0
  6
CONTINUOUS
 10
1.517560
 20
2.960320
 11
1.493800
 21
2.960320
  0
LINE
  8
0
 62
     0
  6
CONTINUOUS
 10
1.493800
 20
2.960320
 11
1.517560
 21
2.960320
  0
LINE
  8
0
 62
     0
  6
CONTINUOUS
 10
1.517560
 20
2.960320
 11
1.493800
 21
2.949760
  0
LINE
  8
0
 62
     0
  6
CONTINUOUS
 10
1.493800
 20
2.949760
 11
1.517560
 21
2.960320
  0
LINE
  8
0
 62
     0
  6
CONTINUOUS
 10
1.517560
 20
2.960320
 11
1.500400
 21
2.943160
  0
LINE
  8
0
 62
     0
  6
CONTINUOUS
 10
1.500400
 20
2.943160
 11
1.517560
 21
2.960320
  0
LINE
  8
0
 62
     0
  6
CONTINUOUS
 10
1.517560
 20
2.960320
 11
1.517560
 21
2.936560
  0
LINE
  8
0
 62
     0
  6
CONTINUOUS
 10
1.517560
 20
2.936560
 11
1.517560
 21
2.960320
  0
LINE
  8
0
 62
     0
  6
CONTINUOUS
 10
1.517560
 20
2.960320
 11
1.506560
 21
2.938760
  0
LINE
  8
0
 62
     0
  6
CONTINUOUS
 10
1.506560
 20
2.938760
 11
1.517560
 21
2.960320
  0
LINE
  8
0
 62
     0
  6
CONTINUOUS
 10
1.517560
 20
2.960320
 11
1.517560
 21
2.936560
  0
LINE
  8
0
 62
     0
  6
CONTINUOUS
 10
1.517560
 20
2.936560
 11
1.517560
 21
2.960320
  0
LINE
  8
0
 62
     0
  6
CONTINUOUS
 10
1.517560
 20
2.960320
 11
1.524160
 21
2.938760
  0
LINE
  8
0
 62
     0
  6
CONTINUOUS
 10
1.524160
 20
2.938760
 11
1.517560
 21
2.960320
  0
LINE
  8
0
 62
     0
  6
CONTINUOUS
 10
1.517560
 20
2.960320
 11
1.532520
 21
2.943160
  0
LINE
  8
0
 62
     0
  6
CONTINUOUS
 10
1.532520
 20
2.943160
 11
1.517560
 21
2.960320
  0
LINE
  8
0
 62
     0
  6
CONTINUOUS
 10
1.517560
 20
2.960320
 11
1.536920
 21
2.949760
  0
LINE
  8
0
 62
     0
  6
CONTINUOUS
 10
1.536920
 20
2.949760
 11
1.517560
 21
2.960320
  0
LINE
  8
0
 62
     0
  6
CONTINUOUS
 10
1.517560
 20
2.960320
 11
1.539120
 21
2.960320
  0
LINE
  8
0
 62
     0
  6
CONTINUOUS
 10
1.539120
 20
2.960320
 11
1.517560
 21
2.960320
  0
LINE
  8
0
 62
     0
  6
CONTINUOUS
 10
1.524160
 20
2.949760
 11
1.524160
 21
2.938760
  0
LINE
  8
0
 62
     0
  6
CONTINUOUS
 10
1.524160
 20
2.938760
 11
1.532520
 21
2.943160
  0
LINE
  8
0
 62
     0
  6
CONTINUOUS
 10
1.532520
 20
2.943160
 11
1.536920
 21
2.949760
  0
LINE
  8
0
 62
     0
  6
CONTINUOUS
 10
1.536920
 20
2.949760
 11
1.539120
 21
2.960320
  0
LINE
  8
0
 62
     0
  6
CONTINUOUS
 10
1.524160
 20
2.938760
 11
1.517560
 21
2.936560
  0
LINE
  8
0
 62
     0
  6
CONTINUOUS
 10
1.517560
 20
2.936560
 11
1.506560
 21
2.938760
  0
LINE
  8
0
 62
     0
  6
CONTINUOUS
 10
1.506560
 20
2.938760
 11
1.500400
 21
2.943160
  0
LINE
  8
0
 62
     0
  6
CONTINUOUS
 10
1.500400
 20
2.943160
 11
1.493800
 21
2.949760
  0
LINE
  8
0
 62
     0
  6
CONTINUOUS
 10
1.493800
 20
2.949760
 11
1.493800
 21
2.960320
  0
LINE
  8
0
 62
     0
  6
CONTINUOUS
 10
1.496000
 20
3.105080
 11
1.506560
 21
3.105080
  0
LINE
  8
0
 62
     0
  6
CONTINUOUS
 10
1.506560
 20
3.116080
 11
1.517560
 21
3.094520
  0
LINE
  8
0
 62
     0
  6
CONTINUOUS
 10
1.517560
 20
3.094520
 11
1.517560
 21
3.118280
  0
LINE
  8
0
 62
     0
  6
CONTINUOUS
 10
1.517560
 20
3.118280
 11
1.517560
 21
3.094520
  0
LINE
  8
0
 62
     0
  6
CONTINUOUS
 10
1.517560
 20
3.094520
 11
1.524160
 21
3.116080
  0
LINE
  8
0
 62
     0
  6
CONTINUOUS
 10
1.524160
 20
3.116080
 11
1.524160
 21
3.102880
  0
LINE
  8
0
 62
     0
  6
CONTINUOUS
 10
1.524160
 20
3.102880
 11
1.524160
 21
3.105080
  0
LINE
  8
0
 62
     0
  6
CONTINUOUS
 10
1.524160
 20
3.105080
 11
1.536920
 21
3.105080
  0
LINE
  8
0
 62
     0
  6
CONTINUOUS
 10
1.536920
 20
3.105080
 11
1.536920
 21
3.102880
  0
LINE
  8
0
 62
     0
  6
CONTINUOUS
 10
1.536920
 20
3.102880
 11
1.532520
 21
3.111680
  0
LINE
  8
0
 62
     0
  6
CONTINUOUS
 10
1.532520
 20
3.111680
 11
1.517560
 21
3.094520
  0
LINE
  8
0
 62
     0
  6
CONTINUOUS
 10
1.517560
 20
3.094520
 11
1.536920
 21
3.102880
  0
LINE
  8
0
 62
     0
  6
CONTINUOUS
 10
1.536920
 20
3.102880
 11
1.517560
 21
3.094520
  0
LINE
  8
0
 62
     0
  6
CONTINUOUS
 10
1.517560
 20
3.094520
 11
1.539120
 21
3.094520
  0
LINE
  8
0
 62
     0
  6
CONTINUOUS
 10
1.539120
 20
3.094520
 11
1.536920
 21
3.102880
  0
LINE
  8
0
 62
     0
  6
CONTINUOUS
 10
1.539120
 20
3.096720
 11
1.521960
 21
3.096720
  0
LINE
  8
0
 62
     0
  6
CONTINUOUS
 10
1.521960
 20
3.096720
 11
1.517560
 21
3.094520
  0
LINE
  8
0
 62
     0
  6
CONTINUOUS
 10
1.517560
 20
3.094520
 11
1.532520
 21
3.111680
  0
LINE
  8
0
 62
     0
  6
CONTINUOUS
 10
1.532520
 20
3.111680
 11
1.524160
 21
3.116080
  0
LINE
  8
0
 62
     0
  6
CONTINUOUS
 10
1.524160
 20
3.116080
 11
1.517560
 21
3.094520
  0
LINE
  8
0
 62
     0
  6
CONTINUOUS
 10
1.517560
 20
3.094520
 11
1.517560
 21
3.118280
  0
LINE
  8
0
 62
     0
  6
CONTINUOUS
 10
1.517560
 20
3.118280
 11
1.517560
 21
3.094520
  0
LINE
  8
0
 62
     0
  6
CONTINUOUS
 10
1.517560
 20
3.094520
 11
1.506560
 21
3.116080
  0
LINE
  8
0
 62
     0
  6
CONTINUOUS
 10
1.506560
 20
3.116080
 11
1.500400
 21
3.111680
  0
LINE
  8
0
 62
     0
  6
CONTINUOUS
 10
1.500400
 20
3.111680
 11
1.517560
 21
3.094520
  0
LINE
  8
0
 62
     0
  6
CONTINUOUS
 10
1.517560
 20
3.094520
 11
1.500400
 21
3.111680
  0
LINE
  8
0
 62
     0
  6
CONTINUOUS
 10
1.500400
 20
3.111680
 11
1.493800
 21
3.102880
  0
LINE
  8
0
 62
     0
  6
CONTINUOUS
 10
1.493800
 20
3.102880
 11
1.517560
 21
3.094520
  0
LINE
  8
0
 62
     0
  6
CONTINUOUS
 10
1.517560
 20
3.094520
 11
1.493800
 21
3.102880
  0
LINE
  8
0
 62
     0
  6
CONTINUOUS
 10
1.493800
 20
3.102880
 11
1.493800
 21
3.094520
  0
LINE
  8
0
 62
     0
  6
CONTINUOUS
 10
1.493800
 20
3.094520
 11
1.517560
 21
3.094520
  0
LINE
  8
0
 62
     0
  6
CONTINUOUS
 10
1.517560
 20
3.094520
 11
1.493800
 21
3.094520
  0
LINE
  8
0
 62
     0
  6
CONTINUOUS
 10
1.493800
 20
3.094520
 11
1.493800
 21
3.085720
  0
LINE
  8
0
 62
     0
  6
CONTINUOUS
 10
1.493800
 20
3.085720
 11
1.517560
 21
3.094520
  0
LINE
  8
0
 62
     0
  6
CONTINUOUS
 10
1.517560
 20
3.094520
 11
1.493800
 21
3.094520
  0
LINE
  8
0
 62
     0
  6
CONTINUOUS
 10
1.493800
 20
3.094520
 11
1.493800
 21
3.096720
  0
LINE
  8
0
 62
     0
  6
CONTINUOUS
 10
1.493800
 20
3.096720
 11
1.513160
 21
3.096720
  0
LINE
  8
0
 62
     0
  6
CONTINUOUS
 10
1.513160
 20
3.096720
 11
1.517560
 21
3.094520
  0
LINE
  8
0
 62
     0
  6
CONTINUOUS
 10
1.517560
 20
3.094520
 11
1.493800
 21
3.085720
  0
LINE
  8
0
 62
     0
  6
CONTINUOUS
 10
1.493800
 20
3.085720
 11
1.500400
 21
3.079120
  0
LINE
  8
0
 62
     0
  6
CONTINUOUS
 10
1.500400
 20
3.079120
 11
1.517560
 21
3.094520
  0
LINE
  8
0
 62
     0
  6
CONTINUOUS
 10
1.517560
 20
3.094520
 11
1.500400
 21
3.079120
  0
LINE
  8
0
 62
     0
  6
CONTINUOUS
 10
1.500400
 20
3.079120
 11
1.506560
 21
3.072960
  0
LINE
  8
0
 62
     0
  6
CONTINUOUS
 10
1.506560
 20
3.072960
 11
1.517560
 21
3.094520
  0
LINE
  8
0
 62
     0
  6
CONTINUOUS
 10
1.517560
 20
3.094520
 11
1.517560
 21
3.072960
  0
LINE
  8
0
 62
     0
  6
CONTINUOUS
 10
1.517560
 20
3.072960
 11
1.517560
 21
3.094520
  0
LINE
  8
0
 62
     0
  6
CONTINUOUS
 10
1.517560
 20
3.094520
 11
1.506560
 21
3.072960
  0
LINE
  8
0
 62
     0
  6
CONTINUOUS
 10
1.506560
 20
3.072960
 11
1.517560
 21
3.072960
  0
LINE
  8
0
 62
     0
  6
CONTINUOUS
 10
1.517560
 20
3.072960
 11
1.517560
 21
3.094520
  0
LINE
  8
0
 62
     0
  6
CONTINUOUS
 10
1.517560
 20
3.094520
 11
1.517560
 21
3.072960
  0
LINE
  8
0
 62
     0
  6
CONTINUOUS
 10
1.517560
 20
3.072960
 11
1.524160
 21
3.072960
  0
LINE
  8
0
 62
     0
  6
CONTINUOUS
 10
1.524160
 20
3.072960
 11
1.517560
 21
3.094520
  0
LINE
  8
0
 62
     0
  6
CONTINUOUS
 10
1.517560
 20
3.094520
 11
1.524160
 21
3.072960
  0
LINE
  8
0
 62
     0
  6
CONTINUOUS
 10
1.524160
 20
3.072960
 11
1.532520
 21
3.079120
  0
LINE
  8
0
 62
     0
  6
CONTINUOUS
 10
1.532520
 20
3.079120
 11
1.517560
 21
3.094520
  0
LINE
  8
0
 62
     0
  6
CONTINUOUS
 10
1.517560
 20
3.094520
 11
1.532520
 21
3.079120
  0
LINE
  8
0
 62
     0
  6
CONTINUOUS
 10
1.532520
 20
3.079120
 11
1.536920
 21
3.085720
  0
LINE
  8
0
 62
     0
  6
CONTINUOUS
 10
1.536920
 20
3.085720
 11
1.517560
 21
3.094520
  0
LINE
  8
0
 62
     0
  6
CONTINUOUS
 10
1.517560
 20
3.094520
 11
1.536920
 21
3.085720
  0
LINE
  8
0
 62
     0
  6
CONTINUOUS
 10
1.536920
 20
3.085720
 11
1.539120
 21
3.094520
  0
LINE
  8
0
 62
     0
  6
CONTINUOUS
 10
1.539120
 20
3.094520
 11
1.517560
 21
3.094520
  0
LINE
  8
0
 62
     0
  6
CONTINUOUS
 10
1.517560
 20
3.094520
 11
1.539120
 21
3.094520
  0
LINE
  8
0
 62
     0
  6
CONTINUOUS
 10
1.524160
 20
3.085720
 11
1.524160
 21
3.072960
  0
LINE
  8
0
 62
     0
  6
CONTINUOUS
 10
1.524160
 20
3.116080
 11
1.517560
 21
3.118280
  0
LINE
  8
0
 62
     0
  6
CONTINUOUS
 10
1.517560
 20
3.118280
 11
1.506560
 21
3.116080
  0
LINE
  8
0
 62
     0
  6
CONTINUOUS
 10
1.517560
 20
3.249840
 11
1.539120
 21
3.249840
  0
LINE
  8
0
 62
     0
  6
CONTINUOUS
 10
1.539120
 20
3.249840
 11
1.536920
 21
3.258640
  0
LINE
  8
0
 62
     0
  6
CONTINUOUS
 10
1.536920
 20
3.258640
 11
1.517560
 21
3.249840
  0
LINE
  8
0
 62
     0
  6
CONTINUOUS
 10
1.517560
 20
3.249840
 11
1.536920
 21
3.258640
  0
LINE
  8
0
 62
     0
  6
CONTINUOUS
 10
1.536920
 20
3.258640
 11
1.532520
 21
3.269640
  0
LINE
  8
0
 62
     0
  6
CONTINUOUS
 10
1.532520
 20
3.269640
 11
1.517560
 21
3.249840
  0
LINE
  8
0
 62
     0
  6
CONTINUOUS
 10
1.517560
 20
3.249840
 11
1.532520
 21
3.269640
  0
LINE
  8
0
 62
     0
  6
CONTINUOUS
 10
1.532520
 20
3.269640
 11
1.524160
 21
3.273600
  0
LINE
  8
0
 62
     0
  6
CONTINUOUS
 10
1.524160
 20
3.273600
 11
1.517560
 21
3.249840
  0
LINE
  8
0
 62
     0
  6
CONTINUOUS
 10
1.517560
 20
3.249840
 11
1.517560
 21
3.273600
  0
LINE
  8
0
 62
     0
  6
CONTINUOUS
 10
1.517560
 20
3.273600
 11
1.517560
 21
3.249840
  0
LINE
  8
0
 62
     0
  6
CONTINUOUS
 10
1.517560
 20
3.249840
 11
1.524160
 21
3.273600
  0
LINE
  8
0
 62
     0
  6
CONTINUOUS
 10
1.524160
 20
3.273600
 11
1.524160
 21
3.258640
  0
LINE
  8
0
 62
     0
  6
CONTINUOUS
 10
1.524160
 20
3.273600
 11
1.517560
 21
3.273600
  0
LINE
  8
0
 62
     0
  6
CONTINUOUS
 10
1.517560
 20
3.273600
 11
1.517560
 21
3.249840
  0
LINE
  8
0
 62
     0
  6
CONTINUOUS
 10
1.517560
 20
3.249840
 11
1.517560
 21
3.273600
  0
LINE
  8
0
 62
     0
  6
CONTINUOUS
 10
1.517560
 20
3.273600
 11
1.506560
 21
3.273600
  0
LINE
  8
0
 62
     0
  6
CONTINUOUS
 10
1.506560
 20
3.273600
 11
1.517560
 21
3.249840
  0
LINE
  8
0
 62
     0
  6
CONTINUOUS
 10
1.517560
 20
3.249840
 11
1.506560
 21
3.273600
  0
LINE
  8
0
 62
     0
  6
CONTINUOUS
 10
1.506560
 20
3.273600
 11
1.500400
 21
3.269640
  0
LINE
  8
0
 62
     0
  6
CONTINUOUS
 10
1.500400
 20
3.269640
 11
1.517560
 21
3.249840
  0
LINE
  8
0
 62
     0
  6
CONTINUOUS
 10
1.517560
 20
3.249840
 11
1.500400
 21
3.269640
  0
LINE
  8
0
 62
     0
  6
CONTINUOUS
 10
1.500400
 20
3.269640
 11
1.493800
 21
3.258640
  0
LINE
  8
0
 62
     0
  6
CONTINUOUS
 10
1.493800
 20
3.258640
 11
1.517560
 21
3.249840
  0
LINE
  8
0
 62
     0
  6
CONTINUOUS
 10
1.517560
 20
3.249840
 11
1.493800
 21
3.258640
  0
LINE
  8
0
 62
     0
  6
CONTINUOUS
 10
1.493800
 20
3.258640
 11
1.493800
 21
3.249840
  0
LINE
  8
0
 62
     0
  6
CONTINUOUS
 10
1.493800
 20
3.249840
 11
1.517560
 21
3.249840
  0
LINE
  8
0
 62
     0
  6
CONTINUOUS
 10
1.517560
 20
3.249840
 11
1.493800
 21
3.249840
  0
LINE
  8
0
 62
     0
  6
CONTINUOUS
 10
1.493800
 20
3.249840
 11
1.493800
 21
3.241480
  0
LINE
  8
0
 62
     0
  6
CONTINUOUS
 10
1.493800
 20
3.241480
 11
1.517560
 21
3.249840
  0
LINE
  8
0
 62
     0
  6
CONTINUOUS
 10
1.517560
 20
3.249840
 11
1.493800
 21
3.241480
  0
LINE
  8
0
 62
     0
  6
CONTINUOUS
 10
1.493800
 20
3.241480
 11
1.500400
 21
3.234880
  0
LINE
  8
0
 62
     0
  6
CONTINUOUS
 10
1.500400
 20
3.234880
 11
1.517560
 21
3.249840
  0
LINE
  8
0
 62
     0
  6
CONTINUOUS
 10
1.517560
 20
3.249840
 11
1.500400
 21
3.234880
  0
LINE
  8
0
 62
     0
  6
CONTINUOUS
 10
1.500400
 20
3.234880
 11
1.506560
 21
3.228280
  0
LINE
  8
0
 62
     0
  6
CONTINUOUS
 10
1.506560
 20
3.228280
 11
1.517560
 21
3.249840
  0
LINE
  8
0
 62
     0
  6
CONTINUOUS
 10
1.517560
 20
3.249840
 11
1.517560
 21
3.228280
  0
LINE
  8
0
 62
     0
  6
CONTINUOUS
 10
1.517560
 20
3.228280
 11
1.517560
 21
3.249840
  0
LINE
  8
0
 62
     0
  6
CONTINUOUS
 10
1.517560
 20
3.249840
 11
1.506560
 21
3.228280
  0
LINE
  8
0
 62
     0
  6
CONTINUOUS
 10
1.506560
 20
3.228280
 11
1.517560
 21
3.228280
  0
LINE
  8
0
 62
     0
  6
CONTINUOUS
 10
1.517560
 20
3.228280
 11
1.517560
 21
3.249840
  0
LINE
  8
0
 62
     0
  6
CONTINUOUS
 10
1.517560
 20
3.249840
 11
1.517560
 21
3.228280
  0
LINE
  8
0
 62
     0
  6
CONTINUOUS
 10
1.517560
 20
3.228280
 11
1.524160
 21
3.228280
  0
LINE
  8
0
 62
     0
  6
CONTINUOUS
 10
1.524160
 20
3.228280
 11
1.517560
 21
3.249840
  0
LINE
  8
0
 62
     0
  6
CONTINUOUS
 10
1.517560
 20
3.249840
 11
1.524160
 21
3.228280
  0
LINE
  8
0
 62
     0
  6
CONTINUOUS
 10
1.524160
 20
3.228280
 11
1.532520
 21
3.234880
  0
LINE
  8
0
 62
     0
  6
CONTINUOUS
 10
1.532520
 20
3.234880
 11
1.517560
 21
3.249840
  0
LINE
  8
0
 62
     0
  6
CONTINUOUS
 10
1.517560
 20
3.249840
 11
1.532520
 21
3.234880
  0
LINE
  8
0
 62
     0
  6
CONTINUOUS
 10
1.532520
 20
3.234880
 11
1.536920
 21
3.241480
  0
LINE
  8
0
 62
     0
  6
CONTINUOUS
 10
1.536920
 20
3.241480
 11
1.517560
 21
3.249840
  0
LINE
  8
0
 62
     0
  6
CONTINUOUS
 10
1.517560
 20
3.249840
 11
1.536920
 21
3.241480
  0
LINE
  8
0
 62
     0
  6
CONTINUOUS
 10
1.536920
 20
3.241480
 11
1.539120
 21
3.249840
  0
LINE
  8
0
 62
     0
  6
CONTINUOUS
 10
1.539120
 20
3.249840
 11
1.517560
 21
3.249840
  0
LINE
  8
0
 62
     0
  6
CONTINUOUS
 10
1.508760
 20
3.247640
 11
1.493800
 21
3.247640
  0
LINE
  8
0
 62
     0
  6
CONTINUOUS
 10
1.524160
 20
3.241480
 11
1.524160
 21
3.228280
  0
LINE
  8
0
 62
     0
  6
CONTINUOUS
 10
1.657920
 20
3.187360
 11
1.353440
 21
3.332120
  0
LINE
  8
0
 62
     0
  6
CONTINUOUS
 10
1.353440
 20
3.483480
 11
1.657920
 21
3.336520
  0
LINE
  8
0
 62
     0
  6
CONTINUOUS
 10
1.539120
 20
3.401200
 11
1.536920
 21
3.410000
  0
LINE
  8
0
 62
     0
  6
CONTINUOUS
 10
1.536920
 20
3.410000
 11
1.517560
 21
3.401200
  0
LINE
  8
0
 62
     0
  6
CONTINUOUS
 10
1.517560
 20
3.401200
 11
1.539120
 21
3.401200
  0
LINE
  8
0
 62
     0
  6
CONTINUOUS
 10
1.536920
 20
3.410000
 11
1.532520
 21
3.416600
  0
LINE
  8
0
 62
     0
  6
CONTINUOUS
 10
1.532520
 20
3.416600
 11
1.517560
 21
3.401200
  0
LINE
  8
0
 62
     0
  6
CONTINUOUS
 10
1.517560
 20
3.401200
 11
1.536920
 21
3.410000
  0
LINE
  8
0
 62
     0
  6
CONTINUOUS
 10
1.532520
 20
3.416600
 11
1.524160
 21
3.423200
  0
LINE
  8
0
 62
     0
  6
CONTINUOUS
 10
1.524160
 20
3.423200
 11
1.517560
 21
3.401200
  0
LINE
  8
0
 62
     0
  6
CONTINUOUS
 10
1.517560
 20
3.401200
 11
1.532520
 21
3.416600
  0
LINE
  8
0
 62
     0
  6
CONTINUOUS
 10
1.524160
 20
3.423200
 11
1.517560
 21
3.423200
  0
LINE
  8
0
 62
     0
  6
CONTINUOUS
 10
1.517560
 20
3.423200
 11
1.517560
 21
3.401200
  0
LINE
  8
0
 62
     0
  6
CONTINUOUS
 10
1.517560
 20
3.401200
 11
1.524160
 21
3.423200
  0
LINE
  8
0
 62
     0
  6
CONTINUOUS
 10
1.524160
 20
3.423200
 11
1.524160
 21
3.410000
  0
LINE
  8
0
 62
     0
  6
CONTINUOUS
 10
1.517560
 20
3.401200
 11
1.517560
 21
3.423200
  0
LINE
  8
0
 62
     0
  6
CONTINUOUS
 10
1.517560
 20
3.423200
 11
1.517560
 21
3.401200
  0
LINE
  8
0
 62
     0
  6
CONTINUOUS
 10
1.517560
 20
3.401200
 11
1.517560
 21
3.423200
  0
LINE
  8
0
 62
     0
  6
CONTINUOUS
 10
1.517560
 20
3.423200
 11
1.506560
 21
3.423200
  0
LINE
  8
0
 62
     0
  6
CONTINUOUS
 10
1.506560
 20
3.423200
 11
1.517560
 21
3.401200
  0
LINE
  8
0
 62
     0
  6
CONTINUOUS
 10
1.517560
 20
3.401200
 11
1.506560
 21
3.423200
  0
LINE
  8
0
 62
     0
  6
CONTINUOUS
 10
1.506560
 20
3.423200
 11
1.500400
 21
3.416600
  0
LINE
  8
0
 62
     0
  6
CONTINUOUS
 10
1.500400
 20
3.416600
 11
1.517560
 21
3.401200
  0
LINE
  8
0
 62
     0
  6
CONTINUOUS
 10
1.517560
 20
3.401200
 11
1.500400
 21
3.416600
  0
LINE
  8
0
 62
     0
  6
CONTINUOUS
 10
1.500400
 20
3.416600
 11
1.493800
 21
3.410000
  0
LINE
  8
0
 62
     0
  6
CONTINUOUS
 10
1.493800
 20
3.410000
 11
1.517560
 21
3.401200
  0
LINE
  8
0
 62
     0
  6
CONTINUOUS
 10
1.517560
 20
3.401200
 11
1.493800
 21
3.410000
  0
LINE
  8
0
 62
     0
  6
CONTINUOUS
 10
1.493800
 20
3.410000
 11
1.493800
 21
3.401200
  0
LINE
  8
0
 62
     0
  6
CONTINUOUS
 10
1.493800
 20
3.401200
 11
1.517560
 21
3.401200
  0
LINE
  8
0
 62
     0
  6
CONTINUOUS
 10
1.517560
 20
3.401200
 11
1.493800
 21
3.401200
  0
LINE
  8
0
 62
     0
  6
CONTINUOUS
 10
1.493800
 20
3.401200
 11
1.493800
 21
3.392840
  0
LINE
  8
0
 62
     0
  6
CONTINUOUS
 10
1.493800
 20
3.392840
 11
1.517560
 21
3.401200
  0
LINE
  8
0
 62
     0
  6
CONTINUOUS
 10
1.517560
 20
3.401200
 11
1.493800
 21
3.392840
  0
LINE
  8
0
 62
     0
  6
CONTINUOUS
 10
1.493800
 20
3.392840
 11
1.500400
 21
3.384040
  0
LINE
  8
0
 62
     0
  6
CONTINUOUS
 10
1.500400
 20
3.384040
 11
1.517560
 21
3.401200
  0
LINE
  8
0
 62
     0
  6
CONTINUOUS
 10
1.517560
 20
3.401200
 11
1.500400
 21
3.384040
  0
LINE
  8
0
 62
     0
  6
CONTINUOUS
 10
1.500400
 20
3.384040
 11
1.506560
 21
3.379640
  0
LINE
  8
0
 62
     0
  6
CONTINUOUS
 10
1.506560
 20
3.379640
 11
1.517560
 21
3.401200
  0
LINE
  8
0
 62
     0
  6
CONTINUOUS
 10
1.517560
 20
3.401200
 11
1.517560
 21
3.377440
  0
LINE
  8
0
 62
     0
  6
CONTINUOUS
 10
1.517560
 20
3.377440
 11
1.517560
 21
3.401200
  0
LINE
  8
0
 62
     0
  6
CONTINUOUS
 10
1.517560
 20
3.401200
 11
1.506560
 21
3.379640
  0
LINE
  8
0
 62
     0
  6
CONTINUOUS
 10
1.506560
 20
3.379640
 11
1.517560
 21
3.377440
  0
LINE
  8
0
 62
     0
  6
CONTINUOUS
 10
1.517560
 20
3.377440
 11
1.517560
 21
3.401200
  0
LINE
  8
0
 62
     0
  6
CONTINUOUS
 10
1.517560
 20
3.401200
 11
1.517560
 21
3.377440
  0
LINE
  8
0
 62
     0
  6
CONTINUOUS
 10
1.517560
 20
3.377440
 11
1.524160
 21
3.379640
  0
LINE
  8
0
 62
     0
  6
CONTINUOUS
 10
1.524160
 20
3.379640
 11
1.517560
 21
3.401200
  0
LINE
  8
0
 62
     0
  6
CONTINUOUS
 10
1.517560
 20
3.401200
 11
1.524160
 21
3.379640
  0
LINE
  8
0
 62
     0
  6
CONTINUOUS
 10
1.524160
 20
3.379640
 11
1.532520
 21
3.384040
  0
LINE
  8
0
 62
     0
  6
CONTINUOUS
 10
1.532520
 20
3.384040
 11
1.517560
 21
3.401200
  0
LINE
  8
0
 62
     0
  6
CONTINUOUS
 10
1.517560
 20
3.401200
 11
1.532520
 21
3.384040
  0
LINE
  8
0
 62
     0
  6
CONTINUOUS
 10
1.532520
 20
3.384040
 11
1.536920
 21
3.392840
  0
LINE
  8
0
 62
     0
  6
CONTINUOUS
 10
1.536920
 20
3.392840
 11
1.517560
 21
3.401200
  0
LINE
  8
0
 62
     0
  6
CONTINUOUS
 10
1.517560
 20
3.401200
 11
1.536920
 21
3.392840
  0
LINE
  8
0
 62
     0
  6
CONTINUOUS
 10
1.536920
 20
3.392840
 11
1.539120
 21
3.401200
  0
LINE
  8
0
 62
     0
  6
CONTINUOUS
 10
1.539120
 20
3.401200
 11
1.517560
 21
3.401200
  0
LINE
  8
0
 62
     0
  6
CONTINUOUS
 10
1.517560
 20
3.401200
 11
1.513160
 21
3.399000
  0
LINE
  8
0
 62
     0
  6
CONTINUOUS
 10
1.513160
 20
3.399000
 11
1.493800
 21
3.399000
  0
LINE
  8
0
 62
     0
  6
CONTINUOUS
 10
1.496000
 20
3.392840
 11
1.506560
 21
3.392840
  0
LINE
  8
0
 62
     0
  6
CONTINUOUS
 10
1.524160
 20
3.392840
 11
1.524160
 21
3.379640
  0
LINE
  8
0
 62
     0
  6
CONTINUOUS
 10
1.524160
 20
3.392840
 11
1.536920
 21
3.392840
  0
LINE
  8
0
 62
     0
  6
CONTINUOUS
 10
1.539120
 20
3.399000
 11
1.521960
 21
3.399000
  0
LINE
  8
0
 62
     0
  6
CONTINUOUS
 10
1.517560
 20
3.528800
 11
1.539120
 21
3.528800
  0
LINE
  8
0
 62
     0
  6
CONTINUOUS
 10
1.539120
 20
3.528800
 11
1.536920
 21
3.537600
  0
LINE
  8
0
 62
     0
  6
CONTINUOUS
 10
1.536920
 20
3.537600
 11
1.517560
 21
3.528800
  0
LINE
  8
0
 62
     0
  6
CONTINUOUS
 10
1.517560
 20
3.528800
 11
1.536920
 21
3.537600
  0
LINE
  8
0
 62
     0
  6
CONTINUOUS
 10
1.536920
 20
3.537600
 11
1.532520
 21
3.546400
  0
LINE
  8
0
 62
     0
  6
CONTINUOUS
 10
1.532520
 20
3.546400
 11
1.517560
 21
3.528800
  0
LINE
  8
0
 62
     0
  6
CONTINUOUS
 10
1.517560
 20
3.528800
 11
1.532520
 21
3.546400
  0
LINE
  8
0
 62
     0
  6
CONTINUOUS
 10
1.532520
 20
3.546400
 11
1.524160
 21
3.550360
  0
LINE
  8
0
 62
     0
  6
CONTINUOUS
 10
1.524160
 20
3.550360
 11
1.517560
 21
3.528800
  0
LINE
  8
0
 62
     0
  6
CONTINUOUS
 10
1.517560
 20
3.528800
 11
1.517560
 21
3.552560
  0
LINE
  8
0
 62
     0
  6
CONTINUOUS
 10
1.517560
 20
3.552560
 11
1.517560
 21
3.528800
  0
LINE
  8
0
 62
     0
  6
CONTINUOUS
 10
1.517560
 20
3.528800
 11
1.524160
 21
3.550360
  0
LINE
  8
0
 62
     0
  6
CONTINUOUS
 10
1.524160
 20
3.550360
 11
1.524160
 21
3.537600
  0
LINE
  8
0
 62
     0
  6
CONTINUOUS
 10
1.524160
 20
3.550360
 11
1.517560
 21
3.552560
  0
LINE
  8
0
 62
     0
  6
CONTINUOUS
 10
1.517560
 20
3.552560
 11
1.517560
 21
3.528800
  0
LINE
  8
0
 62
     0
  6
CONTINUOUS
 10
1.517560
 20
3.528800
 11
1.517560
 21
3.552560
  0
LINE
  8
0
 62
     0
  6
CONTINUOUS
 10
1.517560
 20
3.552560
 11
1.506560
 21
3.550360
  0
LINE
  8
0
 62
     0
  6
CONTINUOUS
 10
1.506560
 20
3.550360
 11
1.517560
 21
3.528800
  0
LINE
  8
0
 62
     0
  6
CONTINUOUS
 10
1.517560
 20
3.528800
 11
1.506560
 21
3.550360
  0
LINE
  8
0
 62
     0
  6
CONTINUOUS
 10
1.506560
 20
3.550360
 11
1.500400
 21
3.546400
  0
LINE
  8
0
 62
     0
  6
CONTINUOUS
 10
1.500400
 20
3.546400
 11
1.517560
 21
3.528800
  0
LINE
  8
0
 62
     0
  6
CONTINUOUS
 10
1.517560
 20
3.528800
 11
1.500400
 21
3.546400
  0
LINE
  8
0
 62
     0
  6
CONTINUOUS
 10
1.500400
 20
3.546400
 11
1.493800
 21
3.537600
  0
LINE
  8
0
 62
     0
  6
CONTINUOUS
 10
1.493800
 20
3.537600
 11
1.517560
 21
3.528800
  0
LINE
  8
0
 62
     0
  6
CONTINUOUS
 10
1.517560
 20
3.528800
 11
1.493800
 21
3.537600
  0
LINE
  8
0
 62
     0
  6
CONTINUOUS
 10
1.493800
 20
3.537600
 11
1.493800
 21
3.528800
  0
LINE
  8
0
 62
     0
  6
CONTINUOUS
 10
1.493800
 20
3.528800
 11
1.517560
 21
3.528800
  0
LINE
  8
0
 62
     0
  6
CONTINUOUS
 10
1.517560
 20
3.528800
 11
1.493800
 21
3.528800
  0
LINE
  8
0
 62
     0
  6
CONTINUOUS
 10
1.493800
 20
3.528800
 11
1.493800
 21
3.520440
  0
LINE
  8
0
 62
     0
  6
CONTINUOUS
 10
1.493800
 20
3.520440
 11
1.517560
 21
3.528800
  0
LINE
  8
0
 62
     0
  6
CONTINUOUS
 10
1.517560
 20
3.528800
 11
1.493800
 21
3.520440
  0
LINE
  8
0
 62
     0
  6
CONTINUOUS
 10
1.493800
 20
3.520440
 11
1.500400
 21
3.513840
  0
LINE
  8
0
 62
     0
  6
CONTINUOUS
 10
1.500400
 20
3.513840
 11
1.517560
 21
3.528800
  0
LINE
  8
0
 62
     0
  6
CONTINUOUS
 10
1.517560
 20
3.528800
 11
1.500400
 21
3.513840
  0
LINE
  8
0
 62
     0
  6
CONTINUOUS
 10
1.500400
 20
3.513840
 11
1.506560
 21
3.507240
  0
LINE
  8
0
 62
     0
  6
CONTINUOUS
 10
1.506560
 20
3.507240
 11
1.517560
 21
3.528800
  0
LINE
  8
0
 62
     0
  6
CONTINUOUS
 10
1.517560
 20
3.528800
 11
1.517560
 21
3.507240
  0
LINE
  8
0
 62
     0
  6
CONTINUOUS
 10
1.517560
 20
3.507240
 11
1.517560
 21
3.528800
  0
LINE
  8
0
 62
     0
  6
CONTINUOUS
 10
1.517560
 20
3.528800
 11
1.506560
 21
3.507240
  0
LINE
  8
0
 62
     0
  6
CONTINUOUS
 10
1.506560
 20
3.507240
 11
1.517560
 21
3.507240
  0
LINE
  8
0
 62
     0
  6
CONTINUOUS
 10
1.517560
 20
3.507240
 11
1.517560
 21
3.528800
  0
LINE
  8
0
 62
     0
  6
CONTINUOUS
 10
1.517560
 20
3.528800
 11
1.517560
 21
3.507240
  0
LINE
  8
0
 62
     0
  6
CONTINUOUS
 10
1.517560
 20
3.507240
 11
1.524160
 21
3.507240
  0
LINE
  8
0
 62
     0
  6
CONTINUOUS
 10
1.524160
 20
3.507240
 11
1.517560
 21
3.528800
  0
LINE
  8
0
 62
     0
  6
CONTINUOUS
 10
1.517560
 20
3.528800
 11
1.524160
 21
3.507240
  0
LINE
  8
0
 62
     0
  6
CONTINUOUS
 10
1.524160
 20
3.507240
 11
1.532520
 21
3.513840
  0
LINE
  8
0
 62
     0
  6
CONTINUOUS
 10
1.532520
 20
3.513840
 11
1.517560
 21
3.528800
  0
LINE
  8
0
 62
     0
  6
CONTINUOUS
 10
1.517560
 20
3.528800
 11
1.532520
 21
3.513840
  0
LINE
  8
0
 62
     0
  6
CONTINUOUS
 10
1.532520
 20
3.513840
 11
1.536920
 21
3.520440
  0
LINE
  8
0
 62
     0
  6
CONTINUOUS
 10
1.536920
 20
3.520440
 11
1.517560
 21
3.528800
  0
LINE
  8
0
 62
     0
  6
CONTINUOUS
 10
1.517560
 20
3.528800
 11
1.536920
 21
3.520440
  0
LINE
  8
0
 62
     0
  6
CONTINUOUS
 10
1.536920
 20
3.520440
 11
1.539120
 21
3.528800
  0
LINE
  8
0
 62
     0
  6
CONTINUOUS
 10
1.539120
 20
3.528800
 11
1.517560
 21
3.528800
  0
LINE
  8
0
 62
     0
  6
CONTINUOUS
 10
1.524160
 20
3.520440
 11
1.524160
 21
3.507240
  0
LINE
  8
0
 62
     0
  6
CONTINUOUS
 10
1.657920
 20
3.466320
 11
1.353440
 21
3.611080
  0
LINE
  8
0
 62
     0
  6
CONTINUOUS
 10
1.353440
 20
3.176360
 11
1.657920
 21
3.031600
  0
LINE
  8
0
 62
     0
  6
CONTINUOUS
 10
1.657920
 20
2.895640
 11
1.353440
 21
3.040400
  0
LINE
  8
0
 62
     0
  6
CONTINUOUS
 10
6.041200
 20
3.074720
 11
6.039000
 21
3.076920
  0
LINE
  8
0
 62
     0
  6
CONTINUOUS
 10
6.039000
 20
3.076920
 11
6.039000
 21
3.079120
  0
LINE
  8
0
 62
     0
  6
CONTINUOUS
 10
6.039000
 20
3.079120
 11
6.036800
 21
3.079120
  0
LINE
  8
0
 62
     0
  6
CONTINUOUS
 10
6.036800
 20
3.079120
 11
6.036800
 21
3.081320
  0
LINE
  8
0
 62
     0
  6
CONTINUOUS
 10
6.036800
 20
3.081320
 11
6.036800
 21
3.083520
  0
LINE
  8
0
 62
     0
  6
CONTINUOUS
 10
6.036800
 20
3.083520
 11
6.039000
 21
3.085720
  0
LINE
  8
0
 62
     0
  6
CONTINUOUS
 10
6.039000
 20
3.085720
 11
6.039000
 21
3.087920
  0
LINE
  8
0
 62
     0
  6
CONTINUOUS
 10
6.039000
 20
3.087920
 11
6.041200
 21
3.092320
  0
LINE
  8
0
 62
     0
  6
CONTINUOUS
 10
6.041200
 20
3.092320
 11
6.043400
 21
3.092320
  0
LINE
  8
0
 62
     0
  6
CONTINUOUS
 10
6.043400
 20
3.092320
 11
6.045600
 21
3.094520
  0
LINE
  8
0
 62
     0
  6
CONTINUOUS
 10
6.045600
 20
3.094520
 11
6.052200
 21
3.094520
  0
LINE
  8
0
 62
     0
  6
CONTINUOUS
 10
6.052200
 20
3.094520
 11
6.060560
 21
3.098480
  0
LINE
  8
0
 62
     0
  6
CONTINUOUS
 10
6.060560
 20
3.098480
 11
6.073760
 21
3.102880
  0
LINE
  8
0
 62
     0
  6
CONTINUOUS
 10
6.073760
 20
3.102880
 11
6.095320
 21
3.107280
  0
LINE
  8
0
 62
     0
  6
CONTINUOUS
 10
6.095320
 20
3.107280
 11
6.119080
 21
3.113880
  0
LINE
  8
0
 62
     0
  6
CONTINUOUS
 10
6.119080
 20
3.113880
 11
6.151640
 21
3.124440
  0
LINE
  8
0
 62
     0
  6
CONTINUOUS
 10
6.151640
 20
3.124440
 11
6.190360
 21
3.133240
  0
LINE
  8
0
 62
     0
  6
CONTINUOUS
 10
6.190360
 20
3.133240
 11
6.229520
 21
3.144240
  0
LINE
  8
0
 62
     0
  6
CONTINUOUS
 10
6.229520
 20
3.144240
 11
6.272640
 21
3.154800
  0
LINE
  8
0
 62
     0
  6
CONTINUOUS
 10
6.272640
 20
3.154800
 11
6.315760
 21
3.165800
  0
LINE
  8
0
 62
     0
  6
CONTINUOUS
 10
6.315760
 20
3.165800
 11
6.357120
 21
3.176360
  0
LINE
  8
0
 62
     0
  6
CONTINUOUS
 10
6.357120
 20
3.176360
 11
6.395840
 21
3.185160
  0
LINE
  8
0
 62
     0
  6
CONTINUOUS
 10
6.395840
 20
3.185160
 11
6.426200
 21
3.193960
  0
LINE
  8
0
 62
     0
  6
CONTINUOUS
 10
6.426200
 20
3.193960
 11
6.454360
 21
3.197920
  0
LINE
  8
0
 62
     0
  6
CONTINUOUS
 10
6.454360
 20
3.197920
 11
6.471520
 21
3.204520
  0
LINE
  8
0
 62
     0
  6
CONTINUOUS
 10
6.471520
 20
3.204520
 11
6.486480
 21
3.206720
  0
LINE
  8
0
 62
     0
  6
CONTINUOUS
 10
6.486480
 20
3.206720
 11
6.497480
 21
3.208920
  0
LINE
  8
0
 62
     0
  6
CONTINUOUS
 10
6.497480
 20
3.208920
 11
6.504080
 21
3.211120
  0
LINE
  8
0
 62
     0
  6
CONTINUOUS
 10
6.504080
 20
3.211120
 11
6.508040
 21
3.213320
  0
LINE
  8
0
 62
     0
  6
CONTINUOUS
 10
6.508040
 20
3.213320
 11
6.510240
 21
3.213320
  0
LINE
  8
0
 62
     0
  6
CONTINUOUS
 10
6.510240
 20
3.213320
 11
6.510240
 21
3.215520
  0
LINE
  8
0
 62
     0
  6
CONTINUOUS
 10
6.510240
 20
3.215520
 11
6.512440
 21
3.215520
  0
LINE
  8
0
 62
     0
  6
CONTINUOUS
 10
6.512440
 20
3.215520
 11
6.512440
 21
3.217720
  0
LINE
  8
0
 62
     0
  6
CONTINUOUS
 10
6.512440
 20
3.217720
 11
6.514640
 21
3.217720
  0
LINE
  8
0
 62
     0
  6
CONTINUOUS
 10
6.514640
 20
3.217720
 11
6.514640
 21
3.219920
  0
LINE
  8
0
 62
     0
  6
CONTINUOUS
 10
6.514640
 20
3.219920
 11
6.514640
 21
3.222120
  0
LINE
  8
0
 62
     0
  6
CONTINUOUS
 10
6.514640
 20
3.222120
 11
6.514640
 21
3.223880
  0
LINE
  8
0
 62
     0
  6
CONTINUOUS
 10
6.514640
 20
3.223880
 11
6.514640
 21
3.228280
  0
LINE
  8
0
 62
     0
  6
CONTINUOUS
 10
6.514640
 20
3.228280
 11
6.514640
 21
3.230480
  0
LINE
  8
0
 62
     0
  6
CONTINUOUS
 10
6.514640
 20
3.230480
 11
6.512440
 21
3.234880
  0
LINE
  8
0
 62
     0
  6
CONTINUOUS
 10
6.512440
 20
3.234880
 11
6.510240
 21
3.237080
  0
LINE
  8
0
 62
     0
  6
CONTINUOUS
 10
6.510240
 20
3.237080
 11
6.508040
 21
3.239280
  0
LINE
  8
0
 62
     0
  6
CONTINUOUS
 10
6.508040
 20
3.239280
 11
6.504080
 21
3.241480
  0
LINE
  8
0
 62
     0
  6
CONTINUOUS
 10
6.504080
 20
3.241480
 11
6.499680
 21
3.245880
  0
LINE
  8
0
 62
     0
  6
CONTINUOUS
 10
6.499680
 20
3.245880
 11
6.488680
 21
3.247640
  0
LINE
  8
0
 62
     0
  6
CONTINUOUS
 10
6.488680
 20
3.247640
 11
6.480320
 21
3.252040
  0
LINE
  8
0
 62
     0
  6
CONTINUOUS
 10
6.480320
 20
3.252040
 11
6.462720
 21
3.258640
  0
LINE
  8
0
 62
     0
  6
CONTINUOUS
 10
6.462720
 20
3.258640
 11
6.443360
 21
3.263040
  0
LINE
  8
0
 62
     0
  6
CONTINUOUS
 10
6.443360
 20
3.263040
 11
6.417400
 21
3.271840
  0
LINE
  8
0
 62
     0
  6
CONTINUOUS
 10
6.417400
 20
3.271840
 11
6.384840
 21
3.282400
  0
LINE
  8
0
 62
     0
  6
CONTINUOUS
 10
6.384840
 20
3.282400
 11
6.348320
 21
3.293400
  0
LINE
  8
0
 62
     0
  6
CONTINUOUS
 10
6.348320
 20
3.293400
 11
6.307400
 21
3.306160
  0
LINE
  8
0
 62
     0
  6
CONTINUOUS
 10
6.307400
 20
3.306160
 11
6.266040
 21
3.319360
  0
LINE
  8
0
 62
     0
  6
CONTINUOUS
 10
6.266040
 20
3.319360
 11
6.225120
 21
3.329920
  0
LINE
  8
0
 62
     0
  6
CONTINUOUS
 10
6.225120
 20
3.329920
 11
6.185960
 21
3.343120
  0
LINE
  8
0
 62
     0
  6
CONTINUOUS
 10
6.185960
 20
3.343120
 11
6.149440
 21
3.353680
  0
LINE
  8
0
 62
     0
  6
CONTINUOUS
 10
6.149440
 20
3.353680
 11
6.116880
 21
3.362480
  0
LINE
  8
0
 62
     0
  6
CONTINUOUS
 10
6.116880
 20
3.362480
 11
6.093120
 21
3.371280
  0
LINE
  8
0
 62
     0
  6
CONTINUOUS
 10
6.093120
 20
3.371280
 11
6.071560
 21
3.375240
  0
LINE
  8
0
 62
     0
  6
CONTINUOUS
 10
6.071560
 20
3.375240
 11
6.056600
 21
3.379640
  0
LINE
  8
0
 62
     0
  6
CONTINUOUS
 10
6.056600
 20
3.379640
 11
6.047800
 21
3.381840
  0
LINE
  8
0
 62
     0
  6
CONTINUOUS
 10
6.047800
 20
3.381840
 11
6.041200
 21
3.384040
  0
LINE
  8
0
 62
     0
  6
CONTINUOUS
 10
6.041200
 20
3.384040
 11
6.036800
 21
3.386240
  0
LINE
  8
0
 62
     0
  6
CONTINUOUS
 10
6.036800
 20
3.386240
 11
6.034600
 21
3.388440
  0
LINE
  8
0
 62
     0
  6
CONTINUOUS
 10
6.034600
 20
3.388440
 11
6.034600
 21
3.390640
  0
LINE
  8
0
 62
     0
  6
CONTINUOUS
 10
6.034600
 20
3.390640
 11
6.034600
 21
3.392840
  0
LINE
  8
0
 62
     0
  6
CONTINUOUS
 10
6.034600
 20
3.392840
 11
6.034600
 21
3.395040
  0
LINE
  8
0
 62
     0
  6
CONTINUOUS
 10
6.034600
 20
3.395040
 11
6.034600
 21
3.397240
  0
LINE
  8
0
 62
     0
  6
CONTINUOUS
 10
6.034600
 20
3.397240
 11
6.034600
 21
3.399000
  0
LINE
  8
0
 62
     0
  6
CONTINUOUS
 10
6.034600
 20
3.399000
 11
6.034600
 21
3.401200
  0
LINE
  8
0
 62
     0
  6
CONTINUOUS
 10
6.034600
 20
3.401200
 11
6.034600
 21
3.403400
  0
LINE
  8
0
 62
     0
  6
CONTINUOUS
 10
6.034600
 20
3.403400
 11
6.034600
 21
3.405600
  0
LINE
  8
0
 62
     0
  6
CONTINUOUS
 10
6.034600
 20
3.405600
 11
6.036800
 21
3.405600
  0
LINE
  8
0
 62
     0
  6
CONTINUOUS
 10
6.036800
 20
3.405600
 11
6.036800
 21
3.407800
  0
LINE
  8
0
 62
     0
  6
CONTINUOUS
 10
6.036800
 20
3.407800
 11
6.039000
 21
3.410000
  0
LINE
  8
0
 62
     0
  6
CONTINUOUS
 10
6.039000
 20
3.410000
 11
6.041200
 21
3.414400
  0
LINE
  8
0
 62
     0
  6
CONTINUOUS
 10
6.041200
 20
3.414400
 11
6.043400
 21
3.414400
  0
LINE
  8
0
 62
     0
  6
CONTINUOUS
 10
6.043400
 20
3.414400
 11
6.045600
 21
3.416600
  0
LINE
  8
0
 62
     0
  6
CONTINUOUS
 10
6.045600
 20
3.416600
 11
6.047800
 21
3.418800
  0
LINE
  8
0
 62
     0
  6
CONTINUOUS
 10
6.047800
 20
3.418800
 11
6.054400
 21
3.421000
  0
LINE
  8
0
 62
     0
  6
CONTINUOUS
 10
6.054400
 20
3.421000
 11
6.064960
 21
3.423200
  0
LINE
  8
0
 62
     0
  6
CONTINUOUS
 10
6.064960
 20
3.423200
 11
6.086520
 21
3.431560
  0
LINE
  8
0
 62
     0
  6
CONTINUOUS
 10
6.086520
 20
3.431560
 11
6.125680
 21
3.444760
  0
LINE
  8
0
 62
     0
  6
CONTINUOUS
 10
6.125680
 20
3.444760
 11
6.185960
 21
3.459720
  0
LINE
  8
0
 62
     0
  6
CONTINUOUS
 10
6.185960
 20
3.459720
 11
6.270440
 21
3.485680
  0
LINE
  8
0
 62
     0
  6
CONTINUOUS
 10
6.270440
 20
3.485680
 11
6.384840
 21
3.518240
  0
LINE
  8
0
 62
     0
  6
CONTINUOUS
 10
6.384840
 20
3.518240
 11
6.512440
 21
3.556960
  0
LINE
  8
0
 62
     0
  6
CONTINUOUS
 10
6.512440
 20
3.556960
 11
6.514640
 21
3.554760
  0
LINE
  8
0
 62
     0
  6
CONTINUOUS
 10
6.514640
 20
3.554760
 11
6.508040
 21
3.559160
  0
LINE
  8
0
 62
     0
  6
CONTINUOUS
 10
6.508040
 20
3.559160
 11
6.499680
 21
3.567960
  0
LINE
  8
0
 62
     0
  6
CONTINUOUS
 10
6.499680
 20
3.567960
 11
6.497480
 21
3.576320
  0
LINE
  8
0
 62
     0
  6
CONTINUOUS
 10
6.497480
 20
3.576320
 11
6.493080
 21
3.587320
  0
LINE
  8
0
 62
     0
  6
CONTINUOUS
 10
6.493080
 20
3.587320
 11
6.493080
 21
3.596120
  0
LINE
  8
0
 62
     0
  6
CONTINUOUS
 10
6.566560
 20
3.639240
 11
6.566560
 21
3.587320
  0
LINE
  8
0
 62
     0
  6
CONTINUOUS
 10
6.566560
 20
3.587320
 11
6.570960
 21
3.587320
  0
LINE
  8
0
 62
     0
  6
CONTINUOUS
 10
6.570960
 20
3.587320
 11
6.566560
 21
3.576320
  0
LINE
  8
0
 62
     0
  6
CONTINUOUS
 10
6.566560
 20
3.576320
 11
6.562160
 21
3.567960
  0
LINE
  8
0
 62
     0
  6
CONTINUOUS
 10
6.562160
 20
3.567960
 11
6.556000
 21
3.559160
  0
LINE
  8
0
 62
     0
  6
CONTINUOUS
 10
6.556000
 20
3.559160
 11
6.547200
 21
3.554760
  0
LINE
  8
0
 62
     0
  6
CONTINUOUS
 10
6.547200
 20
3.554760
 11
6.536200
 21
3.552560
  0
LINE
  8
0
 62
     0
  6
CONTINUOUS
 10
6.536200
 20
3.552560
 11
6.527840
 21
3.550360
  0
LINE
  8
0
 62
     0
  6
CONTINUOUS
 10
6.527840
 20
3.550360
 11
6.514640
 21
3.554760
  0
LINE
  8
0
 62
     0
  6
CONTINUOUS
 10
6.514640
 20
3.574120
 11
6.510240
 21
3.574120
  0
LINE
  8
0
 62
     0
  6
CONTINUOUS
 10
6.510240
 20
3.574120
 11
6.504080
 21
3.574120
  0
LINE
  8
0
 62
     0
  6
CONTINUOUS
 10
6.504080
 20
3.574120
 11
6.499680
 21
3.578520
  0
LINE
  8
0
 62
     0
  6
CONTINUOUS
 10
6.499680
 20
3.578520
 11
6.495280
 21
3.582920
  0
LINE
  8
0
 62
     0
  6
CONTINUOUS
 10
6.495280
 20
3.582920
 11
6.493080
 21
3.589520
  0
LINE
  8
0
 62
     0
  6
CONTINUOUS
 10
6.493080
 20
3.589520
 11
6.495280
 21
3.596120
  0
LINE
  8
0
 62
     0
  6
CONTINUOUS
 10
6.523440
 20
3.596120
 11
6.525640
 21
3.589520
  0
LINE
  8
0
 62
     0
  6
CONTINUOUS
 10
6.525640
 20
3.589520
 11
6.523440
 21
3.582920
  0
LINE
  8
0
 62
     0
  6
CONTINUOUS
 10
6.523440
 20
3.582920
 11
6.521240
 21
3.578520
  0
LINE
  8
0
 62
     0
  6
CONTINUOUS
 10
6.521240
 20
3.578520
 11
6.514640
 21
3.574120
  0
LINE
  8
0
 62
     0
  6
CONTINUOUS
 10
6.570960
 20
3.587320
 11
6.566560
 21
3.596120
  0
LINE
  8
0
 62
     0
  6
CONTINUOUS
 10
6.644440
 20
3.623840
 11
6.644440
 21
3.388440
  0
LINE
  8
0
 62
     0
  6
CONTINUOUS
 10
6.644440
 20
3.388440
 11
6.644440
 21
2.867480
  0
LINE
  8
0
 62
     0
  6
CONTINUOUS
 10
6.644440
 20
2.867480
 11
6.443360
 21
2.867480
  0
LINE
  8
0
 62
     0
  6
CONTINUOUS
 10
6.443360
 20
2.867480
 11
6.237880
 21
2.867480
  0
LINE
  8
0
 62
     0
  6
CONTINUOUS
 10
6.237880
 20
2.867480
 11
6.034600
 21
2.867480
  0
LINE
  8
0
 62
     0
  6
CONTINUOUS
 10
6.034600
 20
2.867480
 11
6.034600
 21
3.388440
  0
LINE
  8
0
 62
     0
  6
CONTINUOUS
 10
6.034600
 20
3.388440
 11
6.034600
 21
3.623840
  0
LINE
  8
0
 62
     0
  6
CONTINUOUS
 10
6.596920
 20
3.623840
 11
6.471520
 21
2.997280
  0
LINE
  8
0
 62
     0
  6
CONTINUOUS
 10
6.471520
 20
2.997280
 11
6.339520
 21
2.997280
  0
LINE
  8
0
 62
     0
  6
CONTINUOUS
 10
6.339520
 20
2.997280
 11
6.339520
 21
2.867480
  0
LINE
  8
0
 62
     0
  6
CONTINUOUS
 10
6.339520
 20
2.932160
 11
6.313560
 21
2.934360
  0
LINE
  8
0
 62
     0
  6
CONTINUOUS
 10
6.313560
 20
2.934360
 11
6.281440
 21
2.943160
  0
LINE
  8
0
 62
     0
  6
CONTINUOUS
 10
6.281440
 20
2.943160
 11
6.251080
 21
2.955920
  0
LINE
  8
0
 62
     0
  6
CONTINUOUS
 10
6.251080
 20
2.955920
 11
6.218520
 21
2.971320
  0
LINE
  8
0
 62
     0
  6
CONTINUOUS
 10
6.218520
 20
2.971320
 11
6.185960
 21
2.988480
  0
LINE
  8
0
 62
     0
  6
CONTINUOUS
 10
6.185960
 20
2.988480
 11
6.156040
 21
3.005640
  0
LINE
  8
0
 62
     0
  6
CONTINUOUS
 10
6.156040
 20
3.005640
 11
6.125680
 21
3.021040
  0
LINE
  8
0
 62
     0
  6
CONTINUOUS
 10
6.125680
 20
3.021040
 11
6.099720
 21
3.036000
  0
LINE
  8
0
 62
     0
  6
CONTINUOUS
 10
6.099720
 20
3.036000
 11
6.082560
 21
3.049200
  0
LINE
  8
0
 62
     0
  6
CONTINUOUS
 10
6.082560
 20
3.049200
 11
6.067160
 21
3.057560
  0
LINE
  8
0
 62
     0
  6
CONTINUOUS
 10
6.067160
 20
3.057560
 11
6.056600
 21
3.064160
  0
LINE
  8
0
 62
     0
  6
CONTINUOUS
 10
6.056600
 20
3.064160
 11
6.047800
 21
3.070760
  0
LINE
  8
0
 62
     0
  6
CONTINUOUS
 10
6.047800
 20
3.070760
 11
6.043400
 21
3.072960
  0
LINE
  8
0
 62
     0
  6
CONTINUOUS
 10
6.043400
 20
3.072960
 11
6.041200
 21
3.074720
  0
LINE
  8
0
 62
     0
  6
CONTINUOUS
 10
6.532240
 20
2.934360
 11
6.527840
 21
2.929960
  0
LINE
  8
0
 62
     0
  6
CONTINUOUS
 10
6.527840
 20
2.929960
 11
6.525640
 21
2.921600
  0
LINE
  8
0
 62
     0
  6
CONTINUOUS
 10
6.525640
 20
2.921600
 11
6.527840
 21
2.917200
  0
LINE
  8
0
 62
     0
  6
CONTINUOUS
 10
6.527840
 20
2.917200
 11
6.532240
 21
2.910600
  0
LINE
  8
0
 62
     0
  6
CONTINUOUS
 10
6.532240
 20
2.910600
 11
6.540600
 21
2.908400
  0
LINE
  8
0
 62
     0
  6
CONTINUOUS
 10
6.540600
 20
2.908400
 11
6.547200
 21
2.910600
  0
LINE
  8
0
 62
     0
  6
CONTINUOUS
 10
6.547200
 20
2.910600
 11
6.551600
 21
2.917200
  0
LINE
  8
0
 62
     0
  6
CONTINUOUS
 10
6.551600
 20
2.917200
 11
6.553800
 21
2.921600
  0
LINE
  8
0
 62
     0
  6
CONTINUOUS
 10
6.553800
 20
2.921600
 11
6.551600
 21
2.929960
  0
LINE
  8
0
 62
     0
  6
CONTINUOUS
 10
6.551600
 20
2.929960
 11
6.547200
 21
2.934360
  0
LINE
  8
0
 62
     0
  6
CONTINUOUS
 10
6.547200
 20
2.934360
 11
6.540600
 21
2.936560
  0
LINE
  8
0
 62
     0
  6
CONTINUOUS
 10
6.540600
 20
2.936560
 11
6.532240
 21
2.934360
  0
LINE
  8
0
 62
     0
  6
CONTINUOUS
 10
6.679200
 20
3.074720
 11
6.679200
 21
3.076920
  0
LINE
  8
0
 62
     0
  6
CONTINUOUS
 10
6.679200
 20
3.076920
 11
6.679200
 21
3.079120
  0
LINE
  8
0
 62
     0
  6
CONTINUOUS
 10
6.679200
 20
3.079120
 11
6.677000
 21
3.081320
  0
LINE
  8
0
 62
     0
  6
CONTINUOUS
 10
6.677000
 20
3.081320
 11
6.677000
 21
3.083520
  0
LINE
  8
0
 62
     0
  6
CONTINUOUS
 10
6.677000
 20
3.083520
 11
6.679200
 21
3.083520
  0
LINE
  8
0
 62
     0
  6
CONTINUOUS
 10
6.679200
 20
3.083520
 11
6.679200
 21
3.085720
  0
LINE
  8
0
 62
     0
  6
CONTINUOUS
 10
6.679200
 20
3.085720
 11
6.679200
 21
3.087920
  0
LINE
  8
0
 62
     0
  6
CONTINUOUS
 10
6.679200
 20
3.087920
 11
6.679200
 21
3.092320
  0
LINE
  8
0
 62
     0
  6
CONTINUOUS
 10
6.679200
 20
3.092320
 11
6.681400
 21
3.092320
  0
LINE
  8
0
 62
     0
  6
CONTINUOUS
 10
6.681400
 20
3.092320
 11
6.685360
 21
3.094520
  0
LINE
  8
0
 62
     0
  6
CONTINUOUS
 10
6.685360
 20
3.094520
 11
6.689760
 21
3.094520
  0
LINE
  8
0
 62
     0
  6
CONTINUOUS
 10
6.689760
 20
3.094520
 11
6.700760
 21
3.098480
  0
LINE
  8
0
 62
     0
  6
CONTINUOUS
 10
6.700760
 20
3.098480
 11
6.715720
 21
3.102880
  0
LINE
  8
0
 62
     0
  6
CONTINUOUS
 10
6.715720
 20
3.102880
 11
6.732880
 21
3.107280
  0
LINE
  8
0
 62
     0
  6
CONTINUOUS
 10
6.732880
 20
3.107280
 11
6.758840
 21
3.113880
  0
LINE
  8
0
 62
     0
  6
CONTINUOUS
 10
6.758840
 20
3.113880
 11
6.791400
 21
3.124440
  0
LINE
  8
0
 62
     0
  6
CONTINUOUS
 10
6.791400
 20
3.124440
 11
6.830120
 21
3.133240
  0
LINE
  8
0
 62
     0
  6
CONTINUOUS
 10
6.830120
 20
3.133240
 11
6.871480
 21
3.144240
  0
LINE
  8
0
 62
     0
  6
CONTINUOUS
 10
6.871480
 20
3.144240
 11
6.912400
 21
3.154800
  0
LINE
  8
0
 62
     0
  6
CONTINUOUS
 10
6.912400
 20
3.154800
 11
6.955960
 21
3.165800
  0
LINE
  8
0
 62
     0
  6
CONTINUOUS
 10
6.955960
 20
3.165800
 11
6.996880
 21
3.176360
  0
LINE
  8
0
 62
     0
  6
CONTINUOUS
 10
6.996880
 20
3.176360
 11
7.033400
 21
3.185160
  0
LINE
  8
0
 62
     0
  6
CONTINUOUS
 10
7.033400
 20
3.185160
 11
7.068160
 21
3.193960
  0
LINE
  8
0
 62
     0
  6
CONTINUOUS
 10
7.068160
 20
3.193960
 11
7.094120
 21
3.197920
  0
LINE
  8
0
 62
     0
  6
CONTINUOUS
 10
7.094120
 20
3.197920
 11
7.111280
 21
3.204520
  0
LINE
  8
0
 62
     0
  6
CONTINUOUS
 10
7.111280
 20
3.204520
 11
7.128880
 21
3.206720
  0
LINE
  8
0
 62
     0
  6
CONTINUOUS
 10
7.128880
 20
3.206720
 11
7.137240
 21
3.208920
  0
LINE
  8
0
 62
     0
  6
CONTINUOUS
 10
7.137240
 20
3.208920
 11
7.143840
 21
3.211120
  0
LINE
  8
0
 62
     0
  6
CONTINUOUS
 10
7.143840
 20
3.211120
 11
7.148240
 21
3.213320
  0
LINE
  8
0
 62
     0
  6
CONTINUOUS
 10
7.148240
 20
3.213320
 11
7.150440
 21
3.213320
  0
LINE
  8
0
 62
     0
  6
CONTINUOUS
 10
7.150440
 20
3.213320
 11
7.150440
 21
3.215520
  0
LINE
  8
0
 62
     0
  6
CONTINUOUS
 10
7.150440
 20
3.215520
 11
7.152640
 21
3.217720
  0
LINE
  8
0
 62
     0
  6
CONTINUOUS
 10
7.152640
 20
3.217720
 11
7.152640
 21
3.219920
  0
LINE
  8
0
 62
     0
  6
CONTINUOUS
 10
7.152640
 20
3.219920
 11
7.154840
 21
3.219920
  0
LINE
  8
0
 62
     0
  6
CONTINUOUS
 10
7.154840
 20
3.219920
 11
7.154840
 21
3.222120
  0
LINE
  8
0
 62
     0
  6
CONTINUOUS
 10
7.154840
 20
3.222120
 11
7.154840
 21
3.223880
  0
LINE
  8
0
 62
     0
  6
CONTINUOUS
 10
7.154840
 20
3.223880
 11
7.154840
 21
3.228280
  0
LINE
  8
0
 62
     0
  6
CONTINUOUS
 10
7.154840
 20
3.228280
 11
7.154840
 21
3.230480
  0
LINE
  8
0
 62
     0
  6
CONTINUOUS
 10
7.154840
 20
3.230480
 11
7.152640
 21
3.234880
  0
LINE
  8
0
 62
     0
  6
CONTINUOUS
 10
7.152640
 20
3.234880
 11
7.150440
 21
3.234880
  0
LINE
  8
0
 62
     0
  6
CONTINUOUS
 10
7.150440
 20
3.234880
 11
7.150440
 21
3.237080
  0
LINE
  8
0
 62
     0
  6
CONTINUOUS
 10
7.150440
 20
3.237080
 11
7.148240
 21
3.239280
  0
LINE
  8
0
 62
     0
  6
CONTINUOUS
 10
7.148240
 20
3.239280
 11
7.143840
 21
3.241480
  0
LINE
  8
0
 62
     0
  6
CONTINUOUS
 10
7.143840
 20
3.241480
 11
7.137240
 21
3.245880
  0
LINE
  8
0
 62
     0
  6
CONTINUOUS
 10
7.137240
 20
3.245880
 11
7.130640
 21
3.247640
  0
LINE
  8
0
 62
     0
  6
CONTINUOUS
 10
7.130640
 20
3.247640
 11
7.117880
 21
3.252040
  0
LINE
  8
0
 62
     0
  6
CONTINUOUS
 10
7.117880
 20
3.252040
 11
7.105120
 21
3.258640
  0
LINE
  8
0
 62
     0
  6
CONTINUOUS
 10
7.105120
 20
3.258640
 11
7.083120
 21
3.263040
  0
LINE
  8
0
 62
     0
  6
CONTINUOUS
 10
7.083120
 20
3.263040
 11
7.057160
 21
3.271840
  0
LINE
  8
0
 62
     0
  6
CONTINUOUS
 10
7.057160
 20
3.271840
 11
7.025040
 21
3.282400
  0
LINE
  8
0
 62
     0
  6
CONTINUOUS
 10
7.025040
 20
3.282400
 11
6.988080
 21
3.293400
  0
LINE
  8
0
 62
     0
  6
CONTINUOUS
 10
6.988080
 20
3.293400
 11
6.947160
 21
3.306160
  0
LINE
  8
0
 62
     0
  6
CONTINUOUS
 10
6.947160
 20
3.306160
 11
6.904040
 21
3.319360
  0
LINE
  8
0
 62
     0
  6
CONTINUOUS
 10
6.904040
 20
3.319360
 11
6.864880
 21
3.329920
  0
LINE
  8
0
 62
     0
  6
CONTINUOUS
 10
6.864880
 20
3.329920
 11
6.823960
 21
3.343120
  0
LINE
  8
0
 62
     0
  6
CONTINUOUS
 10
6.823960
 20
3.343120
 11
6.789200
 21
3.353680
  0
LINE
  8
0
 62
     0
  6
CONTINUOUS
 10
6.789200
 20
3.353680
 11
6.756640
 21
3.362480
  0
LINE
  8
0
 62
     0
  6
CONTINUOUS
 10
6.756640
 20
3.362480
 11
6.732880
 21
3.371280
  0
LINE
  8
0
 62
     0
  6
CONTINUOUS
 10
6.732880
 20
3.371280
 11
6.711320
 21
3.375240
  0
LINE
  8
0
 62
     0
  6
CONTINUOUS
 10
6.711320
 20
3.375240
 11
6.696360
 21
3.379640
  0
LINE
  8
0
 62
     0
  6
CONTINUOUS
 10
6.696360
 20
3.379640
 11
6.687560
 21
3.381840
  0
LINE
  8
0
 62
     0
  6
CONTINUOUS
 10
6.687560
 20
3.381840
 11
6.681400
 21
3.384040
  0
LINE
  8
0
 62
     0
  6
CONTINUOUS
 10
6.681400
 20
3.384040
 11
6.677000
 21
3.386240
  0
LINE
  8
0
 62
     0
  6
CONTINUOUS
 10
6.677000
 20
3.386240
 11
6.674800
 21
3.388440
  0
LINE
  8
0
 62
     0
  6
CONTINUOUS
 10
6.674800
 20
3.388440
 11
6.674800
 21
3.390640
  0
LINE
  8
0
 62
     0
  6
CONTINUOUS
 10
6.674800
 20
3.390640
 11
6.674800
 21
3.392840
  0
LINE
  8
0
 62
     0
  6
CONTINUOUS
 10
6.674800
 20
3.392840
 11
6.674800
 21
3.395040
  0
LINE
  8
0
 62
     0
  6
CONTINUOUS
 10
6.674800
 20
3.395040
 11
6.674800
 21
3.397240
  0
LINE
  8
0
 62
     0
  6
CONTINUOUS
 10
6.674800
 20
3.397240
 11
6.674800
 21
3.399000
  0
LINE
  8
0
 62
     0
  6
CONTINUOUS
 10
6.674800
 20
3.399000
 11
6.674800
 21
3.401200
  0
LINE
  8
0
 62
     0
  6
CONTINUOUS
 10
6.674800
 20
3.401200
 11
6.674800
 21
3.403400
  0
LINE
  8
0
 62
     0
  6
CONTINUOUS
 10
6.674800
 20
3.403400
 11
6.674800
 21
3.405600
  0
LINE
  8
0
 62
     0
  6
CONTINUOUS
 10
6.674800
 20
3.405600
 11
6.677000
 21
3.407800
  0
LINE
  8
0
 62
     0
  6
CONTINUOUS
 10
6.677000
 20
3.407800
 11
6.679200
 21
3.410000
  0
LINE
  8
0
 62
     0
  6
CONTINUOUS
 10
6.679200
 20
3.410000
 11
6.679200
 21
3.414400
  0
LINE
  8
0
 62
     0
  6
CONTINUOUS
 10
6.679200
 20
3.414400
 11
6.683160
 21
3.414400
  0
LINE
  8
0
 62
     0
  6
CONTINUOUS
 10
6.683160
 20
3.414400
 11
6.685360
 21
3.416600
  0
LINE
  8
0
 62
     0
  6
CONTINUOUS
 10
6.685360
 20
3.416600
 11
6.687560
 21
3.418800
  0
LINE
  8
0
 62
     0
  6
CONTINUOUS
 10
6.687560
 20
3.418800
 11
6.694160
 21
3.421000
  0
LINE
  8
0
 62
     0
  6
CONTINUOUS
 10
6.694160
 20
3.421000
 11
6.705160
 21
3.423200
  0
LINE
  8
0
 62
     0
  6
CONTINUOUS
 10
6.705160
 20
3.423200
 11
6.726720
 21
3.431560
  0
LINE
  8
0
 62
     0
  6
CONTINUOUS
 10
6.726720
 20
3.431560
 11
6.765440
 21
3.444760
  0
LINE
  8
0
 62
     0
  6
CONTINUOUS
 10
6.765440
 20
3.444760
 11
6.823960
 21
3.459720
  0
LINE
  8
0
 62
     0
  6
CONTINUOUS
 10
6.823960
 20
3.459720
 11
6.910200
 21
3.485680
  0
LINE
  8
0
 62
     0
  6
CONTINUOUS
 10
6.910200
 20
3.485680
 11
7.025040
 21
3.518240
  0
LINE
  8
0
 62
     0
  6
CONTINUOUS
 10
7.025040
 20
3.518240
 11
7.152640
 21
3.556960
  0
LINE
  8
0
 62
     0
  6
CONTINUOUS
 10
7.152640
 20
3.556960
 11
7.156600
 21
3.554760
  0
LINE
  8
0
 62
     0
  6
CONTINUOUS
 10
7.156600
 20
3.554760
 11
7.148240
 21
3.559160
  0
LINE
  8
0
 62
     0
  6
CONTINUOUS
 10
7.148240
 20
3.559160
 11
7.137240
 21
3.567960
  0
LINE
  8
0
 62
     0
  6
CONTINUOUS
 10
7.137240
 20
3.567960
 11
7.137240
 21
3.576320
  0
LINE
  8
0
 62
     0
  6
CONTINUOUS
 10
7.137240
 20
3.576320
 11
7.132840
 21
3.587320
  0
LINE
  8
0
 62
     0
  6
CONTINUOUS
 10
7.132840
 20
3.587320
 11
7.132840
 21
3.596120
  0
LINE
  8
0
 62
     0
  6
CONTINUOUS
 10
7.208520
 20
3.639240
 11
7.208520
 21
3.587320
  0
LINE
  8
0
 62
     0
  6
CONTINUOUS
 10
7.208520
 20
3.587320
 11
7.206320
 21
3.576320
  0
LINE
  8
0
 62
     0
  6
CONTINUOUS
 10
7.206320
 20
3.576320
 11
7.202360
 21
3.567960
  0
LINE
  8
0
 62
     0
  6
CONTINUOUS
 10
7.202360
 20
3.567960
 11
7.193560
 21
3.559160
  0
LINE
  8
0
 62
     0
  6
CONTINUOUS
 10
7.193560
 20
3.559160
 11
7.186960
 21
3.554760
  0
LINE
  8
0
 62
     0
  6
CONTINUOUS
 10
7.186960
 20
3.554760
 11
7.176400
 21
3.552560
  0
LINE
  8
0
 62
     0
  6
CONTINUOUS
 10
7.176400
 20
3.552560
 11
7.163200
 21
3.550360
  0
LINE
  8
0
 62
     0
  6
CONTINUOUS
 10
7.163200
 20
3.550360
 11
7.156600
 21
3.554760
  0
LINE
  8
0
 62
     0
  6
CONTINUOUS
 10
7.154840
 20
3.574120
 11
7.150440
 21
3.574120
  0
LINE
  8
0
 62
     0
  6
CONTINUOUS
 10
7.150440
 20
3.574120
 11
7.143840
 21
3.574120
  0
LINE
  8
0
 62
     0
  6
CONTINUOUS
 10
7.143840
 20
3.574120
 11
7.137240
 21
3.578520
  0
LINE
  8
0
 62
     0
  6
CONTINUOUS
 10
7.137240
 20
3.578520
 11
7.135040
 21
3.582920
  0
LINE
  8
0
 62
     0
  6
CONTINUOUS
 10
7.135040
 20
3.582920
 11
7.132840
 21
3.589520
  0
LINE
  8
0
 62
     0
  6
CONTINUOUS
 10
7.132840
 20
3.589520
 11
7.135040
 21
3.596120
  0
LINE
  8
0
 62
     0
  6
CONTINUOUS
 10
7.163200
 20
3.596120
 11
7.163200
 21
3.589520
  0
LINE
  8
0
 62
     0
  6
CONTINUOUS
 10
7.163200
 20
3.589520
 11
7.163200
 21
3.582920
  0
LINE
  8
0
 62
     0
  6
CONTINUOUS
 10
7.163200
 20
3.582920
 11
7.161000
 21
3.578520
  0
LINE
  8
0
 62
     0
  6
CONTINUOUS
 10
7.161000
 20
3.578520
 11
7.154840
 21
3.574120
  0
LINE
  8
0
 62
     0
  6
CONTINUOUS
 10
7.208520
 20
3.587320
 11
7.208520
 21
3.596120
  0
LINE
  8
0
 62
     0
  6
CONTINUOUS
 10
7.284200
 20
3.623840
 11
7.284200
 21
3.388440
  0
LINE
  8
0
 62
     0
  6
CONTINUOUS
 10
7.284200
 20
3.388440
 11
7.284200
 21
2.867480
  0
LINE
  8
0
 62
     0
  6
CONTINUOUS
 10
7.284200
 20
2.867480
 11
7.080920
 21
2.867480
  0
LINE
  8
0
 62
     0
  6
CONTINUOUS
 10
7.080920
 20
2.867480
 11
6.878080
 21
2.867480
  0
LINE
  8
0
 62
     0
  6
CONTINUOUS
 10
6.878080
 20
2.867480
 11
6.674800
 21
2.867480
  0
LINE
  8
0
 62
     0
  6
CONTINUOUS
 10
6.674800
 20
2.867480
 11
6.674800
 21
3.388440
  0
LINE
  8
0
 62
     0
  6
CONTINUOUS
 10
6.674800
 20
3.388440
 11
6.674800
 21
3.623840
  0
LINE
  8
0
 62
     0
  6
CONTINUOUS
 10
7.236680
 20
3.623840
 11
7.111280
 21
2.997280
  0
LINE
  8
0
 62
     0
  6
CONTINUOUS
 10
7.111280
 20
2.997280
 11
6.979720
 21
2.997280
  0
LINE
  8
0
 62
     0
  6
CONTINUOUS
 10
6.979720
 20
2.997280
 11
6.979720
 21
2.867480
  0
LINE
  8
0
 62
     0
  6
CONTINUOUS
 10
6.979720
 20
2.932160
 11
6.953760
 21
2.934360
  0
LINE
  8
0
 62
     0
  6
CONTINUOUS
 10
6.953760
 20
2.934360
 11
6.923400
 21
2.943160
  0
LINE
  8
0
 62
     0
  6
CONTINUOUS
 10
6.923400
 20
2.943160
 11
6.890840
 21
2.955920
  0
LINE
  8
0
 62
     0
  6
CONTINUOUS
 10
6.890840
 20
2.955920
 11
6.858280
 21
2.971320
  0
LINE
  8
0
 62
     0
  6
CONTINUOUS
 10
6.858280
 20
2.971320
 11
6.826160
 21
2.988480
  0
LINE
  8
0
 62
     0
  6
CONTINUOUS
 10
6.826160
 20
2.988480
 11
6.795800
 21
3.005640
  0
LINE
  8
0
 62
     0
  6
CONTINUOUS
 10
6.795800
 20
3.005640
 11
6.767640
 21
3.021040
  0
LINE
  8
0
 62
     0
  6
CONTINUOUS
 10
6.767640
 20
3.021040
 11
6.741680
 21
3.036000
  0
LINE
  8
0
 62
     0
  6
CONTINUOUS
 10
6.741680
 20
3.036000
 11
6.722320
 21
3.049200
  0
LINE
  8
0
 62
     0
  6
CONTINUOUS
 10
6.722320
 20
3.049200
 11
6.706920
 21
3.057560
  0
LINE
  8
0
 62
     0
  6
CONTINUOUS
 10
6.706920
 20
3.057560
 11
6.696360
 21
3.064160
  0
LINE
  8
0
 62
     0
  6
CONTINUOUS
 10
6.696360
 20
3.064160
 11
6.687560
 21
3.070760
  0
LINE
  8
0
 62
     0
  6
CONTINUOUS
 10
6.687560
 20
3.070760
 11
6.683160
 21
3.072960
  0
LINE
  8
0
 62
     0
  6
CONTINUOUS
 10
6.683160
 20
3.072960
 11
6.679200
 21
3.074720
  0
LINE
  8
0
 62
     0
  6
CONTINUOUS
 10
7.163200
 20
2.929960
 11
7.163200
 21
2.921600
  0
LINE
  8
0
 62
     0
  6
CONTINUOUS
 10
7.163200
 20
2.921600
 11
7.163200
 21
2.917200
  0
LINE
  8
0
 62
     0
  6
CONTINUOUS
 10
7.163200
 20
2.917200
 11
7.172000
 21
2.910600
  0
LINE
  8
0
 62
     0
  6
CONTINUOUS
 10
7.172000
 20
2.910600
 11
7.180360
 21
2.908400
  0
LINE
  8
0
 62
     0
  6
CONTINUOUS
 10
7.180360
 20
2.908400
 11
7.186960
 21
2.910600
  0
LINE
  8
0
 62
     0
  6
CONTINUOUS
 10
7.186960
 20
2.910600
 11
7.189160
 21
2.917200
  0
LINE
  8
0
 62
     0
  6
CONTINUOUS
 10
7.189160
 20
2.917200
 11
7.193560
 21
2.921600
  0
LINE
  8
0
 62
     0
  6
CONTINUOUS
 10
7.193560
 20
2.921600
 11
7.189160
 21
2.929960
  0
LINE
  8
0
 62
     0
  6
CONTINUOUS
 10
7.189160
 20
2.929960
 11
7.186960
 21
2.934360
  0
LINE
  8
0
 62
     0
  6
CONTINUOUS
 10
7.186960
 20
2.934360
 11
7.180360
 21
2.936560
  0
LINE
  8
0
 62
     0
  6
CONTINUOUS
 10
7.180360
 20
2.936560
 11
7.172000
 21
2.934360
  0
LINE
  8
0
 62
     0
  6
CONTINUOUS
 10
7.172000
 20
2.934360
 11
7.163200
 21
2.929960
  0
LINE
  8
0
 62
     0
  6
CONTINUOUS
 10
6.722320
 20
2.856480
 11
6.722320
 21
1.591920
  0
LINE
  8
0
 62
     0
  6
CONTINUOUS
 10
6.592520
 20
1.591920
 11
6.592520
 21
2.856480
  0
LINE
  8
0
 62
     0
  6
CONTINUOUS
 10
3.776080
 20
1.591920
 11
3.776080
 21
2.856480
  0
LINE
  8
0
 62
     0
  6
CONTINUOUS
 10
5.114120
 20
2.184160
 11
5.752120
 21
2.184160
  0
LINE
  8
0
 62
     0
  6
CONTINUOUS
 10
5.752120
 20
2.184160
 11
5.752120
 21
2.709520
  0
LINE
  8
0
 62
     0
  6
CONTINUOUS
 10
5.752120
 20
2.709520
 11
5.114120
 21
2.709520
  0
LINE
  8
0
 62
     0
  6
CONTINUOUS
 10
5.114120
 20
2.709520
 11
5.114120
 21
2.184160
  0
LINE
  8
0
 62
     0
  6
CONTINUOUS
 10
5.217960
 20
2.205720
 11
5.231160
 21
2.221120
  0
LINE
  8
0
 62
     0
  6
CONTINUOUS
 10
5.231160
 20
2.221120
 11
5.228960
 21
2.201760
  0
LINE
  8
0
 62
     0
  6
CONTINUOUS
 10
5.228960
 20
2.201760
 11
5.235560
 21
2.201760
  0
LINE
  8
0
 62
     0
  6
CONTINUOUS
 10
5.235560
 20
2.201760
 11
5.231160
 21
2.221120
  0
LINE
  8
0
 62
     0
  6
CONTINUOUS
 10
5.231160
 20
2.221120
 11
5.241720
 21
2.205720
  0
LINE
  8
0
 62
     0
  6
CONTINUOUS
 10
5.248320
 20
2.210120
 11
5.231160
 21
2.221120
  0
LINE
  8
0
 62
     0
  6
CONTINUOUS
 10
5.231160
 20
2.221120
 11
5.250520
 21
2.225520
  0
LINE
  8
0
 62
     0
  6
CONTINUOUS
 10
5.250520
 20
2.225520
 11
5.250520
 21
2.216720
  0
LINE
  8
0
 62
     0
  6
CONTINUOUS
 10
5.250520
 20
2.216720
 11
5.231160
 21
2.221120
  0
LINE
  8
0
 62
     0
  6
CONTINUOUS
 10
5.231160
 20
2.221120
 11
5.248320
 21
2.231680
  0
LINE
  8
0
 62
     0
  6
CONTINUOUS
 10
5.241720
 20
2.236080
 11
5.231160
 21
2.221120
  0
LINE
  8
0
 62
     0
  6
CONTINUOUS
 10
5.231160
 20
2.221120
 11
5.235560
 21
2.240480
  0
LINE
  8
0
 62
     0
  6
CONTINUOUS
 10
5.235560
 20
2.240480
 11
5.228960
 21
2.240480
  0
LINE
  8
0
 62
     0
  6
CONTINUOUS
 10
5.228960
 20
2.240480
 11
5.231160
 21
2.221120
  0
LINE
  8
0
 62
     0
  6
CONTINUOUS
 10
5.231160
 20
2.221120
 11
5.217960
 21
2.236080
  0
LINE
  8
0
 62
     0
  6
CONTINUOUS
 10
5.215760
 20
2.231680
 11
5.231160
 21
2.221120
  0
LINE
  8
0
 62
     0
  6
CONTINUOUS
 10
5.231160
 20
2.221120
 11
5.213560
 21
2.216720
  0
LINE
  8
0
 62
     0
  6
CONTINUOUS
 10
5.213560
 20
2.216720
 11
5.213560
 21
2.225520
  0
LINE
  8
0
 62
     0
  6
CONTINUOUS
 10
5.213560
 20
2.225520
 11
5.231160
 21
2.221120
  0
LINE
  8
0
 62
     0
  6
CONTINUOUS
 10
5.231160
 20
2.221120
 11
5.215760
 21
2.210120
  0
LINE
  8
0
 62
     0
  6
CONTINUOUS
 10
5.421240
 20
2.210120
 11
5.436640
 21
2.221120
  0
LINE
  8
0
 62
     0
  6
CONTINUOUS
 10
5.436640
 20
2.221120
 11
5.432240
 21
2.201760
  0
LINE
  8
0
 62
     0
  6
CONTINUOUS
 10
5.432240
 20
2.201760
 11
5.440600
 21
2.201760
  0
LINE
  8
0
 62
     0
  6
CONTINUOUS
 10
5.440600
 20
2.201760
 11
5.436640
 21
2.221120
  0
LINE
  8
0
 62
     0
  6
CONTINUOUS
 10
5.436640
 20
2.221120
 11
5.447200
 21
2.205720
  0
LINE
  8
0
 62
     0
  6
CONTINUOUS
 10
5.451600
 20
2.210120
 11
5.436640
 21
2.221120
  0
LINE
  8
0
 62
     0
  6
CONTINUOUS
 10
5.436640
 20
2.221120
 11
5.456000
 21
2.225520
  0
LINE
  8
0
 62
     0
  6
CONTINUOUS
 10
5.456000
 20
2.225520
 11
5.456000
 21
2.216720
  0
LINE
  8
0
 62
     0
  6
CONTINUOUS
 10
5.456000
 20
2.216720
 11
5.436640
 21
2.221120
  0
LINE
  8
0
 62
     0
  6
CONTINUOUS
 10
5.436640
 20
2.221120
 11
5.451600
 21
2.231680
  0
LINE
  8
0
 62
     0
  6
CONTINUOUS
 10
5.447200
 20
2.236080
 11
5.436640
 21
2.221120
  0
LINE
  8
0
 62
     0
  6
CONTINUOUS
 10
5.436640
 20
2.221120
 11
5.440600
 21
2.240480
  0
LINE
  8
0
 62
     0
  6
CONTINUOUS
 10
5.440600
 20
2.240480
 11
5.432240
 21
2.240480
  0
LINE
  8
0
 62
     0
  6
CONTINUOUS
 10
5.432240
 20
2.240480
 11
5.436640
 21
2.221120
  0
LINE
  8
0
 62
     0
  6
CONTINUOUS
 10
5.436640
 20
2.221120
 11
5.425640
 21
2.236080
  0
LINE
  8
0
 62
     0
  6
CONTINUOUS
 10
5.421240
 20
2.231680
 11
5.436640
 21
2.221120
  0
LINE
  8
0
 62
     0
  6
CONTINUOUS
 10
5.436640
 20
2.221120
 11
5.416840
 21
2.216720
  0
LINE
  8
0
 62
     0
  6
CONTINUOUS
 10
5.416840
 20
2.216720
 11
5.416840
 21
2.225520
  0
LINE
  8
0
 62
     0
  6
CONTINUOUS
 10
5.416840
 20
2.225520
 11
5.436640
 21
2.221120
  0
LINE
  8
0
 62
     0
  6
CONTINUOUS
 10
5.436640
 20
2.221120
 11
5.425640
 21
2.205720
  0
LINE
  8
0
 62
     0
  6
CONTINUOUS
 10
5.436640
 20
2.307360
 11
5.458200
 21
2.309560
  0
LINE
  8
0
 62
     0
  6
CONTINUOUS
 10
5.458200
 20
2.309560
 11
5.477560
 21
2.313960
  0
LINE
  8
0
 62
     0
  6
CONTINUOUS
 10
5.477560
 20
2.313960
 11
5.499120
 21
2.320560
  0
LINE
  8
0
 62
     0
  6
CONTINUOUS
 10
5.499120
 20
2.320560
 11
5.518480
 21
2.333320
  0
LINE
  8
0
 62
     0
  6
CONTINUOUS
 10
5.518480
 20
2.333320
 11
5.533880
 21
2.348720
  0
LINE
  8
0
 62
     0
  6
CONTINUOUS
 10
5.533880
 20
2.348720
 11
5.546640
 21
2.363680
  0
LINE
  8
0
 62
     0
  6
CONTINUOUS
 10
5.546640
 20
2.363680
 11
5.559840
 21
2.380840
  0
LINE
  8
0
 62
     0
  6
CONTINUOUS
 10
5.559840
 20
2.380840
 11
5.566000
 21
2.402400
  0
LINE
  8
0
 62
     0
  6
CONTINUOUS
 10
5.566000
 20
2.402400
 11
5.570400
 21
2.422200
  0
LINE
  8
0
 62
     0
  6
CONTINUOUS
 10
5.570400
 20
2.422200
 11
5.572600
 21
2.443760
  0
LINE
  8
0
 62
     0
  6
CONTINUOUS
 10
5.572600
 20
2.443760
 11
5.570400
 21
2.465320
  0
LINE
  8
0
 62
     0
  6
CONTINUOUS
 10
5.570400
 20
2.465320
 11
5.566000
 21
2.486880
  0
LINE
  8
0
 62
     0
  6
CONTINUOUS
 10
5.566000
 20
2.486880
 11
5.559840
 21
2.506240
  0
LINE
  8
0
 62
     0
  6
CONTINUOUS
 10
5.559840
 20
2.506240
 11
5.546640
 21
2.525600
  0
LINE
  8
0
 62
     0
  6
CONTINUOUS
 10
5.546640
 20
2.525600
 11
5.533880
 21
2.541000
  0
LINE
  8
0
 62
     0
  6
CONTINUOUS
 10
5.533880
 20
2.541000
 11
5.518480
 21
2.555960
  0
LINE
  8
0
 62
     0
  6
CONTINUOUS
 10
5.518480
 20
2.555960
 11
5.499120
 21
2.566960
  0
LINE
  8
0
 62
     0
  6
CONTINUOUS
 10
5.499120
 20
2.566960
 11
5.477560
 21
2.575320
  0
LINE
  8
0
 62
     0
  6
CONTINUOUS
 10
5.477560
 20
2.575320
 11
5.458200
 21
2.579720
  0
LINE
  8
0
 62
     0
  6
CONTINUOUS
 10
5.458200
 20
2.579720
 11
5.436640
 21
2.581920
  0
LINE
  8
0
 62
     0
  6
CONTINUOUS
 10
5.436640
 20
2.581920
 11
5.414640
 21
2.579720
  0
LINE
  8
0
 62
     0
  6
CONTINUOUS
 10
5.414640
 20
2.579720
 11
5.395280
 21
2.575320
  0
LINE
  8
0
 62
     0
  6
CONTINUOUS
 10
5.395280
 20
2.575320
 11
5.373720
 21
2.566960
  0
LINE
  8
0
 62
     0
  6
CONTINUOUS
 10
5.373720
 20
2.566960
 11
5.356560
 21
2.555960
  0
LINE
  8
0
 62
     0
  6
CONTINUOUS
 10
5.356560
 20
2.555960
 11
5.338960
 21
2.541000
  0
LINE
  8
0
 62
     0
  6
CONTINUOUS
 10
5.338960
 20
2.541000
 11
5.326200
 21
2.525600
  0
LINE
  8
0
 62
     0
  6
CONTINUOUS
 10
5.326200
 20
2.525600
 11
5.313000
 21
2.506240
  0
LINE
  8
0
 62
     0
  6
CONTINUOUS
 10
5.313000
 20
2.506240
 11
5.306840
 21
2.486880
  0
LINE
  8
0
 62
     0
  6
CONTINUOUS
 10
5.306840
 20
2.486880
 11
5.300240
 21
2.465320
  0
LINE
  8
0
 62
     0
  6
CONTINUOUS
 10
5.300240
 20
2.465320
 11
5.300240
 21
2.443760
  0
LINE
  8
0
 62
     0
  6
CONTINUOUS
 10
5.300240
 20
2.443760
 11
5.300240
 21
2.422200
  0
LINE
  8
0
 62
     0
  6
CONTINUOUS
 10
5.300240
 20
2.422200
 11
5.306840
 21
2.402400
  0
LINE
  8
0
 62
     0
  6
CONTINUOUS
 10
5.306840
 20
2.402400
 11
5.313000
 21
2.380840
  0
LINE
  8
0
 62
     0
  6
CONTINUOUS
 10
5.313000
 20
2.380840
 11
5.326200
 21
2.363680
  0
LINE
  8
0
 62
     0
  6
CONTINUOUS
 10
5.326200
 20
2.363680
 11
5.338960
 21
2.348720
  0
LINE
  8
0
 62
     0
  6
CONTINUOUS
 10
5.338960
 20
2.348720
 11
5.356560
 21
2.333320
  0
LINE
  8
0
 62
     0
  6
CONTINUOUS
 10
5.356560
 20
2.333320
 11
5.373720
 21
2.320560
  0
LINE
  8
0
 62
     0
  6
CONTINUOUS
 10
5.373720
 20
2.320560
 11
5.395280
 21
2.313960
  0
LINE
  8
0
 62
     0
  6
CONTINUOUS
 10
5.395280
 20
2.313960
 11
5.414640
 21
2.309560
  0
LINE
  8
0
 62
     0
  6
CONTINUOUS
 10
5.414640
 20
2.309560
 11
5.436640
 21
2.307360
  0
LINE
  8
0
 62
     0
  6
CONTINUOUS
 10
5.631120
 20
2.236080
 11
5.641680
 21
2.221120
  0
LINE
  8
0
 62
     0
  6
CONTINUOUS
 10
5.641680
 20
2.221120
 11
5.622320
 21
2.216720
  0
LINE
  8
0
 62
     0
  6
CONTINUOUS
 10
5.622320
 20
2.216720
 11
5.622320
 21
2.225520
  0
LINE
  8
0
 62
     0
  6
CONTINUOUS
 10
5.622320
 20
2.225520
 11
5.641680
 21
2.221120
  0
LINE
  8
0
 62
     0
  6
CONTINUOUS
 10
5.641680
 20
2.221120
 11
5.624520
 21
2.210120
  0
LINE
  8
0
 62
     0
  6
CONTINUOUS
 10
5.631120
 20
2.205720
 11
5.641680
 21
2.221120
  0
LINE
  8
0
 62
     0
  6
CONTINUOUS
 10
5.641680
 20
2.221120
 11
5.637280
 21
2.201760
  0
LINE
  8
0
 62
     0
  6
CONTINUOUS
 10
5.637280
 20
2.201760
 11
5.643880
 21
2.201760
  0
LINE
  8
0
 62
     0
  6
CONTINUOUS
 10
5.643880
 20
2.201760
 11
5.641680
 21
2.221120
  0
LINE
  8
0
 62
     0
  6
CONTINUOUS
 10
5.641680
 20
2.221120
 11
5.652680
 21
2.205720
  0
LINE
  8
0
 62
     0
  6
CONTINUOUS
 10
5.657080
 20
2.210120
 11
5.641680
 21
2.221120
  0
LINE
  8
0
 62
     0
  6
CONTINUOUS
 10
5.641680
 20
2.221120
 11
5.659280
 21
2.225520
  0
LINE
  8
0
 62
     0
  6
CONTINUOUS
 10
5.659280
 20
2.225520
 11
5.659280
 21
2.216720
  0
LINE
  8
0
 62
     0
  6
CONTINUOUS
 10
5.659280
 20
2.216720
 11
5.641680
 21
2.221120
  0
LINE
  8
0
 62
     0
  6
CONTINUOUS
 10
5.641680
 20
2.221120
 11
5.657080
 21
2.231680
  0
LINE
  8
0
 62
     0
  6
CONTINUOUS
 10
5.652680
 20
2.236080
 11
5.641680
 21
2.221120
  0
LINE
  8
0
 62
     0
  6
CONTINUOUS
 10
5.641680
 20
2.221120
 11
5.643880
 21
2.240480
  0
LINE
  8
0
 62
     0
  6
CONTINUOUS
 10
5.643880
 20
2.240480
 11
5.637280
 21
2.240480
  0
LINE
  8
0
 62
     0
  6
CONTINUOUS
 10
5.637280
 20
2.240480
 11
5.641680
 21
2.221120
  0
LINE
  8
0
 62
     0
  6
CONTINUOUS
 10
5.641680
 20
2.221120
 11
5.624520
 21
2.231680
  0
LINE
  8
0
 62
     0
  6
CONTINUOUS
 10
5.589760
 20
2.512840
 11
5.591960
 21
2.519440
  0
LINE
  8
0
 62
     0
  6
CONTINUOUS
 10
5.591960
 20
2.519440
 11
5.596360
 21
2.527800
  0
LINE
  8
0
 62
     0
  6
CONTINUOUS
 10
5.596360
 20
2.527800
 11
5.591960
 21
2.536600
  0
LINE
  8
0
 62
     0
  6
CONTINUOUS
 10
5.591960
 20
2.536600
 11
5.589760
 21
2.545400
  0
LINE
  8
0
 62
     0
  6
CONTINUOUS
 10
5.589760
 20
2.545400
 11
5.581400
 21
2.547600
  0
LINE
  8
0
 62
     0
  6
CONTINUOUS
 10
5.581400
 20
2.547600
 11
5.570400
 21
2.549800
  0
LINE
  8
0
 62
     0
  6
CONTINUOUS
 10
5.570400
 20
2.549800
 11
5.563800
 21
2.547600
  0
LINE
  8
0
 62
     0
  6
CONTINUOUS
 10
5.563800
 20
2.547600
 11
5.555440
 21
2.545400
  0
LINE
  8
0
 62
     0
  6
CONTINUOUS
 10
5.555440
 20
2.545400
 11
5.551040
 21
2.536600
  0
LINE
  8
0
 62
     0
  6
CONTINUOUS
 10
5.551040
 20
2.536600
 11
5.551040
 21
2.527800
  0
LINE
  8
0
 62
     0
  6
CONTINUOUS
 10
5.551040
 20
2.527800
 11
5.551040
 21
2.519440
  0
LINE
  8
0
 62
     0
  6
CONTINUOUS
 10
5.551040
 20
2.519440
 11
5.555440
 21
2.512840
  0
LINE
  8
0
 62
     0
  6
CONTINUOUS
 10
5.555440
 20
2.512840
 11
5.563800
 21
2.506240
  0
LINE
  8
0
 62
     0
  6
CONTINUOUS
 10
5.563800
 20
2.506240
 11
5.570400
 21
2.504040
  0
LINE
  8
0
 62
     0
  6
CONTINUOUS
 10
5.570400
 20
2.504040
 11
5.581400
 21
2.506240
  0
LINE
  8
0
 62
     0
  6
CONTINUOUS
 10
5.581400
 20
2.506240
 11
5.589760
 21
2.512840
  0
LINE
  8
0
 62
     0
  6
CONTINUOUS
 10
5.570400
 20
2.527800
 11
5.522880
 21
2.618880
  0
LINE
  8
0
 62
     0
  6
CONTINUOUS
 10
5.522880
 20
2.618880
 11
5.114120
 21
2.618880
  0
LINE
  8
0
 62
     0
  6
CONTINUOUS
 10
5.114120
 20
2.618880
 11
5.120720
 21
2.599520
  0
LINE
  8
0
 62
     0
  6
CONTINUOUS
 10
5.120720
 20
2.599520
 11
5.120720
 21
2.590720
  0
LINE
  8
0
 62
     0
  6
CONTINUOUS
 10
5.120720
 20
2.590720
 11
5.114120
 21
2.573560
  0
LINE
  8
0
 62
     0
  6
CONTINUOUS
 10
5.114120
 20
2.573560
 11
5.120720
 21
2.553760
  0
LINE
  8
0
 62
     0
  6
CONTINUOUS
 10
5.127320
 20
2.555960
 11
5.114120
 21
2.573560
  0
LINE
  8
0
 62
     0
  6
CONTINUOUS
 10
5.114120
 20
2.573560
 11
5.131720
 21
2.562560
  0
LINE
  8
0
 62
     0
  6
CONTINUOUS
 10
5.136120
 20
2.569160
 11
5.114120
 21
2.573560
  0
LINE
  8
0
 62
     0
  6
CONTINUOUS
 10
5.114120
 20
2.573560
 11
5.131720
 21
2.584120
  0
LINE
  8
0
 62
     0
  6
CONTINUOUS
 10
5.127320
 20
2.588520
 11
5.114120
 21
2.573560
  0
LINE
  8
0
 62
     0
  6
CONTINUOUS
 10
5.114120
 20
2.573560
 11
5.263280
 21
2.573560
  0
LINE
  8
0
 62
     0
  6
CONTINUOUS
 10
5.263280
 20
2.573560
 11
5.300240
 21
2.527800
  0
LINE
  8
0
 62
     0
  6
CONTINUOUS
 10
5.300240
 20
2.549800
 11
5.291440
 21
2.547600
  0
LINE
  8
0
 62
     0
  6
CONTINUOUS
 10
5.291440
 20
2.547600
 11
5.283080
 21
2.545400
  0
LINE
  8
0
 62
     0
  6
CONTINUOUS
 10
5.283080
 20
2.545400
 11
5.278680
 21
2.536600
  0
LINE
  8
0
 62
     0
  6
CONTINUOUS
 10
5.278680
 20
2.536600
 11
5.278680
 21
2.527800
  0
LINE
  8
0
 62
     0
  6
CONTINUOUS
 10
5.278680
 20
2.527800
 11
5.278680
 21
2.519440
  0
LINE
  8
0
 62
     0
  6
CONTINUOUS
 10
5.278680
 20
2.519440
 11
5.283080
 21
2.512840
  0
LINE
  8
0
 62
     0
  6
CONTINUOUS
 10
5.283080
 20
2.512840
 11
5.291440
 21
2.506240
  0
LINE
  8
0
 62
     0
  6
CONTINUOUS
 10
5.291440
 20
2.506240
 11
5.300240
 21
2.504040
  0
LINE
  8
0
 62
     0
  6
CONTINUOUS
 10
5.300240
 20
2.504040
 11
5.309040
 21
2.506240
  0
LINE
  8
0
 62
     0
  6
CONTINUOUS
 10
5.309040
 20
2.506240
 11
5.317400
 21
2.512840
  0
LINE
  8
0
 62
     0
  6
CONTINUOUS
 10
5.317400
 20
2.512840
 11
5.321800
 21
2.519440
  0
LINE
  8
0
 62
     0
  6
CONTINUOUS
 10
5.321800
 20
2.519440
 11
5.321800
 21
2.527800
  0
LINE
  8
0
 62
     0
  6
CONTINUOUS
 10
5.321800
 20
2.527800
 11
5.321800
 21
2.536600
  0
LINE
  8
0
 62
     0
  6
CONTINUOUS
 10
5.321800
 20
2.536600
 11
5.317400
 21
2.545400
  0
LINE
  8
0
 62
     0
  6
CONTINUOUS
 10
5.317400
 20
2.545400
 11
5.309040
 21
2.547600
  0
LINE
  8
0
 62
     0
  6
CONTINUOUS
 10
5.309040
 20
2.547600
 11
5.300240
 21
2.549800
  0
LINE
  8
0
 62
     0
  6
CONTINUOUS
 10
5.248320
 20
2.673000
 11
5.231160
 21
2.683560
  0
LINE
  8
0
 62
     0
  6
CONTINUOUS
 10
5.231160
 20
2.683560
 11
5.250520
 21
2.687960
  0
LINE
  8
0
 62
     0
  6
CONTINUOUS
 10
5.250520
 20
2.687960
 11
5.250520
 21
2.679160
  0
LINE
  8
0
 62
     0
  6
CONTINUOUS
 10
5.250520
 20
2.679160
 11
5.231160
 21
2.683560
  0
LINE
  8
0
 62
     0
  6
CONTINUOUS
 10
5.231160
 20
2.683560
 11
5.248320
 21
2.692360
  0
LINE
  8
0
 62
     0
  6
CONTINUOUS
 10
5.241720
 20
2.700720
 11
5.231160
 21
2.683560
  0
LINE
  8
0
 62
     0
  6
CONTINUOUS
 10
5.231160
 20
2.683560
 11
5.235560
 21
2.700720
  0
LINE
  8
0
 62
     0
  6
CONTINUOUS
 10
5.235560
 20
2.700720
 11
5.228960
 21
2.700720
  0
LINE
  8
0
 62
     0
  6
CONTINUOUS
 10
5.228960
 20
2.700720
 11
5.231160
 21
2.683560
  0
LINE
  8
0
 62
     0
  6
CONTINUOUS
 10
5.231160
 20
2.683560
 11
5.217960
 21
2.700720
  0
LINE
  8
0
 62
     0
  6
CONTINUOUS
 10
5.215760
 20
2.692360
 11
5.231160
 21
2.683560
  0
LINE
  8
0
 62
     0
  6
CONTINUOUS
 10
5.231160
 20
2.683560
 11
5.213560
 21
2.679160
  0
LINE
  8
0
 62
     0
  6
CONTINUOUS
 10
5.213560
 20
2.679160
 11
5.213560
 21
2.687960
  0
LINE
  8
0
 62
     0
  6
CONTINUOUS
 10
5.213560
 20
2.687960
 11
5.231160
 21
2.683560
  0
LINE
  8
0
 62
     0
  6
CONTINUOUS
 10
5.231160
 20
2.683560
 11
5.215760
 21
2.673000
  0
LINE
  8
0
 62
     0
  6
CONTINUOUS
 10
5.217960
 20
2.668600
 11
5.231160
 21
2.683560
  0
LINE
  8
0
 62
     0
  6
CONTINUOUS
 10
5.231160
 20
2.683560
 11
5.228960
 21
2.664200
  0
LINE
  8
0
 62
     0
  6
CONTINUOUS
 10
5.228960
 20
2.664200
 11
5.235560
 21
2.664200
  0
LINE
  8
0
 62
     0
  6
CONTINUOUS
 10
5.235560
 20
2.664200
 11
5.231160
 21
2.683560
  0
LINE
  8
0
 62
     0
  6
CONTINUOUS
 10
5.231160
 20
2.683560
 11
5.241720
 21
2.668600
  0
LINE
  8
0
 62
     0
  6
CONTINUOUS
 10
5.127320
 20
2.633840
 11
5.114120
 21
2.618880
  0
LINE
  8
0
 62
     0
  6
CONTINUOUS
 10
5.114120
 20
2.618880
 11
5.131720
 21
2.607880
  0
LINE
  8
0
 62
     0
  6
CONTINUOUS
 10
5.136120
 20
2.614480
 11
5.114120
 21
2.618880
  0
LINE
  8
0
 62
     0
  6
CONTINUOUS
 10
5.114120
 20
2.618880
 11
5.131720
 21
2.629440
  0
LINE
  8
0
 62
     0
  6
CONTINUOUS
 10
5.136120
 20
2.621080
 11
5.114120
 21
2.618880
  0
LINE
  8
0
 62
     0
  6
CONTINUOUS
 10
5.114120
 20
2.618880
 11
5.120720
 21
2.638240
  0
LINE
  8
0
 62
     0
  6
CONTINUOUS
 10
5.114120
 20
2.618880
 11
5.127320
 21
2.601280
  0
LINE
  8
0
 62
     0
  6
CONTINUOUS
 10
5.136120
 20
2.577520
 11
5.114120
 21
2.573560
  0
LINE
  8
0
 62
     0
  6
CONTINUOUS
 10
5.421240
 20
2.673000
 11
5.436640
 21
2.683560
  0
LINE
  8
0
 62
     0
  6
CONTINUOUS
 10
5.436640
 20
2.683560
 11
5.432240
 21
2.664200
  0
LINE
  8
0
 62
     0
  6
CONTINUOUS
 10
5.432240
 20
2.664200
 11
5.440600
 21
2.664200
  0
LINE
  8
0
 62
     0
  6
CONTINUOUS
 10
5.440600
 20
2.664200
 11
5.436640
 21
2.683560
  0
LINE
  8
0
 62
     0
  6
CONTINUOUS
 10
5.436640
 20
2.683560
 11
5.447200
 21
2.668600
  0
LINE
  8
0
 62
     0
  6
CONTINUOUS
 10
5.451600
 20
2.673000
 11
5.436640
 21
2.683560
  0
LINE
  8
0
 62
     0
  6
CONTINUOUS
 10
5.436640
 20
2.683560
 11
5.456000
 21
2.687960
  0
LINE
  8
0
 62
     0
  6
CONTINUOUS
 10
5.456000
 20
2.687960
 11
5.456000
 21
2.679160
  0
LINE
  8
0
 62
     0
  6
CONTINUOUS
 10
5.456000
 20
2.679160
 11
5.436640
 21
2.683560
  0
LINE
  8
0
 62
     0
  6
CONTINUOUS
 10
5.436640
 20
2.683560
 11
5.451600
 21
2.692360
  0
LINE
  8
0
 62
     0
  6
CONTINUOUS
 10
5.447200
 20
2.700720
 11
5.436640
 21
2.683560
  0
LINE
  8
0
 62
     0
  6
CONTINUOUS
 10
5.436640
 20
2.683560
 11
5.440600
 21
2.700720
  0
LINE
  8
0
 62
     0
  6
CONTINUOUS
 10
5.440600
 20
2.700720
 11
5.432240
 21
2.700720
  0
LINE
  8
0
 62
     0
  6
CONTINUOUS
 10
5.432240
 20
2.700720
 11
5.436640
 21
2.683560
  0
LINE
  8
0
 62
     0
  6
CONTINUOUS
 10
5.436640
 20
2.683560
 11
5.425640
 21
2.700720
  0
LINE
  8
0
 62
     0
  6
CONTINUOUS
 10
5.421240
 20
2.692360
 11
5.436640
 21
2.683560
  0
LINE
  8
0
 62
     0
  6
CONTINUOUS
 10
5.436640
 20
2.683560
 11
5.416840
 21
2.679160
  0
LINE
  8
0
 62
     0
  6
CONTINUOUS
 10
5.416840
 20
2.679160
 11
5.416840
 21
2.687960
  0
LINE
  8
0
 62
     0
  6
CONTINUOUS
 10
5.416840
 20
2.687960
 11
5.436640
 21
2.683560
  0
LINE
  8
0
 62
     0
  6
CONTINUOUS
 10
5.436640
 20
2.683560
 11
5.425640
 21
2.668600
  0
LINE
  8
0
 62
     0
  6
CONTINUOUS
 10
5.425640
 20
2.467520
 11
5.421240
 21
2.463120
  0
LINE
  8
0
 62
     0
  6
CONTINUOUS
 10
5.421240
 20
2.463120
 11
5.419040
 21
2.454320
  0
LINE
  8
0
 62
     0
  6
CONTINUOUS
 10
5.419040
 20
2.454320
 11
5.421240
 21
2.448160
  0
LINE
  8
0
 62
     0
  6
CONTINUOUS
 10
5.421240
 20
2.448160
 11
5.423440
 21
2.443760
  0
LINE
  8
0
 62
     0
  6
CONTINUOUS
 10
5.423440
 20
2.443760
 11
5.425640
 21
2.443760
  0
LINE
  8
0
 62
     0
  6
CONTINUOUS
 10
5.425640
 20
2.443760
 11
5.447200
 21
2.434960
  0
LINE
  8
0
 62
     0
  6
CONTINUOUS
 10
5.447200
 20
2.434960
 11
5.451600
 21
2.432760
  0
LINE
  8
0
 62
     0
  6
CONTINUOUS
 10
5.451600
 20
2.432760
 11
5.451600
 21
2.428360
  0
LINE
  8
0
 62
     0
  6
CONTINUOUS
 10
5.451600
 20
2.428360
 11
5.456000
 21
2.422200
  0
LINE
  8
0
 62
     0
  6
CONTINUOUS
 10
5.456000
 20
2.422200
 11
5.451600
 21
2.411200
  0
LINE
  8
0
 62
     0
  6
CONTINUOUS
 10
5.451600
 20
2.411200
 11
5.445000
 21
2.406800
  0
LINE
  8
0
 62
     0
  6
CONTINUOUS
 10
5.445000
 20
2.406800
 11
5.436640
 21
2.402400
  0
LINE
  8
0
 62
     0
  6
CONTINUOUS
 10
5.436640
 20
2.402400
 11
5.421240
 21
2.402400
  0
LINE
  8
0
 62
     0
  6
CONTINUOUS
 10
5.421240
 20
2.402400
 11
5.412440
 21
2.406800
  0
LINE
  8
0
 62
     0
  6
CONTINUOUS
 10
5.412440
 20
2.406800
 11
5.406280
 21
2.411200
  0
LINE
  8
0
 62
     0
  6
CONTINUOUS
 10
5.425640
 20
2.467520
 11
5.438400
 21
2.471920
  0
LINE
  8
0
 62
     0
  6
CONTINUOUS
 10
5.438400
 20
2.471920
 11
5.451600
 21
2.471920
  0
LINE
  8
0
 62
     0
  6
CONTINUOUS
 10
5.451600
 20
2.471920
 11
5.460400
 21
2.467520
  0
LINE
  8
0
 62
     0
  6
CONTINUOUS
 10
5.460400
 20
2.467520
 11
5.466560
 21
2.463120
  0
LINE
  8
0
 62
     0
  6
CONTINUOUS
 10
5.436640
 20
2.221120
 11
5.436640
 21
2.091320
  0
LINE
  8
0
 62
     0
  6
CONTINUOUS
 10
5.436640
 20
2.058760
 11
5.423440
 21
2.058760
  0
LINE
  8
0
 62
     0
  6
CONTINUOUS
 10
5.423440
 20
2.058760
 11
5.412440
 21
2.056560
  0
LINE
  8
0
 62
     0
  6
CONTINUOUS
 10
5.412440
 20
2.056560
 11
5.404080
 21
2.050400
  0
LINE
  8
0
 62
     0
  6
CONTINUOUS
 10
5.404080
 20
2.050400
 11
5.404080
 21
2.043800
  0
LINE
  8
0
 62
     0
  6
CONTINUOUS
 10
5.404080
 20
2.043800
 11
5.404080
 21
2.037200
  0
LINE
  8
0
 62
     0
  6
CONTINUOUS
 10
5.404080
 20
2.037200
 11
5.406280
 21
2.032800
  0
LINE
  8
0
 62
     0
  6
CONTINUOUS
 10
5.406280
 20
2.032800
 11
5.412440
 21
2.030600
  0
LINE
  8
0
 62
     0
  6
CONTINUOUS
 10
5.412440
 20
2.030600
 11
5.425640
 21
2.024440
  0
LINE
  8
0
 62
     0
  6
CONTINUOUS
 10
5.425640
 20
2.024440
 11
5.436640
 21
2.020040
  0
LINE
  8
0
 62
     0
  6
CONTINUOUS
 10
5.436640
 20
2.020040
 11
5.438400
 21
2.011240
  0
LINE
  8
0
 62
     0
  6
CONTINUOUS
 10
5.438400
 20
2.011240
 11
5.436640
 21
2.000680
  0
LINE
  8
0
 62
     0
  6
CONTINUOUS
 10
5.436640
 20
2.000680
 11
5.425640
 21
1.996280
  0
LINE
  8
0
 62
     0
  6
CONTINUOUS
 10
5.425640
 20
1.996280
 11
5.416840
 21
1.991880
  0
LINE
  8
0
 62
     0
  6
CONTINUOUS
 10
5.416840
 20
1.991880
 11
5.406280
 21
1.991880
  0
LINE
  8
0
 62
     0
  6
CONTINUOUS
 10
5.406280
 20
1.991880
 11
5.395280
 21
1.996280
  0
LINE
  8
0
 62
     0
  6
CONTINUOUS
 10
5.395280
 20
1.996280
 11
5.393080
 21
2.000680
  0
LINE
  8
0
 62
     0
  6
CONTINUOUS
 10
5.462160
 20
2.000680
 11
5.466560
 21
1.996280
  0
LINE
  8
0
 62
     0
  6
CONTINUOUS
 10
5.466560
 20
1.996280
 11
5.475360
 21
1.991880
  0
LINE
  8
0
 62
     0
  6
CONTINUOUS
 10
5.475360
 20
1.991880
 11
5.481960
 21
1.991880
  0
LINE
  8
0
 62
     0
  6
CONTINUOUS
 10
5.481960
 20
1.991880
 11
5.492520
 21
1.996280
  0
LINE
  8
0
 62
     0
  6
CONTINUOUS
 10
5.492520
 20
1.996280
 11
5.499120
 21
2.000680
  0
LINE
  8
0
 62
     0
  6
CONTINUOUS
 10
5.499120
 20
2.000680
 11
5.507920
 21
2.011240
  0
LINE
  8
0
 62
     0
  6
CONTINUOUS
 10
5.507920
 20
2.011240
 11
5.520680
 21
2.058760
  0
LINE
  8
0
 62
     0
  6
CONTINUOUS
 10
5.546640
 20
2.058760
 11
5.529480
 21
1.991880
  0
LINE
  8
0
 62
     0
  6
CONTINUOUS
 10
5.535640
 20
2.024440
 11
5.566000
 21
2.024440
  0
LINE
  8
0
 62
     0
  6
CONTINUOUS
 10
5.566000
 20
2.024440
 11
5.574800
 21
2.028400
  0
LINE
  8
0
 62
     0
  6
CONTINUOUS
 10
5.574800
 20
2.028400
 11
5.581400
 21
2.030600
  0
LINE
  8
0
 62
     0
  6
CONTINUOUS
 10
5.581400
 20
2.030600
 11
5.585360
 21
2.037200
  0
LINE
  8
0
 62
     0
  6
CONTINUOUS
 10
5.585360
 20
2.037200
 11
5.587560
 21
2.048200
  0
LINE
  8
0
 62
     0
  6
CONTINUOUS
 10
5.587560
 20
2.048200
 11
5.585360
 21
2.052160
  0
LINE
  8
0
 62
     0
  6
CONTINUOUS
 10
5.585360
 20
2.052160
 11
5.581400
 21
2.056560
  0
LINE
  8
0
 62
     0
  6
CONTINUOUS
 10
5.581400
 20
2.056560
 11
5.574800
 21
2.058760
  0
LINE
  8
0
 62
     0
  6
CONTINUOUS
 10
5.574800
 20
2.058760
 11
5.546640
 21
2.058760
  0
LINE
  8
0
 62
     0
  6
CONTINUOUS
 10
5.613520
 20
2.058760
 11
5.594160
 21
1.991880
  0
LINE
  8
0
 62
     0
  6
CONTINUOUS
 10
5.602960
 20
2.024440
 11
5.633320
 21
2.024440
  0
LINE
  8
0
 62
     0
  6
CONTINUOUS
 10
5.633320
 20
2.024440
 11
5.643880
 21
2.028400
  0
LINE
  8
0
 62
     0
  6
CONTINUOUS
 10
5.643880
 20
2.028400
 11
5.648280
 21
2.030600
  0
LINE
  8
0
 62
     0
  6
CONTINUOUS
 10
5.648280
 20
2.030600
 11
5.652680
 21
2.037200
  0
LINE
  8
0
 62
     0
  6
CONTINUOUS
 10
5.652680
 20
2.037200
 11
5.654880
 21
2.048200
  0
LINE
  8
0
 62
     0
  6
CONTINUOUS
 10
5.654880
 20
2.048200
 11
5.652680
 21
2.052160
  0
LINE
  8
0
 62
     0
  6
CONTINUOUS
 10
5.652680
 20
2.052160
 11
5.652680
 21
2.056560
  0
LINE
  8
0
 62
     0
  6
CONTINUOUS
 10
5.652680
 20
2.056560
 11
5.643880
 21
2.058760
  0
LINE
  8
0
 62
     0
  6
CONTINUOUS
 10
5.643880
 20
2.058760
 11
5.613520
 21
2.058760
  0
LINE
  8
0
 62
     0
  6
CONTINUOUS
 10
5.643880
 20
2.091320
 11
5.643880
 21
2.221120
  0
LINE
  8
0
 62
     0
  6
CONTINUOUS
 10
5.683040
 20
2.058760
 11
5.663240
 21
1.991880
  0
LINE
  8
0
 62
     0
  6
CONTINUOUS
 10
5.663240
 20
1.991880
 11
5.702400
 21
1.991880
  0
LINE
  8
0
 62
     0
  6
CONTINUOUS
 10
5.734960
 20
1.991880
 11
5.743320
 21
2.028400
  0
LINE
  8
0
 62
     0
  6
CONTINUOUS
 10
5.743320
 20
2.028400
 11
5.778080
 21
2.058760
  0
LINE
  8
0
 62
     0
  6
CONTINUOUS
 10
5.726160
 20
2.058760
 11
5.743320
 21
2.028400
  0
LINE
  8
0
 62
     0
  6
CONTINUOUS
 10
5.462160
 20
2.011240
 11
5.462160
 21
2.000680
  0
LINE
  8
0
 62
     0
  6
CONTINUOUS
 10
5.462160
 20
2.011240
 11
5.475360
 21
2.058760
  0
LINE
  8
0
 62
     0
  6
CONTINUOUS
 10
5.445000
 20
2.056560
 11
5.436640
 21
2.058760
  0
LINE
  8
0
 62
     0
  6
CONTINUOUS
 10
5.445000
 20
2.056560
 11
5.449400
 21
2.050400
  0
LINE
  8
0
 62
     0
  6
CONTINUOUS
 10
5.321800
 20
2.058760
 11
5.280880
 21
2.058760
  0
LINE
  8
0
 62
     0
  6
CONTINUOUS
 10
5.280880
 20
2.058760
 11
5.263280
 21
1.991880
  0
LINE
  8
0
 62
     0
  6
CONTINUOUS
 10
5.263280
 20
1.991880
 11
5.304640
 21
1.991880
  0
LINE
  8
0
 62
     0
  6
CONTINUOUS
 10
5.295840
 20
2.028400
 11
5.269880
 21
2.028400
  0
LINE
  8
0
 62
     0
  6
CONTINUOUS
 10
5.254920
 20
2.058760
 11
5.237760
 21
1.991880
  0
LINE
  8
0
 62
     0
  6
CONTINUOUS
 10
5.237760
 20
1.991880
 11
5.209600
 21
2.058760
  0
LINE
  8
0
 62
     0
  6
CONTINUOUS
 10
5.209600
 20
2.058760
 11
5.192000
 21
1.991880
  0
LINE
  8
0
 62
     0
  6
CONTINUOUS
 10
5.166040
 20
1.991880
 11
5.185840
 21
2.058760
  0
LINE
  8
0
 62
     0
  6
CONTINUOUS
 10
5.127320
 20
2.058760
 11
5.112360
 21
1.991880
  0
LINE
  8
0
 62
     0
  6
CONTINUOUS
 10
5.112360
 20
1.991880
 11
5.148880
 21
1.991880
  0
LINE
  8
0
 62
     0
  6
CONTINUOUS
 10
5.231160
 20
2.091320
 11
5.231160
 21
2.221120
  0
LINE
  8
0
 62
     0
  6
CONTINUOUS
 10
5.118520
 20
2.571360
 11
4.969360
 21
2.571360
  0
LINE
  8
0
 62
     0
  6
CONTINUOUS
 10
4.969360
 20
2.571360
 11
4.969360
 21
1.591920
  0
LINE
  8
0
 62
     0
  6
CONTINUOUS
 10
5.231160
 20
2.811160
 11
5.347760
 21
2.927760
  0
LINE
  8
0
 62
     0
  6
CONTINUOUS
 10
5.406280
 20
3.025000
 11
5.414640
 21
3.021040
  0
LINE
  8
0
 62
     0
  6
CONTINUOUS
 10
5.414640
 20
3.021040
 11
5.425640
 21
3.014440
  0
LINE
  8
0
 62
     0
  6
CONTINUOUS
 10
5.425640
 20
3.014440
 11
5.436640
 21
3.014440
  0
LINE
  8
0
 62
     0
  6
CONTINUOUS
 10
5.436640
 20
3.014440
 11
5.447200
 21
3.014440
  0
LINE
  8
0
 62
     0
  6
CONTINUOUS
 10
5.447200
 20
3.014440
 11
5.456000
 21
3.021040
  0
LINE
  8
0
 62
     0
  6
CONTINUOUS
 10
5.456000
 20
3.021040
 11
5.464360
 21
3.025000
  0
LINE
  8
0
 62
     0
  6
CONTINUOUS
 10
5.464360
 20
3.025000
 11
5.470960
 21
3.033800
  0
LINE
  8
0
 62
     0
  6
CONTINUOUS
 10
5.470960
 20
3.033800
 11
5.475360
 21
3.042600
  0
LINE
  8
0
 62
     0
  6
CONTINUOUS
 10
5.475360
 20
3.042600
 11
5.475360
 21
3.053160
  0
LINE
  8
0
 62
     0
  6
CONTINUOUS
 10
5.475360
 20
3.053160
 11
5.475360
 21
3.064160
  0
LINE
  8
0
 62
     0
  6
CONTINUOUS
 10
5.475360
 20
3.064160
 11
5.470960
 21
3.072960
  0
LINE
  8
0
 62
     0
  6
CONTINUOUS
 10
5.470960
 20
3.072960
 11
5.464360
 21
3.083520
  0
LINE
  8
0
 62
     0
  6
CONTINUOUS
 10
5.464360
 20
3.083520
 11
5.456000
 21
3.090120
  0
LINE
  8
0
 62
     0
  6
CONTINUOUS
 10
5.456000
 20
3.090120
 11
5.447200
 21
3.094520
  0
LINE
  8
0
 62
     0
  6
CONTINUOUS
 10
5.447200
 20
3.094520
 11
5.436640
 21
3.094520
  0
LINE
  8
0
 62
     0
  6
CONTINUOUS
 10
5.436640
 20
3.094520
 11
5.425640
 21
3.094520
  0
LINE
  8
0
 62
     0
  6
CONTINUOUS
 10
5.425640
 20
3.094520
 11
5.414640
 21
3.090120
  0
LINE
  8
0
 62
     0
  6
CONTINUOUS
 10
5.414640
 20
3.090120
 11
5.406280
 21
3.083520
  0
LINE
  8
0
 62
     0
  6
CONTINUOUS
 10
5.406280
 20
3.083520
 11
5.399680
 21
3.072960
  0
LINE
  8
0
 62
     0
  6
CONTINUOUS
 10
5.399680
 20
3.072960
 11
5.395280
 21
3.064160
  0
LINE
  8
0
 62
     0
  6
CONTINUOUS
 10
5.395280
 20
3.064160
 11
5.395280
 21
3.053160
  0
LINE
  8
0
 62
     0
  6
CONTINUOUS
 10
5.395280
 20
3.053160
 11
5.395280
 21
3.042600
  0
LINE
  8
0
 62
     0
  6
CONTINUOUS
 10
5.395280
 20
3.042600
 11
5.399680
 21
3.033800
  0
LINE
  8
0
 62
     0
  6
CONTINUOUS
 10
5.399680
 20
3.033800
 11
5.406280
 21
3.025000
  0
LINE
  8
0
 62
     0
  6
CONTINUOUS
 10
5.436640
 20
3.014440
 11
4.898080
 21
3.016640
  0
LINE
  8
0
 62
     0
  6
CONTINUOUS
 10
4.900280
 20
3.029400
 11
4.900280
 21
3.066360
  0
LINE
  8
0
 62
     0
  6
CONTINUOUS
 10
4.900280
 20
3.053160
 11
4.924040
 21
3.055360
  0
LINE
  8
0
 62
     0
  6
CONTINUOUS
 10
4.924040
 20
3.055360
 11
4.950000
 21
3.061960
  0
LINE
  8
0
 62
     0
  6
CONTINUOUS
 10
4.950000
 20
3.061960
 11
4.971560
 21
3.070760
  0
LINE
  8
0
 62
     0
  6
CONTINUOUS
 10
4.971560
 20
3.070760
 11
4.993120
 21
3.081320
  0
LINE
  8
0
 62
     0
  6
CONTINUOUS
 10
4.993120
 20
3.081320
 11
5.010720
 21
3.094520
  0
LINE
  8
0
 62
     0
  6
CONTINUOUS
 10
5.010720
 20
3.094520
 11
5.034480
 21
3.111680
  0
LINE
  8
0
 62
     0
  6
CONTINUOUS
 10
5.034480
 20
3.111680
 11
5.049440
 21
3.128840
  0
LINE
  8
0
 62
     0
  6
CONTINUOUS
 10
5.049440
 20
3.128840
 11
5.062640
 21
3.150400
  0
LINE
  8
0
 62
     0
  6
CONTINUOUS
 10
5.062640
 20
3.150400
 11
5.075400
 21
3.174160
  0
LINE
  8
0
 62
     0
  6
CONTINUOUS
 10
5.075400
 20
3.174160
 11
5.084200
 21
3.196160
  0
LINE
  8
0
 62
     0
  6
CONTINUOUS
 10
5.084200
 20
3.196160
 11
5.088600
 21
3.219920
  0
LINE
  8
0
 62
     0
  6
CONTINUOUS
 10
5.088600
 20
3.219920
 11
5.088600
 21
3.245880
  0
LINE
  8
0
 62
     0
  6
CONTINUOUS
 10
5.088600
 20
3.245880
 11
5.088600
 21
3.269640
  0
LINE
  8
0
 62
     0
  6
CONTINUOUS
 10
5.088600
 20
3.269640
 11
5.084200
 21
3.295600
  0
LINE
  8
0
 62
     0
  6
CONTINUOUS
 10
5.084200
 20
3.295600
 11
5.075400
 21
3.321560
  0
LINE
  8
0
 62
     0
  6
CONTINUOUS
 10
5.075400
 20
3.321560
 11
5.062640
 21
3.340920
  0
LINE
  8
0
 62
     0
  6
CONTINUOUS
 10
5.062640
 20
3.340920
 11
5.049440
 21
3.362480
  0
LINE
  8
0
 62
     0
  6
CONTINUOUS
 10
5.049440
 20
3.362480
 11
5.034480
 21
3.381840
  0
LINE
  8
0
 62
     0
  6
CONTINUOUS
 10
5.034480
 20
3.381840
 11
5.010720
 21
3.397240
  0
LINE
  8
0
 62
     0
  6
CONTINUOUS
 10
5.010720
 20
3.397240
 11
4.993120
 21
3.412200
  0
LINE
  8
0
 62
     0
  6
CONTINUOUS
 10
4.993120
 20
3.412200
 11
4.971560
 21
3.423200
  0
LINE
  8
0
 62
     0
  6
CONTINUOUS
 10
4.971560
 20
3.423200
 11
4.950000
 21
3.431560
  0
LINE
  8
0
 62
     0
  6
CONTINUOUS
 10
4.950000
 20
3.431560
 11
4.924040
 21
3.433760
  0
LINE
  8
0
 62
     0
  6
CONTINUOUS
 10
4.924040
 20
3.433760
 11
4.900280
 21
3.435960
  0
LINE
  8
0
 62
     0
  6
CONTINUOUS
 10
4.900280
 20
3.435960
 11
4.874320
 21
3.433760
  0
LINE
  8
0
 62
     0
  6
CONTINUOUS
 10
4.874320
 20
3.433760
 11
4.848360
 21
3.431560
  0
LINE
  8
0
 62
     0
  6
CONTINUOUS
 10
4.848360
 20
3.431560
 11
4.826800
 21
3.423200
  0
LINE
  8
0
 62
     0
  6
CONTINUOUS
 10
4.826800
 20
3.423200
 11
4.803040
 21
3.412200
  0
LINE
  8
0
 62
     0
  6
CONTINUOUS
 10
4.803040
 20
3.412200
 11
4.781480
 21
3.397240
  0
LINE
  8
0
 62
     0
  6
CONTINUOUS
 10
4.781480
 20
3.397240
 11
4.764320
 21
3.381840
  0
LINE
  8
0
 62
     0
  6
CONTINUOUS
 10
4.764320
 20
3.381840
 11
4.744520
 21
3.362480
  0
LINE
  8
0
 62
     0
  6
CONTINUOUS
 10
4.744520
 20
3.362480
 11
4.733960
 21
3.340920
  0
LINE
  8
0
 62
     0
  6
CONTINUOUS
 10
4.733960
 20
3.340920
 11
4.722960
 21
3.321560
  0
LINE
  8
0
 62
     0
  6
CONTINUOUS
 10
4.722960
 20
3.321560
 11
4.714600
 21
3.295600
  0
LINE
  8
0
 62
     0
  6
CONTINUOUS
 10
4.714600
 20
3.295600
 11
4.708000
 21
3.269640
  0
LINE
  8
0
 62
     0
  6
CONTINUOUS
 10
4.708000
 20
3.269640
 11
4.705800
 21
3.245880
  0
LINE
  8
0
 62
     0
  6
CONTINUOUS
 10
4.705800
 20
3.245880
 11
4.708000
 21
3.219920
  0
LINE
  8
0
 62
     0
  6
CONTINUOUS
 10
4.708000
 20
3.219920
 11
4.714600
 21
3.196160
  0
LINE
  8
0
 62
     0
  6
CONTINUOUS
 10
4.714600
 20
3.196160
 11
4.722960
 21
3.174160
  0
LINE
  8
0
 62
     0
  6
CONTINUOUS
 10
4.722960
 20
3.174160
 11
4.733960
 21
3.150400
  0
LINE
  8
0
 62
     0
  6
CONTINUOUS
 10
4.733960
 20
3.150400
 11
4.744520
 21
3.128840
  0
LINE
  8
0
 62
     0
  6
CONTINUOUS
 10
4.744520
 20
3.128840
 11
4.764320
 21
3.111680
  0
LINE
  8
0
 62
     0
  6
CONTINUOUS
 10
4.764320
 20
3.111680
 11
4.781480
 21
3.094520
  0
LINE
  8
0
 62
     0
  6
CONTINUOUS
 10
4.781480
 20
3.094520
 11
4.803040
 21
3.081320
  0
LINE
  8
0
 62
     0
  6
CONTINUOUS
 10
4.803040
 20
3.081320
 11
4.826800
 21
3.070760
  0
LINE
  8
0
 62
     0
  6
CONTINUOUS
 10
4.826800
 20
3.070760
 11
4.848360
 21
3.061960
  0
LINE
  8
0
 62
     0
  6
CONTINUOUS
 10
4.848360
 20
3.061960
 11
4.874320
 21
3.055360
  0
LINE
  8
0
 62
     0
  6
CONTINUOUS
 10
4.874320
 20
3.055360
 11
4.900280
 21
3.053160
  0
LINE
  8
0
 62
     0
  6
CONTINUOUS
 10
4.962760
 20
3.079120
 11
4.978160
 21
3.042600
  0
LINE
  8
0
 62
     0
  6
CONTINUOUS
 10
5.060440
 20
3.096720
 11
5.034480
 21
3.124440
  0
LINE
  8
0
 62
     0
  6
CONTINUOUS
 10
5.073200
 20
3.178560
 11
5.107960
 21
3.165800
  0
LINE
  8
0
 62
     0
  6
CONTINUOUS
 10
5.127320
 20
3.245880
 11
5.127320
 21
3.273600
  0
LINE
  8
0
 62
     0
  6
CONTINUOUS
 10
5.127320
 20
3.273600
 11
5.120720
 21
3.299560
  0
LINE
  8
0
 62
     0
  6
CONTINUOUS
 10
5.120720
 20
3.299560
 11
5.114120
 21
3.327720
  0
LINE
  8
0
 62
     0
  6
CONTINUOUS
 10
5.114120
 20
3.327720
 11
5.103560
 21
3.351480
  0
LINE
  8
0
 62
     0
  6
CONTINUOUS
 10
5.103560
 20
3.351480
 11
5.086400
 21
3.377440
  0
LINE
  8
0
 62
     0
  6
CONTINUOUS
 10
5.086400
 20
3.377440
 11
5.071000
 21
3.399000
  0
LINE
  8
0
 62
     0
  6
CONTINUOUS
 10
5.071000
 20
3.399000
 11
5.051640
 21
3.416600
  0
LINE
  8
0
 62
     0
  6
CONTINUOUS
 10
5.051640
 20
3.416600
 11
5.027880
 21
3.433760
  0
LINE
  8
0
 62
     0
  6
CONTINUOUS
 10
5.027880
 20
3.433760
 11
5.006320
 21
3.448720
  0
LINE
  8
0
 62
     0
  6
CONTINUOUS
 10
5.006320
 20
3.448720
 11
4.980360
 21
3.459720
  0
LINE
  8
0
 62
     0
  6
CONTINUOUS
 10
4.980360
 20
3.459720
 11
4.952200
 21
3.468520
  0
LINE
  8
0
 62
     0
  6
CONTINUOUS
 10
4.952200
 20
3.468520
 11
4.926240
 21
3.474680
  0
LINE
  8
0
 62
     0
  6
CONTINUOUS
 10
4.926240
 20
3.474680
 11
4.900280
 21
3.474680
  0
LINE
  8
0
 62
     0
  6
CONTINUOUS
 10
4.900280
 20
3.474680
 11
4.869920
 21
3.474680
  0
LINE
  8
0
 62
     0
  6
CONTINUOUS
 10
4.869920
 20
3.474680
 11
4.843960
 21
3.468520
  0
LINE
  8
0
 62
     0
  6
CONTINUOUS
 10
4.843960
 20
3.468520
 11
4.815800
 21
3.459720
  0
LINE
  8
0
 62
     0
  6
CONTINUOUS
 10
4.815800
 20
3.459720
 11
4.792040
 21
3.448720
  0
LINE
  8
0
 62
     0
  6
CONTINUOUS
 10
4.792040
 20
3.448720
 11
4.768280
 21
3.433760
  0
LINE
  8
0
 62
     0
  6
CONTINUOUS
 10
4.768280
 20
3.433760
 11
4.744520
 21
3.416600
  0
LINE
  8
0
 62
     0
  6
CONTINUOUS
 10
4.744520
 20
3.416600
 11
4.725160
 21
3.399000
  0
LINE
  8
0
 62
     0
  6
CONTINUOUS
 10
4.725160
 20
3.399000
 11
4.710200
 21
3.377440
  0
LINE
  8
0
 62
     0
  6
CONTINUOUS
 10
4.710200
 20
3.377440
 11
4.694800
 21
3.351480
  0
LINE
  8
0
 62
     0
  6
CONTINUOUS
 10
4.694800
 20
3.351480
 11
4.684240
 21
3.327720
  0
LINE
  8
0
 62
     0
  6
CONTINUOUS
 10
4.684240
 20
3.327720
 11
4.673240
 21
3.299560
  0
LINE
  8
0
 62
     0
  6
CONTINUOUS
 10
4.673240
 20
3.299560
 11
4.671040
 21
3.273600
  0
LINE
  8
0
 62
     0
  6
CONTINUOUS
 10
4.671040
 20
3.273600
 11
4.668840
 21
3.245880
  0
LINE
  8
0
 62
     0
  6
CONTINUOUS
 10
4.668840
 20
3.245880
 11
4.671040
 21
3.217720
  0
LINE
  8
0
 62
     0
  6
CONTINUOUS
 10
4.671040
 20
3.217720
 11
4.673240
 21
3.191760
  0
LINE
  8
0
 62
     0
  6
CONTINUOUS
 10
4.673240
 20
3.191760
 11
4.684240
 21
3.165800
  0
LINE
  8
0
 62
     0
  6
CONTINUOUS
 10
4.684240
 20
3.165800
 11
4.694800
 21
3.139840
  0
LINE
  8
0
 62
     0
  6
CONTINUOUS
 10
4.694800
 20
3.139840
 11
4.710200
 21
3.116080
  0
LINE
  8
0
 62
     0
  6
CONTINUOUS
 10
4.710200
 20
3.116080
 11
4.725160
 21
3.094520
  0
LINE
  8
0
 62
     0
  6
CONTINUOUS
 10
4.725160
 20
3.094520
 11
4.744520
 21
3.072960
  0
LINE
  8
0
 62
     0
  6
CONTINUOUS
 10
4.744520
 20
3.072960
 11
4.768280
 21
3.057560
  0
LINE
  8
0
 62
     0
  6
CONTINUOUS
 10
4.768280
 20
3.057560
 11
4.792040
 21
3.042600
  0
LINE
  8
0
 62
     0
  6
CONTINUOUS
 10
4.792040
 20
3.042600
 11
4.815800
 21
3.031600
  0
LINE
  8
0
 62
     0
  6
CONTINUOUS
 10
4.815800
 20
3.031600
 11
4.843960
 21
3.023240
  0
LINE
  8
0
 62
     0
  6
CONTINUOUS
 10
4.843960
 20
3.023240
 11
4.869920
 21
3.018840
  0
LINE
  8
0
 62
     0
  6
CONTINUOUS
 10
4.869920
 20
3.018840
 11
4.900280
 21
3.016640
  0
LINE
  8
0
 62
     0
  6
CONTINUOUS
 10
4.900280
 20
3.016640
 11
4.926240
 21
3.018840
  0
LINE
  8
0
 62
     0
  6
CONTINUOUS
 10
4.926240
 20
3.018840
 11
4.952200
 21
3.023240
  0
LINE
  8
0
 62
     0
  6
CONTINUOUS
 10
4.952200
 20
3.023240
 11
4.980360
 21
3.031600
  0
LINE
  8
0
 62
     0
  6
CONTINUOUS
 10
4.980360
 20
3.031600
 11
5.006320
 21
3.042600
  0
LINE
  8
0
 62
     0
  6
CONTINUOUS
 10
5.006320
 20
3.042600
 11
5.027880
 21
3.057560
  0
LINE
  8
0
 62
     0
  6
CONTINUOUS
 10
5.027880
 20
3.057560
 11
5.051640
 21
3.072960
  0
LINE
  8
0
 62
     0
  6
CONTINUOUS
 10
5.051640
 20
3.072960
 11
5.071000
 21
3.094520
  0
LINE
  8
0
 62
     0
  6
CONTINUOUS
 10
5.071000
 20
3.094520
 11
5.086400
 21
3.116080
  0
LINE
  8
0
 62
     0
  6
CONTINUOUS
 10
5.086400
 20
3.116080
 11
5.103560
 21
3.139840
  0
LINE
  8
0
 62
     0
  6
CONTINUOUS
 10
5.103560
 20
3.139840
 11
5.114120
 21
3.165800
  0
LINE
  8
0
 62
     0
  6
CONTINUOUS
 10
5.114120
 20
3.165800
 11
5.120720
 21
3.191760
  0
LINE
  8
0
 62
     0
  6
CONTINUOUS
 10
5.120720
 20
3.191760
 11
5.127320
 21
3.217720
  0
LINE
  8
0
 62
     0
  6
CONTINUOUS
 10
5.127320
 20
3.217720
 11
5.127320
 21
3.245880
  0
LINE
  8
0
 62
     0
  6
CONTINUOUS
 10
5.127320
 20
3.258640
 11
5.088600
 21
3.258640
  0
LINE
  8
0
 62
     0
  6
CONTINUOUS
 10
5.073200
 20
3.338720
 11
5.107960
 21
3.351480
  0
LINE
  8
0
 62
     0
  6
CONTINUOUS
 10
5.071000
 20
3.412200
 11
5.040640
 21
3.386240
  0
LINE
  8
0
 62
     0
  6
CONTINUOUS
 10
5.042840
 20
3.423200
 11
5.460400
 21
3.085720
  0
LINE
  8
0
 62
     0
  6
CONTINUOUS
 10
5.458200
 20
3.206720
 11
5.436640
 21
3.206720
  0
LINE
  8
0
 62
     0
  6
CONTINUOUS
 10
5.436640
 20
3.206720
 11
5.412440
 21
3.206720
  0
LINE
  8
0
 62
     0
  6
CONTINUOUS
 10
5.412440
 20
3.206720
 11
5.393080
 21
3.202320
  0
LINE
  8
0
 62
     0
  6
CONTINUOUS
 10
5.393080
 20
3.202320
 11
5.371520
 21
3.193960
  0
LINE
  8
0
 62
     0
  6
CONTINUOUS
 10
5.371520
 20
3.193960
 11
5.352160
 21
3.182960
  0
LINE
  8
0
 62
     0
  6
CONTINUOUS
 10
5.352160
 20
3.182960
 11
5.335000
 21
3.170200
  0
LINE
  8
0
 62
     0
  6
CONTINUOUS
 10
5.335000
 20
3.170200
 11
5.317400
 21
3.154800
  0
LINE
  8
0
 62
     0
  6
CONTINUOUS
 10
5.317400
 20
3.154800
 11
5.306840
 21
3.137640
  0
LINE
  8
0
 62
     0
  6
CONTINUOUS
 10
5.306840
 20
3.137640
 11
5.293640
 21
3.118280
  0
LINE
  8
0
 62
     0
  6
CONTINUOUS
 10
5.293640
 20
3.118280
 11
5.287480
 21
3.098480
  0
LINE
  8
0
 62
     0
  6
CONTINUOUS
 10
5.287480
 20
3.098480
 11
5.283080
 21
3.076920
  0
LINE
  8
0
 62
     0
  6
CONTINUOUS
 10
5.283080
 20
3.076920
 11
5.280880
 21
3.053160
  0
LINE
  8
0
 62
     0
  6
CONTINUOUS
 10
5.280880
 20
3.053160
 11
5.283080
 21
3.031600
  0
LINE
  8
0
 62
     0
  6
CONTINUOUS
 10
5.283080
 20
3.031600
 11
5.287480
 21
3.010040
  0
LINE
  8
0
 62
     0
  6
CONTINUOUS
 10
5.287480
 20
3.010040
 11
5.293640
 21
2.990680
  0
LINE
  8
0
 62
     0
  6
CONTINUOUS
 10
5.293640
 20
2.990680
 11
5.306840
 21
2.971320
  0
LINE
  8
0
 62
     0
  6
CONTINUOUS
 10
5.306840
 20
2.971320
 11
5.317400
 21
2.953720
  0
LINE
  8
0
 62
     0
  6
CONTINUOUS
 10
5.317400
 20
2.953720
 11
5.335000
 21
2.938760
  0
LINE
  8
0
 62
     0
  6
CONTINUOUS
 10
5.335000
 20
2.938760
 11
5.352160
 21
2.925560
  0
LINE
  8
0
 62
     0
  6
CONTINUOUS
 10
5.352160
 20
2.925560
 11
5.371520
 21
2.917200
  0
LINE
  8
0
 62
     0
  6
CONTINUOUS
 10
5.371520
 20
2.917200
 11
5.393080
 21
2.908400
  0
LINE
  8
0
 62
     0
  6
CONTINUOUS
 10
5.393080
 20
2.908400
 11
5.412440
 21
2.901800
  0
LINE
  8
0
 62
     0
  6
CONTINUOUS
 10
5.412440
 20
2.901800
 11
5.436640
 21
2.901800
  0
LINE
  8
0
 62
     0
  6
CONTINUOUS
 10
5.436640
 20
2.901800
 11
5.458200
 21
2.901800
  0
LINE
  8
0
 62
     0
  6
CONTINUOUS
 10
5.458200
 20
2.901800
 11
5.477560
 21
2.908400
  0
LINE
  8
0
 62
     0
  6
CONTINUOUS
 10
5.477560
 20
2.908400
 11
5.499120
 21
2.917200
  0
LINE
  8
0
 62
     0
  6
CONTINUOUS
 10
5.499120
 20
2.917200
 11
5.518480
 21
2.925560
  0
LINE
  8
0
 62
     0
  6
CONTINUOUS
 10
5.518480
 20
2.925560
 11
5.535640
 21
2.938760
  0
LINE
  8
0
 62
     0
  6
CONTINUOUS
 10
5.535640
 20
2.938760
 11
5.551040
 21
2.953720
  0
LINE
  8
0
 62
     0
  6
CONTINUOUS
 10
5.551040
 20
2.953720
 11
5.563800
 21
2.971320
  0
LINE
  8
0
 62
     0
  6
CONTINUOUS
 10
5.563800
 20
2.971320
 11
5.572600
 21
2.990680
  0
LINE
  8
0
 62
     0
  6
CONTINUOUS
 10
5.572600
 20
2.990680
 11
5.581400
 21
3.010040
  0
LINE
  8
0
 62
     0
  6
CONTINUOUS
 10
5.581400
 20
3.010040
 11
5.585360
 21
3.031600
  0
LINE
  8
0
 62
     0
  6
CONTINUOUS
 10
5.585360
 20
3.031600
 11
5.587560
 21
3.053160
  0
LINE
  8
0
 62
     0
  6
CONTINUOUS
 10
5.587560
 20
3.053160
 11
5.585360
 21
3.076920
  0
LINE
  8
0
 62
     0
  6
CONTINUOUS
 10
5.585360
 20
3.076920
 11
5.581400
 21
3.098480
  0
LINE
  8
0
 62
     0
  6
CONTINUOUS
 10
5.581400
 20
3.098480
 11
5.572600
 21
3.118280
  0
LINE
  8
0
 62
     0
  6
CONTINUOUS
 10
5.572600
 20
3.118280
 11
5.563800
 21
3.137640
  0
LINE
  8
0
 62
     0
  6
CONTINUOUS
 10
5.563800
 20
3.137640
 11
5.551040
 21
3.154800
  0
LINE
  8
0
 62
     0
  6
CONTINUOUS
 10
5.551040
 20
3.154800
 11
5.535640
 21
3.170200
  0
LINE
  8
0
 62
     0
  6
CONTINUOUS
 10
5.535640
 20
3.170200
 11
5.518480
 21
3.182960
  0
LINE
  8
0
 62
     0
  6
CONTINUOUS
 10
5.518480
 20
3.182960
 11
5.499120
 21
3.193960
  0
LINE
  8
0
 62
     0
  6
CONTINUOUS
 10
5.499120
 20
3.193960
 11
5.477560
 21
3.202320
  0
LINE
  8
0
 62
     0
  6
CONTINUOUS
 10
5.477560
 20
3.202320
 11
5.458200
 21
3.206720
  0
LINE
  8
0
 62
     0
  6
CONTINUOUS
 10
5.278680
 20
3.200120
 11
5.280880
 21
3.234880
  0
LINE
  8
0
 62
     0
  6
CONTINUOUS
 10
5.280880
 20
3.234880
 11
5.280880
 21
3.269640
  0
LINE
  8
0
 62
     0
  6
CONTINUOUS
 10
5.280880
 20
3.269640
 11
5.654880
 21
3.269640
  0
LINE
  8
0
 62
     0
  6
CONTINUOUS
 10
5.654880
 20
3.269640
 11
5.654880
 21
3.630440
  0
LINE
  8
0
 62
     0
  6
CONTINUOUS
 10
5.654880
 20
3.630440
 11
4.904680
 21
3.630440
  0
LINE
  8
0
 62
     0
  6
CONTINUOUS
 10
4.904680
 20
3.630440
 11
4.900280
 21
3.630440
  0
LINE
  8
0
 62
     0
  6
CONTINUOUS
 10
4.900280
 20
3.630440
 11
4.863320
 21
3.628240
  0
LINE
  8
0
 62
     0
  6
CONTINUOUS
 10
4.863320
 20
3.628240
 11
4.826800
 21
3.622080
  0
LINE
  8
0
 62
     0
  6
CONTINUOUS
 10
4.826800
 20
3.622080
 11
4.794240
 21
3.615480
  0
LINE
  8
0
 62
     0
  6
CONTINUOUS
 10
4.794240
 20
3.615480
 11
4.759920
 21
3.602280
  0
LINE
  8
0
 62
     0
  6
CONTINUOUS
 10
4.759920
 20
3.602280
 11
4.725160
 21
3.589520
  0
LINE
  8
0
 62
     0
  6
CONTINUOUS
 10
4.725160
 20
3.589520
 11
4.699200
 21
3.572360
  0
LINE
  8
0
 62
     0
  6
CONTINUOUS
 10
4.699200
 20
3.572360
 11
4.668840
 21
3.552560
  0
LINE
  8
0
 62
     0
  6
CONTINUOUS
 10
4.668840
 20
3.552560
 11
4.640680
 21
3.528800
  0
LINE
  8
0
 62
     0
  6
CONTINUOUS
 10
4.640680
 20
3.528800
 11
4.616920
 21
3.507240
  0
LINE
  8
0
 62
     0
  6
CONTINUOUS
 10
4.616920
 20
3.507240
 11
4.593160
 21
3.476880
  0
LINE
  8
0
 62
     0
  6
CONTINUOUS
 10
4.593160
 20
3.476880
 11
4.573800
 21
3.448720
  0
LINE
  8
0
 62
     0
  6
CONTINUOUS
 10
4.573800
 20
3.448720
 11
4.556640
 21
3.418800
  0
LINE
  8
0
 62
     0
  6
CONTINUOUS
 10
4.556640
 20
3.418800
 11
4.541240
 21
3.386240
  0
LINE
  8
0
 62
     0
  6
CONTINUOUS
 10
4.541240
 20
3.386240
 11
4.530680
 21
3.353680
  0
LINE
  8
0
 62
     0
  6
CONTINUOUS
 10
4.530680
 20
3.353680
 11
4.521880
 21
3.321560
  0
LINE
  8
0
 62
     0
  6
CONTINUOUS
 10
4.521880
 20
3.321560
 11
4.517480
 21
3.284600
  0
LINE
  8
0
 62
     0
  6
CONTINUOUS
 10
4.517480
 20
3.284600
 11
4.517480
 21
3.247640
  0
LINE
  8
0
 62
     0
  6
CONTINUOUS
 10
4.517480
 20
3.247640
 11
4.517480
 21
3.215520
  0
LINE
  8
0
 62
     0
  6
CONTINUOUS
 10
4.517480
 20
3.215520
 11
4.521880
 21
3.178560
  0
LINE
  8
0
 62
     0
  6
CONTINUOUS
 10
4.521880
 20
3.178560
 11
4.528480
 21
3.144240
  0
LINE
  8
0
 62
     0
  6
CONTINUOUS
 10
4.528480
 20
3.144240
 11
4.539480
 21
3.111680
  0
LINE
  8
0
 62
     0
  6
CONTINUOUS
 10
4.539480
 20
3.111680
 11
4.554440
 21
3.079120
  0
LINE
  8
0
 62
     0
  6
CONTINUOUS
 10
4.554440
 20
3.079120
 11
4.569400
 21
3.049200
  0
LINE
  8
0
 62
     0
  6
CONTINUOUS
 10
4.569400
 20
3.049200
 11
4.589200
 21
3.021040
  0
LINE
  8
0
 62
     0
  6
CONTINUOUS
 10
4.589200
 20
3.021040
 11
4.612960
 21
2.990680
  0
LINE
  8
0
 62
     0
  6
CONTINUOUS
 10
4.612960
 20
2.990680
 11
4.636720
 21
2.966920
  0
LINE
  8
0
 62
     0
  6
CONTINUOUS
 10
4.636720
 20
2.966920
 11
4.662680
 21
2.945360
  0
LINE
  8
0
 62
     0
  6
CONTINUOUS
 10
4.662680
 20
2.945360
 11
4.692600
 21
2.923800
  0
LINE
  8
0
 62
     0
  6
CONTINUOUS
 10
4.692600
 20
2.923800
 11
4.722960
 21
2.906200
  0
LINE
  8
0
 62
     0
  6
CONTINUOUS
 10
4.722960
 20
2.906200
 11
4.755520
 21
2.891240
  0
LINE
  8
0
 62
     0
  6
CONTINUOUS
 10
4.755520
 20
2.891240
 11
4.788080
 21
2.878040
  0
LINE
  8
0
 62
     0
  6
CONTINUOUS
 10
4.788080
 20
2.878040
 11
4.822400
 21
2.871880
  0
LINE
  8
0
 62
     0
  6
CONTINUOUS
 10
4.822400
 20
2.871880
 11
4.854960
 21
2.867480
  0
LINE
  8
0
 62
     0
  6
CONTINUOUS
 10
4.854960
 20
2.867480
 11
4.891480
 21
2.863080
  0
LINE
  8
0
 62
     0
  6
CONTINUOUS
 10
4.891480
 20
2.863080
 11
4.926240
 21
2.865280
  0
LINE
  8
0
 62
     0
  6
CONTINUOUS
 10
4.926240
 20
2.865280
 11
4.958800
 21
2.867480
  0
LINE
  8
0
 62
     0
  6
CONTINUOUS
 10
4.958800
 20
2.867480
 11
4.995320
 21
2.875840
  0
LINE
  8
0
 62
     0
  6
CONTINUOUS
 10
4.995320
 20
2.875840
 11
5.030080
 21
2.886840
  0
LINE
  8
0
 62
     0
  6
CONTINUOUS
 10
5.030080
 20
2.886840
 11
5.062640
 21
2.900040
  0
LINE
  8
0
 62
     0
  6
CONTINUOUS
 10
5.062640
 20
2.900040
 11
5.092560
 21
2.917200
  0
LINE
  8
0
 62
     0
  6
CONTINUOUS
 10
5.092560
 20
2.917200
 11
5.122920
 21
2.936560
  0
LINE
  8
0
 62
     0
  6
CONTINUOUS
 10
5.122920
 20
2.936560
 11
5.148880
 21
2.958120
  0
LINE
  8
0
 62
     0
  6
CONTINUOUS
 10
5.148880
 20
2.958120
 11
5.174840
 21
2.981880
  0
LINE
  8
0
 62
     0
  6
CONTINUOUS
 10
5.174840
 20
2.981880
 11
5.198600
 21
3.007840
  0
LINE
  8
0
 62
     0
  6
CONTINUOUS
 10
5.198600
 20
3.007840
 11
5.217960
 21
3.036000
  0
LINE
  8
0
 62
     0
  6
CONTINUOUS
 10
5.217960
 20
3.036000
 11
5.237760
 21
3.066360
  0
LINE
  8
0
 62
     0
  6
CONTINUOUS
 10
5.237760
 20
3.066360
 11
5.250520
 21
3.098480
  0
LINE
  8
0
 62
     0
  6
CONTINUOUS
 10
5.250520
 20
3.098480
 11
5.263280
 21
3.131040
  0
LINE
  8
0
 62
     0
  6
CONTINUOUS
 10
5.263280
 20
3.131040
 11
5.269880
 21
3.165800
  0
LINE
  8
0
 62
     0
  6
CONTINUOUS
 10
5.269880
 20
3.165800
 11
5.278680
 21
3.200120
  0
LINE
  8
0
 62
     0
  6
CONTINUOUS
 10
5.280880
 20
3.053160
 11
5.280880
 21
2.900040
  0
LINE
  8
0
 62
     0
  6
CONTINUOUS
 10
5.231160
 20
2.811160
 11
5.231160
 21
2.683560
  0
LINE
  8
0
 62
     0
  6
CONTINUOUS
 10
5.436640
 20
2.683560
 11
5.436640
 21
2.897840
  0
LINE
  8
0
 62
     0
  6
CONTINUOUS
 10
5.527280
 20
2.927760
 11
5.641680
 21
2.811160
  0
LINE
  8
0
 62
     0
  6
CONTINUOUS
 10
5.641680
 20
2.811160
 11
5.641680
 21
2.683560
  0
LINE
  8
0
 62
     0
  6
CONTINUOUS
 10
5.641680
 20
2.683560
 11
5.659280
 21
2.687960
  0
LINE
  8
0
 62
     0
  6
CONTINUOUS
 10
5.659280
 20
2.687960
 11
5.659280
 21
2.679160
  0
LINE
  8
0
 62
     0
  6
CONTINUOUS
 10
5.659280
 20
2.679160
 11
5.641680
 21
2.683560
  0
LINE
  8
0
 62
     0
  6
CONTINUOUS
 10
5.641680
 20
2.683560
 11
5.657080
 21
2.692360
  0
LINE
  8
0
 62
     0
  6
CONTINUOUS
 10
5.652680
 20
2.700720
 11
5.641680
 21
2.683560
  0
LINE
  8
0
 62
     0
  6
CONTINUOUS
 10
5.641680
 20
2.683560
 11
5.643880
 21
2.700720
  0
LINE
  8
0
 62
     0
  6
CONTINUOUS
 10
5.643880
 20
2.700720
 11
5.637280
 21
2.700720
  0
LINE
  8
0
 62
     0
  6
CONTINUOUS
 10
5.637280
 20
2.700720
 11
5.641680
 21
2.683560
  0
LINE
  8
0
 62
     0
  6
CONTINUOUS
 10
5.641680
 20
2.683560
 11
5.631120
 21
2.700720
  0
LINE
  8
0
 62
     0
  6
CONTINUOUS
 10
5.624520
 20
2.692360
 11
5.641680
 21
2.683560
  0
LINE
  8
0
 62
     0
  6
CONTINUOUS
 10
5.641680
 20
2.683560
 11
5.622320
 21
2.679160
  0
LINE
  8
0
 62
     0
  6
CONTINUOUS
 10
5.622320
 20
2.679160
 11
5.622320
 21
2.687960
  0
LINE
  8
0
 62
     0
  6
CONTINUOUS
 10
5.622320
 20
2.687960
 11
5.641680
 21
2.683560
  0
LINE
  8
0
 62
     0
  6
CONTINUOUS
 10
5.641680
 20
2.683560
 11
5.624520
 21
2.673000
  0
LINE
  8
0
 62
     0
  6
CONTINUOUS
 10
5.631120
 20
2.668600
 11
5.641680
 21
2.683560
  0
LINE
  8
0
 62
     0
  6
CONTINUOUS
 10
5.641680
 20
2.683560
 11
5.637280
 21
2.664200
  0
LINE
  8
0
 62
     0
  6
CONTINUOUS
 10
5.637280
 20
2.664200
 11
5.643880
 21
2.664200
  0
LINE
  8
0
 62
     0
  6
CONTINUOUS
 10
5.643880
 20
2.664200
 11
5.641680
 21
2.683560
  0
LINE
  8
0
 62
     0
  6
CONTINUOUS
 10
5.641680
 20
2.683560
 11
5.652680
 21
2.668600
  0
LINE
  8
0
 62
     0
  6
CONTINUOUS
 10
5.657080
 20
2.673000
 11
5.641680
 21
2.683560
  0
LINE
  8
0
 62
     0
  6
CONTINUOUS
 10
5.585360
 20
2.863080
 11
5.585360
 21
3.053160
  0
LINE
  8
0
 62
     0
  6
CONTINUOUS
 10
5.585360
 20
2.900040
 11
5.066600
 21
2.900040
  0
LINE
  8
0
 62
     0
  6
CONTINUOUS
 10
4.807440
 20
3.049200
 11
4.822400
 21
3.083520
  0
LINE
  8
0
 62
     0
  6
CONTINUOUS
 10
4.751120
 20
3.137640
 11
4.720760
 21
3.113880
  0
LINE
  8
0
 62
     0
  6
CONTINUOUS
 10
4.722960
 20
3.185160
 11
4.688640
 21
3.168000
  0
LINE
  8
0
 62
     0
  6
CONTINUOUS
 10
4.668840
 20
3.258640
 11
4.705800
 21
3.258640
  0
LINE
  8
0
 62
     0
  6
CONTINUOUS
 10
4.722960
 20
3.334320
 11
4.688640
 21
3.349280
  0
LINE
  8
0
 62
     0
  6
CONTINUOUS
 10
4.764320
 20
3.381840
 11
4.736160
 21
3.407800
  0
LINE
  8
0
 62
     0
  6
CONTINUOUS
 10
4.820200
 20
3.421000
 11
4.807440
 21
3.455320
  0
LINE
  8
0
 62
     0
  6
CONTINUOUS
 10
4.900280
 20
3.448720
 11
4.900280
 21
3.487880
  0
LINE
  8
0
 62
     0
  6
CONTINUOUS
 10
4.988720
 20
3.470720
 11
4.973760
 21
3.433760
  0
LINE
  8
0
 62
     0
  6
CONTINUOUS
 10
4.167240
 20
3.390640
 11
4.167240
 21
3.628240
  0
LINE
  8
0
 62
     0
  6
CONTINUOUS
 10
3.551240
 20
3.628240
 11
3.551240
 21
3.390640
  0
LINE
  8
0
 62
     0
  6
CONTINUOUS
 10
3.551240
 20
3.390640
 11
3.551240
 21
2.865280
  0
LINE
  8
0
 62
     0
  6
CONTINUOUS
 10
3.551240
 20
2.865280
 11
3.754520
 21
2.865280
  0
LINE
  8
0
 62
     0
  6
CONTINUOUS
 10
3.754520
 20
2.865280
 11
3.962200
 21
2.865280
  0
LINE
  8
0
 62
     0
  6
CONTINUOUS
 10
3.962200
 20
2.865280
 11
4.167240
 21
2.865280
  0
LINE
  8
0
 62
     0
  6
CONTINUOUS
 10
4.167240
 20
2.865280
 11
4.167240
 21
3.390640
  0
LINE
  8
0
 62
     0
  6
CONTINUOUS
 10
4.154480
 20
3.472920
 11
3.560040
 21
2.875840
  0
LINE
  8
0
 62
     0
  6
CONTINUOUS
 10
3.560040
 20
3.023240
 11
4.154480
 21
3.619880
  0
LINE
  8
0
 62
     0
  6
CONTINUOUS
 10
3.858360
 20
3.628240
 11
3.858360
 21
3.323320
  0
LINE
  8
0
 62
     0
  6
CONTINUOUS
 10
3.825800
 20
3.213320
 11
3.815240
 21
3.213320
  0
LINE
  8
0
 62
     0
  6
CONTINUOUS
 10
3.815240
 20
3.213320
 11
3.810840
 21
3.208920
  0
LINE
  8
0
 62
     0
  6
CONTINUOUS
 10
3.810840
 20
3.208920
 11
3.810840
 21
3.200120
  0
LINE
  8
0
 62
     0
  6
CONTINUOUS
 10
3.810840
 20
3.200120
 11
3.817440
 21
3.191760
  0
LINE
  8
0
 62
     0
  6
CONTINUOUS
 10
3.817440
 20
3.191760
 11
3.828000
 21
3.191760
  0
LINE
  8
0
 62
     0
  6
CONTINUOUS
 10
3.828000
 20
3.191760
 11
3.834600
 21
3.196160
  0
LINE
  8
0
 62
     0
  6
CONTINUOUS
 10
3.834600
 20
3.196160
 11
3.834600
 21
3.204520
  0
LINE
  8
0
 62
     0
  6
CONTINUOUS
 10
3.834600
 20
3.204520
 11
3.841200
 21
3.204520
  0
LINE
  8
0
 62
     0
  6
CONTINUOUS
 10
3.834600
 20
3.204520
 11
3.825800
 21
3.213320
  0
LINE
  8
0
 62
     0
  6
CONTINUOUS
 10
3.856160
 20
3.208920
 11
3.864960
 21
3.208920
  0
LINE
  8
0
 62
     0
  6
CONTINUOUS
 10
3.864960
 20
3.208920
 11
3.873320
 21
3.217720
  0
LINE
  8
0
 62
     0
  6
CONTINUOUS
 10
3.873320
 20
3.217720
 11
3.873320
 21
3.228280
  0
LINE
  8
0
 62
     0
  6
CONTINUOUS
 10
3.873320
 20
3.228280
 11
3.856160
 21
3.245880
  0
LINE
  8
0
 62
     0
  6
CONTINUOUS
 10
3.856160
 20
3.245880
 11
3.847360
 21
3.245880
  0
LINE
  8
0
 62
     0
  6
CONTINUOUS
 10
3.847360
 20
3.245880
 11
3.836800
 21
3.237080
  0
LINE
  8
0
 62
     0
  6
CONTINUOUS
 10
3.836800
 20
3.237080
 11
3.836800
 21
3.228280
  0
LINE
  8
0
 62
     0
  6
CONTINUOUS
 10
3.836800
 20
3.228280
 11
3.847360
 21
3.217720
  0
LINE
  8
0
 62
     0
  6
CONTINUOUS
 10
3.847360
 20
3.217720
 11
3.856160
 21
3.217720
  0
LINE
  8
0
 62
     0
  6
CONTINUOUS
 10
3.856160
 20
3.217720
 11
3.868920
 21
3.230480
  0
LINE
  8
0
 62
     0
  6
CONTINUOUS
 10
3.868920
 20
3.247640
 11
3.882120
 21
3.263040
  0
LINE
  8
0
 62
     0
  6
CONTINUOUS
 10
3.882120
 20
3.263040
 11
3.882120
 21
3.271840
  0
LINE
  8
0
 62
     0
  6
CONTINUOUS
 10
3.882120
 20
3.271840
 11
3.873320
 21
3.271840
  0
LINE
  8
0
 62
     0
  6
CONTINUOUS
 10
3.873320
 20
3.271840
 11
3.864960
 21
3.263040
  0
LINE
  8
0
 62
     0
  6
CONTINUOUS
 10
3.864960
 20
3.263040
 11
3.864960
 21
3.254240
  0
LINE
  8
0
 62
     0
  6
CONTINUOUS
 10
3.864960
 20
3.254240
 11
3.873320
 21
3.245880
  0
LINE
  8
0
 62
     0
  6
CONTINUOUS
 10
3.873320
 20
3.245880
 11
3.882120
 21
3.245880
  0
LINE
  8
0
 62
     0
  6
CONTINUOUS
 10
3.882120
 20
3.245880
 11
3.890920
 21
3.254240
  0
LINE
  8
0
 62
     0
  6
CONTINUOUS
 10
3.905880
 20
3.321560
 11
3.927440
 21
3.299560
  0
LINE
  8
0
 62
     0
  6
CONTINUOUS
 10
3.927440
 20
3.299560
 11
3.938440
 21
3.299560
  0
LINE
  8
0
 62
     0
  6
CONTINUOUS
 10
3.938440
 20
3.299560
 11
3.946800
 21
3.308360
  0
LINE
  8
0
 62
     0
  6
CONTINUOUS
 10
3.946800
 20
3.308360
 11
3.946800
 21
3.317160
  0
LINE
  8
0
 62
     0
  6
CONTINUOUS
 10
3.946800
 20
3.317160
 11
3.920840
 21
3.340920
  0
LINE
  8
0
 62
     0
  6
CONTINUOUS
 10
3.940640
 20
3.340920
 11
3.960000
 21
3.321560
  0
LINE
  8
0
 62
     0
  6
CONTINUOUS
 10
3.946800
 20
3.334320
 11
3.946800
 21
3.345320
  0
LINE
  8
0
 62
     0
  6
CONTINUOUS
 10
3.946800
 20
3.345320
 11
3.946800
 21
3.349280
  0
LINE
  8
0
 62
     0
  6
CONTINUOUS
 10
3.946800
 20
3.349280
 11
3.960000
 21
3.349280
  0
LINE
  8
0
 62
     0
  6
CONTINUOUS
 10
3.960000
 20
3.349280
 11
3.972760
 21
3.334320
  0
LINE
  8
0
 62
     0
  6
CONTINUOUS
 10
3.977160
 20
3.375240
 11
3.972760
 21
3.381840
  0
LINE
  8
0
 62
     0
  6
CONTINUOUS
 10
3.981560
 20
3.373040
 11
3.996520
 21
3.358080
  0
LINE
  8
0
 62
     0
  6
CONTINUOUS
 10
3.996520
 20
3.392840
 11
4.011920
 21
3.412200
  0
LINE
  8
0
 62
     0
  6
CONTINUOUS
 10
3.996520
 20
3.412200
 11
4.020280
 21
3.388440
  0
LINE
  8
0
 62
     0
  6
CONTINUOUS
 10
4.020280
 20
3.388440
 11
4.024680
 21
3.388440
  0
LINE
  8
0
 62
     0
  6
CONTINUOUS
 10
4.024680
 20
3.388440
 11
4.024680
 21
3.399000
  0
LINE
  8
0
 62
     0
  6
CONTINUOUS
 10
4.022480
 20
3.219920
 11
4.035680
 21
3.219920
  0
LINE
  8
0
 62
     0
  6
CONTINUOUS
 10
4.035680
 20
3.219920
 11
4.042280
 21
3.213320
  0
LINE
  8
0
 62
     0
  6
CONTINUOUS
 10
4.042280
 20
3.213320
 11
4.042280
 21
3.206720
  0
LINE
  8
0
 62
     0
  6
CONTINUOUS
 10
4.042280
 20
3.206720
 11
4.035680
 21
3.197920
  0
LINE
  8
0
 62
     0
  6
CONTINUOUS
 10
4.035680
 20
3.197920
 11
4.022480
 21
3.197920
  0
LINE
  8
0
 62
     0
  6
CONTINUOUS
 10
4.022480
 20
3.197920
 11
4.016320
 21
3.191760
  0
LINE
  8
0
 62
     0
  6
CONTINUOUS
 10
4.016320
 20
3.191760
 11
4.016320
 21
3.176360
  0
LINE
  8
0
 62
     0
  6
CONTINUOUS
 10
4.016320
 20
3.176360
 11
4.042280
 21
3.176360
  0
LINE
  8
0
 62
     0
  6
CONTINUOUS
 10
4.063840
 20
3.176360
 11
4.076600
 21
3.191760
  0
LINE
  8
0
 62
     0
  6
CONTINUOUS
 10
4.076600
 20
3.191760
 11
4.076600
 21
3.206720
  0
LINE
  8
0
 62
     0
  6
CONTINUOUS
 10
4.076600
 20
3.206720
 11
4.063840
 21
3.219920
  0
LINE
  8
0
 62
     0
  6
CONTINUOUS
 10
4.022480
 20
3.219920
 11
4.016320
 21
3.213320
  0
LINE
  8
0
 62
     0
  6
CONTINUOUS
 10
3.994320
 20
3.219920
 11
3.981560
 21
3.206720
  0
LINE
  8
0
 62
     0
  6
CONTINUOUS
 10
3.981560
 20
3.206720
 11
3.981560
 21
3.191760
  0
LINE
  8
0
 62
     0
  6
CONTINUOUS
 10
3.981560
 20
3.191760
 11
3.994320
 21
3.176360
  0
LINE
  8
0
 62
     0
  6
CONTINUOUS
 10
3.858360
 20
3.176360
 11
3.858360
 21
2.865280
  0
LINE
  8
0
 62
     0
  6
CONTINUOUS
 10
3.972760
 20
2.880240
 11
4.020280
 21
2.880240
  0
LINE
  8
0
 62
     0
  6
CONTINUOUS
 10
4.020280
 20
2.880240
 11
4.011920
 21
2.880240
  0
LINE
  8
0
 62
     0
  6
CONTINUOUS
 10
4.011920
 20
2.880240
 11
3.996520
 21
2.886840
  0
LINE
  8
0
 62
     0
  6
CONTINUOUS
 10
3.996520
 20
2.886840
 11
3.981560
 21
2.880240
  0
LINE
  8
0
 62
     0
  6
CONTINUOUS
 10
3.996520
 20
2.886840
 11
4.137320
 21
3.038200
  0
LINE
  8
0
 62
     0
  6
CONTINUOUS
 10
4.137320
 20
3.038200
 11
4.121920
 21
3.044800
  0
LINE
  8
0
 62
     0
  6
CONTINUOUS
 10
4.121920
 20
3.044800
 11
4.113560
 21
3.044800
  0
LINE
  8
0
 62
     0
  6
CONTINUOUS
 10
4.113560
 20
3.044800
 11
4.161080
 21
3.044800
  0
LINE
  8
0
 62
     0
  6
CONTINUOUS
 10
4.161080
 20
3.044800
 11
4.154480
 21
3.044800
  0
LINE
  8
0
 62
     0
  6
CONTINUOUS
 10
4.154480
 20
3.044800
 11
4.137320
 21
3.038200
  0
LINE
  8
0
 62
     0
  6
CONTINUOUS
 10
4.074400
 20
3.044800
 11
4.020280
 21
3.044800
  0
LINE
  8
0
 62
     0
  6
CONTINUOUS
 10
4.020280
 20
3.044800
 11
4.024680
 21
3.044800
  0
LINE
  8
0
 62
     0
  6
CONTINUOUS
 10
4.024680
 20
3.044800
 11
4.042280
 21
3.031600
  0
LINE
  8
0
 62
     0
  6
CONTINUOUS
 10
4.042280
 20
3.031600
 11
4.050640
 21
3.031600
  0
LINE
  8
0
 62
     0
  6
CONTINUOUS
 10
4.050640
 20
3.031600
 11
4.059440
 21
3.044800
  0
LINE
  8
0
 62
     0
  6
CONTINUOUS
 10
4.059440
 20
3.044800
 11
4.066040
 21
3.044800
  0
LINE
  8
0
 62
     0
  6
CONTINUOUS
 10
4.066040
 20
3.044800
 11
4.050640
 21
3.038200
  0
LINE
  8
0
 62
     0
  6
CONTINUOUS
 10
4.050640
 20
3.038200
 11
4.050640
 21
3.044800
  0
LINE
  8
0
 62
     0
  6
CONTINUOUS
 10
4.050640
 20
3.044800
 11
4.098160
 21
2.880240
  0
LINE
  8
0
 62
     0
  6
CONTINUOUS
 10
4.098160
 20
2.880240
 11
4.102560
 21
2.880240
  0
LINE
  8
0
 62
     0
  6
CONTINUOUS
 10
4.102560
 20
2.880240
 11
4.092000
 21
2.897840
  0
LINE
  8
0
 62
     0
  6
CONTINUOUS
 10
4.092000
 20
2.897840
 11
4.083200
 21
2.897840
  0
LINE
  8
0
 62
     0
  6
CONTINUOUS
 10
4.083200
 20
2.897840
 11
4.074400
 21
2.880240
  0
LINE
  8
0
 62
     0
  6
CONTINUOUS
 10
4.074400
 20
2.880240
 11
4.083200
 21
2.880240
  0
LINE
  8
0
 62
     0
  6
CONTINUOUS
 10
4.083200
 20
2.880240
 11
4.035680
 21
3.044800
  0
LINE
  8
0
 62
     0
  6
CONTINUOUS
 10
4.035680
 20
3.044800
 11
4.042280
 21
3.044800
  0
LINE
  8
0
 62
     0
  6
CONTINUOUS
 10
4.042280
 20
3.044800
 11
4.092000
 21
2.880240
  0
LINE
  8
0
 62
     0
  6
CONTINUOUS
 10
4.083200
 20
2.886840
 11
4.066040
 21
2.880240
  0
LINE
  8
0
 62
     0
  6
CONTINUOUS
 10
4.066040
 20
2.880240
 11
4.059440
 21
2.880240
  0
LINE
  8
0
 62
     0
  6
CONTINUOUS
 10
4.059440
 20
2.880240
 11
4.113560
 21
2.880240
  0
LINE
  8
0
 62
     0
  6
CONTINUOUS
 10
3.560040
 20
2.875840
 11
3.560040
 21
3.023240
  0
LINE
  8
0
 62
     0
  6
CONTINUOUS
 10
3.560040
 20
3.014440
 11
4.154480
 21
3.611080
  0
LINE
  8
0
 62
     0
  6
CONTINUOUS
 10
4.154480
 20
3.619880
 11
4.154480
 21
3.472920
  0
LINE
  8
0
 62
     0
  6
CONTINUOUS
 10
3.698200
 20
3.476880
 11
3.683240
 21
3.459720
  0
LINE
  8
0
 62
     0
  6
CONTINUOUS
 10
3.683240
 20
3.459720
 11
3.667840
 21
3.453120
  0
LINE
  8
0
 62
     0
  6
CONTINUOUS
 10
3.667840
 20
3.453120
 11
3.635720
 21
3.444760
  0
LINE
  8
0
 62
     0
  6
CONTINUOUS
 10
3.635720
 20
3.444760
 11
3.566640
 21
3.444760
  0
LINE
  8
0
 62
     0
  6
CONTINUOUS
 10
3.566640
 20
3.444760
 11
3.572800
 21
3.444760
  0
LINE
  8
0
 62
     0
  6
CONTINUOUS
 10
3.572800
 20
3.444760
 11
3.596560
 21
3.453120
  0
LINE
  8
0
 62
     0
  6
CONTINUOUS
 10
3.596560
 20
3.453120
 11
3.618120
 21
3.444760
  0
LINE
  8
0
 62
     0
  6
CONTINUOUS
 10
3.618120
 20
3.444760
 11
3.611960
 21
3.444760
  0
LINE
  8
0
 62
     0
  6
CONTINUOUS
 10
3.611960
 20
3.444760
 11
3.605360
 21
3.459720
  0
LINE
  8
0
 62
     0
  6
CONTINUOUS
 10
3.605360
 20
3.459720
 11
3.596560
 21
3.459720
  0
LINE
  8
0
 62
     0
  6
CONTINUOUS
 10
3.596560
 20
3.459720
 11
3.579400
 21
3.444760
  0
LINE
  8
0
 62
     0
  6
CONTINUOUS
 10
3.579400
 20
3.444760
 11
3.588200
 21
3.444760
  0
LINE
  8
0
 62
     0
  6
CONTINUOUS
 10
3.588200
 20
3.444760
 11
3.635720
 21
3.608880
  0
LINE
  8
0
 62
     0
  6
CONTINUOUS
 10
3.635720
 20
3.608880
 11
3.644080
 21
3.608880
  0
LINE
  8
0
 62
     0
  6
CONTINUOUS
 10
3.644080
 20
3.608880
 11
3.596560
 21
3.444760
  0
LINE
  8
0
 62
     0
  6
CONTINUOUS
 10
3.596560
 20
3.444760
 11
3.605360
 21
3.444760
  0
LINE
  8
0
 62
     0
  6
CONTINUOUS
 10
3.605360
 20
3.444760
 11
3.650680
 21
3.608880
  0
LINE
  8
0
 62
     0
  6
CONTINUOUS
 10
3.650680
 20
3.608880
 11
3.659480
 21
3.608880
  0
LINE
  8
0
 62
     0
  6
CONTINUOUS
 10
3.659480
 20
3.608880
 11
3.644080
 21
3.593920
  0
LINE
  8
0
 62
     0
  6
CONTINUOUS
 10
3.644080
 20
3.593920
 11
3.644080
 21
3.602280
  0
LINE
  8
0
 62
     0
  6
CONTINUOUS
 10
3.644080
 20
3.602280
 11
3.667840
 21
3.608880
  0
LINE
  8
0
 62
     0
  6
CONTINUOUS
 10
3.683240
 20
3.608880
 11
3.707000
 21
3.602280
  0
LINE
  8
0
 62
     0
  6
CONTINUOUS
 10
3.707000
 20
3.602280
 11
3.713600
 21
3.593920
  0
LINE
  8
0
 62
     0
  6
CONTINUOUS
 10
3.713600
 20
3.593920
 11
3.721960
 21
3.570160
  0
LINE
  8
0
 62
     0
  6
CONTINUOUS
 10
3.721960
 20
3.570160
 11
3.721960
 21
3.539800
  0
LINE
  8
0
 62
     0
  6
CONTINUOUS
 10
3.721960
 20
3.539800
 11
3.713600
 21
3.507240
  0
LINE
  8
0
 62
     0
  6
CONTINUOUS
 10
3.713600
 20
3.507240
 11
3.698200
 21
3.476880
  0
LINE
  8
0
 62
     0
  6
CONTINUOUS
 10
3.698200
 20
3.476880
 11
3.692040
 21
3.476880
  0
LINE
  8
0
 62
     0
  6
CONTINUOUS
 10
3.692040
 20
3.476880
 11
3.674440
 21
3.459720
  0
LINE
  8
0
 62
     0
  6
CONTINUOUS
 10
3.659480
 20
3.453120
 11
3.635720
 21
3.444760
  0
LINE
  8
0
 62
     0
  6
CONTINUOUS
 10
3.659480
 20
3.453120
 11
3.683240
 21
3.476880
  0
LINE
  8
0
 62
     0
  6
CONTINUOUS
 10
3.683240
 20
3.476880
 11
3.698200
 21
3.507240
  0
LINE
  8
0
 62
     0
  6
CONTINUOUS
 10
3.698200
 20
3.507240
 11
3.707000
 21
3.539800
  0
LINE
  8
0
 62
     0
  6
CONTINUOUS
 10
3.707000
 20
3.539800
 11
3.707000
 21
3.570160
  0
LINE
  8
0
 62
     0
  6
CONTINUOUS
 10
3.707000
 20
3.570160
 11
3.698200
 21
3.593920
  0
LINE
  8
0
 62
     0
  6
CONTINUOUS
 10
3.698200
 20
3.593920
 11
3.683240
 21
3.608880
  0
LINE
  8
0
 62
     0
  6
CONTINUOUS
 10
3.683240
 20
3.608880
 11
3.611960
 21
3.608880
  0
LINE
  8
0
 62
     0
  6
CONTINUOUS
 10
3.611960
 20
3.608880
 11
3.618120
 21
3.608880
  0
LINE
  8
0
 62
     0
  6
CONTINUOUS
 10
3.618120
 20
3.608880
 11
3.644080
 21
3.602280
  0
LINE
  8
0
 62
     0
  6
CONTINUOUS
 10
3.635720
 20
3.593920
 11
3.626920
 21
3.608880
  0
LINE
  8
0
 62
     0
  6
CONTINUOUS
 10
3.707000
 20
3.593920
 11
3.713600
 21
3.570160
  0
LINE
  8
0
 62
     0
  6
CONTINUOUS
 10
3.713600
 20
3.570160
 11
3.713600
 21
3.539800
  0
LINE
  8
0
 62
     0
  6
CONTINUOUS
 10
3.713600
 20
3.539800
 11
3.707000
 21
3.507240
  0
LINE
  8
0
 62
     0
  6
CONTINUOUS
 10
3.707000
 20
3.507240
 11
3.692040
 21
3.476880
  0
LINE
  8
0
 62
     0
  6
CONTINUOUS
 10
3.698200
 20
3.602280
 11
3.707000
 21
3.593920
  0
LINE
  8
0
 62
     0
  6
CONTINUOUS
 10
3.707000
 20
3.291200
 11
3.719760
 21
3.280200
  0
LINE
  8
0
 62
     0
  6
CONTINUOUS
 10
3.719760
 20
3.280200
 11
3.719760
 21
3.265240
  0
LINE
  8
0
 62
     0
  6
CONTINUOUS
 10
3.719760
 20
3.265240
 11
3.707000
 21
3.249840
  0
LINE
  8
0
 62
     0
  6
CONTINUOUS
 10
3.678840
 20
3.249840
 11
3.666080
 21
3.249840
  0
LINE
  8
0
 62
     0
  6
CONTINUOUS
 10
3.666080
 20
3.249840
 11
3.672240
 21
3.249840
  0
LINE
  8
0
 62
     0
  6
CONTINUOUS
 10
3.672240
 20
3.249840
 11
3.672240
 21
3.291200
  0
LINE
  8
0
 62
     0
  6
CONTINUOUS
 10
3.672240
 20
3.291200
 11
3.666080
 21
3.286800
  0
LINE
  8
0
 62
     0
  6
CONTINUOUS
 10
3.637920
 20
3.291200
 11
3.624720
 21
3.280200
  0
LINE
  8
0
 62
     0
  6
CONTINUOUS
 10
3.624720
 20
3.280200
 11
3.624720
 21
3.265240
  0
LINE
  8
0
 62
     0
  6
CONTINUOUS
 10
3.624720
 20
3.265240
 11
3.637920
 21
3.249840
  0
LINE
  8
0
 62
     0
  6
CONTINUOUS
 10
3.644080
 20
3.059760
 11
3.670040
 21
3.031600
  0
LINE
  8
0
 62
     0
  6
CONTINUOUS
 10
3.670040
 20
3.068560
 11
3.692040
 21
3.055360
  0
LINE
  8
0
 62
     0
  6
CONTINUOUS
 10
3.692040
 20
3.055360
 11
3.681040
 21
3.076920
  0
LINE
  8
0
 62
     0
  6
CONTINUOUS
 10
3.681040
 20
3.076920
 11
3.702600
 21
3.064160
  0
LINE
  8
0
 62
     0
  6
CONTINUOUS
 10
3.702600
 20
3.064160
 11
3.687640
 21
3.087920
  0
LINE
  8
0
 62
     0
  6
CONTINUOUS
 10
3.702600
 20
3.092320
 11
3.702600
 21
3.100680
  0
LINE
  8
0
 62
     0
  6
CONTINUOUS
 10
3.702600
 20
3.100680
 11
3.711400
 21
3.109480
  0
LINE
  8
0
 62
     0
  6
CONTINUOUS
 10
3.711400
 20
3.109480
 11
3.719760
 21
3.109480
  0
LINE
  8
0
 62
     0
  6
CONTINUOUS
 10
3.719760
 20
3.109480
 11
3.730760
 21
3.100680
  0
LINE
  8
0
 62
     0
  6
CONTINUOUS
 10
3.730760
 20
3.100680
 11
3.730760
 21
3.092320
  0
LINE
  8
0
 62
     0
  6
CONTINUOUS
 10
3.730760
 20
3.092320
 11
3.719760
 21
3.083520
  0
LINE
  8
0
 62
     0
  6
CONTINUOUS
 10
3.719760
 20
3.083520
 11
3.711400
 21
3.083520
  0
LINE
  8
0
 62
     0
  6
CONTINUOUS
 10
3.711400
 20
3.083520
 11
3.702600
 21
3.092320
  0
LINE
  8
0
 62
     0
  6
CONTINUOUS
 10
3.652880
 20
3.068560
 11
3.633520
 21
3.050960
  0
LINE
  8
0
 62
     0
  6
CONTINUOUS
 10
3.747920
 20
3.154800
 11
3.747920
 21
3.163600
  0
LINE
  8
0
 62
     0
  6
CONTINUOUS
 10
3.747920
 20
3.163600
 11
3.754520
 21
3.174160
  0
LINE
  8
0
 62
     0
  6
CONTINUOUS
 10
3.754520
 20
3.174160
 11
3.765520
 21
3.174160
  0
LINE
  8
0
 62
     0
  6
CONTINUOUS
 10
3.778280
 20
3.176360
 11
3.795440
 21
3.196160
  0
LINE
  8
0
 62
     0
  6
CONTINUOUS
 10
3.778280
 20
3.196160
 11
3.802040
 21
3.174160
  0
LINE
  8
0
 62
     0
  6
CONTINUOUS
 10
3.802040
 20
3.174160
 11
3.810840
 21
3.174160
  0
LINE
  8
0
 62
     0
  6
CONTINUOUS
 10
3.810840
 20
3.174160
 11
3.810840
 21
3.180760
  0
LINE
  8
0
 62
     0
  6
CONTINUOUS
 10
3.784880
 20
3.154800
 11
3.747920
 21
3.154800
  0
LINE
  8
0
 62
     0
  6
CONTINUOUS
 10
3.765520
 20
3.135440
 11
3.773880
 21
3.135440
  0
LINE
  8
0
 62
     0
  6
CONTINUOUS
 10
3.773880
 20
3.135440
 11
3.784880
 21
3.144240
  0
LINE
  8
0
 62
     0
  6
CONTINUOUS
 10
3.784880
 20
3.144240
 11
3.784880
 21
3.154800
  0
LINE
  8
0
 62
     0
  6
CONTINUOUS
 10
3.151280
 20
3.154800
 11
3.034680
 21
3.206720
  0
LINE
  8
0
 62
     0
  6
CONTINUOUS
 10
3.034680
 20
3.223880
 11
3.151280
 21
3.273600
  0
LINE
  8
0
 62
     0
  6
CONTINUOUS
 10
3.151280
 20
3.258640
 11
3.034680
 21
3.310560
  0
LINE
  8
0
 62
     0
  6
CONTINUOUS
 10
3.034680
 20
3.310560
 11
3.151280
 21
3.360280
  0
LINE
  8
0
 62
     0
  6
CONTINUOUS
 10
3.151280
 20
3.334320
 11
3.034680
 21
3.384040
  0
LINE
  8
0
 62
     0
  6
CONTINUOUS
 10
3.034680
 20
3.397240
 11
3.151280
 21
3.446960
  0
LINE
  8
0
 62
     0
  6
CONTINUOUS
 10
3.151280
 20
3.433760
 11
3.034680
 21
3.483480
  0
LINE
  8
0
 62
     0
  6
CONTINUOUS
 10
3.034680
 20
3.466320
 11
3.151280
 21
3.516040
  0
LINE
  8
0
 62
     0
  6
CONTINUOUS
 10
3.151280
 20
3.526600
 11
3.034680
 21
3.576320
  0
LINE
  8
0
 62
     0
  6
CONTINUOUS
 10
3.034680
 20
3.563560
 11
3.151280
 21
3.613280
  0
LINE
  8
0
 62
     0
  6
CONTINUOUS
 10
3.151280
 20
3.643640
 11
3.151280
 21
2.856480
  0
LINE
  8
0
 62
     0
  6
CONTINUOUS
 10
3.151280
 20
2.874080
 11
3.034680
 21
2.923800
  0
LINE
  8
0
 62
     0
  6
CONTINUOUS
 10
3.034680
 20
2.908400
 11
3.151280
 21
2.960320
  0
LINE
  8
0
 62
     0
  6
CONTINUOUS
 10
3.151280
 20
2.971320
 11
3.034680
 21
3.021040
  0
LINE
  8
0
 62
     0
  6
CONTINUOUS
 10
3.034680
 20
3.040400
 11
3.151280
 21
3.090120
  0
LINE
  8
0
 62
     0
  6
CONTINUOUS
 10
3.151280
 20
3.090120
 11
3.151280
 21
3.094520
  0
LINE
  8
0
 62
     0
  6
CONTINUOUS
 10
3.151280
 20
3.094520
 11
3.034680
 21
3.144240
  0
LINE
  8
0
 62
     0
  6
CONTINUOUS
 10
3.034680
 20
3.144240
 11
3.151280
 21
3.196160
  0
LINE
  8
0
 62
     0
  6
CONTINUOUS
 10
3.151280
 20
3.211120
 11
3.034680
 21
3.263040
  0
LINE
  8
0
 62
     0
  6
CONTINUOUS
 10
3.034680
 20
3.280200
 11
3.151280
 21
3.329920
  0
LINE
  8
0
 62
     0
  6
CONTINUOUS
 10
3.151280
 20
3.291200
 11
3.034680
 21
3.340920
  0
LINE
  8
0
 62
     0
  6
CONTINUOUS
 10
3.034680
 20
3.340920
 11
3.151280
 21
3.392840
  0
LINE
  8
0
 62
     0
  6
CONTINUOUS
 10
3.151280
 20
3.392840
 11
3.151280
 21
3.395040
  0
LINE
  8
0
 62
     0
  6
CONTINUOUS
 10
3.151280
 20
3.395040
 11
3.034680
 21
3.444760
  0
LINE
  8
0
 62
     0
  6
CONTINUOUS
 10
3.034680
 20
3.423200
 11
3.151280
 21
3.472920
  0
LINE
  8
0
 62
     0
  6
CONTINUOUS
 10
3.151280
 20
3.472920
 11
3.151280
 21
3.476880
  0
LINE
  8
0
 62
     0
  6
CONTINUOUS
 10
3.151280
 20
3.476880
 11
3.034680
 21
3.526600
  0
LINE
  8
0
 62
     0
  6
CONTINUOUS
 10
3.034680
 20
3.513840
 11
3.151280
 21
3.563560
  0
LINE
  8
0
 62
     0
  6
CONTINUOUS
 10
3.151280
 20
3.563560
 11
3.151280
 21
3.567960
  0
LINE
  8
0
 62
     0
  6
CONTINUOUS
 10
3.151280
 20
3.567960
 11
3.034680
 21
3.619880
  0
LINE
  8
0
 62
     0
  6
CONTINUOUS
 10
3.034680
 20
3.643640
 11
3.034680
 21
2.856480
  0
LINE
  8
0
 62
     0
  6
CONTINUOUS
 10
3.034680
 20
2.867480
 11
3.151280
 21
2.917200
  0
LINE
  8
0
 62
     0
  6
CONTINUOUS
 10
3.151280
 20
2.917200
 11
3.151280
 21
2.921600
  0
LINE
  8
0
 62
     0
  6
CONTINUOUS
 10
3.151280
 20
2.921600
 11
3.034680
 21
2.971320
  0
LINE
  8
0
 62
     0
  6
CONTINUOUS
 10
3.034680
 20
2.984080
 11
3.151280
 21
2.934360
  0
LINE
  8
0
 62
     0
  6
CONTINUOUS
 10
3.151280
 20
3.010040
 11
3.034680
 21
2.960320
  0
LINE
  8
0
 62
     0
  6
CONTINUOUS
 10
3.034680
 20
3.001240
 11
3.151280
 21
3.053160
  0
LINE
  8
0
 62
     0
  6
CONTINUOUS
 10
3.151280
 20
3.038200
 11
3.034680
 21
3.087920
  0
LINE
  8
0
 62
     0
  6
CONTINUOUS
 10
3.034680
 20
3.102880
 11
3.151280
 21
3.150400
  0
LINE
  8
0
 62
     0
  6
CONTINUOUS
 10
3.151280
 20
3.124440
 11
3.034680
 21
3.176360
  0
LINE
  8
0
 62
     0
  6
CONTINUOUS
 10
3.034680
 20
3.176360
 11
3.034680
 21
3.174160
  0
LINE
  8
0
 62
     0
  6
CONTINUOUS
 10
3.034680
 20
3.174160
 11
3.151280
 21
3.226080
  0
LINE
  8
0
 62
     0
  6
CONTINUOUS
 10
3.151280
 20
3.014440
 11
3.034680
 21
3.064160
  0
LINE
  8
0
 62
     0
  6
CONTINUOUS
 10
2.878920
 20
2.856480
 11
7.576360
 21
2.856480
  0
LINE
  8
0
 62
     0
  6
CONTINUOUS
 10
7.576360
 20
2.856480
 11
7.574160
 21
2.856480
  0
LINE
  8
0
 62
     0
  6
CONTINUOUS
 10
7.574160
 20
2.856480
 11
7.982480
 21
3.237080
  0
LINE
  8
0
 62
     0
  6
CONTINUOUS
 10
7.982480
 20
3.237080
 11
7.576360
 21
3.643640
  0
LINE
  8
0
 62
     0
  6
CONTINUOUS
 10
3.151280
 20
3.552560
 11
3.034680
 21
3.502840
  0
LINE
  8
0
 62
     0
  6
CONTINUOUS
 10
2.848560
 20
2.711720
 11
2.703800
 21
2.409000
  0
LINE
  8
0
 62
     0
  6
CONTINUOUS
 10
2.565640
 20
2.409000
 11
2.710400
 21
2.711720
  0
LINE
  8
0
 62
     0
  6
CONTINUOUS
 10
2.768920
 20
2.590720
 11
2.783880
 21
2.573560
  0
LINE
  8
0
 62
     0
  6
CONTINUOUS
 10
2.783880
 20
2.573560
 11
2.775080
 21
2.595120
  0
LINE
  8
0
 62
     0
  6
CONTINUOUS
 10
2.775080
 20
2.595120
 11
2.783880
 21
2.573560
  0
LINE
  8
0
 62
     0
  6
CONTINUOUS
 10
2.783880
 20
2.573560
 11
2.783880
 21
2.597320
  0
LINE
  8
0
 62
     0
  6
CONTINUOUS
 10
2.783880
 20
2.597320
 11
2.783880
 21
2.573560
  0
LINE
  8
0
 62
     0
  6
CONTINUOUS
 10
2.783880
 20
2.573560
 11
2.792680
 21
2.595120
  0
LINE
  8
0
 62
     0
  6
CONTINUOUS
 10
2.792680
 20
2.595120
 11
2.783880
 21
2.573560
  0
LINE
  8
0
 62
     0
  6
CONTINUOUS
 10
2.783880
 20
2.573560
 11
2.801040
 21
2.590720
  0
LINE
  8
0
 62
     0
  6
CONTINUOUS
 10
2.801040
 20
2.590720
 11
2.783880
 21
2.573560
  0
LINE
  8
0
 62
     0
  6
CONTINUOUS
 10
2.783880
 20
2.573560
 11
2.805440
 21
2.581920
  0
LINE
  8
0
 62
     0
  6
CONTINUOUS
 10
2.805440
 20
2.581920
 11
2.783880
 21
2.573560
  0
LINE
  8
0
 62
     0
  6
CONTINUOUS
 10
2.783880
 20
2.573560
 11
2.807640
 21
2.573560
  0
LINE
  8
0
 62
     0
  6
CONTINUOUS
 10
2.807640
 20
2.573560
 11
2.783880
 21
2.573560
  0
LINE
  8
0
 62
     0
  6
CONTINUOUS
 10
2.783880
 20
2.573560
 11
2.805440
 21
2.564760
  0
LINE
  8
0
 62
     0
  6
CONTINUOUS
 10
2.805440
 20
2.564760
 11
2.783880
 21
2.573560
  0
LINE
  8
0
 62
     0
  6
CONTINUOUS
 10
2.783880
 20
2.573560
 11
2.801040
 21
2.555960
  0
LINE
  8
0
 62
     0
  6
CONTINUOUS
 10
2.801040
 20
2.555960
 11
2.783880
 21
2.573560
  0
LINE
  8
0
 62
     0
  6
CONTINUOUS
 10
2.783880
 20
2.573560
 11
2.792680
 21
2.551560
  0
LINE
  8
0
 62
     0
  6
CONTINUOUS
 10
2.792680
 20
2.551560
 11
2.783880
 21
2.573560
  0
LINE
  8
0
 62
     0
  6
CONTINUOUS
 10
2.783880
 20
2.573560
 11
2.783880
 21
2.549800
  0
LINE
  8
0
 62
     0
  6
CONTINUOUS
 10
2.783880
 20
2.549800
 11
2.783880
 21
2.573560
  0
LINE
  8
0
 62
     0
  6
CONTINUOUS
 10
2.783880
 20
2.573560
 11
2.775080
 21
2.551560
  0
LINE
  8
0
 62
     0
  6
CONTINUOUS
 10
2.775080
 20
2.551560
 11
2.783880
 21
2.573560
  0
LINE
  8
0
 62
     0
  6
CONTINUOUS
 10
2.783880
 20
2.573560
 11
2.768920
 21
2.555960
  0
LINE
  8
0
 62
     0
  6
CONTINUOUS
 10
2.768920
 20
2.555960
 11
2.783880
 21
2.573560
  0
LINE
  8
0
 62
     0
  6
CONTINUOUS
 10
2.783880
 20
2.573560
 11
2.762320
 21
2.564760
  0
LINE
  8
0
 62
     0
  6
CONTINUOUS
 10
2.762320
 20
2.564760
 11
2.783880
 21
2.573560
  0
LINE
  8
0
 62
     0
  6
CONTINUOUS
 10
2.783880
 20
2.573560
 11
2.762320
 21
2.573560
  0
LINE
  8
0
 62
     0
  6
CONTINUOUS
 10
2.762320
 20
2.573560
 11
2.783880
 21
2.573560
  0
LINE
  8
0
 62
     0
  6
CONTINUOUS
 10
2.783880
 20
2.573560
 11
2.762320
 21
2.581920
  0
LINE
  8
0
 62
     0
  6
CONTINUOUS
 10
2.762320
 20
2.581920
 11
2.783880
 21
2.573560
  0
LINE
  8
0
 62
     0
  6
CONTINUOUS
 10
2.783880
 20
2.573560
 11
2.768920
 21
2.590720
  0
LINE
  8
0
 62
     0
  6
CONTINUOUS
 10
2.768920
 20
2.590720
 11
2.762320
 21
2.581920
  0
LINE
  8
0
 62
     0
  6
CONTINUOUS
 10
2.762320
 20
2.581920
 11
2.762320
 21
2.573560
  0
LINE
  8
0
 62
     0
  6
CONTINUOUS
 10
2.762320
 20
2.573560
 11
2.762320
 21
2.564760
  0
LINE
  8
0
 62
     0
  6
CONTINUOUS
 10
2.762320
 20
2.564760
 11
2.768920
 21
2.555960
  0
LINE
  8
0
 62
     0
  6
CONTINUOUS
 10
2.768920
 20
2.555960
 11
2.775080
 21
2.551560
  0
LINE
  8
0
 62
     0
  6
CONTINUOUS
 10
2.775080
 20
2.551560
 11
2.783880
 21
2.549800
  0
LINE
  8
0
 62
     0
  6
CONTINUOUS
 10
2.783880
 20
2.549800
 11
2.783880
 21
2.573560
  0
LINE
  8
0
 62
     0
  6
CONTINUOUS
 10
2.783880
 20
2.573560
 11
2.783880
 21
2.597320
  0
LINE
  8
0
 62
     0
  6
CONTINUOUS
 10
2.783880
 20
2.597320
 11
2.775080
 21
2.595120
  0
LINE
  8
0
 62
     0
  6
CONTINUOUS
 10
2.775080
 20
2.595120
 11
2.768920
 21
2.590720
  0
LINE
  8
0
 62
     0
  6
CONTINUOUS
 10
2.762320
 20
2.584120
 11
2.775080
 21
2.584120
  0
LINE
  8
0
 62
     0
  6
CONTINUOUS
 10
2.781680
 20
2.575320
 11
2.762320
 21
2.575320
  0
LINE
  8
0
 62
     0
  6
CONTINUOUS
 10
2.790480
 20
2.575320
 11
2.807640
 21
2.575320
  0
LINE
  8
0
 62
     0
  6
CONTINUOUS
 10
2.807640
 20
2.575320
 11
2.807640
 21
2.573560
  0
LINE
  8
0
 62
     0
  6
CONTINUOUS
 10
2.807640
 20
2.573560
 11
2.805440
 21
2.581920
  0
LINE
  8
0
 62
     0
  6
CONTINUOUS
 10
2.805440
 20
2.581920
 11
2.801040
 21
2.590720
  0
LINE
  8
0
 62
     0
  6
CONTINUOUS
 10
2.801040
 20
2.590720
 11
2.792680
 21
2.595120
  0
LINE
  8
0
 62
     0
  6
CONTINUOUS
 10
2.792680
 20
2.595120
 11
2.783880
 21
2.597320
  0
LINE
  8
0
 62
     0
  6
CONTINUOUS
 10
2.794880
 20
2.595120
 11
2.794880
 21
2.584120
  0
LINE
  8
0
 62
     0
  6
CONTINUOUS
 10
2.794880
 20
2.584120
 11
2.792680
 21
2.584120
  0
LINE
  8
0
 62
     0
  6
CONTINUOUS
 10
2.792680
 20
2.584120
 11
2.803240
 21
2.584120
  0
LINE
  8
0
 62
     0
  6
CONTINUOUS
 10
2.807640
 20
2.573560
 11
2.805440
 21
2.564760
  0
LINE
  8
0
 62
     0
  6
CONTINUOUS
 10
2.805440
 20
2.564760
 11
2.801040
 21
2.555960
  0
LINE
  8
0
 62
     0
  6
CONTINUOUS
 10
2.801040
 20
2.555960
 11
2.792680
 21
2.551560
  0
LINE
  8
0
 62
     0
  6
CONTINUOUS
 10
2.792680
 20
2.551560
 11
2.783880
 21
2.549800
  0
LINE
  8
0
 62
     0
  6
CONTINUOUS
 10
2.794880
 20
2.551560
 11
2.794880
 21
2.562560
  0
LINE
  8
0
 62
     0
  6
CONTINUOUS
 10
2.669480
 20
2.564760
 11
2.649680
 21
2.573560
  0
LINE
  8
0
 62
     0
  6
CONTINUOUS
 10
2.649680
 20
2.573560
 11
2.665080
 21
2.555960
  0
LINE
  8
0
 62
     0
  6
CONTINUOUS
 10
2.665080
 20
2.555960
 11
2.649680
 21
2.573560
  0
LINE
  8
0
 62
     0
  6
CONTINUOUS
 10
2.649680
 20
2.573560
 11
2.658480
 21
2.551560
  0
LINE
  8
0
 62
     0
  6
CONTINUOUS
 10
2.658480
 20
2.551560
 11
2.649680
 21
2.573560
  0
LINE
  8
0
 62
     0
  6
CONTINUOUS
 10
2.649680
 20
2.573560
 11
2.649680
 21
2.549800
  0
LINE
  8
0
 62
     0
  6
CONTINUOUS
 10
2.649680
 20
2.549800
 11
2.649680
 21
2.573560
  0
LINE
  8
0
 62
     0
  6
CONTINUOUS
 10
2.649680
 20
2.573560
 11
2.639120
 21
2.551560
  0
LINE
  8
0
 62
     0
  6
CONTINUOUS
 10
2.639120
 20
2.551560
 11
2.649680
 21
2.573560
  0
LINE
  8
0
 62
     0
  6
CONTINUOUS
 10
2.649680
 20
2.573560
 11
2.632520
 21
2.555960
  0
LINE
  8
0
 62
     0
  6
CONTINUOUS
 10
2.632520
 20
2.555960
 11
2.649680
 21
2.573560
  0
LINE
  8
0
 62
     0
  6
CONTINUOUS
 10
2.649680
 20
2.573560
 11
2.625920
 21
2.564760
  0
LINE
  8
0
 62
     0
  6
CONTINUOUS
 10
2.625920
 20
2.564760
 11
2.649680
 21
2.573560
  0
LINE
  8
0
 62
     0
  6
CONTINUOUS
 10
2.649680
 20
2.573560
 11
2.625920
 21
2.573560
  0
LINE
  8
0
 62
     0
  6
CONTINUOUS
 10
2.625920
 20
2.573560
 11
2.649680
 21
2.573560
  0
LINE
  8
0
 62
     0
  6
CONTINUOUS
 10
2.649680
 20
2.573560
 11
2.625920
 21
2.581920
  0
LINE
  8
0
 62
     0
  6
CONTINUOUS
 10
2.625920
 20
2.581920
 11
2.649680
 21
2.573560
  0
LINE
  8
0
 62
     0
  6
CONTINUOUS
 10
2.649680
 20
2.573560
 11
2.632520
 21
2.590720
  0
LINE
  8
0
 62
     0
  6
CONTINUOUS
 10
2.632520
 20
2.590720
 11
2.649680
 21
2.573560
  0
LINE
  8
0
 62
     0
  6
CONTINUOUS
 10
2.649680
 20
2.573560
 11
2.639120
 21
2.595120
  0
LINE
  8
0
 62
     0
  6
CONTINUOUS
 10
2.639120
 20
2.595120
 11
2.649680
 21
2.573560
  0
LINE
  8
0
 62
     0
  6
CONTINUOUS
 10
2.649680
 20
2.573560
 11
2.649680
 21
2.597320
  0
LINE
  8
0
 62
     0
  6
CONTINUOUS
 10
2.649680
 20
2.597320
 11
2.649680
 21
2.573560
  0
LINE
  8
0
 62
     0
  6
CONTINUOUS
 10
2.649680
 20
2.573560
 11
2.658480
 21
2.595120
  0
LINE
  8
0
 62
     0
  6
CONTINUOUS
 10
2.658480
 20
2.595120
 11
2.649680
 21
2.573560
  0
LINE
  8
0
 62
     0
  6
CONTINUOUS
 10
2.649680
 20
2.573560
 11
2.665080
 21
2.590720
  0
LINE
  8
0
 62
     0
  6
CONTINUOUS
 10
2.665080
 20
2.590720
 11
2.649680
 21
2.573560
  0
LINE
  8
0
 62
     0
  6
CONTINUOUS
 10
2.649680
 20
2.573560
 11
2.669480
 21
2.581920
  0
LINE
  8
0
 62
     0
  6
CONTINUOUS
 10
2.669480
 20
2.581920
 11
2.649680
 21
2.573560
  0
LINE
  8
0
 62
     0
  6
CONTINUOUS
 10
2.649680
 20
2.573560
 11
2.671680
 21
2.573560
  0
LINE
  8
0
 62
     0
  6
CONTINUOUS
 10
2.671680
 20
2.573560
 11
2.649680
 21
2.573560
  0
LINE
  8
0
 62
     0
  6
CONTINUOUS
 10
2.649680
 20
2.573560
 11
2.669480
 21
2.564760
  0
LINE
  8
0
 62
     0
  6
CONTINUOUS
 10
2.669480
 20
2.564760
 11
2.671680
 21
2.573560
  0
LINE
  8
0
 62
     0
  6
CONTINUOUS
 10
2.671680
 20
2.573560
 11
2.669480
 21
2.581920
  0
LINE
  8
0
 62
     0
  6
CONTINUOUS
 10
2.669480
 20
2.581920
 11
2.665080
 21
2.590720
  0
LINE
  8
0
 62
     0
  6
CONTINUOUS
 10
2.665080
 20
2.590720
 11
2.658480
 21
2.595120
  0
LINE
  8
0
 62
     0
  6
CONTINUOUS
 10
2.658480
 20
2.595120
 11
2.649680
 21
2.597320
  0
LINE
  8
0
 62
     0
  6
CONTINUOUS
 10
2.649680
 20
2.597320
 11
2.639120
 21
2.595120
  0
LINE
  8
0
 62
     0
  6
CONTINUOUS
 10
2.639120
 20
2.595120
 11
2.632520
 21
2.590720
  0
LINE
  8
0
 62
     0
  6
CONTINUOUS
 10
2.632520
 20
2.590720
 11
2.625920
 21
2.581920
  0
LINE
  8
0
 62
     0
  6
CONTINUOUS
 10
2.625920
 20
2.581920
 11
2.625920
 21
2.573560
  0
LINE
  8
0
 62
     0
  6
CONTINUOUS
 10
2.625920
 20
2.573560
 11
2.625920
 21
2.564760
  0
LINE
  8
0
 62
     0
  6
CONTINUOUS
 10
2.625920
 20
2.564760
 11
2.632520
 21
2.555960
  0
LINE
  8
0
 62
     0
  6
CONTINUOUS
 10
2.632520
 20
2.555960
 11
2.639120
 21
2.551560
  0
LINE
  8
0
 62
     0
  6
CONTINUOUS
 10
2.639120
 20
2.551560
 11
2.649680
 21
2.549800
  0
LINE
  8
0
 62
     0
  6
CONTINUOUS
 10
2.649680
 20
2.549800
 11
2.658480
 21
2.551560
  0
LINE
  8
0
 62
     0
  6
CONTINUOUS
 10
2.658480
 20
2.551560
 11
2.665080
 21
2.555960
  0
LINE
  8
0
 62
     0
  6
CONTINUOUS
 10
2.665080
 20
2.555960
 11
2.669480
 21
2.564760
  0
LINE
  8
0
 62
     0
  6
CONTINUOUS
 10
2.671680
 20
2.575320
 11
2.651880
 21
2.575320
  0
LINE
  8
0
 62
     0
  6
CONTINUOUS
 10
2.651880
 20
2.575320
 11
2.651880
 21
2.579720
  0
LINE
  8
0
 62
     0
  6
CONTINUOUS
 10
2.651880
 20
2.579720
 11
2.651880
 21
2.597320
  0
LINE
  8
0
 62
     0
  6
CONTINUOUS
 10
2.658480
 20
2.584120
 11
2.669480
 21
2.584120
  0
LINE
  8
0
 62
     0
  6
CONTINUOUS
 10
2.639120
 20
2.584120
 11
2.628120
 21
2.584120
  0
LINE
  8
0
 62
     0
  6
CONTINUOUS
 10
2.625920
 20
2.575320
 11
2.643520
 21
2.575320
  0
LINE
  8
0
 62
     0
  6
CONTINUOUS
 10
2.651880
 20
2.566960
 11
2.651880
 21
2.549800
  0
LINE
  8
0
 62
     0
  6
CONTINUOUS
 10
2.509320
 20
2.555960
 11
2.492160
 21
2.573560
  0
LINE
  8
0
 62
     0
  6
CONTINUOUS
 10
2.492160
 20
2.573560
 11
2.500520
 21
2.551560
  0
LINE
  8
0
 62
     0
  6
CONTINUOUS
 10
2.500520
 20
2.551560
 11
2.492160
 21
2.573560
  0
LINE
  8
0
 62
     0
  6
CONTINUOUS
 10
2.492160
 20
2.573560
 11
2.492160
 21
2.549800
  0
LINE
  8
0
 62
     0
  6
CONTINUOUS
 10
2.492160
 20
2.549800
 11
2.492160
 21
2.573560
  0
LINE
  8
0
 62
     0
  6
CONTINUOUS
 10
2.492160
 20
2.573560
 11
2.483360
 21
2.551560
  0
LINE
  8
0
 62
     0
  6
CONTINUOUS
 10
2.483360
 20
2.551560
 11
2.492160
 21
2.573560
  0
LINE
  8
0
 62
     0
  6
CONTINUOUS
 10
2.492160
 20
2.573560
 11
2.474560
 21
2.555960
  0
LINE
  8
0
 62
     0
  6
CONTINUOUS
 10
2.474560
 20
2.555960
 11
2.492160
 21
2.573560
  0
LINE
  8
0
 62
     0
  6
CONTINUOUS
 10
2.492160
 20
2.573560
 11
2.472360
 21
2.564760
  0
LINE
  8
0
 62
     0
  6
CONTINUOUS
 10
2.472360
 20
2.564760
 11
2.492160
 21
2.573560
  0
LINE
  8
0
 62
     0
  6
CONTINUOUS
 10
2.492160
 20
2.573560
 11
2.468400
 21
2.573560
  0
LINE
  8
0
 62
     0
  6
CONTINUOUS
 10
2.468400
 20
2.573560
 11
2.492160
 21
2.573560
  0
LINE
  8
0
 62
     0
  6
CONTINUOUS
 10
2.492160
 20
2.573560
 11
2.472360
 21
2.581920
  0
LINE
  8
0
 62
     0
  6
CONTINUOUS
 10
2.472360
 20
2.581920
 11
2.492160
 21
2.573560
  0
LINE
  8
0
 62
     0
  6
CONTINUOUS
 10
2.492160
 20
2.573560
 11
2.474560
 21
2.590720
  0
LINE
  8
0
 62
     0
  6
CONTINUOUS
 10
2.474560
 20
2.590720
 11
2.492160
 21
2.573560
  0
LINE
  8
0
 62
     0
  6
CONTINUOUS
 10
2.492160
 20
2.573560
 11
2.483360
 21
2.595120
  0
LINE
  8
0
 62
     0
  6
CONTINUOUS
 10
2.483360
 20
2.595120
 11
2.492160
 21
2.573560
  0
LINE
  8
0
 62
     0
  6
CONTINUOUS
 10
2.492160
 20
2.573560
 11
2.492160
 21
2.597320
  0
LINE
  8
0
 62
     0
  6
CONTINUOUS
 10
2.492160
 20
2.597320
 11
2.492160
 21
2.573560
  0
LINE
  8
0
 62
     0
  6
CONTINUOUS
 10
2.492160
 20
2.573560
 11
2.500520
 21
2.595120
  0
LINE
  8
0
 62
     0
  6
CONTINUOUS
 10
2.500520
 20
2.595120
 11
2.492160
 21
2.573560
  0
LINE
  8
0
 62
     0
  6
CONTINUOUS
 10
2.492160
 20
2.573560
 11
2.509320
 21
2.590720
  0
LINE
  8
0
 62
     0
  6
CONTINUOUS
 10
2.509320
 20
2.590720
 11
2.492160
 21
2.573560
  0
LINE
  8
0
 62
     0
  6
CONTINUOUS
 10
2.492160
 20
2.573560
 11
2.515920
 21
2.581920
  0
LINE
  8
0
 62
     0
  6
CONTINUOUS
 10
2.515920
 20
2.581920
 11
2.492160
 21
2.573560
  0
LINE
  8
0
 62
     0
  6
CONTINUOUS
 10
2.492160
 20
2.573560
 11
2.515920
 21
2.573560
  0
LINE
  8
0
 62
     0
  6
CONTINUOUS
 10
2.515920
 20
2.573560
 11
2.492160
 21
2.573560
  0
LINE
  8
0
 62
     0
  6
CONTINUOUS
 10
2.492160
 20
2.573560
 11
2.515920
 21
2.564760
  0
LINE
  8
0
 62
     0
  6
CONTINUOUS
 10
2.515920
 20
2.564760
 11
2.492160
 21
2.573560
  0
LINE
  8
0
 62
     0
  6
CONTINUOUS
 10
2.492160
 20
2.573560
 11
2.509320
 21
2.555960
  0
LINE
  8
0
 62
     0
  6
CONTINUOUS
 10
2.509320
 20
2.555960
 11
2.515920
 21
2.564760
  0
LINE
  8
0
 62
     0
  6
CONTINUOUS
 10
2.515920
 20
2.564760
 11
2.515920
 21
2.573560
  0
LINE
  8
0
 62
     0
  6
CONTINUOUS
 10
2.515920
 20
2.573560
 11
2.515920
 21
2.581920
  0
LINE
  8
0
 62
     0
  6
CONTINUOUS
 10
2.515920
 20
2.581920
 11
2.509320
 21
2.590720
  0
LINE
  8
0
 62
     0
  6
CONTINUOUS
 10
2.509320
 20
2.590720
 11
2.500520
 21
2.595120
  0
LINE
  8
0
 62
     0
  6
CONTINUOUS
 10
2.500520
 20
2.595120
 11
2.492160
 21
2.597320
  0
LINE
  8
0
 62
     0
  6
CONTINUOUS
 10
2.492160
 20
2.597320
 11
2.492160
 21
2.573560
  0
LINE
  8
0
 62
     0
  6
CONTINUOUS
 10
2.492160
 20
2.573560
 11
2.492160
 21
2.549800
  0
LINE
  8
0
 62
     0
  6
CONTINUOUS
 10
2.492160
 20
2.549800
 11
2.492160
 21
2.573560
  0
LINE
  8
0
 62
     0
  6
CONTINUOUS
 10
2.492160
 20
2.573560
 11
2.492160
 21
2.597320
  0
LINE
  8
0
 62
     0
  6
CONTINUOUS
 10
2.492160
 20
2.597320
 11
2.483360
 21
2.595120
  0
LINE
  8
0
 62
     0
  6
CONTINUOUS
 10
2.483360
 20
2.595120
 11
2.474560
 21
2.590720
  0
LINE
  8
0
 62
     0
  6
CONTINUOUS
 10
2.474560
 20
2.590720
 11
2.472360
 21
2.581920
  0
LINE
  8
0
 62
     0
  6
CONTINUOUS
 10
2.472360
 20
2.581920
 11
2.468400
 21
2.573560
  0
LINE
  8
0
 62
     0
  6
CONTINUOUS
 10
2.468400
 20
2.573560
 11
2.472360
 21
2.564760
  0
LINE
  8
0
 62
     0
  6
CONTINUOUS
 10
2.472360
 20
2.564760
 11
2.474560
 21
2.555960
  0
LINE
  8
0
 62
     0
  6
CONTINUOUS
 10
2.474560
 20
2.555960
 11
2.483360
 21
2.551560
  0
LINE
  8
0
 62
     0
  6
CONTINUOUS
 10
2.483360
 20
2.551560
 11
2.492160
 21
2.549800
  0
LINE
  8
0
 62
     0
  6
CONTINUOUS
 10
2.492160
 20
2.549800
 11
2.500520
 21
2.551560
  0
LINE
  8
0
 62
     0
  6
CONTINUOUS
 10
2.500520
 20
2.551560
 11
2.509320
 21
2.555960
  0
LINE
  8
0
 62
     0
  6
CONTINUOUS
 10
2.515920
 20
2.575320
 11
2.496560
 21
2.575320
  0
LINE
  8
0
 62
     0
  6
CONTINUOUS
 10
2.496560
 20
2.575320
 11
2.487760
 21
2.575320
  0
LINE
  8
0
 62
     0
  6
CONTINUOUS
 10
2.487760
 20
2.575320
 11
2.468400
 21
2.575320
  0
LINE
  8
0
 62
     0
  6
CONTINUOUS
 10
2.472360
 20
2.584120
 11
2.483360
 21
2.584120
  0
LINE
  8
0
 62
     0
  6
CONTINUOUS
 10
2.502720
 20
2.584120
 11
2.513720
 21
2.584120
  0
LINE
  8
0
 62
     0
  6
CONTINUOUS
 10
2.364560
 20
2.581920
 11
2.343000
 21
2.573560
  0
LINE
  8
0
 62
     0
  6
CONTINUOUS
 10
2.343000
 20
2.573560
 11
2.366760
 21
2.573560
  0
LINE
  8
0
 62
     0
  6
CONTINUOUS
 10
2.366760
 20
2.573560
 11
2.343000
 21
2.573560
  0
LINE
  8
0
 62
     0
  6
CONTINUOUS
 10
2.343000
 20
2.573560
 11
2.364560
 21
2.564760
  0
LINE
  8
0
 62
     0
  6
CONTINUOUS
 10
2.364560
 20
2.564760
 11
2.343000
 21
2.573560
  0
LINE
  8
0
 62
     0
  6
CONTINUOUS
 10
2.343000
 20
2.573560
 11
2.360160
 21
2.555960
  0
LINE
  8
0
 62
     0
  6
CONTINUOUS
 10
2.360160
 20
2.555960
 11
2.343000
 21
2.573560
  0
LINE
  8
0
 62
     0
  6
CONTINUOUS
 10
2.343000
 20
2.573560
 11
2.351360
 21
2.551560
  0
LINE
  8
0
 62
     0
  6
CONTINUOUS
 10
2.351360
 20
2.551560
 11
2.343000
 21
2.573560
  0
LINE
  8
0
 62
     0
  6
CONTINUOUS
 10
2.343000
 20
2.573560
 11
2.343000
 21
2.549800
  0
LINE
  8
0
 62
     0
  6
CONTINUOUS
 10
2.343000
 20
2.549800
 11
2.343000
 21
2.573560
  0
LINE
  8
0
 62
     0
  6
CONTINUOUS
 10
2.343000
 20
2.573560
 11
2.334200
 21
2.551560
  0
LINE
  8
0
 62
     0
  6
CONTINUOUS
 10
2.334200
 20
2.551560
 11
2.343000
 21
2.573560
  0
LINE
  8
0
 62
     0
  6
CONTINUOUS
 10
2.343000
 20
2.573560
 11
2.325400
 21
2.555960
  0
LINE
  8
0
 62
     0
  6
CONTINUOUS
 10
2.325400
 20
2.555960
 11
2.343000
 21
2.573560
  0
LINE
  8
0
 62
     0
  6
CONTINUOUS
 10
2.343000
 20
2.573560
 11
2.321440
 21
2.564760
  0
LINE
  8
0
 62
     0
  6
CONTINUOUS
 10
2.321440
 20
2.564760
 11
2.343000
 21
2.573560
  0
LINE
  8
0
 62
     0
  6
CONTINUOUS
 10
2.343000
 20
2.573560
 11
2.319240
 21
2.573560
  0
LINE
  8
0
 62
     0
  6
CONTINUOUS
 10
2.319240
 20
2.573560
 11
2.343000
 21
2.573560
  0
LINE
  8
0
 62
     0
  6
CONTINUOUS
 10
2.343000
 20
2.573560
 11
2.321440
 21
2.581920
  0
LINE
  8
0
 62
     0
  6
CONTINUOUS
 10
2.321440
 20
2.581920
 11
2.343000
 21
2.573560
  0
LINE
  8
0
 62
     0
  6
CONTINUOUS
 10
2.343000
 20
2.573560
 11
2.325400
 21
2.590720
  0
LINE
  8
0
 62
     0
  6
CONTINUOUS
 10
2.325400
 20
2.590720
 11
2.343000
 21
2.573560
  0
LINE
  8
0
 62
     0
  6
CONTINUOUS
 10
2.343000
 20
2.573560
 11
2.334200
 21
2.595120
  0
LINE
  8
0
 62
     0
  6
CONTINUOUS
 10
2.334200
 20
2.595120
 11
2.343000
 21
2.573560
  0
LINE
  8
0
 62
     0
  6
CONTINUOUS
 10
2.343000
 20
2.573560
 11
2.343000
 21
2.597320
  0
LINE
  8
0
 62
     0
  6
CONTINUOUS
 10
2.343000
 20
2.597320
 11
2.343000
 21
2.573560
  0
LINE
  8
0
 62
     0
  6
CONTINUOUS
 10
2.343000
 20
2.573560
 11
2.351360
 21
2.595120
  0
LINE
  8
0
 62
     0
  6
CONTINUOUS
 10
2.351360
 20
2.595120
 11
2.343000
 21
2.573560
  0
LINE
  8
0
 62
     0
  6
CONTINUOUS
 10
2.343000
 20
2.573560
 11
2.360160
 21
2.590720
  0
LINE
  8
0
 62
     0
  6
CONTINUOUS
 10
2.360160
 20
2.590720
 11
2.343000
 21
2.573560
  0
LINE
  8
0
 62
     0
  6
CONTINUOUS
 10
2.343000
 20
2.573560
 11
2.364560
 21
2.581920
  0
LINE
  8
0
 62
     0
  6
CONTINUOUS
 10
2.364560
 20
2.581920
 11
2.360160
 21
2.590720
  0
LINE
  8
0
 62
     0
  6
CONTINUOUS
 10
2.360160
 20
2.590720
 11
2.351360
 21
2.595120
  0
LINE
  8
0
 62
     0
  6
CONTINUOUS
 10
2.351360
 20
2.595120
 11
2.343000
 21
2.597320
  0
LINE
  8
0
 62
     0
  6
CONTINUOUS
 10
2.343000
 20
2.597320
 11
2.343000
 21
2.573560
  0
LINE
  8
0
 62
     0
  6
CONTINUOUS
 10
2.343000
 20
2.573560
 11
2.343000
 21
2.549800
  0
LINE
  8
0
 62
     0
  6
CONTINUOUS
 10
2.343000
 20
2.549800
 11
2.351360
 21
2.551560
  0
LINE
  8
0
 62
     0
  6
CONTINUOUS
 10
2.351360
 20
2.551560
 11
2.360160
 21
2.555960
  0
LINE
  8
0
 62
     0
  6
CONTINUOUS
 10
2.360160
 20
2.555960
 11
2.364560
 21
2.564760
  0
LINE
  8
0
 62
     0
  6
CONTINUOUS
 10
2.364560
 20
2.564760
 11
2.366760
 21
2.573560
  0
LINE
  8
0
 62
     0
  6
CONTINUOUS
 10
2.366760
 20
2.573560
 11
2.364560
 21
2.581920
  0
LINE
  8
0
 62
     0
  6
CONTINUOUS
 10
2.364560
 20
2.581920
 11
2.362360
 21
2.584120
  0
LINE
  8
0
 62
     0
  6
CONTINUOUS
 10
2.362360
 20
2.584120
 11
2.351360
 21
2.584120
  0
LINE
  8
0
 62
     0
  6
CONTINUOUS
 10
2.347400
 20
2.575320
 11
2.366760
 21
2.575320
  0
LINE
  8
0
 62
     0
  6
CONTINUOUS
 10
2.338600
 20
2.575320
 11
2.319240
 21
2.575320
  0
LINE
  8
0
 62
     0
  6
CONTINUOUS
 10
2.319240
 20
2.575320
 11
2.319240
 21
2.573560
  0
LINE
  8
0
 62
     0
  6
CONTINUOUS
 10
2.319240
 20
2.573560
 11
2.321440
 21
2.564760
  0
LINE
  8
0
 62
     0
  6
CONTINUOUS
 10
2.321440
 20
2.564760
 11
2.325400
 21
2.555960
  0
LINE
  8
0
 62
     0
  6
CONTINUOUS
 10
2.325400
 20
2.555960
 11
2.334200
 21
2.551560
  0
LINE
  8
0
 62
     0
  6
CONTINUOUS
 10
2.334200
 20
2.551560
 11
2.343000
 21
2.549800
  0
LINE
  8
0
 62
     0
  6
CONTINUOUS
 10
2.332000
 20
2.551560
 11
2.332000
 21
2.562560
  0
LINE
  8
0
 62
     0
  6
CONTINUOUS
 10
2.332000
 20
2.584120
 11
2.332000
 21
2.595120
  0
LINE
  8
0
 62
     0
  6
CONTINUOUS
 10
2.332000
 20
2.595120
 11
2.334200
 21
2.595120
  0
LINE
  8
0
 62
     0
  6
CONTINUOUS
 10
2.334200
 20
2.595120
 11
2.325400
 21
2.590720
  0
LINE
  8
0
 62
     0
  6
CONTINUOUS
 10
2.325400
 20
2.590720
 11
2.321440
 21
2.581920
  0
LINE
  8
0
 62
     0
  6
CONTINUOUS
 10
2.321440
 20
2.581920
 11
2.319240
 21
2.573560
  0
LINE
  8
0
 62
     0
  6
CONTINUOUS
 10
2.321440
 20
2.584120
 11
2.332000
 21
2.584120
  0
LINE
  8
0
 62
     0
  6
CONTINUOUS
 10
2.334200
 20
2.595120
 11
2.343000
 21
2.597320
  0
LINE
  8
0
 62
     0
  6
CONTINUOUS
 10
2.230800
 20
2.590720
 11
2.215840
 21
2.573560
  0
LINE
  8
0
 62
     0
  6
CONTINUOUS
 10
2.215840
 20
2.573560
 11
2.237400
 21
2.581920
  0
LINE
  8
0
 62
     0
  6
CONTINUOUS
 10
2.237400
 20
2.581920
 11
2.215840
 21
2.573560
  0
LINE
  8
0
 62
     0
  6
CONTINUOUS
 10
2.215840
 20
2.573560
 11
2.237400
 21
2.573560
  0
LINE
  8
0
 62
     0
  6
CONTINUOUS
 10
2.237400
 20
2.573560
 11
2.215840
 21
2.573560
  0
LINE
  8
0
 62
     0
  6
CONTINUOUS
 10
2.215840
 20
2.573560
 11
2.237400
 21
2.564760
  0
LINE
  8
0
 62
     0
  6
CONTINUOUS
 10
2.237400
 20
2.564760
 11
2.215840
 21
2.573560
  0
LINE
  8
0
 62
     0
  6
CONTINUOUS
 10
2.215840
 20
2.573560
 11
2.230800
 21
2.555960
  0
LINE
  8
0
 62
     0
  6
CONTINUOUS
 10
2.230800
 20
2.555960
 11
2.215840
 21
2.573560
  0
LINE
  8
0
 62
     0
  6
CONTINUOUS
 10
2.215840
 20
2.573560
 11
2.224200
 21
2.551560
  0
LINE
  8
0
 62
     0
  6
CONTINUOUS
 10
2.224200
 20
2.551560
 11
2.215840
 21
2.573560
  0
LINE
  8
0
 62
     0
  6
CONTINUOUS
 10
2.215840
 20
2.573560
 11
2.215840
 21
2.549800
  0
LINE
  8
0
 62
     0
  6
CONTINUOUS
 10
2.215840
 20
2.549800
 11
2.215840
 21
2.573560
  0
LINE
  8
0
 62
     0
  6
CONTINUOUS
 10
2.215840
 20
2.573560
 11
2.204840
 21
2.551560
  0
LINE
  8
0
 62
     0
  6
CONTINUOUS
 10
2.204840
 20
2.551560
 11
2.215840
 21
2.573560
  0
LINE
  8
0
 62
     0
  6
CONTINUOUS
 10
2.215840
 20
2.573560
 11
2.196480
 21
2.555960
  0
LINE
  8
0
 62
     0
  6
CONTINUOUS
 10
2.196480
 20
2.555960
 11
2.215840
 21
2.573560
  0
LINE
  8
0
 62
     0
  6
CONTINUOUS
 10
2.215840
 20
2.573560
 11
2.192080
 21
2.564760
  0
LINE
  8
0
 62
     0
  6
CONTINUOUS
 10
2.192080
 20
2.564760
 11
2.215840
 21
2.573560
  0
LINE
  8
0
 62
     0
  6
CONTINUOUS
 10
2.215840
 20
2.573560
 11
2.189880
 21
2.573560
  0
LINE
  8
0
 62
     0
  6
CONTINUOUS
 10
2.189880
 20
2.573560
 11
2.215840
 21
2.573560
  0
LINE
  8
0
 62
     0
  6
CONTINUOUS
 10
2.215840
 20
2.573560
 11
2.192080
 21
2.581920
  0
LINE
  8
0
 62
     0
  6
CONTINUOUS
 10
2.192080
 20
2.581920
 11
2.215840
 21
2.573560
  0
LINE
  8
0
 62
     0
  6
CONTINUOUS
 10
2.215840
 20
2.573560
 11
2.196480
 21
2.590720
  0
LINE
  8
0
 62
     0
  6
CONTINUOUS
 10
2.196480
 20
2.590720
 11
2.215840
 21
2.573560
  0
LINE
  8
0
 62
     0
  6
CONTINUOUS
 10
2.215840
 20
2.573560
 11
2.204840
 21
2.595120
  0
LINE
  8
0
 62
     0
  6
CONTINUOUS
 10
2.204840
 20
2.595120
 11
2.215840
 21
2.573560
  0
LINE
  8
0
 62
     0
  6
CONTINUOUS
 10
2.215840
 20
2.573560
 11
2.215840
 21
2.597320
  0
LINE
  8
0
 62
     0
  6
CONTINUOUS
 10
2.215840
 20
2.597320
 11
2.215840
 21
2.573560
  0
LINE
  8
0
 62
     0
  6
CONTINUOUS
 10
2.215840
 20
2.573560
 11
2.224200
 21
2.595120
  0
LINE
  8
0
 62
     0
  6
CONTINUOUS
 10
2.224200
 20
2.595120
 11
2.224200
 21
2.581920
  0
LINE
  8
0
 62
     0
  6
CONTINUOUS
 10
2.224200
 20
2.581920
 11
2.224200
 21
2.584120
  0
LINE
  8
0
 62
     0
  6
CONTINUOUS
 10
2.224200
 20
2.584120
 11
2.235200
 21
2.584120
  0
LINE
  8
0
 62
     0
  6
CONTINUOUS
 10
2.235200
 20
2.584120
 11
2.237400
 21
2.581920
  0
LINE
  8
0
 62
     0
  6
CONTINUOUS
 10
2.237400
 20
2.581920
 11
2.230800
 21
2.590720
  0
LINE
  8
0
 62
     0
  6
CONTINUOUS
 10
2.230800
 20
2.590720
 11
2.224200
 21
2.595120
  0
LINE
  8
0
 62
     0
  6
CONTINUOUS
 10
2.224200
 20
2.595120
 11
2.215840
 21
2.573560
  0
LINE
  8
0
 62
     0
  6
CONTINUOUS
 10
2.215840
 20
2.573560
 11
2.230800
 21
2.590720
  0
LINE
  8
0
 62
     0
  6
CONTINUOUS
 10
2.224200
 20
2.595120
 11
2.215840
 21
2.597320
  0
LINE
  8
0
 62
     0
  6
CONTINUOUS
 10
2.215840
 20
2.597320
 11
2.215840
 21
2.573560
  0
LINE
  8
0
 62
     0
  6
CONTINUOUS
 10
2.215840
 20
2.573560
 11
2.215840
 21
2.549800
  0
LINE
  8
0
 62
     0
  6
CONTINUOUS
 10
2.215840
 20
2.549800
 11
2.224200
 21
2.551560
  0
LINE
  8
0
 62
     0
  6
CONTINUOUS
 10
2.224200
 20
2.551560
 11
2.230800
 21
2.555960
  0
LINE
  8
0
 62
     0
  6
CONTINUOUS
 10
2.230800
 20
2.555960
 11
2.237400
 21
2.564760
  0
LINE
  8
0
 62
     0
  6
CONTINUOUS
 10
2.237400
 20
2.564760
 11
2.237400
 21
2.573560
  0
LINE
  8
0
 62
     0
  6
CONTINUOUS
 10
2.237400
 20
2.573560
 11
2.237400
 21
2.581920
  0
LINE
  8
0
 62
     0
  6
CONTINUOUS
 10
2.237400
 20
2.575320
 11
2.218040
 21
2.575320
  0
LINE
  8
0
 62
     0
  6
CONTINUOUS
 10
2.218040
 20
2.575320
 11
2.215840
 21
2.575320
  0
LINE
  8
0
 62
     0
  6
CONTINUOUS
 10
2.215840
 20
2.575320
 11
2.215840
 21
2.597320
  0
LINE
  8
0
 62
     0
  6
CONTINUOUS
 10
2.215840
 20
2.597320
 11
2.204840
 21
2.595120
  0
LINE
  8
0
 62
     0
  6
CONTINUOUS
 10
2.204840
 20
2.595120
 11
2.196480
 21
2.590720
  0
LINE
  8
0
 62
     0
  6
CONTINUOUS
 10
2.196480
 20
2.590720
 11
2.192080
 21
2.581920
  0
LINE
  8
0
 62
     0
  6
CONTINUOUS
 10
2.192080
 20
2.581920
 11
2.189880
 21
2.573560
  0
LINE
  8
0
 62
     0
  6
CONTINUOUS
 10
2.189880
 20
2.573560
 11
2.192080
 21
2.564760
  0
LINE
  8
0
 62
     0
  6
CONTINUOUS
 10
2.192080
 20
2.564760
 11
2.196480
 21
2.555960
  0
LINE
  8
0
 62
     0
  6
CONTINUOUS
 10
2.196480
 20
2.555960
 11
2.204840
 21
2.551560
  0
LINE
  8
0
 62
     0
  6
CONTINUOUS
 10
2.204840
 20
2.551560
 11
2.215840
 21
2.549800
  0
LINE
  8
0
 62
     0
  6
CONTINUOUS
 10
2.215840
 20
2.549800
 11
2.215840
 21
2.571360
  0
LINE
  8
0
 62
     0
  6
CONTINUOUS
 10
2.215840
 20
2.571360
 11
2.209240
 21
2.575320
  0
LINE
  8
0
 62
     0
  6
CONTINUOUS
 10
2.209240
 20
2.575320
 11
2.189880
 21
2.575320
  0
LINE
  8
0
 62
     0
  6
CONTINUOUS
 10
2.194280
 20
2.584120
 11
2.204840
 21
2.584120
  0
LINE
  8
0
 62
     0
  6
CONTINUOUS
 10
2.224200
 20
2.564760
 11
2.224200
 21
2.551560
  0
LINE
  8
0
 62
     0
  6
CONTINUOUS
 10
2.261160
 20
2.409000
 11
2.405480
 21
2.711720
  0
LINE
  8
0
 62
     0
  6
CONTINUOUS
 10
2.278320
 20
2.711720
 11
2.133560
 21
2.409000
  0
LINE
  8
0
 62
     0
  6
CONTINUOUS
 10
2.412080
 20
2.409000
 11
2.556840
 21
2.711720
  0
LINE
  8
0
 62
     0
  6
CONTINUOUS
 10
2.092640
 20
2.856480
 11
2.092640
 21
1.700160
  0
LINE
  8
0
 62
     0
  6
CONTINUOUS
 10
2.092640
 20
1.700160
 11
2.498320
 21
2.106280
  0
LINE
  8
0
 62
     0
  6
CONTINUOUS
 10
2.498320
 20
2.106280
 11
2.878920
 21
1.700160
  0
LINE
  8
0
 62
     0
  6
CONTINUOUS
 10
2.878920
 20
1.700160
 11
2.878920
 21
2.856480
  0
LINE
  8
0
 62
     0
  6
CONTINUOUS
 10
0.899360
 20
3.237080
 11
0.490600
 21
2.856480
  0
LINE
  8
0
 62
     0
  6
CONTINUOUS
 10
0.490600
 20
2.856480
 11
2.092640
 21
2.856480
  0
LINE
  8
0
 62
     0
  6
CONTINUOUS
 10
2.118600
 20
2.573560
 11
2.310440
 21
2.573560
  0
LINE
  8
0
 62
     0
  6
CONTINUOUS
 10
2.412080
 20
2.573560
 11
2.606560
 21
2.573560
  0
LINE
  8
0
 62
     0
  6
CONTINUOUS
 10
2.703800
 20
2.573560
 11
2.918080
 21
2.573560
  0
LINE
  8
0
 62
     0
  6
CONTINUOUS
 10
0.899360
 20
3.237080
 11
0.490600
 21
3.643640
  0
LINE
  8
0
 62
     0
  6
CONTINUOUS
 10
0.490600
 20
3.643640
 11
7.576360
 21
3.643640
  0
LINE
  8
0
 62
     0
  6
CONTINUOUS
 10
2.973960
 20
2.309560
 11
2.973960
 21
2.242680
  0
LINE
  8
0
 62
     0
  6
CONTINUOUS
 10
2.973960
 20
2.277440
 11
3.019720
 21
2.277440
  0
LINE
  8
0
 62
     0
  6
CONTINUOUS
 10
3.019720
 20
2.309560
 11
3.019720
 21
2.242680
  0
LINE
  8
0
 62
     0
  6
CONTINUOUS
 10
3.060640
 20
2.302960
 11
3.175040
 21
2.302960
  0
LINE
  8
0
 62
     0
  6
CONTINUOUS
 10
3.175040
 20
2.270840
 11
3.220800
 21
2.270840
  0
LINE
  8
0
 62
     0
  6
CONTINUOUS
 10
3.220800
 20
2.233880
 11
3.220800
 21
2.426160
  0
LINE
  8
0
 62
     0
  6
CONTINUOUS
 10
3.220800
 20
2.426160
 11
3.339600
 21
2.426160
  0
LINE
  8
0
 62
     0
  6
CONTINUOUS
 10
3.339600
 20
2.426160
 11
3.339600
 21
2.233880
  0
LINE
  8
0
 62
     0
  6
CONTINUOUS
 10
3.339600
 20
2.233880
 11
3.220800
 21
2.233880
  0
LINE
  8
0
 62
     0
  6
CONTINUOUS
 10
3.175040
 20
2.270840
 11
3.175040
 21
2.387440
  0
LINE
  8
0
 62
     0
  6
CONTINUOUS
 10
3.175040
 20
2.387440
 11
3.220800
 21
2.387440
  0
LINE
  8
0
 62
     0
  6
CONTINUOUS
 10
3.175040
 20
2.357080
 11
3.060640
 21
2.357080
  0
LINE
  8
0
 62
     0
  6
CONTINUOUS
 10
3.019720
 20
2.350920
 11
2.973960
 21
2.417800
  0
LINE
  8
0
 62
     0
  6
CONTINUOUS
 10
2.973960
 20
2.417800
 11
2.973960
 21
2.350920
  0
LINE
  8
0
 62
     0
  6
CONTINUOUS
 10
3.019720
 20
2.350920
 11
3.019720
 21
2.417800
  0
LINE
  8
0
 62
     0
  6
CONTINUOUS
 10
3.339600
 20
2.387440
 11
3.382720
 21
2.387440
  0
LINE
  8
0
 62
     0
  6
CONTINUOUS
 10
3.382720
 20
2.387440
 11
3.382720
 21
2.270840
  0
LINE
  8
0
 62
     0
  6
CONTINUOUS
 10
3.382720
 20
2.270840
 11
3.339600
 21
2.270840
  0
LINE
  8
0
 62
     0
  6
CONTINUOUS
 10
3.382720
 20
2.302960
 11
3.555640
 21
2.302960
  0
LINE
  8
0
 62
     0
  6
CONTINUOUS
 10
3.555640
 20
2.302960
 11
3.555640
 21
1.591920
  0
LINE
  8
0
 62
     0
  6
CONTINUOUS
 10
3.938440
 20
1.591920
 11
3.938440
 21
2.856480
  0
LINE
  8
0
 62
     0
  6
CONTINUOUS
 10
3.620320
 20
2.856480
 11
3.620320
 21
2.569160
  0
LINE
  8
0
 62
     0
  6
CONTINUOUS
 10
3.620320
 20
2.569160
 11
3.620320
 21
2.357080
  0
LINE
  8
0
 62
     0
  6
CONTINUOUS
 10
3.702600
 20
2.357080
 11
3.382720
 21
2.357080
  0
LINE
  8
0
 62
     0
  6
CONTINUOUS
 10
4.011920
 20
2.350920
 11
4.859360
 21
2.350920
  0
LINE
  8
0
 62
     0
  6
CONTINUOUS
 10
4.751120
 20
2.350920
 11
4.751120
 21
2.629440
  0
LINE
  8
0
 62
     0
  6
CONTINUOUS
 10
4.751120
 20
2.629440
 11
5.114120
 21
2.629440
  0
LINE
  8
0
 62
     0
  6
CONTINUOUS
 10
5.836160
 20
2.350920
 11
6.322360
 21
2.350920
  0
LINE
  8
0
 62
     0
  6
CONTINUOUS
 10
6.322360
 20
2.350920
 11
6.322360
 21
2.856480
  0
TEXT
  8
0
 62
     0
 10
3.494040
 20
1.499960
 40
0.128668
  1
R
 41
1.000000
  7
SN0
 71
     0
 72
     5
 11
3.632640
 21
1.499960
  0
TEXT
  8
0
 62
     0
 10
3.647600
 20
1.499960
 40
0.128668
  1
Y1
 41
1.000000
  7
SN0
 71
     0
 72
     5
 11
3.893560
 21
1.499960
  0
TEXT
  8
0
 62
     0
 10
3.926560
 20
1.499960
 40
0.128668
  1
Y2
 41
1.000000
  7
SN0
 71
     0
 72
     5
 11
4.172520
 21
1.499960
  0
TEXT
  8
0
 62
     0
 10
4.931080
 20
1.499960
 40
0.128668
  1
G
 41
1.000000
  7
SN0
 71
     0
 72
     5
 11
5.067480
 21
1.499960
  0
TEXT
  8
0
 62
     0
 10
6.367240
 20
1.499960
 40
0.128668
  1
W1
 41
1.000000
  7
SN0
 71
     0
 72
     5
 11
6.647960
 21
1.499960
  0
TEXT
  8
0
 62
     0
 10
6.674360
 20
1.499960
 40
0.128668
  1
W2
 41
1.000000
  7
SN0
 71
     0
 72
     5
 11
6.955080
 21
1.499960
  0
POLYLINE
  8
0
 62
     0
  6
CONTINUOUS
 66
     1
 40
0.014080
 41
0.014080
  0
VERTEX
  8
0
 62
     0
  6
CONTINUOUS
 10
3.484800
 20
1.601600
  0
VERTEX
  8
0
 62
     0
  6
CONTINUOUS
 10
3.610200
 20
1.601600
  0
VERTEX
  8
0
 62
     0
  6
CONTINUOUS
 10
3.610200
 20
1.402720
  0
VERTEX
  8
0
 62
     0
  6
CONTINUOUS
 10
3.484800
 20
1.402720
  0
VERTEX
  8
0
 62
     0
  6
CONTINUOUS
 10
3.484800
 20
1.601600
  0
SEQEND
  8
0
  0
POLYLINE
  8
0
 62
     0
  6
CONTINUOUS
 66
     1
 40
0.014080
 41
0.014080
  0
VERTEX
  8
0
 62
     0
  6
CONTINUOUS
 10
3.653320
 20
1.601600
  0
VERTEX
  8
0
 62
     0
  6
CONTINUOUS
 10
3.835480
 20
1.601600
  0
VERTEX
  8
0
 62
     0
  6
CONTINUOUS
 10
3.835480
 20
1.402720
  0
VERTEX
  8
0
 62
     0
  6
CONTINUOUS
 10
3.653320
 20
1.402720
  0
VERTEX
  8
0
 62
     0
  6
CONTINUOUS
 10
3.653320
 20
1.601600
  0
SEQEND
  8
0
  0
POLYLINE
  8
0
 62
     0
  6
CONTINUOUS
 66
     1
 40
0.014080
 41
0.014080
  0
VERTEX
  8
0
 62
     0
  6
CONTINUOUS
 10
3.923920
 20
1.601600
  0
VERTEX
  8
0
 62
     0
  6
CONTINUOUS
 10
4.106080
 20
1.601600
  0
VERTEX
  8
0
 62
     0
  6
CONTINUOUS
 10
4.106080
 20
1.402720
  0
VERTEX
  8
0
 62
     0
  6
CONTINUOUS
 10
3.923920
 20
1.402720
  0
VERTEX
  8
0
 62
     0
  6
CONTINUOUS
 10
3.923920
 20
1.601600
  0
SEQEND
  8
0
  0
POLYLINE
  8
0
 62
     0
  6
CONTINUOUS
 66
     1
 40
0.014080
 41
0.014080
  0
VERTEX
  8
0
 62
     0
  6
CONTINUOUS
 10
4.911720
 20
1.601600
  0
VERTEX
  8
0
 62
     0
  6
CONTINUOUS
 10
5.054720
 20
1.601600
  0
VERTEX
  8
0
 62
     0
  6
CONTINUOUS
 10
5.054720
 20
1.402720
  0
VERTEX
  8
0
 62
     0
  6
CONTINUOUS
 10
4.911720
 20
1.402720
  0
VERTEX
  8
0
 62
     0
  6
CONTINUOUS
 10
4.911720
 20
1.601600
  0
SEQEND
  8
0
  0
POLYLINE
  8
0
 62
     0
  6
CONTINUOUS
 66
     1
 40
0.014080
 41
0.014080
  0
VERTEX
  8
0
 62
     0
  6
CONTINUOUS
 10
6.366360
 20
1.601600
  0
VERTEX
  8
0
 62
     0
  6
CONTINUOUS
 10
6.600440
 20
1.601600
  0
VERTEX
  8
0
 62
     0
  6
CONTINUOUS
 10
6.600440
 20
1.402720
  0
VERTEX
  8
0
 62
     0
  6
CONTINUOUS
 10
6.366360
 20
1.402720
  0
VERTEX
  8
0
 62
     0
  6
CONTINUOUS
 10
6.366360
 20
1.601600
  0
SEQEND
  8
0
  0
POLYLINE
  8
0
 62
     0
  6
CONTINUOUS
 66
     1
 40
0.014080
 41
0.014080
  0
VERTEX
  8
0
 62
     0
  6
CONTINUOUS
 10
6.663360
 20
1.601600
  0
VERTEX
  8
0
 62
     0
  6
CONTINUOUS
 10
6.897440
 20
1.601600
  0
VERTEX
  8
0
 62
     0
  6
CONTINUOUS
 10
6.897440
 20
1.402720
  0
VERTEX
  8
0
 62
     0
  6
CONTINUOUS
 10
6.663360
 20
1.402720
  0
VERTEX
  8
0
 62
     0
  6
CONTINUOUS
 10
6.663360
 20
1.601600
  0
SEQEND
  8
0
  0
POLYLINE
  8
0
 62
     0
  6
CONTINUOUS
 66
     1
 40
0.000000
 41
0.000000
  0
VERTEX
  8
0
 62
     0
  6
CONTINUOUS
 10
1.514040
 20
2.849880
  0
VERTEX
  8
0
 62
     0
  6
CONTINUOUS
 10
1.514040
 20
2.583680
  0
VERTEX
  8
0
 62
     0
  6
CONTINUOUS
 10
2.085600
 20
2.583680
  0
SEQEND
  8
0
  0
SOLID
  8
0
 62
     7
 10
1.402280
 20
2.723600
 11
1.848440
 21
2.723600
 12
1.402280
 22
2.359720
 13
1.848440
 23
2.359720
  0
POLYLINE
  8
0
 62
     0
  6
CONTINUOUS
 66
     1
 40
0.000000
 41
0.000000
  0
VERTEX
  8
0
 62
     0
  6
CONTINUOUS
 10
1.402280
 20
2.723600
  0
VERTEX
  8
0
 62
     0
  6
CONTINUOUS
 10
1.848440
 20
2.723600
  0
VERTEX
  8
0
 62
     0
  6
CONTINUOUS
 10
1.848440
 20
2.359720
  0
VERTEX
  8
0
 62
     0
  6
CONTINUOUS
 10
1.402280
 20
2.359720
  0
VERTEX
  8
0
 62
     0
  6
CONTINUOUS
 10
1.402280
 20
2.723600
  0
SEQEND
  8
0
  0
TEXT
  8
0
 62
     0
 10
1.416360
 20
2.629000
 40
0.106887
  1
   OA 
 41
1.000000
  7
SN0
 71
     0
 72
     5
 11
1.817200
 21
2.629000
  0
TEXT
  8
0
 62
     0
 10
1.416360
 20
2.486880
 40
0.106887
  1
Damper
 41
1.000000
  7
SN0
 71
     0
 72
     5
 11
1.973840
 21
2.486880
  0
LINE
  8
0
 62
     0
  6
CONTINUOUS
 10
1.499960
 20
2.359720
 11
1.499960
 21
1.602920
  0
LINE
  8
0
 62
     0
  6
CONTINUOUS
 10
1.737120
 20
2.359720
 11
1.737120
 21
1.617000
  0
TEXT
  8
0
 62
     0
 10
1.391280
 20
1.499960
 40
0.128668
  1
A1
 41
1.000000
  7
SN0
 71
     0
 72
     5
 11
1.642520
 21
1.499960
  0
TEXT
  8
0
 62
     0
 10
1.667160
 20
1.499960
 40
0.128668
  1
A2
 41
1.000000
  7
SN0
 71
     0
 72
     5
 11
1.918400
 21
1.499960
  0
POLYLINE
  8
0
 62
     0
  6
CONTINUOUS
 66
     1
 40
0.014080
 41
0.014080
  0
VERTEX
  8
0
 62
     0
  6
CONTINUOUS
 10
1.384680
 20
1.601600
  0
VERTEX
  8
0
 62
     0
  6
CONTINUOUS
 10
1.575640
 20
1.601600
  0
VERTEX
  8
0
 62
     0
  6
CONTINUOUS
 10
1.575640
 20
1.402720
  0
VERTEX
  8
0
 62
     0
  6
CONTINUOUS
 10
1.384680
 20
1.402720
  0
VERTEX
  8
0
 62
     0
  6
CONTINUOUS
 10
1.384680
 20
1.601600
  0
SEQEND
  8
0
  0
POLYLINE
  8
0
 62
     0
  6
CONTINUOUS
 66
     1
 40
0.014080
 41
0.014080
  0
VERTEX
  8
0
 62
     0
  6
CONTINUOUS
 10
1.664960
 20
1.601600
  0
VERTEX
  8
0
 62
     0
  6
CONTINUOUS
 10
1.861640
 20
1.601600
  0
VERTEX
  8
0
 62
     0
  6
CONTINUOUS
 10
1.861640
 20
1.402720
  0
VERTEX
  8
0
 62
     0
  6
CONTINUOUS
 10
1.664960
 20
1.402720
  0
VERTEX
  8
0
 62
     0
  6
CONTINUOUS
 10
1.664960
 20
1.601600
  0
SEQEND
  8
0
  0
ENDSEC
  0
EOF
