  0
SECTION
  2
HEADER
  9
$EXTMIN
 10
0.928400
 20
4.355560
  9
$EXTMAX
 10
7.419720
 20
6.296840
  9
$LTSCALE
 40
0.044000
  9
$PDMODE
 70
    35
  9
$PDSIZE
 40
0.035200
  0
ENDSEC
  0
SECTION
  2
TABLES
  0
TABLE
  2
LTYPE
 70
     9
  0
LTYPE
  2
CONTINUOUS
 70
    64
  3
Solid line
 72
    65
 73
     0
 40
0.000000
  0
LTYPE
  2
DASHED
 70
    64
  3
__ __ __ __ __ __ __ __ __ __ __ __ __ __ __
 72
    65
 73
     2
 40
0.000330
 49
0.000220
 49
-0.000110
  0
LTYPE
  2
HIDDEN
 70
    64
  3
 _ _ _ _ _ _ _ _ _ _ _ _ _ _ _ _ _ _ _ _ _ _
 72
    65
 73
     2
 40
0.000165
 49
0.000110
 49
-0.000055
  0
LTYPE
  2
CENTER
 70
    64
  3
____ _ ____ _ ____ _ ____ _ ____ _ ____ _ ____
 72
    65
 73
     4
 40
0.000880
 49
0.000550
 49
-0.000110
 49
0.000110
 49
-0.000110
  0
LTYPE
  2
PHANTOM
 70
    64
  3
_____ _ _ _____ _ _ _____ _ _ _____ _ _ ____
 72
    65
 73
     6
 40
0.001100
 49
0.000550
 49
-0.000110
 49
0.000110
 49
-0.000110
 49
0.000110
 49
-0.000110
  0
LTYPE
  2
DOT
 70
    64
  3
...............................................
 72
    65
 73
     2
 40
0.000110
 49
0.000000
 49
-0.000110
  0
LTYPE
  2
DASHDOT
 70
    64
  3
__ . __ . __ . __ . __ . __ . __ . __ . __ . __
 72
    65
 73
     4
 40
0.000440
 49
0.000220
 49
-0.000110
 49
0.000000
 49
-0.000110
  0
LTYPE
  2
BORDER
 70
    64
  3
__ __ . __ __ . __ __ . __ __ . __ __ . __ __
 72
    65
 73
     6
 40
0.000770
 49
0.000220
 49
-0.000110
 49
0.000220
 49
-0.000110
 49
0.000000
 49
-0.000110
  0
LTYPE
  2
DIVIDE
 70
    64
  3
__ . . __ . . __ . . __ . . __ . . __ . . __
 72
    65
 73
     6
 40
0.000550
 49
0.000220
 49
-0.000110
 49
0.000000
 49
-0.000110
 49
0.000000
 49
-0.000110
  0
LTYPE
  2
DOTDOT
 70
    64
  3
 . .  . .  . .  . .  . .  . . 
 72
    65
 73
     5
 40
0.000242
 49
-0.000110
 49
0.000000
 49
-0.000110
 49
0.000000
 49
-0.000110
  0
ENDTAB
  0
TABLE
  2
STYLE
 70
     2
  0
STYLE
 70
     0
  2
SN0
 40
0.000000
 41
0.000440
 50
0.000000
 71
     0
 42
0.000000
  3
ROMANS
  0
STYLE
 70
    68
  2
SV0
 40
0.000000
 41
0.000440
 50
0.000000
 71
     0
 42
0.000000
  3
ROMANS
  0
ENDTAB
  0
TABLE
  2
LAYER
 70
     3
  0
LAYER
  2
FOREGROUND
 70
    64
 62
     7
  6
CONTINUOUS
  0
LAYER
  2
BACKGROUND
 70
    65
 62
    -7
  6
CONTINUOUS
  0
LAYER
  2
0
 70
    64
 62
     7
  6
CONTINUOUS
  0
ENDTAB
  0
ENDSEC
  0
SECTION
  2
ENTITIES
  0
LINE
  8
0
 62
     0
  6
CONTINUOUS
 10
0.947320
 20
5.650920
 11
0.947320
 21
5.839240
  0
LINE
  8
0
 62
     0
  6
CONTINUOUS
 10
0.948640
 20
5.843640
 11
0.954360
 21
5.838360
  0
LINE
  8
0
 62
     0
  6
CONTINUOUS
 10
1.188880
 20
5.844960
 11
0.952160
 21
5.844960
  0
LINE
  8
0
 62
     0
  6
CONTINUOUS
 10
0.952160
 20
5.646520
 11
1.188880
 21
5.646520
  0
LINE
  8
0
 62
     0
  6
CONTINUOUS
 10
1.192400
 20
5.843640
 11
1.186680
 21
5.838360
  0
LINE
  8
0
 62
     0
  6
CONTINUOUS
 10
0.957440
 20
5.650920
 11
1.060840
 21
5.650920
  0
LINE
  8
0
 62
     0
  6
CONTINUOUS
 10
0.957440
 20
5.839240
 11
1.050720
 21
5.839240
  0
LINE
  8
0
 62
     0
  6
CONTINUOUS
 10
1.187560
 20
5.834840
 11
1.187560
 21
5.830440
  0
LINE
  8
0
 62
     0
  6
CONTINUOUS
 10
1.186680
 20
5.653560
 11
1.192400
 21
5.647840
  0
LINE
  8
0
 62
     0
  6
CONTINUOUS
 10
1.194600
 20
5.819880
 11
1.174360
 21
5.819880
  0
LINE
  8
0
 62
     0
  6
CONTINUOUS
 10
1.174360
 20
5.819880
 11
1.174360
 21
5.830440
  0
LINE
  8
0
 62
     0
  6
CONTINUOUS
 10
1.174360
 20
5.830440
 11
1.194600
 21
5.830440
  0
LINE
  8
0
 62
     0
  6
CONTINUOUS
 10
1.194600
 20
5.830440
 11
1.194600
 21
5.819880
  0
LINE
  8
0
 62
     0
  6
CONTINUOUS
 10
1.194600
 20
5.809760
 11
1.194600
 21
5.799640
  0
LINE
  8
0
 62
     0
  6
CONTINUOUS
 10
1.174360
 20
5.809760
 11
1.194600
 21
5.809760
  0
LINE
  8
0
 62
     0
  6
CONTINUOUS
 10
1.174360
 20
5.799640
 11
1.174360
 21
5.809760
  0
LINE
  8
0
 62
     0
  6
CONTINUOUS
 10
1.194600
 20
5.799640
 11
1.174360
 21
5.799640
  0
LINE
  8
0
 62
     0
  6
CONTINUOUS
 10
1.194600
 20
5.780280
 11
1.174360
 21
5.780280
  0
LINE
  8
0
 62
     0
  6
CONTINUOUS
 10
1.174360
 20
5.780280
 11
1.174360
 21
5.790400
  0
LINE
  8
0
 62
     0
  6
CONTINUOUS
 10
1.174360
 20
5.790400
 11
1.194600
 21
5.790400
  0
LINE
  8
0
 62
     0
  6
CONTINUOUS
 10
1.194600
 20
5.790400
 11
1.194600
 21
5.780280
  0
LINE
  8
0
 62
     0
  6
CONTINUOUS
 10
0.966680
 20
5.790400
 11
0.966680
 21
5.780280
  0
LINE
  8
0
 62
     0
  6
CONTINUOUS
 10
0.947320
 20
5.790400
 11
0.966680
 21
5.790400
  0
LINE
  8
0
 62
     0
  6
CONTINUOUS
 10
0.947320
 20
5.780280
 11
0.947320
 21
5.790400
  0
LINE
  8
0
 62
     0
  6
CONTINUOUS
 10
0.966680
 20
5.780280
 11
0.947320
 21
5.780280
  0
LINE
  8
0
 62
     0
  6
CONTINUOUS
 10
0.966680
 20
5.799640
 11
0.947320
 21
5.799640
  0
LINE
  8
0
 62
     0
  6
CONTINUOUS
 10
0.947320
 20
5.799640
 11
0.947320
 21
5.809760
  0
LINE
  8
0
 62
     0
  6
CONTINUOUS
 10
0.947320
 20
5.809760
 11
0.966680
 21
5.809760
  0
LINE
  8
0
 62
     0
  6
CONTINUOUS
 10
0.966680
 20
5.809760
 11
0.966680
 21
5.799640
  0
LINE
  8
0
 62
     0
  6
CONTINUOUS
 10
0.966680
 20
5.830440
 11
0.966680
 21
5.819880
  0
LINE
  8
0
 62
     0
  6
CONTINUOUS
 10
0.947320
 20
5.830440
 11
0.966680
 21
5.830440
  0
LINE
  8
0
 62
     0
  6
CONTINUOUS
 10
0.947320
 20
5.819880
 11
0.947320
 21
5.830440
  0
LINE
  8
0
 62
     0
  6
CONTINUOUS
 10
0.966680
 20
5.819880
 11
0.947320
 21
5.819880
  0
LINE
  8
0
 62
     0
  6
CONTINUOUS
 10
0.966680
 20
5.671600
 11
0.966680
 21
5.661480
  0
LINE
  8
0
 62
     0
  6
CONTINUOUS
 10
0.947320
 20
5.671600
 11
0.966680
 21
5.671600
  0
LINE
  8
0
 62
     0
  6
CONTINUOUS
 10
0.947320
 20
5.661480
 11
0.947320
 21
5.671600
  0
LINE
  8
0
 62
     0
  6
CONTINUOUS
 10
0.966680
 20
5.661480
 11
0.947320
 21
5.661480
  0
LINE
  8
0
 62
     0
  6
CONTINUOUS
 10
0.966680
 20
5.681720
 11
0.947320
 21
5.681720
  0
LINE
  8
0
 62
     0
  6
CONTINUOUS
 10
0.947320
 20
5.681720
 11
0.947320
 21
5.690960
  0
LINE
  8
0
 62
     0
  6
CONTINUOUS
 10
0.947320
 20
5.690960
 11
0.966680
 21
5.690960
  0
LINE
  8
0
 62
     0
  6
CONTINUOUS
 10
0.966680
 20
5.690960
 11
0.966680
 21
5.681720
  0
LINE
  8
0
 62
     0
  6
CONTINUOUS
 10
0.966680
 20
5.711200
 11
0.966680
 21
5.701080
  0
LINE
  8
0
 62
     0
  6
CONTINUOUS
 10
0.947320
 20
5.711200
 11
0.966680
 21
5.711200
  0
LINE
  8
0
 62
     0
  6
CONTINUOUS
 10
0.947320
 20
5.701080
 11
0.947320
 21
5.711200
  0
LINE
  8
0
 62
     0
  6
CONTINUOUS
 10
0.966680
 20
5.701080
 11
0.947320
 21
5.701080
  0
LINE
  8
0
 62
     0
  6
CONTINUOUS
 10
1.194600
 20
5.671600
 11
1.194600
 21
5.661480
  0
LINE
  8
0
 62
     0
  6
CONTINUOUS
 10
1.174360
 20
5.671600
 11
1.194600
 21
5.671600
  0
LINE
  8
0
 62
     0
  6
CONTINUOUS
 10
1.174360
 20
5.661480
 11
1.174360
 21
5.671600
  0
LINE
  8
0
 62
     0
  6
CONTINUOUS
 10
1.194600
 20
5.661480
 11
1.174360
 21
5.661480
  0
LINE
  8
0
 62
     0
  6
CONTINUOUS
 10
1.194600
 20
5.681720
 11
1.174360
 21
5.681720
  0
LINE
  8
0
 62
     0
  6
CONTINUOUS
 10
1.174360
 20
5.681720
 11
1.174360
 21
5.690960
  0
LINE
  8
0
 62
     0
  6
CONTINUOUS
 10
1.174360
 20
5.690960
 11
1.194600
 21
5.690960
  0
LINE
  8
0
 62
     0
  6
CONTINUOUS
 10
1.194600
 20
5.690960
 11
1.194600
 21
5.681720
  0
LINE
  8
0
 62
     0
  6
CONTINUOUS
 10
1.194600
 20
5.711200
 11
1.194600
 21
5.701080
  0
LINE
  8
0
 62
     0
  6
CONTINUOUS
 10
1.174360
 20
5.711200
 11
1.194600
 21
5.711200
  0
LINE
  8
0
 62
     0
  6
CONTINUOUS
 10
1.174360
 20
5.701080
 11
1.174360
 21
5.711200
  0
LINE
  8
0
 62
     0
  6
CONTINUOUS
 10
1.194600
 20
5.701080
 11
1.174360
 21
5.701080
  0
LINE
  8
0
 62
     0
  6
CONTINUOUS
 10
1.070960
 20
5.844960
 11
1.070960
 21
5.784680
  0
LINE
  8
0
 62
     0
  6
CONTINUOUS
 10
1.070960
 20
5.784680
 11
1.060840
 21
5.784680
  0
LINE
  8
0
 62
     0
  6
CONTINUOUS
 10
1.060840
 20
5.784680
 11
1.060840
 21
5.844960
  0
LINE
  8
0
 62
     0
  6
CONTINUOUS
 10
1.060840
 20
5.844960
 11
1.070960
 21
5.844960
  0
LINE
  8
0
 62
     0
  6
CONTINUOUS
 10
1.080200
 20
5.844960
 11
1.090320
 21
5.844960
  0
LINE
  8
0
 62
     0
  6
CONTINUOUS
 10
1.080200
 20
5.784680
 11
1.080200
 21
5.844960
  0
LINE
  8
0
 62
     0
  6
CONTINUOUS
 10
1.090320
 20
5.784680
 11
1.080200
 21
5.784680
  0
LINE
  8
0
 62
     0
  6
CONTINUOUS
 10
1.090320
 20
5.844960
 11
1.090320
 21
5.784680
  0
LINE
  8
0
 62
     0
  6
CONTINUOUS
 10
1.100440
 20
5.844960
 11
1.110560
 21
5.844960
  0
LINE
  8
0
 62
     0
  6
CONTINUOUS
 10
1.100440
 20
5.784680
 11
1.100440
 21
5.844960
  0
LINE
  8
0
 62
     0
  6
CONTINUOUS
 10
1.110560
 20
5.784680
 11
1.100440
 21
5.784680
  0
LINE
  8
0
 62
     0
  6
CONTINUOUS
 10
1.110560
 20
5.844960
 11
1.110560
 21
5.784680
  0
LINE
  8
0
 62
     0
  6
CONTINUOUS
 10
1.119800
 20
5.844960
 11
1.129920
 21
5.844960
  0
LINE
  8
0
 62
     0
  6
CONTINUOUS
 10
1.119800
 20
5.784680
 11
1.119800
 21
5.844960
  0
LINE
  8
0
 62
     0
  6
CONTINUOUS
 10
1.129920
 20
5.784680
 11
1.119800
 21
5.784680
  0
LINE
  8
0
 62
     0
  6
CONTINUOUS
 10
1.129920
 20
5.844960
 11
1.129920
 21
5.784680
  0
LINE
  8
0
 62
     0
  6
CONTINUOUS
 10
1.149280
 20
5.844960
 11
1.149280
 21
5.784680
  0
LINE
  8
0
 62
     0
  6
CONTINUOUS
 10
1.149280
 20
5.784680
 11
1.140040
 21
5.784680
  0
LINE
  8
0
 62
     0
  6
CONTINUOUS
 10
1.140040
 20
5.784680
 11
1.140040
 21
5.844960
  0
LINE
  8
0
 62
     0
  6
CONTINUOUS
 10
1.140040
 20
5.844960
 11
1.149280
 21
5.844960
  0
LINE
  8
0
 62
     0
  6
CONTINUOUS
 10
1.140040
 20
5.705480
 11
1.149280
 21
5.705480
  0
LINE
  8
0
 62
     0
  6
CONTINUOUS
 10
1.149280
 20
5.646520
 11
1.140040
 21
5.646520
  0
LINE
  8
0
 62
     0
  6
CONTINUOUS
 10
1.149280
 20
5.705480
 11
1.149280
 21
5.646520
  0
LINE
  8
0
 62
     0
  6
CONTINUOUS
 10
1.129920
 20
5.705480
 11
1.129920
 21
5.646520
  0
LINE
  8
0
 62
     0
  6
CONTINUOUS
 10
1.129920
 20
5.646520
 11
1.119800
 21
5.646520
  0
LINE
  8
0
 62
     0
  6
CONTINUOUS
 10
1.119800
 20
5.705480
 11
1.129920
 21
5.705480
  0
LINE
  8
0
 62
     0
  6
CONTINUOUS
 10
1.110560
 20
5.705480
 11
1.110560
 21
5.646520
  0
LINE
  8
0
 62
     0
  6
CONTINUOUS
 10
1.110560
 20
5.646520
 11
1.100440
 21
5.646520
  0
LINE
  8
0
 62
     0
  6
CONTINUOUS
 10
1.100440
 20
5.705480
 11
1.110560
 21
5.705480
  0
LINE
  8
0
 62
     0
  6
CONTINUOUS
 10
1.090320
 20
5.705480
 11
1.090320
 21
5.646520
  0
LINE
  8
0
 62
     0
  6
CONTINUOUS
 10
1.090320
 20
5.646520
 11
1.080200
 21
5.646520
  0
LINE
  8
0
 62
     0
  6
CONTINUOUS
 10
1.080200
 20
5.705480
 11
1.090320
 21
5.705480
  0
LINE
  8
0
 62
     0
  6
CONTINUOUS
 10
1.060840
 20
5.705480
 11
1.070960
 21
5.705480
  0
LINE
  8
0
 62
     0
  6
CONTINUOUS
 10
1.070960
 20
5.646520
 11
1.060840
 21
5.646520
  0
LINE
  8
0
 62
     0
  6
CONTINUOUS
 10
1.070960
 20
5.705480
 11
1.070960
 21
5.646520
  0
LINE
  8
0
 62
     0
  6
CONTINUOUS
 10
0.991760
 20
5.646520
 11
0.991760
 21
5.705480
  0
LINE
  8
0
 62
     0
  6
CONTINUOUS
 10
0.991760
 20
5.705480
 11
1.050720
 21
5.705480
  0
LINE
  8
0
 62
     0
  6
CONTINUOUS
 10
1.050720
 20
5.705480
 11
1.050720
 21
5.646520
  0
LINE
  8
0
 62
     0
  6
CONTINUOUS
 10
0.991760
 20
5.844960
 11
0.991760
 21
5.784680
  0
LINE
  8
0
 62
     0
  6
CONTINUOUS
 10
0.991760
 20
5.784680
 11
1.050720
 21
5.784680
  0
LINE
  8
0
 62
     0
  6
CONTINUOUS
 10
1.050720
 20
5.784680
 11
1.050720
 21
5.844960
  0
ARC
  8
0
 62
     0
  6
CONTINUOUS
 10
1.189320
 20
5.838800
 40
0.004840
 50
5.195130
 51
79.696532
  0
ARC
  8
0
 62
     0
  6
CONTINUOUS
 10
1.183600
 20
5.834400
 40
0.004840
 50
-10.306215
 51
95.193742
  0
ARC
  8
0
 62
     0
  6
CONTINUOUS
 10
0.957880
 20
5.834400
 40
0.004840
 50
79.696532
 51
-169.693811
  0
ARC
  8
0
 62
     0
  6
CONTINUOUS
 10
0.952160
 20
5.838800
 40
0.004840
 50
90.000013
 51
174.804896
  0
ARC
  8
0
 62
     0
  6
CONTINUOUS
 10
0.952160
 20
5.651360
 40
0.004840
 50
-174.804896
 51
-90.000013
  0
ARC
  8
0
 62
     0
  6
CONTINUOUS
 10
0.957880
 20
5.656200
 40
0.004840
 50
-174.804896
 51
-80.538949
  0
LINE
  8
0
 62
     0
  6
CONTINUOUS
 10
0.948640
 20
5.647840
 11
0.954360
 21
5.653560
  0
ARC
  8
0
 62
     0
  6
CONTINUOUS
 10
1.183600
 20
5.656200
 40
0.004840
 50
-94.763013
 51
-5.195130
  0
ARC
  8
0
 62
     0
  6
CONTINUOUS
 10
1.189320
 20
5.651360
 40
0.004840
 50
-78.691572
 51
-5.195130
  0
LINE
  8
0
 62
     0
  6
CONTINUOUS
 10
1.060840
 20
5.646520
 11
1.060840
 21
5.705480
  0
LINE
  8
0
 62
     0
  6
CONTINUOUS
 10
1.080200
 20
5.646520
 11
1.080200
 21
5.705480
  0
LINE
  8
0
 62
     0
  6
CONTINUOUS
 10
1.100440
 20
5.646520
 11
1.100440
 21
5.705480
  0
LINE
  8
0
 62
     0
  6
CONTINUOUS
 10
1.119800
 20
5.646520
 11
1.119800
 21
5.705480
  0
LINE
  8
0
 62
     0
  6
CONTINUOUS
 10
1.140040
 20
5.646520
 11
1.140040
 21
5.705480
  0
LINE
  8
0
 62
     0
  6
CONTINUOUS
 10
0.953040
 20
5.656640
 11
0.953040
 21
5.661480
  0
LINE
  8
0
 62
     0
  6
CONTINUOUS
 10
1.194600
 20
5.839240
 11
1.194600
 21
5.650920
  0
LINE
  8
0
 62
     0
  6
CONTINUOUS
 10
1.206040
 20
5.512760
 11
1.206040
 21
5.973000
  0
LINE
  8
0
 62
     0
  6
CONTINUOUS
 10
0.933680
 20
5.973000
 11
0.933680
 21
5.512760
  0
CIRCLE
  8
0
 62
     0
  6
CONTINUOUS
 10
1.070960
 20
5.903480
 40
0.013200
  0
CIRCLE
  8
0
 62
     0
  6
CONTINUOUS
 10
1.070960
 20
5.586680
 40
0.013200
  0
LINE
  8
0
 62
     0
  6
CONTINUOUS
 10
0.933680
 20
5.533000
 11
1.206040
 21
5.533000
  0
LINE
  8
0
 62
     0
  6
CONTINUOUS
 10
0.933680
 20
5.542240
 11
1.206040
 21
5.542240
  0
LINE
  8
0
 62
     0
  6
CONTINUOUS
 10
0.933680
 20
5.562480
 11
1.206040
 21
5.562480
  0
LINE
  8
0
 62
     0
  6
CONTINUOUS
 10
0.933680
 20
5.552360
 11
1.206040
 21
5.552360
  0
LINE
  8
0
 62
     0
  6
CONTINUOUS
 10
0.933680
 20
5.573040
 11
1.206040
 21
5.573040
  0
LINE
  8
0
 62
     0
  6
CONTINUOUS
 10
0.938520
 20
5.977400
 11
1.200320
 21
5.977400
  0
LINE
  8
0
 62
     0
  6
CONTINUOUS
 10
0.933680
 20
5.512760
 11
1.206040
 21
5.512760
  0
LINE
  8
0
 62
     0
  6
CONTINUOUS
 10
1.058640
 20
5.903920
 11
1.083280
 21
5.903920
  0
LINE
  8
0
 62
     0
  6
CONTINUOUS
 10
1.058640
 20
5.587560
 11
1.083280
 21
5.587560
  0
ARC
  8
0
 62
     0
  6
CONTINUOUS
 10
0.938520
 20
5.972560
 40
0.004840
 50
90.000013
 51
174.804896
  0
ARC
  8
0
 62
     0
  6
CONTINUOUS
 10
1.200760
 20
5.972560
 40
0.005280
 50
4.764285
 51
84.806284
  0
LINE
  8
0
 62
     0
  6
CONTINUOUS
 10
1.050720
 20
5.839240
 11
1.060840
 21
5.839240
  0
LINE
  8
0
 62
     0
  6
CONTINUOUS
 10
1.070960
 20
5.839240
 11
1.080200
 21
5.839240
  0
LINE
  8
0
 62
     0
  6
CONTINUOUS
 10
1.090320
 20
5.839240
 11
1.100440
 21
5.839240
  0
LINE
  8
0
 62
     0
  6
CONTINUOUS
 10
1.110560
 20
5.839240
 11
1.119800
 21
5.839240
  0
LINE
  8
0
 62
     0
  6
CONTINUOUS
 10
1.129920
 20
5.839240
 11
1.140040
 21
5.839240
  0
LINE
  8
0
 62
     0
  6
CONTINUOUS
 10
1.149280
 20
5.839240
 11
1.183160
 21
5.839240
  0
LINE
  8
0
 62
     0
  6
CONTINUOUS
 10
1.149280
 20
5.650920
 11
1.183160
 21
5.650920
  0
LINE
  8
0
 62
     0
  6
CONTINUOUS
 10
1.129920
 20
5.650920
 11
1.140040
 21
5.650920
  0
LINE
  8
0
 62
     0
  6
CONTINUOUS
 10
1.110560
 20
5.650920
 11
1.119800
 21
5.650920
  0
LINE
  8
0
 62
     0
  6
CONTINUOUS
 10
1.090320
 20
5.650920
 11
1.100440
 21
5.650920
  0
LINE
  8
0
 62
     0
  6
CONTINUOUS
 10
1.070960
 20
5.650920
 11
1.080200
 21
5.650920
  0
LINE
  8
0
 62
     0
  6
CONTINUOUS
 10
1.187560
 20
5.819880
 11
1.187560
 21
5.809760
  0
LINE
  8
0
 62
     0
  6
CONTINUOUS
 10
1.187560
 20
5.799640
 11
1.187560
 21
5.790400
  0
LINE
  8
0
 62
     0
  6
CONTINUOUS
 10
1.187560
 20
5.780280
 11
1.187560
 21
5.711200
  0
LINE
  8
0
 62
     0
  6
CONTINUOUS
 10
1.187560
 20
5.701080
 11
1.187560
 21
5.690960
  0
LINE
  8
0
 62
     0
  6
CONTINUOUS
 10
1.187560
 20
5.681720
 11
1.187560
 21
5.671600
  0
LINE
  8
0
 62
     0
  6
CONTINUOUS
 10
1.187560
 20
5.661480
 11
1.187560
 21
5.656640
  0
LINE
  8
0
 62
     0
  6
CONTINUOUS
 10
0.953040
 20
5.830440
 11
0.953040
 21
5.834840
  0
LINE
  8
0
 62
     0
  6
CONTINUOUS
 10
0.953040
 20
5.809760
 11
0.953040
 21
5.819880
  0
LINE
  8
0
 62
     0
  6
CONTINUOUS
 10
0.953040
 20
5.790400
 11
0.953040
 21
5.799640
  0
LINE
  8
0
 62
     0
  6
CONTINUOUS
 10
0.953040
 20
5.711200
 11
0.953040
 21
5.780280
  0
LINE
  8
0
 62
     0
  6
CONTINUOUS
 10
0.953040
 20
5.690960
 11
0.953040
 21
5.701080
  0
LINE
  8
0
 62
     0
  6
CONTINUOUS
 10
0.953040
 20
5.671600
 11
0.953040
 21
5.681720
  0
LINE
  8
0
 62
     0
  6
CONTINUOUS
 10
2.404600
 20
5.423440
 11
2.404600
 21
5.560280
  0
LINE
  8
0
 62
     0
  6
CONTINUOUS
 10
2.404600
 20
5.628920
 11
2.404600
 21
5.765760
  0
LINE
  8
0
 62
     0
  6
CONTINUOUS
 10
2.404600
 20
5.835720
 11
2.404600
 21
5.991040
  0
LINE
  8
0
 62
     0
  6
CONTINUOUS
 10
5.122480
 20
5.779400
 11
5.136120
 21
5.826480
  0
LINE
  8
0
 62
     0
  6
CONTINUOUS
 10
5.136120
 20
5.826480
 11
5.166920
 21
5.826480
  0
LINE
  8
0
 62
     0
  6
CONTINUOUS
 10
5.188040
 20
5.826480
 11
5.157680
 21
5.779400
  0
LINE
  8
0
 62
     0
  6
CONTINUOUS
 10
5.168240
 20
5.794800
 11
5.191120
 21
5.794800
  0
LINE
  8
0
 62
     0
  6
CONTINUOUS
 10
5.194200
 20
5.779400
 11
5.188040
 21
5.826480
  0
LINE
  8
0
 62
     0
  6
CONTINUOUS
 10
5.217080
 20
5.826480
 11
5.206520
 21
5.779400
  0
LINE
  8
0
 62
     0
  6
CONTINUOUS
 10
5.236880
 20
5.779400
 11
5.217080
 21
5.826480
  0
LINE
  8
0
 62
     0
  6
CONTINUOUS
 10
5.250520
 20
5.826480
 11
5.236880
 21
5.779400
  0
LINE
  8
0
 62
     0
  6
CONTINUOUS
 10
5.148440
 20
5.803600
 11
5.130400
 21
5.803600
  0
LINE
  8
0
 62
     0
  6
CONTINUOUS
 10
2.418240
 20
5.479760
 11
2.407680
 21
5.468760
  0
LINE
  8
0
 62
     0
  6
CONTINUOUS
 10
2.407680
 20
5.468760
 11
2.421320
 21
5.474920
  0
LINE
  8
0
 62
     0
  6
CONTINUOUS
 10
2.421320
 20
5.474920
 11
2.407680
 21
5.468760
  0
LINE
  8
0
 62
     0
  6
CONTINUOUS
 10
2.407680
 20
5.468760
 11
2.423080
 21
5.468760
  0
LINE
  8
0
 62
     0
  6
CONTINUOUS
 10
2.423080
 20
5.468760
 11
2.421320
 21
5.474920
  0
LINE
  8
0
 62
     0
  6
CONTINUOUS
 10
2.421320
 20
5.474920
 11
2.418240
 21
5.479760
  0
LINE
  8
0
 62
     0
  6
CONTINUOUS
 10
2.418240
 20
5.479760
 11
2.412080
 21
5.482400
  0
LINE
  8
0
 62
     0
  6
CONTINUOUS
 10
2.412080
 20
5.482400
 11
2.407680
 21
5.468760
  0
LINE
  8
0
 62
     0
  6
CONTINUOUS
 10
2.407680
 20
5.468760
 11
2.418240
 21
5.479760
  0
LINE
  8
0
 62
     0
  6
CONTINUOUS
 10
2.412080
 20
5.482400
 11
2.407680
 21
5.484160
  0
LINE
  8
0
 62
     0
  6
CONTINUOUS
 10
2.407680
 20
5.484160
 11
2.407680
 21
5.468760
  0
LINE
  8
0
 62
     0
  6
CONTINUOUS
 10
2.407680
 20
5.468760
 11
2.412080
 21
5.482400
  0
LINE
  8
0
 62
     0
  6
CONTINUOUS
 10
2.412080
 20
5.482400
 11
2.412080
 21
5.474920
  0
LINE
  8
0
 62
     0
  6
CONTINUOUS
 10
2.407680
 20
5.468760
 11
2.407680
 21
5.484160
  0
LINE
  8
0
 62
     0
  6
CONTINUOUS
 10
2.407680
 20
5.484160
 11
2.407680
 21
5.468760
  0
LINE
  8
0
 62
     0
  6
CONTINUOUS
 10
2.407680
 20
5.468760
 11
2.407680
 21
5.484160
  0
LINE
  8
0
 62
     0
  6
CONTINUOUS
 10
2.407680
 20
5.484160
 11
2.400200
 21
5.482400
  0
LINE
  8
0
 62
     0
  6
CONTINUOUS
 10
2.400200
 20
5.482400
 11
2.407680
 21
5.468760
  0
LINE
  8
0
 62
     0
  6
CONTINUOUS
 10
2.407680
 20
5.468760
 11
2.400200
 21
5.482400
  0
LINE
  8
0
 62
     0
  6
CONTINUOUS
 10
2.400200
 20
5.482400
 11
2.395360
 21
5.479760
  0
LINE
  8
0
 62
     0
  6
CONTINUOUS
 10
2.395360
 20
5.479760
 11
2.407680
 21
5.468760
  0
LINE
  8
0
 62
     0
  6
CONTINUOUS
 10
2.407680
 20
5.468760
 11
2.395360
 21
5.479760
  0
LINE
  8
0
 62
     0
  6
CONTINUOUS
 10
2.395360
 20
5.479760
 11
2.390960
 21
5.474920
  0
LINE
  8
0
 62
     0
  6
CONTINUOUS
 10
2.390960
 20
5.474920
 11
2.407680
 21
5.468760
  0
LINE
  8
0
 62
     0
  6
CONTINUOUS
 10
2.407680
 20
5.468760
 11
2.390960
 21
5.474920
  0
LINE
  8
0
 62
     0
  6
CONTINUOUS
 10
2.390960
 20
5.474920
 11
2.390960
 21
5.468760
  0
LINE
  8
0
 62
     0
  6
CONTINUOUS
 10
2.390960
 20
5.468760
 11
2.407680
 21
5.468760
  0
LINE
  8
0
 62
     0
  6
CONTINUOUS
 10
2.407680
 20
5.468760
 11
2.390960
 21
5.468760
  0
LINE
  8
0
 62
     0
  6
CONTINUOUS
 10
2.390960
 20
5.468760
 11
2.407680
 21
5.468760
  0
LINE
  8
0
 62
     0
  6
CONTINUOUS
 10
2.407680
 20
5.468760
 11
2.390960
 21
5.461280
  0
LINE
  8
0
 62
     0
  6
CONTINUOUS
 10
2.390960
 20
5.461280
 11
2.407680
 21
5.468760
  0
LINE
  8
0
 62
     0
  6
CONTINUOUS
 10
2.407680
 20
5.468760
 11
2.395360
 21
5.456880
  0
LINE
  8
0
 62
     0
  6
CONTINUOUS
 10
2.395360
 20
5.456880
 11
2.407680
 21
5.468760
  0
LINE
  8
0
 62
     0
  6
CONTINUOUS
 10
2.407680
 20
5.468760
 11
2.407680
 21
5.452040
  0
LINE
  8
0
 62
     0
  6
CONTINUOUS
 10
2.407680
 20
5.452040
 11
2.407680
 21
5.468760
  0
LINE
  8
0
 62
     0
  6
CONTINUOUS
 10
2.407680
 20
5.468760
 11
2.400200
 21
5.453800
  0
LINE
  8
0
 62
     0
  6
CONTINUOUS
 10
2.400200
 20
5.453800
 11
2.407680
 21
5.468760
  0
LINE
  8
0
 62
     0
  6
CONTINUOUS
 10
2.407680
 20
5.468760
 11
2.407680
 21
5.452040
  0
LINE
  8
0
 62
     0
  6
CONTINUOUS
 10
2.407680
 20
5.452040
 11
2.407680
 21
5.468760
  0
LINE
  8
0
 62
     0
  6
CONTINUOUS
 10
2.407680
 20
5.468760
 11
2.412080
 21
5.453800
  0
LINE
  8
0
 62
     0
  6
CONTINUOUS
 10
2.412080
 20
5.453800
 11
2.407680
 21
5.468760
  0
LINE
  8
0
 62
     0
  6
CONTINUOUS
 10
2.407680
 20
5.468760
 11
2.418240
 21
5.456880
  0
LINE
  8
0
 62
     0
  6
CONTINUOUS
 10
2.418240
 20
5.456880
 11
2.407680
 21
5.468760
  0
LINE
  8
0
 62
     0
  6
CONTINUOUS
 10
2.407680
 20
5.468760
 11
2.421320
 21
5.461280
  0
LINE
  8
0
 62
     0
  6
CONTINUOUS
 10
2.421320
 20
5.461280
 11
2.407680
 21
5.468760
  0
LINE
  8
0
 62
     0
  6
CONTINUOUS
 10
2.407680
 20
5.468760
 11
2.423080
 21
5.468760
  0
LINE
  8
0
 62
     0
  6
CONTINUOUS
 10
2.423080
 20
5.468760
 11
2.407680
 21
5.468760
  0
LINE
  8
0
 62
     0
  6
CONTINUOUS
 10
2.412080
 20
5.461280
 11
2.412080
 21
5.453800
  0
LINE
  8
0
 62
     0
  6
CONTINUOUS
 10
2.412080
 20
5.453800
 11
2.418240
 21
5.456880
  0
LINE
  8
0
 62
     0
  6
CONTINUOUS
 10
2.418240
 20
5.456880
 11
2.421320
 21
5.461280
  0
LINE
  8
0
 62
     0
  6
CONTINUOUS
 10
2.421320
 20
5.461280
 11
2.423080
 21
5.468760
  0
LINE
  8
0
 62
     0
  6
CONTINUOUS
 10
2.412080
 20
5.453800
 11
2.407680
 21
5.452040
  0
LINE
  8
0
 62
     0
  6
CONTINUOUS
 10
2.407680
 20
5.452040
 11
2.400200
 21
5.453800
  0
LINE
  8
0
 62
     0
  6
CONTINUOUS
 10
2.400200
 20
5.453800
 11
2.395360
 21
5.456880
  0
LINE
  8
0
 62
     0
  6
CONTINUOUS
 10
2.395360
 20
5.456880
 11
2.390960
 21
5.461280
  0
LINE
  8
0
 62
     0
  6
CONTINUOUS
 10
2.390960
 20
5.461280
 11
2.390960
 21
5.468760
  0
LINE
  8
0
 62
     0
  6
CONTINUOUS
 10
2.392280
 20
5.570840
 11
2.400200
 21
5.570840
  0
LINE
  8
0
 62
     0
  6
CONTINUOUS
 10
2.400200
 20
5.578320
 11
2.407680
 21
5.563360
  0
LINE
  8
0
 62
     0
  6
CONTINUOUS
 10
2.407680
 20
5.563360
 11
2.407680
 21
5.580080
  0
LINE
  8
0
 62
     0
  6
CONTINUOUS
 10
2.407680
 20
5.580080
 11
2.407680
 21
5.563360
  0
LINE
  8
0
 62
     0
  6
CONTINUOUS
 10
2.407680
 20
5.563360
 11
2.412080
 21
5.578320
  0
LINE
  8
0
 62
     0
  6
CONTINUOUS
 10
2.412080
 20
5.578320
 11
2.412080
 21
5.569520
  0
LINE
  8
0
 62
     0
  6
CONTINUOUS
 10
2.412080
 20
5.569520
 11
2.412080
 21
5.570840
  0
LINE
  8
0
 62
     0
  6
CONTINUOUS
 10
2.412080
 20
5.570840
 11
2.421320
 21
5.570840
  0
LINE
  8
0
 62
     0
  6
CONTINUOUS
 10
2.421320
 20
5.570840
 11
2.421320
 21
5.569520
  0
LINE
  8
0
 62
     0
  6
CONTINUOUS
 10
2.421320
 20
5.569520
 11
2.418240
 21
5.575240
  0
LINE
  8
0
 62
     0
  6
CONTINUOUS
 10
2.418240
 20
5.575240
 11
2.407680
 21
5.563360
  0
LINE
  8
0
 62
     0
  6
CONTINUOUS
 10
2.407680
 20
5.563360
 11
2.421320
 21
5.569520
  0
LINE
  8
0
 62
     0
  6
CONTINUOUS
 10
2.421320
 20
5.569520
 11
2.407680
 21
5.563360
  0
LINE
  8
0
 62
     0
  6
CONTINUOUS
 10
2.407680
 20
5.563360
 11
2.423080
 21
5.563360
  0
LINE
  8
0
 62
     0
  6
CONTINUOUS
 10
2.423080
 20
5.563360
 11
2.421320
 21
5.569520
  0
LINE
  8
0
 62
     0
  6
CONTINUOUS
 10
2.423080
 20
5.564680
 11
2.410760
 21
5.564680
  0
LINE
  8
0
 62
     0
  6
CONTINUOUS
 10
2.410760
 20
5.564680
 11
2.407680
 21
5.563360
  0
LINE
  8
0
 62
     0
  6
CONTINUOUS
 10
2.407680
 20
5.563360
 11
2.418240
 21
5.575240
  0
LINE
  8
0
 62
     0
  6
CONTINUOUS
 10
2.418240
 20
5.575240
 11
2.412080
 21
5.578320
  0
LINE
  8
0
 62
     0
  6
CONTINUOUS
 10
2.412080
 20
5.578320
 11
2.407680
 21
5.563360
  0
LINE
  8
0
 62
     0
  6
CONTINUOUS
 10
2.407680
 20
5.563360
 11
2.407680
 21
5.580080
  0
LINE
  8
0
 62
     0
  6
CONTINUOUS
 10
2.407680
 20
5.580080
 11
2.407680
 21
5.563360
  0
LINE
  8
0
 62
     0
  6
CONTINUOUS
 10
2.407680
 20
5.563360
 11
2.400200
 21
5.578320
  0
LINE
  8
0
 62
     0
  6
CONTINUOUS
 10
2.400200
 20
5.578320
 11
2.395360
 21
5.575240
  0
LINE
  8
0
 62
     0
  6
CONTINUOUS
 10
2.395360
 20
5.575240
 11
2.407680
 21
5.563360
  0
LINE
  8
0
 62
     0
  6
CONTINUOUS
 10
2.407680
 20
5.563360
 11
2.395360
 21
5.575240
  0
LINE
  8
0
 62
     0
  6
CONTINUOUS
 10
2.395360
 20
5.575240
 11
2.390960
 21
5.569520
  0
LINE
  8
0
 62
     0
  6
CONTINUOUS
 10
2.390960
 20
5.569520
 11
2.407680
 21
5.563360
  0
LINE
  8
0
 62
     0
  6
CONTINUOUS
 10
2.407680
 20
5.563360
 11
2.390960
 21
5.569520
  0
LINE
  8
0
 62
     0
  6
CONTINUOUS
 10
2.390960
 20
5.569520
 11
2.390960
 21
5.563360
  0
LINE
  8
0
 62
     0
  6
CONTINUOUS
 10
2.390960
 20
5.563360
 11
2.407680
 21
5.563360
  0
LINE
  8
0
 62
     0
  6
CONTINUOUS
 10
2.407680
 20
5.563360
 11
2.390960
 21
5.563360
  0
LINE
  8
0
 62
     0
  6
CONTINUOUS
 10
2.390960
 20
5.563360
 11
2.390960
 21
5.557200
  0
LINE
  8
0
 62
     0
  6
CONTINUOUS
 10
2.390960
 20
5.557200
 11
2.407680
 21
5.563360
  0
LINE
  8
0
 62
     0
  6
CONTINUOUS
 10
2.407680
 20
5.563360
 11
2.390960
 21
5.563360
  0
LINE
  8
0
 62
     0
  6
CONTINUOUS
 10
2.390960
 20
5.563360
 11
2.390960
 21
5.564680
  0
LINE
  8
0
 62
     0
  6
CONTINUOUS
 10
2.390960
 20
5.564680
 11
2.404600
 21
5.564680
  0
LINE
  8
0
 62
     0
  6
CONTINUOUS
 10
2.404600
 20
5.564680
 11
2.407680
 21
5.563360
  0
LINE
  8
0
 62
     0
  6
CONTINUOUS
 10
2.407680
 20
5.563360
 11
2.390960
 21
5.557200
  0
LINE
  8
0
 62
     0
  6
CONTINUOUS
 10
2.390960
 20
5.557200
 11
2.395360
 21
5.552800
  0
LINE
  8
0
 62
     0
  6
CONTINUOUS
 10
2.395360
 20
5.552800
 11
2.407680
 21
5.563360
  0
LINE
  8
0
 62
     0
  6
CONTINUOUS
 10
2.407680
 20
5.563360
 11
2.395360
 21
5.552800
  0
LINE
  8
0
 62
     0
  6
CONTINUOUS
 10
2.395360
 20
5.552800
 11
2.400200
 21
5.547960
  0
LINE
  8
0
 62
     0
  6
CONTINUOUS
 10
2.400200
 20
5.547960
 11
2.407680
 21
5.563360
  0
LINE
  8
0
 62
     0
  6
CONTINUOUS
 10
2.407680
 20
5.563360
 11
2.407680
 21
5.547960
  0
LINE
  8
0
 62
     0
  6
CONTINUOUS
 10
2.407680
 20
5.547960
 11
2.407680
 21
5.563360
  0
LINE
  8
0
 62
     0
  6
CONTINUOUS
 10
2.407680
 20
5.563360
 11
2.400200
 21
5.547960
  0
LINE
  8
0
 62
     0
  6
CONTINUOUS
 10
2.400200
 20
5.547960
 11
2.407680
 21
5.547960
  0
LINE
  8
0
 62
     0
  6
CONTINUOUS
 10
2.407680
 20
5.547960
 11
2.407680
 21
5.563360
  0
LINE
  8
0
 62
     0
  6
CONTINUOUS
 10
2.407680
 20
5.563360
 11
2.407680
 21
5.547960
  0
LINE
  8
0
 62
     0
  6
CONTINUOUS
 10
2.407680
 20
5.547960
 11
2.412080
 21
5.547960
  0
LINE
  8
0
 62
     0
  6
CONTINUOUS
 10
2.412080
 20
5.547960
 11
2.407680
 21
5.563360
  0
LINE
  8
0
 62
     0
  6
CONTINUOUS
 10
2.407680
 20
5.563360
 11
2.412080
 21
5.547960
  0
LINE
  8
0
 62
     0
  6
CONTINUOUS
 10
2.412080
 20
5.547960
 11
2.418240
 21
5.552800
  0
LINE
  8
0
 62
     0
  6
CONTINUOUS
 10
2.418240
 20
5.552800
 11
2.407680
 21
5.563360
  0
LINE
  8
0
 62
     0
  6
CONTINUOUS
 10
2.407680
 20
5.563360
 11
2.418240
 21
5.552800
  0
LINE
  8
0
 62
     0
  6
CONTINUOUS
 10
2.418240
 20
5.552800
 11
2.421320
 21
5.557200
  0
LINE
  8
0
 62
     0
  6
CONTINUOUS
 10
2.421320
 20
5.557200
 11
2.407680
 21
5.563360
  0
LINE
  8
0
 62
     0
  6
CONTINUOUS
 10
2.407680
 20
5.563360
 11
2.421320
 21
5.557200
  0
LINE
  8
0
 62
     0
  6
CONTINUOUS
 10
2.421320
 20
5.557200
 11
2.423080
 21
5.563360
  0
LINE
  8
0
 62
     0
  6
CONTINUOUS
 10
2.423080
 20
5.563360
 11
2.407680
 21
5.563360
  0
LINE
  8
0
 62
     0
  6
CONTINUOUS
 10
2.407680
 20
5.563360
 11
2.423080
 21
5.563360
  0
LINE
  8
0
 62
     0
  6
CONTINUOUS
 10
2.412080
 20
5.557200
 11
2.412080
 21
5.547960
  0
LINE
  8
0
 62
     0
  6
CONTINUOUS
 10
2.412080
 20
5.578320
 11
2.407680
 21
5.580080
  0
LINE
  8
0
 62
     0
  6
CONTINUOUS
 10
2.407680
 20
5.580080
 11
2.400200
 21
5.578320
  0
LINE
  8
0
 62
     0
  6
CONTINUOUS
 10
2.407680
 20
5.672920
 11
2.423080
 21
5.672920
  0
LINE
  8
0
 62
     0
  6
CONTINUOUS
 10
2.423080
 20
5.672920
 11
2.421320
 21
5.679080
  0
LINE
  8
0
 62
     0
  6
CONTINUOUS
 10
2.421320
 20
5.679080
 11
2.407680
 21
5.672920
  0
LINE
  8
0
 62
     0
  6
CONTINUOUS
 10
2.407680
 20
5.672920
 11
2.421320
 21
5.679080
  0
LINE
  8
0
 62
     0
  6
CONTINUOUS
 10
2.421320
 20
5.679080
 11
2.418240
 21
5.686560
  0
LINE
  8
0
 62
     0
  6
CONTINUOUS
 10
2.418240
 20
5.686560
 11
2.407680
 21
5.672920
  0
LINE
  8
0
 62
     0
  6
CONTINUOUS
 10
2.407680
 20
5.672920
 11
2.418240
 21
5.686560
  0
LINE
  8
0
 62
     0
  6
CONTINUOUS
 10
2.418240
 20
5.686560
 11
2.412080
 21
5.689640
  0
LINE
  8
0
 62
     0
  6
CONTINUOUS
 10
2.412080
 20
5.689640
 11
2.407680
 21
5.672920
  0
LINE
  8
0
 62
     0
  6
CONTINUOUS
 10
2.407680
 20
5.672920
 11
2.407680
 21
5.689640
  0
LINE
  8
0
 62
     0
  6
CONTINUOUS
 10
2.407680
 20
5.689640
 11
2.407680
 21
5.672920
  0
LINE
  8
0
 62
     0
  6
CONTINUOUS
 10
2.407680
 20
5.672920
 11
2.412080
 21
5.689640
  0
LINE
  8
0
 62
     0
  6
CONTINUOUS
 10
2.412080
 20
5.689640
 11
2.412080
 21
5.679080
  0
LINE
  8
0
 62
     0
  6
CONTINUOUS
 10
2.412080
 20
5.689640
 11
2.407680
 21
5.689640
  0
LINE
  8
0
 62
     0
  6
CONTINUOUS
 10
2.407680
 20
5.689640
 11
2.407680
 21
5.672920
  0
LINE
  8
0
 62
     0
  6
CONTINUOUS
 10
2.407680
 20
5.672920
 11
2.407680
 21
5.689640
  0
LINE
  8
0
 62
     0
  6
CONTINUOUS
 10
2.407680
 20
5.689640
 11
2.400200
 21
5.689640
  0
LINE
  8
0
 62
     0
  6
CONTINUOUS
 10
2.400200
 20
5.689640
 11
2.407680
 21
5.672920
  0
LINE
  8
0
 62
     0
  6
CONTINUOUS
 10
2.407680
 20
5.672920
 11
2.400200
 21
5.689640
  0
LINE
  8
0
 62
     0
  6
CONTINUOUS
 10
2.400200
 20
5.689640
 11
2.395360
 21
5.686560
  0
LINE
  8
0
 62
     0
  6
CONTINUOUS
 10
2.395360
 20
5.686560
 11
2.407680
 21
5.672920
  0
LINE
  8
0
 62
     0
  6
CONTINUOUS
 10
2.407680
 20
5.672920
 11
2.395360
 21
5.686560
  0
LINE
  8
0
 62
     0
  6
CONTINUOUS
 10
2.395360
 20
5.686560
 11
2.390960
 21
5.679080
  0
LINE
  8
0
 62
     0
  6
CONTINUOUS
 10
2.390960
 20
5.679080
 11
2.407680
 21
5.672920
  0
LINE
  8
0
 62
     0
  6
CONTINUOUS
 10
2.407680
 20
5.672920
 11
2.390960
 21
5.679080
  0
LINE
  8
0
 62
     0
  6
CONTINUOUS
 10
2.390960
 20
5.679080
 11
2.390960
 21
5.672920
  0
LINE
  8
0
 62
     0
  6
CONTINUOUS
 10
2.390960
 20
5.672920
 11
2.407680
 21
5.672920
  0
LINE
  8
0
 62
     0
  6
CONTINUOUS
 10
2.407680
 20
5.672920
 11
2.390960
 21
5.672920
  0
LINE
  8
0
 62
     0
  6
CONTINUOUS
 10
2.390960
 20
5.672920
 11
2.390960
 21
5.666760
  0
LINE
  8
0
 62
     0
  6
CONTINUOUS
 10
2.390960
 20
5.666760
 11
2.407680
 21
5.672920
  0
LINE
  8
0
 62
     0
  6
CONTINUOUS
 10
2.407680
 20
5.672920
 11
2.390960
 21
5.666760
  0
LINE
  8
0
 62
     0
  6
CONTINUOUS
 10
2.390960
 20
5.666760
 11
2.395360
 21
5.662360
  0
LINE
  8
0
 62
     0
  6
CONTINUOUS
 10
2.395360
 20
5.662360
 11
2.407680
 21
5.672920
  0
LINE
  8
0
 62
     0
  6
CONTINUOUS
 10
2.407680
 20
5.672920
 11
2.395360
 21
5.662360
  0
LINE
  8
0
 62
     0
  6
CONTINUOUS
 10
2.395360
 20
5.662360
 11
2.400200
 21
5.657520
  0
LINE
  8
0
 62
     0
  6
CONTINUOUS
 10
2.400200
 20
5.657520
 11
2.407680
 21
5.672920
  0
LINE
  8
0
 62
     0
  6
CONTINUOUS
 10
2.407680
 20
5.672920
 11
2.407680
 21
5.657520
  0
LINE
  8
0
 62
     0
  6
CONTINUOUS
 10
2.407680
 20
5.657520
 11
2.407680
 21
5.672920
  0
LINE
  8
0
 62
     0
  6
CONTINUOUS
 10
2.407680
 20
5.672920
 11
2.400200
 21
5.657520
  0
LINE
  8
0
 62
     0
  6
CONTINUOUS
 10
2.400200
 20
5.657520
 11
2.407680
 21
5.657520
  0
LINE
  8
0
 62
     0
  6
CONTINUOUS
 10
2.407680
 20
5.657520
 11
2.407680
 21
5.672920
  0
LINE
  8
0
 62
     0
  6
CONTINUOUS
 10
2.407680
 20
5.672920
 11
2.407680
 21
5.657520
  0
LINE
  8
0
 62
     0
  6
CONTINUOUS
 10
2.407680
 20
5.657520
 11
2.412080
 21
5.657520
  0
LINE
  8
0
 62
     0
  6
CONTINUOUS
 10
2.412080
 20
5.657520
 11
2.407680
 21
5.672920
  0
LINE
  8
0
 62
     0
  6
CONTINUOUS
 10
2.407680
 20
5.672920
 11
2.412080
 21
5.657520
  0
LINE
  8
0
 62
     0
  6
CONTINUOUS
 10
2.412080
 20
5.657520
 11
2.418240
 21
5.662360
  0
LINE
  8
0
 62
     0
  6
CONTINUOUS
 10
2.418240
 20
5.662360
 11
2.407680
 21
5.672920
  0
LINE
  8
0
 62
     0
  6
CONTINUOUS
 10
2.407680
 20
5.672920
 11
2.418240
 21
5.662360
  0
LINE
  8
0
 62
     0
  6
CONTINUOUS
 10
2.418240
 20
5.662360
 11
2.421320
 21
5.666760
  0
LINE
  8
0
 62
     0
  6
CONTINUOUS
 10
2.421320
 20
5.666760
 11
2.407680
 21
5.672920
  0
LINE
  8
0
 62
     0
  6
CONTINUOUS
 10
2.407680
 20
5.672920
 11
2.421320
 21
5.666760
  0
LINE
  8
0
 62
     0
  6
CONTINUOUS
 10
2.421320
 20
5.666760
 11
2.423080
 21
5.672920
  0
LINE
  8
0
 62
     0
  6
CONTINUOUS
 10
2.423080
 20
5.672920
 11
2.407680
 21
5.672920
  0
LINE
  8
0
 62
     0
  6
CONTINUOUS
 10
2.401520
 20
5.671160
 11
2.390960
 21
5.671160
  0
LINE
  8
0
 62
     0
  6
CONTINUOUS
 10
2.412080
 20
5.666760
 11
2.412080
 21
5.657520
  0
LINE
  8
0
 62
     0
  6
CONTINUOUS
 10
2.506680
 20
5.628920
 11
2.291960
 21
5.730560
  0
LINE
  8
0
 62
     0
  6
CONTINUOUS
 10
2.291960
 20
5.837040
 11
2.506680
 21
5.733640
  0
LINE
  8
0
 62
     0
  6
CONTINUOUS
 10
2.423080
 20
5.779400
 11
2.421320
 21
5.785560
  0
LINE
  8
0
 62
     0
  6
CONTINUOUS
 10
2.421320
 20
5.785560
 11
2.407680
 21
5.779400
  0
LINE
  8
0
 62
     0
  6
CONTINUOUS
 10
2.407680
 20
5.779400
 11
2.423080
 21
5.779400
  0
LINE
  8
0
 62
     0
  6
CONTINUOUS
 10
2.421320
 20
5.785560
 11
2.418240
 21
5.789960
  0
LINE
  8
0
 62
     0
  6
CONTINUOUS
 10
2.418240
 20
5.789960
 11
2.407680
 21
5.779400
  0
LINE
  8
0
 62
     0
  6
CONTINUOUS
 10
2.407680
 20
5.779400
 11
2.421320
 21
5.785560
  0
LINE
  8
0
 62
     0
  6
CONTINUOUS
 10
2.418240
 20
5.789960
 11
2.412080
 21
5.794800
  0
LINE
  8
0
 62
     0
  6
CONTINUOUS
 10
2.412080
 20
5.794800
 11
2.407680
 21
5.779400
  0
LINE
  8
0
 62
     0
  6
CONTINUOUS
 10
2.407680
 20
5.779400
 11
2.418240
 21
5.789960
  0
LINE
  8
0
 62
     0
  6
CONTINUOUS
 10
2.412080
 20
5.794800
 11
2.407680
 21
5.794800
  0
LINE
  8
0
 62
     0
  6
CONTINUOUS
 10
2.407680
 20
5.794800
 11
2.407680
 21
5.779400
  0
LINE
  8
0
 62
     0
  6
CONTINUOUS
 10
2.407680
 20
5.779400
 11
2.412080
 21
5.794800
  0
LINE
  8
0
 62
     0
  6
CONTINUOUS
 10
2.412080
 20
5.794800
 11
2.412080
 21
5.785560
  0
LINE
  8
0
 62
     0
  6
CONTINUOUS
 10
2.407680
 20
5.779400
 11
2.407680
 21
5.794800
  0
LINE
  8
0
 62
     0
  6
CONTINUOUS
 10
2.407680
 20
5.794800
 11
2.407680
 21
5.779400
  0
LINE
  8
0
 62
     0
  6
CONTINUOUS
 10
2.407680
 20
5.779400
 11
2.407680
 21
5.794800
  0
LINE
  8
0
 62
     0
  6
CONTINUOUS
 10
2.407680
 20
5.794800
 11
2.400200
 21
5.794800
  0
LINE
  8
0
 62
     0
  6
CONTINUOUS
 10
2.400200
 20
5.794800
 11
2.407680
 21
5.779400
  0
LINE
  8
0
 62
     0
  6
CONTINUOUS
 10
2.407680
 20
5.779400
 11
2.400200
 21
5.794800
  0
LINE
  8
0
 62
     0
  6
CONTINUOUS
 10
2.400200
 20
5.794800
 11
2.395360
 21
5.789960
  0
LINE
  8
0
 62
     0
  6
CONTINUOUS
 10
2.395360
 20
5.789960
 11
2.407680
 21
5.779400
  0
LINE
  8
0
 62
     0
  6
CONTINUOUS
 10
2.407680
 20
5.779400
 11
2.395360
 21
5.789960
  0
LINE
  8
0
 62
     0
  6
CONTINUOUS
 10
2.395360
 20
5.789960
 11
2.390960
 21
5.785560
  0
LINE
  8
0
 62
     0
  6
CONTINUOUS
 10
2.390960
 20
5.785560
 11
2.407680
 21
5.779400
  0
LINE
  8
0
 62
     0
  6
CONTINUOUS
 10
2.407680
 20
5.779400
 11
2.390960
 21
5.785560
  0
LINE
  8
0
 62
     0
  6
CONTINUOUS
 10
2.390960
 20
5.785560
 11
2.390960
 21
5.779400
  0
LINE
  8
0
 62
     0
  6
CONTINUOUS
 10
2.390960
 20
5.779400
 11
2.407680
 21
5.779400
  0
LINE
  8
0
 62
     0
  6
CONTINUOUS
 10
2.407680
 20
5.779400
 11
2.390960
 21
5.779400
  0
LINE
  8
0
 62
     0
  6
CONTINUOUS
 10
2.390960
 20
5.779400
 11
2.390960
 21
5.773240
  0
LINE
  8
0
 62
     0
  6
CONTINUOUS
 10
2.390960
 20
5.773240
 11
2.407680
 21
5.779400
  0
LINE
  8
0
 62
     0
  6
CONTINUOUS
 10
2.407680
 20
5.779400
 11
2.390960
 21
5.773240
  0
LINE
  8
0
 62
     0
  6
CONTINUOUS
 10
2.390960
 20
5.773240
 11
2.395360
 21
5.767080
  0
LINE
  8
0
 62
     0
  6
CONTINUOUS
 10
2.395360
 20
5.767080
 11
2.407680
 21
5.779400
  0
LINE
  8
0
 62
     0
  6
CONTINUOUS
 10
2.407680
 20
5.779400
 11
2.395360
 21
5.767080
  0
LINE
  8
0
 62
     0
  6
CONTINUOUS
 10
2.395360
 20
5.767080
 11
2.400200
 21
5.764000
  0
LINE
  8
0
 62
     0
  6
CONTINUOUS
 10
2.400200
 20
5.764000
 11
2.407680
 21
5.779400
  0
LINE
  8
0
 62
     0
  6
CONTINUOUS
 10
2.407680
 20
5.779400
 11
2.407680
 21
5.762680
  0
LINE
  8
0
 62
     0
  6
CONTINUOUS
 10
2.407680
 20
5.762680
 11
2.407680
 21
5.779400
  0
LINE
  8
0
 62
     0
  6
CONTINUOUS
 10
2.407680
 20
5.779400
 11
2.400200
 21
5.764000
  0
LINE
  8
0
 62
     0
  6
CONTINUOUS
 10
2.400200
 20
5.764000
 11
2.407680
 21
5.762680
  0
LINE
  8
0
 62
     0
  6
CONTINUOUS
 10
2.407680
 20
5.762680
 11
2.407680
 21
5.779400
  0
LINE
  8
0
 62
     0
  6
CONTINUOUS
 10
2.407680
 20
5.779400
 11
2.407680
 21
5.762680
  0
LINE
  8
0
 62
     0
  6
CONTINUOUS
 10
2.407680
 20
5.762680
 11
2.412080
 21
5.764000
  0
LINE
  8
0
 62
     0
  6
CONTINUOUS
 10
2.412080
 20
5.764000
 11
2.407680
 21
5.779400
  0
LINE
  8
0
 62
     0
  6
CONTINUOUS
 10
2.407680
 20
5.779400
 11
2.412080
 21
5.764000
  0
LINE
  8
0
 62
     0
  6
CONTINUOUS
 10
2.412080
 20
5.764000
 11
2.418240
 21
5.767080
  0
LINE
  8
0
 62
     0
  6
CONTINUOUS
 10
2.418240
 20
5.767080
 11
2.407680
 21
5.779400
  0
LINE
  8
0
 62
     0
  6
CONTINUOUS
 10
2.407680
 20
5.779400
 11
2.418240
 21
5.767080
  0
LINE
  8
0
 62
     0
  6
CONTINUOUS
 10
2.418240
 20
5.767080
 11
2.421320
 21
5.773240
  0
LINE
  8
0
 62
     0
  6
CONTINUOUS
 10
2.421320
 20
5.773240
 11
2.407680
 21
5.779400
  0
LINE
  8
0
 62
     0
  6
CONTINUOUS
 10
2.407680
 20
5.779400
 11
2.421320
 21
5.773240
  0
LINE
  8
0
 62
     0
  6
CONTINUOUS
 10
2.421320
 20
5.773240
 11
2.423080
 21
5.779400
  0
LINE
  8
0
 62
     0
  6
CONTINUOUS
 10
2.423080
 20
5.779400
 11
2.407680
 21
5.779400
  0
LINE
  8
0
 62
     0
  6
CONTINUOUS
 10
2.407680
 20
5.779400
 11
2.404600
 21
5.778080
  0
LINE
  8
0
 62
     0
  6
CONTINUOUS
 10
2.404600
 20
5.778080
 11
2.390960
 21
5.778080
  0
LINE
  8
0
 62
     0
  6
CONTINUOUS
 10
2.392280
 20
5.773240
 11
2.400200
 21
5.773240
  0
LINE
  8
0
 62
     0
  6
CONTINUOUS
 10
2.412080
 20
5.773240
 11
2.412080
 21
5.764000
  0
LINE
  8
0
 62
     0
  6
CONTINUOUS
 10
2.412080
 20
5.773240
 11
2.421320
 21
5.773240
  0
LINE
  8
0
 62
     0
  6
CONTINUOUS
 10
2.423080
 20
5.778080
 11
2.410760
 21
5.778080
  0
LINE
  8
0
 62
     0
  6
CONTINUOUS
 10
2.407680
 20
5.869160
 11
2.423080
 21
5.869160
  0
LINE
  8
0
 62
     0
  6
CONTINUOUS
 10
2.423080
 20
5.869160
 11
2.421320
 21
5.875320
  0
LINE
  8
0
 62
     0
  6
CONTINUOUS
 10
2.421320
 20
5.875320
 11
2.407680
 21
5.869160
  0
LINE
  8
0
 62
     0
  6
CONTINUOUS
 10
2.407680
 20
5.869160
 11
2.421320
 21
5.875320
  0
LINE
  8
0
 62
     0
  6
CONTINUOUS
 10
2.421320
 20
5.875320
 11
2.418240
 21
5.881480
  0
LINE
  8
0
 62
     0
  6
CONTINUOUS
 10
2.418240
 20
5.881480
 11
2.407680
 21
5.869160
  0
LINE
  8
0
 62
     0
  6
CONTINUOUS
 10
2.407680
 20
5.869160
 11
2.418240
 21
5.881480
  0
LINE
  8
0
 62
     0
  6
CONTINUOUS
 10
2.418240
 20
5.881480
 11
2.412080
 21
5.884560
  0
LINE
  8
0
 62
     0
  6
CONTINUOUS
 10
2.412080
 20
5.884560
 11
2.407680
 21
5.869160
  0
LINE
  8
0
 62
     0
  6
CONTINUOUS
 10
2.407680
 20
5.869160
 11
2.407680
 21
5.885880
  0
LINE
  8
0
 62
     0
  6
CONTINUOUS
 10
2.407680
 20
5.885880
 11
2.407680
 21
5.869160
  0
LINE
  8
0
 62
     0
  6
CONTINUOUS
 10
2.407680
 20
5.869160
 11
2.412080
 21
5.884560
  0
LINE
  8
0
 62
     0
  6
CONTINUOUS
 10
2.412080
 20
5.884560
 11
2.412080
 21
5.875320
  0
LINE
  8
0
 62
     0
  6
CONTINUOUS
 10
2.412080
 20
5.884560
 11
2.407680
 21
5.885880
  0
LINE
  8
0
 62
     0
  6
CONTINUOUS
 10
2.407680
 20
5.885880
 11
2.407680
 21
5.869160
  0
LINE
  8
0
 62
     0
  6
CONTINUOUS
 10
2.407680
 20
5.869160
 11
2.407680
 21
5.885880
  0
LINE
  8
0
 62
     0
  6
CONTINUOUS
 10
2.407680
 20
5.885880
 11
2.400200
 21
5.884560
  0
LINE
  8
0
 62
     0
  6
CONTINUOUS
 10
2.400200
 20
5.884560
 11
2.407680
 21
5.869160
  0
LINE
  8
0
 62
     0
  6
CONTINUOUS
 10
2.407680
 20
5.869160
 11
2.400200
 21
5.884560
  0
LINE
  8
0
 62
     0
  6
CONTINUOUS
 10
2.400200
 20
5.884560
 11
2.395360
 21
5.881480
  0
LINE
  8
0
 62
     0
  6
CONTINUOUS
 10
2.395360
 20
5.881480
 11
2.407680
 21
5.869160
  0
LINE
  8
0
 62
     0
  6
CONTINUOUS
 10
2.407680
 20
5.869160
 11
2.395360
 21
5.881480
  0
LINE
  8
0
 62
     0
  6
CONTINUOUS
 10
2.395360
 20
5.881480
 11
2.390960
 21
5.875320
  0
LINE
  8
0
 62
     0
  6
CONTINUOUS
 10
2.390960
 20
5.875320
 11
2.407680
 21
5.869160
  0
LINE
  8
0
 62
     0
  6
CONTINUOUS
 10
2.407680
 20
5.869160
 11
2.390960
 21
5.875320
  0
LINE
  8
0
 62
     0
  6
CONTINUOUS
 10
2.390960
 20
5.875320
 11
2.390960
 21
5.869160
  0
LINE
  8
0
 62
     0
  6
CONTINUOUS
 10
2.390960
 20
5.869160
 11
2.407680
 21
5.869160
  0
LINE
  8
0
 62
     0
  6
CONTINUOUS
 10
2.407680
 20
5.869160
 11
2.390960
 21
5.869160
  0
LINE
  8
0
 62
     0
  6
CONTINUOUS
 10
2.390960
 20
5.869160
 11
2.390960
 21
5.863000
  0
LINE
  8
0
 62
     0
  6
CONTINUOUS
 10
2.390960
 20
5.863000
 11
2.407680
 21
5.869160
  0
LINE
  8
0
 62
     0
  6
CONTINUOUS
 10
2.407680
 20
5.869160
 11
2.390960
 21
5.863000
  0
LINE
  8
0
 62
     0
  6
CONTINUOUS
 10
2.390960
 20
5.863000
 11
2.395360
 21
5.858600
  0
LINE
  8
0
 62
     0
  6
CONTINUOUS
 10
2.395360
 20
5.858600
 11
2.407680
 21
5.869160
  0
LINE
  8
0
 62
     0
  6
CONTINUOUS
 10
2.407680
 20
5.869160
 11
2.395360
 21
5.858600
  0
LINE
  8
0
 62
     0
  6
CONTINUOUS
 10
2.395360
 20
5.858600
 11
2.400200
 21
5.853760
  0
LINE
  8
0
 62
     0
  6
CONTINUOUS
 10
2.400200
 20
5.853760
 11
2.407680
 21
5.869160
  0
LINE
  8
0
 62
     0
  6
CONTINUOUS
 10
2.407680
 20
5.869160
 11
2.407680
 21
5.853760
  0
LINE
  8
0
 62
     0
  6
CONTINUOUS
 10
2.407680
 20
5.853760
 11
2.407680
 21
5.869160
  0
LINE
  8
0
 62
     0
  6
CONTINUOUS
 10
2.407680
 20
5.869160
 11
2.400200
 21
5.853760
  0
LINE
  8
0
 62
     0
  6
CONTINUOUS
 10
2.400200
 20
5.853760
 11
2.407680
 21
5.853760
  0
LINE
  8
0
 62
     0
  6
CONTINUOUS
 10
2.407680
 20
5.853760
 11
2.407680
 21
5.869160
  0
LINE
  8
0
 62
     0
  6
CONTINUOUS
 10
2.407680
 20
5.869160
 11
2.407680
 21
5.853760
  0
LINE
  8
0
 62
     0
  6
CONTINUOUS
 10
2.407680
 20
5.853760
 11
2.412080
 21
5.853760
  0
LINE
  8
0
 62
     0
  6
CONTINUOUS
 10
2.412080
 20
5.853760
 11
2.407680
 21
5.869160
  0
LINE
  8
0
 62
     0
  6
CONTINUOUS
 10
2.407680
 20
5.869160
 11
2.412080
 21
5.853760
  0
LINE
  8
0
 62
     0
  6
CONTINUOUS
 10
2.412080
 20
5.853760
 11
2.418240
 21
5.858600
  0
LINE
  8
0
 62
     0
  6
CONTINUOUS
 10
2.418240
 20
5.858600
 11
2.407680
 21
5.869160
  0
LINE
  8
0
 62
     0
  6
CONTINUOUS
 10
2.407680
 20
5.869160
 11
2.418240
 21
5.858600
  0
LINE
  8
0
 62
     0
  6
CONTINUOUS
 10
2.418240
 20
5.858600
 11
2.421320
 21
5.863000
  0
LINE
  8
0
 62
     0
  6
CONTINUOUS
 10
2.421320
 20
5.863000
 11
2.407680
 21
5.869160
  0
LINE
  8
0
 62
     0
  6
CONTINUOUS
 10
2.407680
 20
5.869160
 11
2.421320
 21
5.863000
  0
LINE
  8
0
 62
     0
  6
CONTINUOUS
 10
2.421320
 20
5.863000
 11
2.423080
 21
5.869160
  0
LINE
  8
0
 62
     0
  6
CONTINUOUS
 10
2.423080
 20
5.869160
 11
2.407680
 21
5.869160
  0
LINE
  8
0
 62
     0
  6
CONTINUOUS
 10
2.412080
 20
5.863000
 11
2.412080
 21
5.853760
  0
LINE
  8
0
 62
     0
  6
CONTINUOUS
 10
2.506680
 20
5.825160
 11
2.291960
 21
5.927240
  0
LINE
  8
0
 62
     0
  6
CONTINUOUS
 10
2.291960
 20
5.621000
 11
2.506680
 21
5.518920
  0
LINE
  8
0
 62
     0
  6
CONTINUOUS
 10
2.506680
 20
5.423440
 11
2.291960
 21
5.525080
  0
LINE
  8
0
 62
     0
  6
CONTINUOUS
 10
5.022160
 20
5.364040
 11
5.104440
 21
5.445880
  0
LINE
  8
0
 62
     0
  6
CONTINUOUS
 10
5.145360
 20
5.514520
 11
5.151520
 21
5.511440
  0
LINE
  8
0
 62
     0
  6
CONTINUOUS
 10
5.151520
 20
5.511440
 11
5.159000
 21
5.507040
  0
LINE
  8
0
 62
     0
  6
CONTINUOUS
 10
5.159000
 20
5.507040
 11
5.166920
 21
5.507040
  0
LINE
  8
0
 62
     0
  6
CONTINUOUS
 10
5.166920
 20
5.507040
 11
5.174400
 21
5.507040
  0
LINE
  8
0
 62
     0
  6
CONTINUOUS
 10
5.174400
 20
5.507040
 11
5.180560
 21
5.511440
  0
LINE
  8
0
 62
     0
  6
CONTINUOUS
 10
5.180560
 20
5.511440
 11
5.186720
 21
5.514520
  0
LINE
  8
0
 62
     0
  6
CONTINUOUS
 10
5.186720
 20
5.514520
 11
5.191120
 21
5.520680
  0
LINE
  8
0
 62
     0
  6
CONTINUOUS
 10
5.191120
 20
5.520680
 11
5.194200
 21
5.526840
  0
LINE
  8
0
 62
     0
  6
CONTINUOUS
 10
5.194200
 20
5.526840
 11
5.194200
 21
5.534320
  0
LINE
  8
0
 62
     0
  6
CONTINUOUS
 10
5.194200
 20
5.534320
 11
5.194200
 21
5.541800
  0
LINE
  8
0
 62
     0
  6
CONTINUOUS
 10
5.194200
 20
5.541800
 11
5.191120
 21
5.547960
  0
LINE
  8
0
 62
     0
  6
CONTINUOUS
 10
5.191120
 20
5.547960
 11
5.186720
 21
5.555880
  0
LINE
  8
0
 62
     0
  6
CONTINUOUS
 10
5.186720
 20
5.555880
 11
5.180560
 21
5.560280
  0
LINE
  8
0
 62
     0
  6
CONTINUOUS
 10
5.180560
 20
5.560280
 11
5.174400
 21
5.563360
  0
LINE
  8
0
 62
     0
  6
CONTINUOUS
 10
5.174400
 20
5.563360
 11
5.166920
 21
5.563360
  0
LINE
  8
0
 62
     0
  6
CONTINUOUS
 10
5.166920
 20
5.563360
 11
5.159000
 21
5.563360
  0
LINE
  8
0
 62
     0
  6
CONTINUOUS
 10
5.159000
 20
5.563360
 11
5.151520
 21
5.560280
  0
LINE
  8
0
 62
     0
  6
CONTINUOUS
 10
5.151520
 20
5.560280
 11
5.145360
 21
5.555880
  0
LINE
  8
0
 62
     0
  6
CONTINUOUS
 10
5.145360
 20
5.555880
 11
5.140960
 21
5.547960
  0
LINE
  8
0
 62
     0
  6
CONTINUOUS
 10
5.140960
 20
5.547960
 11
5.137880
 21
5.541800
  0
LINE
  8
0
 62
     0
  6
CONTINUOUS
 10
5.137880
 20
5.541800
 11
5.137880
 21
5.534320
  0
LINE
  8
0
 62
     0
  6
CONTINUOUS
 10
5.137880
 20
5.534320
 11
5.137880
 21
5.526840
  0
LINE
  8
0
 62
     0
  6
CONTINUOUS
 10
5.137880
 20
5.526840
 11
5.140960
 21
5.520680
  0
LINE
  8
0
 62
     0
  6
CONTINUOUS
 10
5.140960
 20
5.520680
 11
5.145360
 21
5.514520
  0
LINE
  8
0
 62
     0
  6
CONTINUOUS
 10
5.166920
 20
5.507040
 11
4.787640
 21
5.508360
  0
LINE
  8
0
 62
     0
  6
CONTINUOUS
 10
4.789400
 20
5.517600
 11
4.789400
 21
5.543560
  0
LINE
  8
0
 62
     0
  6
CONTINUOUS
 10
4.789400
 20
5.534320
 11
4.806120
 21
5.536080
  0
LINE
  8
0
 62
     0
  6
CONTINUOUS
 10
4.806120
 20
5.536080
 11
4.824160
 21
5.540480
  0
LINE
  8
0
 62
     0
  6
CONTINUOUS
 10
4.824160
 20
5.540480
 11
4.839560
 21
5.546640
  0
LINE
  8
0
 62
     0
  6
CONTINUOUS
 10
4.839560
 20
5.546640
 11
4.854520
 21
5.554120
  0
LINE
  8
0
 62
     0
  6
CONTINUOUS
 10
4.854520
 20
5.554120
 11
4.866840
 21
5.563360
  0
LINE
  8
0
 62
     0
  6
CONTINUOUS
 10
4.866840
 20
5.563360
 11
4.883560
 21
5.575240
  0
LINE
  8
0
 62
     0
  6
CONTINUOUS
 10
4.883560
 20
5.575240
 11
4.894120
 21
5.587560
  0
LINE
  8
0
 62
     0
  6
CONTINUOUS
 10
4.894120
 20
5.587560
 11
4.903360
 21
5.602960
  0
LINE
  8
0
 62
     0
  6
CONTINUOUS
 10
4.903360
 20
5.602960
 11
4.912600
 21
5.619680
  0
LINE
  8
0
 62
     0
  6
CONTINUOUS
 10
4.912600
 20
5.619680
 11
4.918760
 21
5.634640
  0
LINE
  8
0
 62
     0
  6
CONTINUOUS
 10
4.918760
 20
5.634640
 11
4.921840
 21
5.651360
  0
LINE
  8
0
 62
     0
  6
CONTINUOUS
 10
4.921840
 20
5.651360
 11
4.921840
 21
5.669840
  0
LINE
  8
0
 62
     0
  6
CONTINUOUS
 10
4.921840
 20
5.669840
 11
4.921840
 21
5.686560
  0
LINE
  8
0
 62
     0
  6
CONTINUOUS
 10
4.921840
 20
5.686560
 11
4.918760
 21
5.704600
  0
LINE
  8
0
 62
     0
  6
CONTINUOUS
 10
4.918760
 20
5.704600
 11
4.912600
 21
5.723080
  0
LINE
  8
0
 62
     0
  6
CONTINUOUS
 10
4.912600
 20
5.723080
 11
4.903360
 21
5.736720
  0
LINE
  8
0
 62
     0
  6
CONTINUOUS
 10
4.903360
 20
5.736720
 11
4.894120
 21
5.752120
  0
LINE
  8
0
 62
     0
  6
CONTINUOUS
 10
4.894120
 20
5.752120
 11
4.883560
 21
5.765760
  0
LINE
  8
0
 62
     0
  6
CONTINUOUS
 10
4.883560
 20
5.765760
 11
4.866840
 21
5.776320
  0
LINE
  8
0
 62
     0
  6
CONTINUOUS
 10
4.866840
 20
5.776320
 11
4.854520
 21
5.786880
  0
LINE
  8
0
 62
     0
  6
CONTINUOUS
 10
4.854520
 20
5.786880
 11
4.839560
 21
5.794800
  0
LINE
  8
0
 62
     0
  6
CONTINUOUS
 10
4.839560
 20
5.794800
 11
4.824160
 21
5.800520
  0
LINE
  8
0
 62
     0
  6
CONTINUOUS
 10
4.824160
 20
5.800520
 11
4.806120
 21
5.802280
  0
LINE
  8
0
 62
     0
  6
CONTINUOUS
 10
4.806120
 20
5.802280
 11
4.789400
 21
5.803600
  0
LINE
  8
0
 62
     0
  6
CONTINUOUS
 10
4.789400
 20
5.803600
 11
4.770920
 21
5.802280
  0
LINE
  8
0
 62
     0
  6
CONTINUOUS
 10
4.770920
 20
5.802280
 11
4.752880
 21
5.800520
  0
LINE
  8
0
 62
     0
  6
CONTINUOUS
 10
4.752880
 20
5.800520
 11
4.737480
 21
5.794800
  0
LINE
  8
0
 62
     0
  6
CONTINUOUS
 10
4.737480
 20
5.794800
 11
4.720760
 21
5.786880
  0
LINE
  8
0
 62
     0
  6
CONTINUOUS
 10
4.720760
 20
5.786880
 11
4.705360
 21
5.776320
  0
LINE
  8
0
 62
     0
  6
CONTINUOUS
 10
4.705360
 20
5.776320
 11
4.693480
 21
5.765760
  0
LINE
  8
0
 62
     0
  6
CONTINUOUS
 10
4.693480
 20
5.765760
 11
4.679840
 21
5.752120
  0
LINE
  8
0
 62
     0
  6
CONTINUOUS
 10
4.679840
 20
5.752120
 11
4.671920
 21
5.736720
  0
LINE
  8
0
 62
     0
  6
CONTINUOUS
 10
4.671920
 20
5.736720
 11
4.664440
 21
5.723080
  0
LINE
  8
0
 62
     0
  6
CONTINUOUS
 10
4.664440
 20
5.723080
 11
4.658280
 21
5.704600
  0
LINE
  8
0
 62
     0
  6
CONTINUOUS
 10
4.658280
 20
5.704600
 11
4.653880
 21
5.686560
  0
LINE
  8
0
 62
     0
  6
CONTINUOUS
 10
4.653880
 20
5.686560
 11
4.652120
 21
5.669840
  0
LINE
  8
0
 62
     0
  6
CONTINUOUS
 10
4.652120
 20
5.669840
 11
4.653880
 21
5.651360
  0
LINE
  8
0
 62
     0
  6
CONTINUOUS
 10
4.653880
 20
5.651360
 11
4.658280
 21
5.634640
  0
LINE
  8
0
 62
     0
  6
CONTINUOUS
 10
4.658280
 20
5.634640
 11
4.664440
 21
5.619680
  0
LINE
  8
0
 62
     0
  6
CONTINUOUS
 10
4.664440
 20
5.619680
 11
4.671920
 21
5.602960
  0
LINE
  8
0
 62
     0
  6
CONTINUOUS
 10
4.671920
 20
5.602960
 11
4.679840
 21
5.587560
  0
LINE
  8
0
 62
     0
  6
CONTINUOUS
 10
4.679840
 20
5.587560
 11
4.693480
 21
5.575240
  0
LINE
  8
0
 62
     0
  6
CONTINUOUS
 10
4.693480
 20
5.575240
 11
4.705360
 21
5.563360
  0
LINE
  8
0
 62
     0
  6
CONTINUOUS
 10
4.705360
 20
5.563360
 11
4.720760
 21
5.554120
  0
LINE
  8
0
 62
     0
  6
CONTINUOUS
 10
4.720760
 20
5.554120
 11
4.737480
 21
5.546640
  0
LINE
  8
0
 62
     0
  6
CONTINUOUS
 10
4.737480
 20
5.546640
 11
4.752880
 21
5.540480
  0
LINE
  8
0
 62
     0
  6
CONTINUOUS
 10
4.752880
 20
5.540480
 11
4.770920
 21
5.536080
  0
LINE
  8
0
 62
     0
  6
CONTINUOUS
 10
4.770920
 20
5.536080
 11
4.789400
 21
5.534320
  0
LINE
  8
0
 62
     0
  6
CONTINUOUS
 10
4.833400
 20
5.552800
 11
4.843960
 21
5.526840
  0
LINE
  8
0
 62
     0
  6
CONTINUOUS
 10
4.902040
 20
5.564680
 11
4.883560
 21
5.584480
  0
LINE
  8
0
 62
     0
  6
CONTINUOUS
 10
4.910840
 20
5.622760
 11
4.935480
 21
5.613520
  0
LINE
  8
0
 62
     0
  6
CONTINUOUS
 10
4.949120
 20
5.669840
 11
4.949120
 21
5.689640
  0
LINE
  8
0
 62
     0
  6
CONTINUOUS
 10
4.949120
 20
5.689640
 11
4.944720
 21
5.707680
  0
LINE
  8
0
 62
     0
  6
CONTINUOUS
 10
4.944720
 20
5.707680
 11
4.939880
 21
5.727480
  0
LINE
  8
0
 62
     0
  6
CONTINUOUS
 10
4.939880
 20
5.727480
 11
4.932400
 21
5.744200
  0
LINE
  8
0
 62
     0
  6
CONTINUOUS
 10
4.932400
 20
5.744200
 11
4.920080
 21
5.762680
  0
LINE
  8
0
 62
     0
  6
CONTINUOUS
 10
4.920080
 20
5.762680
 11
4.909520
 21
5.778080
  0
LINE
  8
0
 62
     0
  6
CONTINUOUS
 10
4.909520
 20
5.778080
 11
4.895880
 21
5.789960
  0
LINE
  8
0
 62
     0
  6
CONTINUOUS
 10
4.895880
 20
5.789960
 11
4.879160
 21
5.802280
  0
LINE
  8
0
 62
     0
  6
CONTINUOUS
 10
4.879160
 20
5.802280
 11
4.863760
 21
5.812840
  0
LINE
  8
0
 62
     0
  6
CONTINUOUS
 10
4.863760
 20
5.812840
 11
4.845720
 21
5.820320
  0
LINE
  8
0
 62
     0
  6
CONTINUOUS
 10
4.845720
 20
5.820320
 11
4.825920
 21
5.826480
  0
LINE
  8
0
 62
     0
  6
CONTINUOUS
 10
4.825920
 20
5.826480
 11
4.807440
 21
5.831320
  0
LINE
  8
0
 62
     0
  6
CONTINUOUS
 10
4.807440
 20
5.831320
 11
4.789400
 21
5.831320
  0
LINE
  8
0
 62
     0
  6
CONTINUOUS
 10
4.789400
 20
5.831320
 11
4.767840
 21
5.831320
  0
LINE
  8
0
 62
     0
  6
CONTINUOUS
 10
4.767840
 20
5.831320
 11
4.749800
 21
5.826480
  0
LINE
  8
0
 62
     0
  6
CONTINUOUS
 10
4.749800
 20
5.826480
 11
4.730000
 21
5.820320
  0
LINE
  8
0
 62
     0
  6
CONTINUOUS
 10
4.730000
 20
5.820320
 11
4.713280
 21
5.812840
  0
LINE
  8
0
 62
     0
  6
CONTINUOUS
 10
4.713280
 20
5.812840
 11
4.696560
 21
5.802280
  0
LINE
  8
0
 62
     0
  6
CONTINUOUS
 10
4.696560
 20
5.802280
 11
4.679840
 21
5.789960
  0
LINE
  8
0
 62
     0
  6
CONTINUOUS
 10
4.679840
 20
5.789960
 11
4.666200
 21
5.778080
  0
LINE
  8
0
 62
     0
  6
CONTINUOUS
 10
4.666200
 20
5.778080
 11
4.655200
 21
5.762680
  0
LINE
  8
0
 62
     0
  6
CONTINUOUS
 10
4.655200
 20
5.762680
 11
4.644640
 21
5.744200
  0
LINE
  8
0
 62
     0
  6
CONTINUOUS
 10
4.644640
 20
5.744200
 11
4.637160
 21
5.727480
  0
LINE
  8
0
 62
     0
  6
CONTINUOUS
 10
4.637160
 20
5.727480
 11
4.629680
 21
5.707680
  0
LINE
  8
0
 62
     0
  6
CONTINUOUS
 10
4.629680
 20
5.707680
 11
4.627920
 21
5.689640
  0
LINE
  8
0
 62
     0
  6
CONTINUOUS
 10
4.627920
 20
5.689640
 11
4.626600
 21
5.669840
  0
LINE
  8
0
 62
     0
  6
CONTINUOUS
 10
4.626600
 20
5.669840
 11
4.627920
 21
5.650040
  0
LINE
  8
0
 62
     0
  6
CONTINUOUS
 10
4.627920
 20
5.650040
 11
4.629680
 21
5.631560
  0
LINE
  8
0
 62
     0
  6
CONTINUOUS
 10
4.629680
 20
5.631560
 11
4.637160
 21
5.613520
  0
LINE
  8
0
 62
     0
  6
CONTINUOUS
 10
4.637160
 20
5.613520
 11
4.644640
 21
5.595040
  0
LINE
  8
0
 62
     0
  6
CONTINUOUS
 10
4.644640
 20
5.595040
 11
4.655200
 21
5.578320
  0
LINE
  8
0
 62
     0
  6
CONTINUOUS
 10
4.655200
 20
5.578320
 11
4.666200
 21
5.563360
  0
LINE
  8
0
 62
     0
  6
CONTINUOUS
 10
4.666200
 20
5.563360
 11
4.679840
 21
5.547960
  0
LINE
  8
0
 62
     0
  6
CONTINUOUS
 10
4.679840
 20
5.547960
 11
4.696560
 21
5.537400
  0
LINE
  8
0
 62
     0
  6
CONTINUOUS
 10
4.696560
 20
5.537400
 11
4.713280
 21
5.526840
  0
LINE
  8
0
 62
     0
  6
CONTINUOUS
 10
4.713280
 20
5.526840
 11
4.730000
 21
5.518920
  0
LINE
  8
0
 62
     0
  6
CONTINUOUS
 10
4.730000
 20
5.518920
 11
4.749800
 21
5.513200
  0
LINE
  8
0
 62
     0
  6
CONTINUOUS
 10
4.749800
 20
5.513200
 11
4.767840
 21
5.510120
  0
LINE
  8
0
 62
     0
  6
CONTINUOUS
 10
4.767840
 20
5.510120
 11
4.789400
 21
5.508360
  0
LINE
  8
0
 62
     0
  6
CONTINUOUS
 10
4.789400
 20
5.508360
 11
4.807440
 21
5.510120
  0
LINE
  8
0
 62
     0
  6
CONTINUOUS
 10
4.807440
 20
5.510120
 11
4.825920
 21
5.513200
  0
LINE
  8
0
 62
     0
  6
CONTINUOUS
 10
4.825920
 20
5.513200
 11
4.845720
 21
5.518920
  0
LINE
  8
0
 62
     0
  6
CONTINUOUS
 10
4.845720
 20
5.518920
 11
4.863760
 21
5.526840
  0
LINE
  8
0
 62
     0
  6
CONTINUOUS
 10
4.863760
 20
5.526840
 11
4.879160
 21
5.537400
  0
LINE
  8
0
 62
     0
  6
CONTINUOUS
 10
4.879160
 20
5.537400
 11
4.895880
 21
5.547960
  0
LINE
  8
0
 62
     0
  6
CONTINUOUS
 10
4.895880
 20
5.547960
 11
4.909520
 21
5.563360
  0
LINE
  8
0
 62
     0
  6
CONTINUOUS
 10
4.909520
 20
5.563360
 11
4.920080
 21
5.578320
  0
LINE
  8
0
 62
     0
  6
CONTINUOUS
 10
4.920080
 20
5.578320
 11
4.932400
 21
5.595040
  0
LINE
  8
0
 62
     0
  6
CONTINUOUS
 10
4.932400
 20
5.595040
 11
4.939880
 21
5.613520
  0
LINE
  8
0
 62
     0
  6
CONTINUOUS
 10
4.939880
 20
5.613520
 11
4.944720
 21
5.631560
  0
LINE
  8
0
 62
     0
  6
CONTINUOUS
 10
4.944720
 20
5.631560
 11
4.949120
 21
5.650040
  0
LINE
  8
0
 62
     0
  6
CONTINUOUS
 10
4.949120
 20
5.650040
 11
4.949120
 21
5.669840
  0
LINE
  8
0
 62
     0
  6
CONTINUOUS
 10
4.949120
 20
5.679080
 11
4.921840
 21
5.679080
  0
LINE
  8
0
 62
     0
  6
CONTINUOUS
 10
4.910840
 20
5.735400
 11
4.935480
 21
5.744200
  0
LINE
  8
0
 62
     0
  6
CONTINUOUS
 10
4.909520
 20
5.786880
 11
4.888400
 21
5.768840
  0
LINE
  8
0
 62
     0
  6
CONTINUOUS
 10
4.889720
 20
5.794800
 11
5.183640
 21
5.557200
  0
LINE
  8
0
 62
     0
  6
CONTINUOUS
 10
5.181880
 20
5.642560
 11
5.166920
 21
5.642560
  0
LINE
  8
0
 62
     0
  6
CONTINUOUS
 10
5.166920
 20
5.642560
 11
5.150200
 21
5.642560
  0
LINE
  8
0
 62
     0
  6
CONTINUOUS
 10
5.150200
 20
5.642560
 11
5.136120
 21
5.639480
  0
LINE
  8
0
 62
     0
  6
CONTINUOUS
 10
5.136120
 20
5.639480
 11
5.121160
 21
5.633320
  0
LINE
  8
0
 62
     0
  6
CONTINUOUS
 10
5.121160
 20
5.633320
 11
5.107520
 21
5.625840
  0
LINE
  8
0
 62
     0
  6
CONTINUOUS
 10
5.107520
 20
5.625840
 11
5.095200
 21
5.616600
  0
LINE
  8
0
 62
     0
  6
CONTINUOUS
 10
5.095200
 20
5.616600
 11
5.082880
 21
5.606040
  0
LINE
  8
0
 62
     0
  6
CONTINUOUS
 10
5.082880
 20
5.606040
 11
5.075400
 21
5.593720
  0
LINE
  8
0
 62
     0
  6
CONTINUOUS
 10
5.075400
 20
5.593720
 11
5.066160
 21
5.580080
  0
LINE
  8
0
 62
     0
  6
CONTINUOUS
 10
5.066160
 20
5.580080
 11
5.061760
 21
5.566440
  0
LINE
  8
0
 62
     0
  6
CONTINUOUS
 10
5.061760
 20
5.566440
 11
5.058680
 21
5.551040
  0
LINE
  8
0
 62
     0
  6
CONTINUOUS
 10
5.058680
 20
5.551040
 11
5.057360
 21
5.534320
  0
LINE
  8
0
 62
     0
  6
CONTINUOUS
 10
5.057360
 20
5.534320
 11
5.058680
 21
5.518920
  0
LINE
  8
0
 62
     0
  6
CONTINUOUS
 10
5.058680
 20
5.518920
 11
5.061760
 21
5.503960
  0
LINE
  8
0
 62
     0
  6
CONTINUOUS
 10
5.061760
 20
5.503960
 11
5.066160
 21
5.490320
  0
LINE
  8
0
 62
     0
  6
CONTINUOUS
 10
5.066160
 20
5.490320
 11
5.075400
 21
5.476680
  0
LINE
  8
0
 62
     0
  6
CONTINUOUS
 10
5.075400
 20
5.476680
 11
5.082880
 21
5.464360
  0
LINE
  8
0
 62
     0
  6
CONTINUOUS
 10
5.082880
 20
5.464360
 11
5.095200
 21
5.453800
  0
LINE
  8
0
 62
     0
  6
CONTINUOUS
 10
5.095200
 20
5.453800
 11
5.107520
 21
5.444560
  0
LINE
  8
0
 62
     0
  6
CONTINUOUS
 10
5.107520
 20
5.444560
 11
5.121160
 21
5.438400
  0
LINE
  8
0
 62
     0
  6
CONTINUOUS
 10
5.121160
 20
5.438400
 11
5.136120
 21
5.432240
  0
LINE
  8
0
 62
     0
  6
CONTINUOUS
 10
5.136120
 20
5.432240
 11
5.150200
 21
5.427840
  0
LINE
  8
0
 62
     0
  6
CONTINUOUS
 10
5.150200
 20
5.427840
 11
5.166920
 21
5.427840
  0
LINE
  8
0
 62
     0
  6
CONTINUOUS
 10
5.166920
 20
5.427840
 11
5.181880
 21
5.427840
  0
LINE
  8
0
 62
     0
  6
CONTINUOUS
 10
5.181880
 20
5.427840
 11
5.195520
 21
5.432240
  0
LINE
  8
0
 62
     0
  6
CONTINUOUS
 10
5.195520
 20
5.432240
 11
5.210920
 21
5.438400
  0
LINE
  8
0
 62
     0
  6
CONTINUOUS
 10
5.210920
 20
5.438400
 11
5.224560
 21
5.444560
  0
LINE
  8
0
 62
     0
  6
CONTINUOUS
 10
5.224560
 20
5.444560
 11
5.236880
 21
5.453800
  0
LINE
  8
0
 62
     0
  6
CONTINUOUS
 10
5.236880
 20
5.453800
 11
5.247440
 21
5.464360
  0
LINE
  8
0
 62
     0
  6
CONTINUOUS
 10
5.247440
 20
5.464360
 11
5.256680
 21
5.476680
  0
LINE
  8
0
 62
     0
  6
CONTINUOUS
 10
5.256680
 20
5.476680
 11
5.262840
 21
5.490320
  0
LINE
  8
0
 62
     0
  6
CONTINUOUS
 10
5.262840
 20
5.490320
 11
5.268560
 21
5.503960
  0
LINE
  8
0
 62
     0
  6
CONTINUOUS
 10
5.268560
 20
5.503960
 11
5.271640
 21
5.518920
  0
LINE
  8
0
 62
     0
  6
CONTINUOUS
 10
5.271640
 20
5.518920
 11
5.273400
 21
5.534320
  0
LINE
  8
0
 62
     0
  6
CONTINUOUS
 10
5.273400
 20
5.534320
 11
5.271640
 21
5.551040
  0
LINE
  8
0
 62
     0
  6
CONTINUOUS
 10
5.271640
 20
5.551040
 11
5.268560
 21
5.566440
  0
LINE
  8
0
 62
     0
  6
CONTINUOUS
 10
5.268560
 20
5.566440
 11
5.262840
 21
5.580080
  0
LINE
  8
0
 62
     0
  6
CONTINUOUS
 10
5.262840
 20
5.580080
 11
5.256680
 21
5.593720
  0
LINE
  8
0
 62
     0
  6
CONTINUOUS
 10
5.256680
 20
5.593720
 11
5.247440
 21
5.606040
  0
LINE
  8
0
 62
     0
  6
CONTINUOUS
 10
5.247440
 20
5.606040
 11
5.236880
 21
5.616600
  0
LINE
  8
0
 62
     0
  6
CONTINUOUS
 10
5.236880
 20
5.616600
 11
5.224560
 21
5.625840
  0
LINE
  8
0
 62
     0
  6
CONTINUOUS
 10
5.224560
 20
5.625840
 11
5.210920
 21
5.633320
  0
LINE
  8
0
 62
     0
  6
CONTINUOUS
 10
5.210920
 20
5.633320
 11
5.195520
 21
5.639480
  0
LINE
  8
0
 62
     0
  6
CONTINUOUS
 10
5.195520
 20
5.639480
 11
5.181880
 21
5.642560
  0
LINE
  8
0
 62
     0
  6
CONTINUOUS
 10
5.055600
 20
5.637720
 11
5.057360
 21
5.662360
  0
LINE
  8
0
 62
     0
  6
CONTINUOUS
 10
5.057360
 20
5.662360
 11
5.057360
 21
5.686560
  0
LINE
  8
0
 62
     0
  6
CONTINUOUS
 10
5.057360
 20
5.686560
 11
5.320480
 21
5.686560
  0
LINE
  8
0
 62
     0
  6
CONTINUOUS
 10
5.320480
 20
5.686560
 11
5.320480
 21
5.940880
  0
LINE
  8
0
 62
     0
  6
CONTINUOUS
 10
5.320480
 20
5.940880
 11
4.792480
 21
5.940880
  0
LINE
  8
0
 62
     0
  6
CONTINUOUS
 10
4.792480
 20
5.940880
 11
4.789400
 21
5.940880
  0
LINE
  8
0
 62
     0
  6
CONTINUOUS
 10
4.789400
 20
5.940880
 11
4.763440
 21
5.939120
  0
LINE
  8
0
 62
     0
  6
CONTINUOUS
 10
4.763440
 20
5.939120
 11
4.737480
 21
5.934720
  0
LINE
  8
0
 62
     0
  6
CONTINUOUS
 10
4.737480
 20
5.934720
 11
4.714600
 21
5.929880
  0
LINE
  8
0
 62
     0
  6
CONTINUOUS
 10
4.714600
 20
5.929880
 11
4.690400
 21
5.921080
  0
LINE
  8
0
 62
     0
  6
CONTINUOUS
 10
4.690400
 20
5.921080
 11
4.666200
 21
5.911840
  0
LINE
  8
0
 62
     0
  6
CONTINUOUS
 10
4.666200
 20
5.911840
 11
4.647720
 21
5.899520
  0
LINE
  8
0
 62
     0
  6
CONTINUOUS
 10
4.647720
 20
5.899520
 11
4.626600
 21
5.885880
  0
LINE
  8
0
 62
     0
  6
CONTINUOUS
 10
4.626600
 20
5.885880
 11
4.606800
 21
5.869160
  0
LINE
  8
0
 62
     0
  6
CONTINUOUS
 10
4.606800
 20
5.869160
 11
4.590080
 21
5.853760
  0
LINE
  8
0
 62
     0
  6
CONTINUOUS
 10
4.590080
 20
5.853760
 11
4.573360
 21
5.832640
  0
LINE
  8
0
 62
     0
  6
CONTINUOUS
 10
4.573360
 20
5.832640
 11
4.559280
 21
5.812840
  0
LINE
  8
0
 62
     0
  6
CONTINUOUS
 10
4.559280
 20
5.812840
 11
4.547400
 21
5.791720
  0
LINE
  8
0
 62
     0
  6
CONTINUOUS
 10
4.547400
 20
5.791720
 11
4.536400
 21
5.768840
  0
LINE
  8
0
 62
     0
  6
CONTINUOUS
 10
4.536400
 20
5.768840
 11
4.528920
 21
5.745960
  0
LINE
  8
0
 62
     0
  6
CONTINUOUS
 10
4.528920
 20
5.745960
 11
4.522760
 21
5.723080
  0
LINE
  8
0
 62
     0
  6
CONTINUOUS
 10
4.522760
 20
5.723080
 11
4.519680
 21
5.697120
  0
LINE
  8
0
 62
     0
  6
CONTINUOUS
 10
4.519680
 20
5.697120
 11
4.519680
 21
5.671160
  0
LINE
  8
0
 62
     0
  6
CONTINUOUS
 10
4.519680
 20
5.671160
 11
4.519680
 21
5.648720
  0
LINE
  8
0
 62
     0
  6
CONTINUOUS
 10
4.519680
 20
5.648720
 11
4.522760
 21
5.622760
  0
LINE
  8
0
 62
     0
  6
CONTINUOUS
 10
4.522760
 20
5.622760
 11
4.527600
 21
5.598120
  0
LINE
  8
0
 62
     0
  6
CONTINUOUS
 10
4.527600
 20
5.598120
 11
4.535080
 21
5.575240
  0
LINE
  8
0
 62
     0
  6
CONTINUOUS
 10
4.535080
 20
5.575240
 11
4.545640
 21
5.552800
  0
LINE
  8
0
 62
     0
  6
CONTINUOUS
 10
4.545640
 20
5.552800
 11
4.556200
 21
5.531240
  0
LINE
  8
0
 62
     0
  6
CONTINUOUS
 10
4.556200
 20
5.531240
 11
4.570280
 21
5.511440
  0
LINE
  8
0
 62
     0
  6
CONTINUOUS
 10
4.570280
 20
5.511440
 11
4.587000
 21
5.490320
  0
LINE
  8
0
 62
     0
  6
CONTINUOUS
 10
4.587000
 20
5.490320
 11
4.603720
 21
5.473600
  0
LINE
  8
0
 62
     0
  6
CONTINUOUS
 10
4.603720
 20
5.473600
 11
4.621760
 21
5.458200
  0
LINE
  8
0
 62
     0
  6
CONTINUOUS
 10
4.621760
 20
5.458200
 11
4.643320
 21
5.443240
  0
LINE
  8
0
 62
     0
  6
CONTINUOUS
 10
4.643320
 20
5.443240
 11
4.664440
 21
5.430920
  0
LINE
  8
0
 62
     0
  6
CONTINUOUS
 10
4.664440
 20
5.430920
 11
4.687320
 21
5.420360
  0
LINE
  8
0
 62
     0
  6
CONTINUOUS
 10
4.687320
 20
5.420360
 11
4.710200
 21
5.411120
  0
LINE
  8
0
 62
     0
  6
CONTINUOUS
 10
4.710200
 20
5.411120
 11
4.734400
 21
5.406720
  0
LINE
  8
0
 62
     0
  6
CONTINUOUS
 10
4.734400
 20
5.406720
 11
4.757280
 21
5.403640
  0
LINE
  8
0
 62
     0
  6
CONTINUOUS
 10
4.757280
 20
5.403640
 11
4.783240
 21
5.400560
  0
LINE
  8
0
 62
     0
  6
CONTINUOUS
 10
4.783240
 20
5.400560
 11
4.807440
 21
5.401880
  0
LINE
  8
0
 62
     0
  6
CONTINUOUS
 10
4.807440
 20
5.401880
 11
4.830320
 21
5.403640
  0
LINE
  8
0
 62
     0
  6
CONTINUOUS
 10
4.830320
 20
5.403640
 11
4.856280
 21
5.409360
  0
LINE
  8
0
 62
     0
  6
CONTINUOUS
 10
4.856280
 20
5.409360
 11
4.880480
 21
5.417280
  0
LINE
  8
0
 62
     0
  6
CONTINUOUS
 10
4.880480
 20
5.417280
 11
4.903360
 21
5.426080
  0
LINE
  8
0
 62
     0
  6
CONTINUOUS
 10
4.903360
 20
5.426080
 11
4.924920
 21
5.438400
  0
LINE
  8
0
 62
     0
  6
CONTINUOUS
 10
4.924920
 20
5.438400
 11
4.946040
 21
5.452040
  0
LINE
  8
0
 62
     0
  6
CONTINUOUS
 10
4.946040
 20
5.452040
 11
4.964080
 21
5.467440
  0
LINE
  8
0
 62
     0
  6
CONTINUOUS
 10
4.964080
 20
5.467440
 11
4.982560
 21
5.484160
  0
LINE
  8
0
 62
     0
  6
CONTINUOUS
 10
4.982560
 20
5.484160
 11
4.999280
 21
5.502200
  0
LINE
  8
0
 62
     0
  6
CONTINUOUS
 10
4.999280
 20
5.502200
 11
5.012920
 21
5.522000
  0
LINE
  8
0
 62
     0
  6
CONTINUOUS
 10
5.012920
 20
5.522000
 11
5.026560
 21
5.543560
  0
LINE
  8
0
 62
     0
  6
CONTINUOUS
 10
5.026560
 20
5.543560
 11
5.035800
 21
5.566440
  0
LINE
  8
0
 62
     0
  6
CONTINUOUS
 10
5.035800
 20
5.566440
 11
5.045040
 21
5.589320
  0
LINE
  8
0
 62
     0
  6
CONTINUOUS
 10
5.045040
 20
5.589320
 11
5.049440
 21
5.613520
  0
LINE
  8
0
 62
     0
  6
CONTINUOUS
 10
5.049440
 20
5.613520
 11
5.055600
 21
5.637720
  0
LINE
  8
0
 62
     0
  6
CONTINUOUS
 10
5.057360
 20
5.534320
 11
5.057360
 21
5.426080
  0
LINE
  8
0
 62
     0
  6
CONTINUOUS
 10
5.022160
 20
5.364040
 11
5.022160
 21
5.274280
  0
LINE
  8
0
 62
     0
  6
CONTINUOUS
 10
5.166920
 20
5.274280
 11
5.166920
 21
5.424760
  0
LINE
  8
0
 62
     0
  6
CONTINUOUS
 10
5.230720
 20
5.445880
 11
5.311240
 21
5.364040
  0
LINE
  8
0
 62
     0
  6
CONTINUOUS
 10
5.311240
 20
5.364040
 11
5.311240
 21
5.274280
  0
LINE
  8
0
 62
     0
  6
CONTINUOUS
 10
5.271640
 20
5.400560
 11
5.271640
 21
5.534320
  0
LINE
  8
0
 62
     0
  6
CONTINUOUS
 10
5.271640
 20
5.426080
 11
4.906440
 21
5.426080
  0
LINE
  8
0
 62
     0
  6
CONTINUOUS
 10
4.723840
 20
5.531240
 11
4.734400
 21
5.555880
  0
LINE
  8
0
 62
     0
  6
CONTINUOUS
 10
4.684240
 20
5.593720
 11
4.663120
 21
5.577000
  0
LINE
  8
0
 62
     0
  6
CONTINUOUS
 10
4.664440
 20
5.627160
 11
4.640240
 21
5.614840
  0
LINE
  8
0
 62
     0
  6
CONTINUOUS
 10
4.626600
 20
5.679080
 11
4.652120
 21
5.679080
  0
LINE
  8
0
 62
     0
  6
CONTINUOUS
 10
4.664440
 20
5.732320
 11
4.640240
 21
5.742880
  0
LINE
  8
0
 62
     0
  6
CONTINUOUS
 10
4.693480
 20
5.765760
 11
4.673680
 21
5.783800
  0
LINE
  8
0
 62
     0
  6
CONTINUOUS
 10
4.733080
 20
5.793040
 11
4.723840
 21
5.817240
  0
LINE
  8
0
 62
     0
  6
CONTINUOUS
 10
4.789400
 20
5.812840
 11
4.789400
 21
5.840120
  0
LINE
  8
0
 62
     0
  6
CONTINUOUS
 10
4.851440
 20
5.828240
 11
4.840880
 21
5.802280
  0
LINE
  8
0
 62
     0
  6
CONTINUOUS
 10
3.557840
 20
5.606040
 11
3.475560
 21
5.642560
  0
LINE
  8
0
 62
     0
  6
CONTINUOUS
 10
3.475560
 20
5.654440
 11
3.557840
 21
5.689640
  0
LINE
  8
0
 62
     0
  6
CONTINUOUS
 10
3.557840
 20
5.679080
 11
3.475560
 21
5.715600
  0
LINE
  8
0
 62
     0
  6
CONTINUOUS
 10
3.475560
 20
5.715600
 11
3.557840
 21
5.750360
  0
LINE
  8
0
 62
     0
  6
CONTINUOUS
 10
3.557840
 20
5.732320
 11
3.475560
 21
5.767080
  0
LINE
  8
0
 62
     0
  6
CONTINUOUS
 10
3.475560
 20
5.776320
 11
3.557840
 21
5.811520
  0
LINE
  8
0
 62
     0
  6
CONTINUOUS
 10
3.557840
 20
5.802280
 11
3.475560
 21
5.837040
  0
LINE
  8
0
 62
     0
  6
CONTINUOUS
 10
3.475560
 20
5.825160
 11
3.557840
 21
5.859920
  0
LINE
  8
0
 62
     0
  6
CONTINUOUS
 10
3.557840
 20
5.867840
 11
3.475560
 21
5.902600
  0
LINE
  8
0
 62
     0
  6
CONTINUOUS
 10
3.475560
 20
5.893360
 11
3.557840
 21
5.928560
  0
LINE
  8
0
 62
     0
  6
CONTINUOUS
 10
3.557840
 20
5.949680
 11
3.557840
 21
5.395720
  0
LINE
  8
0
 62
     0
  6
CONTINUOUS
 10
3.557840
 20
5.408040
 11
3.475560
 21
5.443240
  0
LINE
  8
0
 62
     0
  6
CONTINUOUS
 10
3.475560
 20
5.432240
 11
3.557840
 21
5.468760
  0
LINE
  8
0
 62
     0
  6
CONTINUOUS
 10
3.557840
 20
5.476680
 11
3.475560
 21
5.511440
  0
LINE
  8
0
 62
     0
  6
CONTINUOUS
 10
3.475560
 20
5.525080
 11
3.557840
 21
5.560280
  0
LINE
  8
0
 62
     0
  6
CONTINUOUS
 10
3.557840
 20
5.560280
 11
3.557840
 21
5.563360
  0
LINE
  8
0
 62
     0
  6
CONTINUOUS
 10
3.557840
 20
5.563360
 11
3.475560
 21
5.598120
  0
LINE
  8
0
 62
     0
  6
CONTINUOUS
 10
3.475560
 20
5.598120
 11
3.557840
 21
5.634640
  0
LINE
  8
0
 62
     0
  6
CONTINUOUS
 10
3.557840
 20
5.645640
 11
3.475560
 21
5.682160
  0
LINE
  8
0
 62
     0
  6
CONTINUOUS
 10
3.475560
 20
5.694040
 11
3.557840
 21
5.729240
  0
LINE
  8
0
 62
     0
  6
CONTINUOUS
 10
3.557840
 20
5.701960
 11
3.475560
 21
5.736720
  0
LINE
  8
0
 62
     0
  6
CONTINUOUS
 10
3.475560
 20
5.736720
 11
3.557840
 21
5.773240
  0
LINE
  8
0
 62
     0
  6
CONTINUOUS
 10
3.557840
 20
5.773240
 11
3.557840
 21
5.775000
  0
LINE
  8
0
 62
     0
  6
CONTINUOUS
 10
3.557840
 20
5.775000
 11
3.475560
 21
5.809760
  0
LINE
  8
0
 62
     0
  6
CONTINUOUS
 10
3.475560
 20
5.794800
 11
3.557840
 21
5.829560
  0
LINE
  8
0
 62
     0
  6
CONTINUOUS
 10
3.557840
 20
5.829560
 11
3.557840
 21
5.832640
  0
LINE
  8
0
 62
     0
  6
CONTINUOUS
 10
3.557840
 20
5.832640
 11
3.475560
 21
5.867840
  0
LINE
  8
0
 62
     0
  6
CONTINUOUS
 10
3.475560
 20
5.858600
 11
3.557840
 21
5.893360
  0
LINE
  8
0
 62
     0
  6
CONTINUOUS
 10
3.557840
 20
5.893360
 11
3.557840
 21
5.896440
  0
LINE
  8
0
 62
     0
  6
CONTINUOUS
 10
3.557840
 20
5.896440
 11
3.475560
 21
5.932960
  0
LINE
  8
0
 62
     0
  6
CONTINUOUS
 10
3.475560
 20
5.949680
 11
3.475560
 21
5.395720
  0
LINE
  8
0
 62
     0
  6
CONTINUOUS
 10
3.475560
 20
5.403640
 11
3.557840
 21
5.438400
  0
LINE
  8
0
 62
     0
  6
CONTINUOUS
 10
3.557840
 20
5.438400
 11
3.557840
 21
5.441480
  0
LINE
  8
0
 62
     0
  6
CONTINUOUS
 10
3.557840
 20
5.441480
 11
3.475560
 21
5.476680
  0
LINE
  8
0
 62
     0
  6
CONTINUOUS
 10
3.475560
 20
5.485480
 11
3.557840
 21
5.450720
  0
LINE
  8
0
 62
     0
  6
CONTINUOUS
 10
3.557840
 20
5.503960
 11
3.475560
 21
5.468760
  0
LINE
  8
0
 62
     0
  6
CONTINUOUS
 10
3.475560
 20
5.497800
 11
3.557840
 21
5.534320
  0
LINE
  8
0
 62
     0
  6
CONTINUOUS
 10
3.557840
 20
5.523760
 11
3.475560
 21
5.558520
  0
LINE
  8
0
 62
     0
  6
CONTINUOUS
 10
3.475560
 20
5.569520
 11
3.557840
 21
5.602960
  0
LINE
  8
0
 62
     0
  6
CONTINUOUS
 10
3.557840
 20
5.584480
 11
3.475560
 21
5.621000
  0
LINE
  8
0
 62
     0
  6
CONTINUOUS
 10
3.475560
 20
5.621000
 11
3.475560
 21
5.619680
  0
LINE
  8
0
 62
     0
  6
CONTINUOUS
 10
3.475560
 20
5.619680
 11
3.557840
 21
5.656200
  0
LINE
  8
0
 62
     0
  6
CONTINUOUS
 10
3.557840
 20
5.507040
 11
3.475560
 21
5.541800
  0
LINE
  8
0
 62
     0
  6
CONTINUOUS
 10
3.366000
 20
5.395720
 11
6.673040
 21
5.395720
  0
LINE
  8
0
 62
     0
  6
CONTINUOUS
 10
6.671720
 20
5.395720
 11
6.959480
 21
5.663680
  0
LINE
  8
0
 62
     0
  6
CONTINUOUS
 10
6.959480
 20
5.663680
 11
6.673040
 21
5.949680
  0
LINE
  8
0
 62
     0
  6
CONTINUOUS
 10
3.557840
 20
5.885880
 11
3.475560
 21
5.851120
  0
LINE
  8
0
 62
     0
  6
CONTINUOUS
 10
3.469840
 20
5.962000
 11
3.497120
 21
5.962000
  0
LINE
  8
0
 62
     0
  6
CONTINUOUS
 10
3.516920
 20
5.962000
 11
3.530560
 21
6.009080
  0
LINE
  8
0
 62
     0
  6
CONTINUOUS
 10
3.515160
 20
6.009080
 11
3.545960
 21
6.009080
  0
LINE
  8
0
 62
     0
  6
CONTINUOUS
 10
3.557840
 20
6.009080
 11
3.545960
 21
5.962000
  0
LINE
  8
0
 62
     0
  6
CONTINUOUS
 10
3.545960
 20
5.962000
 11
3.574560
 21
5.962000
  0
LINE
  8
0
 62
     0
  6
CONTINUOUS
 10
3.588200
 20
5.962000
 11
3.600520
 21
6.009080
  0
LINE
  8
0
 62
     0
  6
CONTINUOUS
 10
3.600520
 20
6.009080
 11
3.622080
 21
6.009080
  0
LINE
  8
0
 62
     0
  6
CONTINUOUS
 10
3.622080
 20
6.009080
 11
3.627800
 21
6.006000
  0
LINE
  8
0
 62
     0
  6
CONTINUOUS
 10
3.627800
 20
6.006000
 11
3.629560
 21
6.004680
  0
LINE
  8
0
 62
     0
  6
CONTINUOUS
 10
3.629560
 20
6.004680
 11
3.630880
 21
5.998520
  0
LINE
  8
0
 62
     0
  6
CONTINUOUS
 10
3.630880
 20
5.998520
 11
3.629560
 21
5.995440
  0
LINE
  8
0
 62
     0
  6
CONTINUOUS
 10
3.629560
 20
5.995440
 11
3.626480
 21
5.991040
  0
LINE
  8
0
 62
     0
  6
CONTINUOUS
 10
3.626480
 20
5.991040
 11
3.623400
 21
5.987960
  0
LINE
  8
0
 62
     0
  6
CONTINUOUS
 10
3.623400
 20
5.987960
 11
3.615920
 21
5.984880
  0
LINE
  8
0
 62
     0
  6
CONTINUOUS
 10
3.615920
 20
5.984880
 11
3.596120
 21
5.984880
  0
LINE
  8
0
 62
     0
  6
CONTINUOUS
 10
3.611080
 20
5.984880
 11
3.620320
 21
5.962000
  0
LINE
  8
0
 62
     0
  6
CONTINUOUS
 10
3.570160
 20
5.984880
 11
3.553440
 21
5.984880
  0
LINE
  8
0
 62
     0
  6
CONTINUOUS
 10
3.557840
 20
6.009080
 11
3.588200
 21
6.009080
  0
LINE
  8
0
 62
     0
  6
CONTINUOUS
 10
3.481720
 20
6.009080
 11
3.469840
 21
5.962000
  0
LINE
  8
0
 62
     0
  6
CONTINUOUS
 10
3.451360
 20
5.962000
 11
3.465000
 21
6.009080
  0
LINE
  8
0
 62
     0
  6
CONTINUOUS
 10
3.454440
 20
6.009080
 11
3.424080
 21
6.009080
  0
LINE
  8
0
 62
     0
  6
CONTINUOUS
 10
3.424080
 20
6.009080
 11
3.411760
 21
5.962000
  0
LINE
  8
0
 62
     0
  6
CONTINUOUS
 10
3.417920
 20
5.984880
 11
3.435960
 21
5.984880
  0
LINE
  8
0
 62
     0
  6
CONTINUOUS
 10
3.344880
 20
5.294080
 11
3.242800
 21
5.080680
  0
LINE
  8
0
 62
     0
  6
CONTINUOUS
 10
3.145560
 20
5.080680
 11
3.247640
 21
5.294080
  0
LINE
  8
0
 62
     0
  6
CONTINUOUS
 10
3.288560
 20
5.208720
 11
3.299120
 21
5.196400
  0
LINE
  8
0
 62
     0
  6
CONTINUOUS
 10
3.299120
 20
5.196400
 11
3.292960
 21
5.211800
  0
LINE
  8
0
 62
     0
  6
CONTINUOUS
 10
3.292960
 20
5.211800
 11
3.299120
 21
5.196400
  0
LINE
  8
0
 62
     0
  6
CONTINUOUS
 10
3.299120
 20
5.196400
 11
3.299120
 21
5.213120
  0
LINE
  8
0
 62
     0
  6
CONTINUOUS
 10
3.299120
 20
5.213120
 11
3.299120
 21
5.196400
  0
LINE
  8
0
 62
     0
  6
CONTINUOUS
 10
3.299120
 20
5.196400
 11
3.305280
 21
5.211800
  0
LINE
  8
0
 62
     0
  6
CONTINUOUS
 10
3.305280
 20
5.211800
 11
3.299120
 21
5.196400
  0
LINE
  8
0
 62
     0
  6
CONTINUOUS
 10
3.299120
 20
5.196400
 11
3.311440
 21
5.208720
  0
LINE
  8
0
 62
     0
  6
CONTINUOUS
 10
3.311440
 20
5.208720
 11
3.299120
 21
5.196400
  0
LINE
  8
0
 62
     0
  6
CONTINUOUS
 10
3.299120
 20
5.196400
 11
3.314520
 21
5.202560
  0
LINE
  8
0
 62
     0
  6
CONTINUOUS
 10
3.314520
 20
5.202560
 11
3.299120
 21
5.196400
  0
LINE
  8
0
 62
     0
  6
CONTINUOUS
 10
3.299120
 20
5.196400
 11
3.315840
 21
5.196400
  0
LINE
  8
0
 62
     0
  6
CONTINUOUS
 10
3.315840
 20
5.196400
 11
3.299120
 21
5.196400
  0
LINE
  8
0
 62
     0
  6
CONTINUOUS
 10
3.299120
 20
5.196400
 11
3.314520
 21
5.190240
  0
LINE
  8
0
 62
     0
  6
CONTINUOUS
 10
3.314520
 20
5.190240
 11
3.299120
 21
5.196400
  0
LINE
  8
0
 62
     0
  6
CONTINUOUS
 10
3.299120
 20
5.196400
 11
3.311440
 21
5.184080
  0
LINE
  8
0
 62
     0
  6
CONTINUOUS
 10
3.311440
 20
5.184080
 11
3.299120
 21
5.196400
  0
LINE
  8
0
 62
     0
  6
CONTINUOUS
 10
3.299120
 20
5.196400
 11
3.305280
 21
5.181440
  0
LINE
  8
0
 62
     0
  6
CONTINUOUS
 10
3.305280
 20
5.181440
 11
3.299120
 21
5.196400
  0
LINE
  8
0
 62
     0
  6
CONTINUOUS
 10
3.299120
 20
5.196400
 11
3.299120
 21
5.179680
  0
LINE
  8
0
 62
     0
  6
CONTINUOUS
 10
3.299120
 20
5.179680
 11
3.299120
 21
5.196400
  0
LINE
  8
0
 62
     0
  6
CONTINUOUS
 10
3.299120
 20
5.196400
 11
3.292960
 21
5.181440
  0
LINE
  8
0
 62
     0
  6
CONTINUOUS
 10
3.292960
 20
5.181440
 11
3.299120
 21
5.196400
  0
LINE
  8
0
 62
     0
  6
CONTINUOUS
 10
3.299120
 20
5.196400
 11
3.288560
 21
5.184080
  0
LINE
  8
0
 62
     0
  6
CONTINUOUS
 10
3.288560
 20
5.184080
 11
3.299120
 21
5.196400
  0
LINE
  8
0
 62
     0
  6
CONTINUOUS
 10
3.299120
 20
5.196400
 11
3.284160
 21
5.190240
  0
LINE
  8
0
 62
     0
  6
CONTINUOUS
 10
3.284160
 20
5.190240
 11
3.299120
 21
5.196400
  0
LINE
  8
0
 62
     0
  6
CONTINUOUS
 10
3.299120
 20
5.196400
 11
3.284160
 21
5.196400
  0
LINE
  8
0
 62
     0
  6
CONTINUOUS
 10
3.284160
 20
5.196400
 11
3.299120
 21
5.196400
  0
LINE
  8
0
 62
     0
  6
CONTINUOUS
 10
3.299120
 20
5.196400
 11
3.284160
 21
5.202560
  0
LINE
  8
0
 62
     0
  6
CONTINUOUS
 10
3.284160
 20
5.202560
 11
3.299120
 21
5.196400
  0
LINE
  8
0
 62
     0
  6
CONTINUOUS
 10
3.299120
 20
5.196400
 11
3.288560
 21
5.208720
  0
LINE
  8
0
 62
     0
  6
CONTINUOUS
 10
3.288560
 20
5.208720
 11
3.284160
 21
5.202560
  0
LINE
  8
0
 62
     0
  6
CONTINUOUS
 10
3.284160
 20
5.202560
 11
3.284160
 21
5.196400
  0
LINE
  8
0
 62
     0
  6
CONTINUOUS
 10
3.284160
 20
5.196400
 11
3.284160
 21
5.190240
  0
LINE
  8
0
 62
     0
  6
CONTINUOUS
 10
3.284160
 20
5.190240
 11
3.288560
 21
5.184080
  0
LINE
  8
0
 62
     0
  6
CONTINUOUS
 10
3.288560
 20
5.184080
 11
3.292960
 21
5.181440
  0
LINE
  8
0
 62
     0
  6
CONTINUOUS
 10
3.292960
 20
5.181440
 11
3.299120
 21
5.179680
  0
LINE
  8
0
 62
     0
  6
CONTINUOUS
 10
3.299120
 20
5.179680
 11
3.299120
 21
5.196400
  0
LINE
  8
0
 62
     0
  6
CONTINUOUS
 10
3.299120
 20
5.196400
 11
3.299120
 21
5.213120
  0
LINE
  8
0
 62
     0
  6
CONTINUOUS
 10
3.299120
 20
5.213120
 11
3.292960
 21
5.211800
  0
LINE
  8
0
 62
     0
  6
CONTINUOUS
 10
3.292960
 20
5.211800
 11
3.288560
 21
5.208720
  0
LINE
  8
0
 62
     0
  6
CONTINUOUS
 10
3.284160
 20
5.203880
 11
3.292960
 21
5.203880
  0
LINE
  8
0
 62
     0
  6
CONTINUOUS
 10
3.297800
 20
5.198160
 11
3.284160
 21
5.198160
  0
LINE
  8
0
 62
     0
  6
CONTINUOUS
 10
3.303960
 20
5.198160
 11
3.315840
 21
5.198160
  0
LINE
  8
0
 62
     0
  6
CONTINUOUS
 10
3.315840
 20
5.198160
 11
3.315840
 21
5.196400
  0
LINE
  8
0
 62
     0
  6
CONTINUOUS
 10
3.315840
 20
5.196400
 11
3.314520
 21
5.202560
  0
LINE
  8
0
 62
     0
  6
CONTINUOUS
 10
3.314520
 20
5.202560
 11
3.311440
 21
5.208720
  0
LINE
  8
0
 62
     0
  6
CONTINUOUS
 10
3.311440
 20
5.208720
 11
3.305280
 21
5.211800
  0
LINE
  8
0
 62
     0
  6
CONTINUOUS
 10
3.305280
 20
5.211800
 11
3.299120
 21
5.213120
  0
LINE
  8
0
 62
     0
  6
CONTINUOUS
 10
3.306600
 20
5.211800
 11
3.306600
 21
5.203880
  0
LINE
  8
0
 62
     0
  6
CONTINUOUS
 10
3.306600
 20
5.203880
 11
3.305280
 21
5.203880
  0
LINE
  8
0
 62
     0
  6
CONTINUOUS
 10
3.305280
 20
5.203880
 11
3.312760
 21
5.203880
  0
LINE
  8
0
 62
     0
  6
CONTINUOUS
 10
3.315840
 20
5.196400
 11
3.314520
 21
5.190240
  0
LINE
  8
0
 62
     0
  6
CONTINUOUS
 10
3.314520
 20
5.190240
 11
3.311440
 21
5.184080
  0
LINE
  8
0
 62
     0
  6
CONTINUOUS
 10
3.311440
 20
5.184080
 11
3.305280
 21
5.181440
  0
LINE
  8
0
 62
     0
  6
CONTINUOUS
 10
3.305280
 20
5.181440
 11
3.299120
 21
5.179680
  0
LINE
  8
0
 62
     0
  6
CONTINUOUS
 10
3.306600
 20
5.181440
 11
3.306600
 21
5.188920
  0
LINE
  8
0
 62
     0
  6
CONTINUOUS
 10
3.218600
 20
5.190240
 11
3.204960
 21
5.196400
  0
LINE
  8
0
 62
     0
  6
CONTINUOUS
 10
3.204960
 20
5.196400
 11
3.215520
 21
5.184080
  0
LINE
  8
0
 62
     0
  6
CONTINUOUS
 10
3.215520
 20
5.184080
 11
3.204960
 21
5.196400
  0
LINE
  8
0
 62
     0
  6
CONTINUOUS
 10
3.204960
 20
5.196400
 11
3.210680
 21
5.181440
  0
LINE
  8
0
 62
     0
  6
CONTINUOUS
 10
3.210680
 20
5.181440
 11
3.204960
 21
5.196400
  0
LINE
  8
0
 62
     0
  6
CONTINUOUS
 10
3.204960
 20
5.196400
 11
3.204960
 21
5.179680
  0
LINE
  8
0
 62
     0
  6
CONTINUOUS
 10
3.204960
 20
5.179680
 11
3.204960
 21
5.196400
  0
LINE
  8
0
 62
     0
  6
CONTINUOUS
 10
3.204960
 20
5.196400
 11
3.197040
 21
5.181440
  0
LINE
  8
0
 62
     0
  6
CONTINUOUS
 10
3.197040
 20
5.181440
 11
3.204960
 21
5.196400
  0
LINE
  8
0
 62
     0
  6
CONTINUOUS
 10
3.204960
 20
5.196400
 11
3.192640
 21
5.184080
  0
LINE
  8
0
 62
     0
  6
CONTINUOUS
 10
3.192640
 20
5.184080
 11
3.204960
 21
5.196400
  0
LINE
  8
0
 62
     0
  6
CONTINUOUS
 10
3.204960
 20
5.196400
 11
3.188240
 21
5.190240
  0
LINE
  8
0
 62
     0
  6
CONTINUOUS
 10
3.188240
 20
5.190240
 11
3.204960
 21
5.196400
  0
LINE
  8
0
 62
     0
  6
CONTINUOUS
 10
3.204960
 20
5.196400
 11
3.188240
 21
5.196400
  0
LINE
  8
0
 62
     0
  6
CONTINUOUS
 10
3.188240
 20
5.196400
 11
3.204960
 21
5.196400
  0
LINE
  8
0
 62
     0
  6
CONTINUOUS
 10
3.204960
 20
5.196400
 11
3.188240
 21
5.202560
  0
LINE
  8
0
 62
     0
  6
CONTINUOUS
 10
3.188240
 20
5.202560
 11
3.204960
 21
5.196400
  0
LINE
  8
0
 62
     0
  6
CONTINUOUS
 10
3.204960
 20
5.196400
 11
3.192640
 21
5.208720
  0
LINE
  8
0
 62
     0
  6
CONTINUOUS
 10
3.192640
 20
5.208720
 11
3.204960
 21
5.196400
  0
LINE
  8
0
 62
     0
  6
CONTINUOUS
 10
3.204960
 20
5.196400
 11
3.197040
 21
5.211800
  0
LINE
  8
0
 62
     0
  6
CONTINUOUS
 10
3.197040
 20
5.211800
 11
3.204960
 21
5.196400
  0
LINE
  8
0
 62
     0
  6
CONTINUOUS
 10
3.204960
 20
5.196400
 11
3.204960
 21
5.213120
  0
LINE
  8
0
 62
     0
  6
CONTINUOUS
 10
3.204960
 20
5.213120
 11
3.204960
 21
5.196400
  0
LINE
  8
0
 62
     0
  6
CONTINUOUS
 10
3.204960
 20
5.196400
 11
3.210680
 21
5.211800
  0
LINE
  8
0
 62
     0
  6
CONTINUOUS
 10
3.210680
 20
5.211800
 11
3.204960
 21
5.196400
  0
LINE
  8
0
 62
     0
  6
CONTINUOUS
 10
3.204960
 20
5.196400
 11
3.215520
 21
5.208720
  0
LINE
  8
0
 62
     0
  6
CONTINUOUS
 10
3.215520
 20
5.208720
 11
3.204960
 21
5.196400
  0
LINE
  8
0
 62
     0
  6
CONTINUOUS
 10
3.204960
 20
5.196400
 11
3.218600
 21
5.202560
  0
LINE
  8
0
 62
     0
  6
CONTINUOUS
 10
3.218600
 20
5.202560
 11
3.204960
 21
5.196400
  0
LINE
  8
0
 62
     0
  6
CONTINUOUS
 10
3.204960
 20
5.196400
 11
3.219920
 21
5.196400
  0
LINE
  8
0
 62
     0
  6
CONTINUOUS
 10
3.219920
 20
5.196400
 11
3.204960
 21
5.196400
  0
LINE
  8
0
 62
     0
  6
CONTINUOUS
 10
3.204960
 20
5.196400
 11
3.218600
 21
5.190240
  0
LINE
  8
0
 62
     0
  6
CONTINUOUS
 10
3.218600
 20
5.190240
 11
3.219920
 21
5.196400
  0
LINE
  8
0
 62
     0
  6
CONTINUOUS
 10
3.219920
 20
5.196400
 11
3.218600
 21
5.202560
  0
LINE
  8
0
 62
     0
  6
CONTINUOUS
 10
3.218600
 20
5.202560
 11
3.215520
 21
5.208720
  0
LINE
  8
0
 62
     0
  6
CONTINUOUS
 10
3.215520
 20
5.208720
 11
3.210680
 21
5.211800
  0
LINE
  8
0
 62
     0
  6
CONTINUOUS
 10
3.210680
 20
5.211800
 11
3.204960
 21
5.213120
  0
LINE
  8
0
 62
     0
  6
CONTINUOUS
 10
3.204960
 20
5.213120
 11
3.197040
 21
5.211800
  0
LINE
  8
0
 62
     0
  6
CONTINUOUS
 10
3.197040
 20
5.211800
 11
3.192640
 21
5.208720
  0
LINE
  8
0
 62
     0
  6
CONTINUOUS
 10
3.192640
 20
5.208720
 11
3.188240
 21
5.202560
  0
LINE
  8
0
 62
     0
  6
CONTINUOUS
 10
3.188240
 20
5.202560
 11
3.188240
 21
5.196400
  0
LINE
  8
0
 62
     0
  6
CONTINUOUS
 10
3.188240
 20
5.196400
 11
3.188240
 21
5.190240
  0
LINE
  8
0
 62
     0
  6
CONTINUOUS
 10
3.188240
 20
5.190240
 11
3.192640
 21
5.184080
  0
LINE
  8
0
 62
     0
  6
CONTINUOUS
 10
3.192640
 20
5.184080
 11
3.197040
 21
5.181440
  0
LINE
  8
0
 62
     0
  6
CONTINUOUS
 10
3.197040
 20
5.181440
 11
3.204960
 21
5.179680
  0
LINE
  8
0
 62
     0
  6
CONTINUOUS
 10
3.204960
 20
5.179680
 11
3.210680
 21
5.181440
  0
LINE
  8
0
 62
     0
  6
CONTINUOUS
 10
3.210680
 20
5.181440
 11
3.215520
 21
5.184080
  0
LINE
  8
0
 62
     0
  6
CONTINUOUS
 10
3.215520
 20
5.184080
 11
3.218600
 21
5.190240
  0
LINE
  8
0
 62
     0
  6
CONTINUOUS
 10
3.219920
 20
5.198160
 11
3.206280
 21
5.198160
  0
LINE
  8
0
 62
     0
  6
CONTINUOUS
 10
3.206280
 20
5.198160
 11
3.206280
 21
5.200800
  0
LINE
  8
0
 62
     0
  6
CONTINUOUS
 10
3.206280
 20
5.200800
 11
3.206280
 21
5.213120
  0
LINE
  8
0
 62
     0
  6
CONTINUOUS
 10
3.210680
 20
5.203880
 11
3.218600
 21
5.203880
  0
LINE
  8
0
 62
     0
  6
CONTINUOUS
 10
3.197040
 20
5.203880
 11
3.189560
 21
5.203880
  0
LINE
  8
0
 62
     0
  6
CONTINUOUS
 10
3.188240
 20
5.198160
 11
3.200120
 21
5.198160
  0
LINE
  8
0
 62
     0
  6
CONTINUOUS
 10
3.206280
 20
5.192000
 11
3.206280
 21
5.179680
  0
LINE
  8
0
 62
     0
  6
CONTINUOUS
 10
3.105960
 20
5.184080
 11
3.093640
 21
5.196400
  0
LINE
  8
0
 62
     0
  6
CONTINUOUS
 10
3.093640
 20
5.196400
 11
3.099800
 21
5.181440
  0
LINE
  8
0
 62
     0
  6
CONTINUOUS
 10
3.099800
 20
5.181440
 11
3.093640
 21
5.196400
  0
LINE
  8
0
 62
     0
  6
CONTINUOUS
 10
3.093640
 20
5.196400
 11
3.093640
 21
5.179680
  0
LINE
  8
0
 62
     0
  6
CONTINUOUS
 10
3.093640
 20
5.179680
 11
3.093640
 21
5.196400
  0
LINE
  8
0
 62
     0
  6
CONTINUOUS
 10
3.093640
 20
5.196400
 11
3.087480
 21
5.181440
  0
LINE
  8
0
 62
     0
  6
CONTINUOUS
 10
3.087480
 20
5.181440
 11
3.093640
 21
5.196400
  0
LINE
  8
0
 62
     0
  6
CONTINUOUS
 10
3.093640
 20
5.196400
 11
3.081320
 21
5.184080
  0
LINE
  8
0
 62
     0
  6
CONTINUOUS
 10
3.081320
 20
5.184080
 11
3.093640
 21
5.196400
  0
LINE
  8
0
 62
     0
  6
CONTINUOUS
 10
3.093640
 20
5.196400
 11
3.080000
 21
5.190240
  0
LINE
  8
0
 62
     0
  6
CONTINUOUS
 10
3.080000
 20
5.190240
 11
3.093640
 21
5.196400
  0
LINE
  8
0
 62
     0
  6
CONTINUOUS
 10
3.093640
 20
5.196400
 11
3.076920
 21
5.196400
  0
LINE
  8
0
 62
     0
  6
CONTINUOUS
 10
3.076920
 20
5.196400
 11
3.093640
 21
5.196400
  0
LINE
  8
0
 62
     0
  6
CONTINUOUS
 10
3.093640
 20
5.196400
 11
3.080000
 21
5.202560
  0
LINE
  8
0
 62
     0
  6
CONTINUOUS
 10
3.080000
 20
5.202560
 11
3.093640
 21
5.196400
  0
LINE
  8
0
 62
     0
  6
CONTINUOUS
 10
3.093640
 20
5.196400
 11
3.081320
 21
5.208720
  0
LINE
  8
0
 62
     0
  6
CONTINUOUS
 10
3.081320
 20
5.208720
 11
3.093640
 21
5.196400
  0
LINE
  8
0
 62
     0
  6
CONTINUOUS
 10
3.093640
 20
5.196400
 11
3.087480
 21
5.211800
  0
LINE
  8
0
 62
     0
  6
CONTINUOUS
 10
3.087480
 20
5.211800
 11
3.093640
 21
5.196400
  0
LINE
  8
0
 62
     0
  6
CONTINUOUS
 10
3.093640
 20
5.196400
 11
3.093640
 21
5.213120
  0
LINE
  8
0
 62
     0
  6
CONTINUOUS
 10
3.093640
 20
5.213120
 11
3.093640
 21
5.196400
  0
LINE
  8
0
 62
     0
  6
CONTINUOUS
 10
3.093640
 20
5.196400
 11
3.099800
 21
5.211800
  0
LINE
  8
0
 62
     0
  6
CONTINUOUS
 10
3.099800
 20
5.211800
 11
3.093640
 21
5.196400
  0
LINE
  8
0
 62
     0
  6
CONTINUOUS
 10
3.093640
 20
5.196400
 11
3.105960
 21
5.208720
  0
LINE
  8
0
 62
     0
  6
CONTINUOUS
 10
3.105960
 20
5.208720
 11
3.093640
 21
5.196400
  0
LINE
  8
0
 62
     0
  6
CONTINUOUS
 10
3.093640
 20
5.196400
 11
3.110360
 21
5.202560
  0
LINE
  8
0
 62
     0
  6
CONTINUOUS
 10
3.110360
 20
5.202560
 11
3.093640
 21
5.196400
  0
LINE
  8
0
 62
     0
  6
CONTINUOUS
 10
3.093640
 20
5.196400
 11
3.110360
 21
5.196400
  0
LINE
  8
0
 62
     0
  6
CONTINUOUS
 10
3.110360
 20
5.196400
 11
3.093640
 21
5.196400
  0
LINE
  8
0
 62
     0
  6
CONTINUOUS
 10
3.093640
 20
5.196400
 11
3.110360
 21
5.190240
  0
LINE
  8
0
 62
     0
  6
CONTINUOUS
 10
3.110360
 20
5.190240
 11
3.093640
 21
5.196400
  0
LINE
  8
0
 62
     0
  6
CONTINUOUS
 10
3.093640
 20
5.196400
 11
3.105960
 21
5.184080
  0
LINE
  8
0
 62
     0
  6
CONTINUOUS
 10
3.105960
 20
5.184080
 11
3.110360
 21
5.190240
  0
LINE
  8
0
 62
     0
  6
CONTINUOUS
 10
3.110360
 20
5.190240
 11
3.110360
 21
5.196400
  0
LINE
  8
0
 62
     0
  6
CONTINUOUS
 10
3.110360
 20
5.196400
 11
3.110360
 21
5.202560
  0
LINE
  8
0
 62
     0
  6
CONTINUOUS
 10
3.110360
 20
5.202560
 11
3.105960
 21
5.208720
  0
LINE
  8
0
 62
     0
  6
CONTINUOUS
 10
3.105960
 20
5.208720
 11
3.099800
 21
5.211800
  0
LINE
  8
0
 62
     0
  6
CONTINUOUS
 10
3.099800
 20
5.211800
 11
3.093640
 21
5.213120
  0
LINE
  8
0
 62
     0
  6
CONTINUOUS
 10
3.093640
 20
5.213120
 11
3.093640
 21
5.196400
  0
LINE
  8
0
 62
     0
  6
CONTINUOUS
 10
3.093640
 20
5.196400
 11
3.093640
 21
5.179680
  0
LINE
  8
0
 62
     0
  6
CONTINUOUS
 10
3.093640
 20
5.179680
 11
3.093640
 21
5.196400
  0
LINE
  8
0
 62
     0
  6
CONTINUOUS
 10
3.093640
 20
5.196400
 11
3.093640
 21
5.213120
  0
LINE
  8
0
 62
     0
  6
CONTINUOUS
 10
3.093640
 20
5.213120
 11
3.087480
 21
5.211800
  0
LINE
  8
0
 62
     0
  6
CONTINUOUS
 10
3.087480
 20
5.211800
 11
3.081320
 21
5.208720
  0
LINE
  8
0
 62
     0
  6
CONTINUOUS
 10
3.081320
 20
5.208720
 11
3.080000
 21
5.202560
  0
LINE
  8
0
 62
     0
  6
CONTINUOUS
 10
3.080000
 20
5.202560
 11
3.076920
 21
5.196400
  0
LINE
  8
0
 62
     0
  6
CONTINUOUS
 10
3.076920
 20
5.196400
 11
3.080000
 21
5.190240
  0
LINE
  8
0
 62
     0
  6
CONTINUOUS
 10
3.080000
 20
5.190240
 11
3.081320
 21
5.184080
  0
LINE
  8
0
 62
     0
  6
CONTINUOUS
 10
3.081320
 20
5.184080
 11
3.087480
 21
5.181440
  0
LINE
  8
0
 62
     0
  6
CONTINUOUS
 10
3.087480
 20
5.181440
 11
3.093640
 21
5.179680
  0
LINE
  8
0
 62
     0
  6
CONTINUOUS
 10
3.093640
 20
5.179680
 11
3.099800
 21
5.181440
  0
LINE
  8
0
 62
     0
  6
CONTINUOUS
 10
3.099800
 20
5.181440
 11
3.105960
 21
5.184080
  0
LINE
  8
0
 62
     0
  6
CONTINUOUS
 10
3.110360
 20
5.198160
 11
3.096720
 21
5.198160
  0
LINE
  8
0
 62
     0
  6
CONTINUOUS
 10
3.096720
 20
5.198160
 11
3.090560
 21
5.198160
  0
LINE
  8
0
 62
     0
  6
CONTINUOUS
 10
3.090560
 20
5.198160
 11
3.076920
 21
5.198160
  0
LINE
  8
0
 62
     0
  6
CONTINUOUS
 10
3.080000
 20
5.203880
 11
3.087480
 21
5.203880
  0
LINE
  8
0
 62
     0
  6
CONTINUOUS
 10
3.101120
 20
5.203880
 11
3.109040
 21
5.203880
  0
LINE
  8
0
 62
     0
  6
CONTINUOUS
 10
3.003880
 20
5.202560
 11
2.988480
 21
5.196400
  0
LINE
  8
0
 62
     0
  6
CONTINUOUS
 10
2.988480
 20
5.196400
 11
3.005200
 21
5.196400
  0
LINE
  8
0
 62
     0
  6
CONTINUOUS
 10
3.005200
 20
5.196400
 11
2.988480
 21
5.196400
  0
LINE
  8
0
 62
     0
  6
CONTINUOUS
 10
2.988480
 20
5.196400
 11
3.003880
 21
5.190240
  0
LINE
  8
0
 62
     0
  6
CONTINUOUS
 10
3.003880
 20
5.190240
 11
2.988480
 21
5.196400
  0
LINE
  8
0
 62
     0
  6
CONTINUOUS
 10
2.988480
 20
5.196400
 11
3.000800
 21
5.184080
  0
LINE
  8
0
 62
     0
  6
CONTINUOUS
 10
3.000800
 20
5.184080
 11
2.988480
 21
5.196400
  0
LINE
  8
0
 62
     0
  6
CONTINUOUS
 10
2.988480
 20
5.196400
 11
2.994640
 21
5.181440
  0
LINE
  8
0
 62
     0
  6
CONTINUOUS
 10
2.994640
 20
5.181440
 11
2.988480
 21
5.196400
  0
LINE
  8
0
 62
     0
  6
CONTINUOUS
 10
2.988480
 20
5.196400
 11
2.988480
 21
5.179680
  0
LINE
  8
0
 62
     0
  6
CONTINUOUS
 10
2.988480
 20
5.179680
 11
2.988480
 21
5.196400
  0
LINE
  8
0
 62
     0
  6
CONTINUOUS
 10
2.988480
 20
5.196400
 11
2.982760
 21
5.181440
  0
LINE
  8
0
 62
     0
  6
CONTINUOUS
 10
2.982760
 20
5.181440
 11
2.988480
 21
5.196400
  0
LINE
  8
0
 62
     0
  6
CONTINUOUS
 10
2.988480
 20
5.196400
 11
2.976600
 21
5.184080
  0
LINE
  8
0
 62
     0
  6
CONTINUOUS
 10
2.976600
 20
5.184080
 11
2.988480
 21
5.196400
  0
LINE
  8
0
 62
     0
  6
CONTINUOUS
 10
2.988480
 20
5.196400
 11
2.973520
 21
5.190240
  0
LINE
  8
0
 62
     0
  6
CONTINUOUS
 10
2.973520
 20
5.190240
 11
2.988480
 21
5.196400
  0
LINE
  8
0
 62
     0
  6
CONTINUOUS
 10
2.988480
 20
5.196400
 11
2.971760
 21
5.196400
  0
LINE
  8
0
 62
     0
  6
CONTINUOUS
 10
2.971760
 20
5.196400
 11
2.988480
 21
5.196400
  0
LINE
  8
0
 62
     0
  6
CONTINUOUS
 10
2.988480
 20
5.196400
 11
2.973520
 21
5.202560
  0
LINE
  8
0
 62
     0
  6
CONTINUOUS
 10
2.973520
 20
5.202560
 11
2.988480
 21
5.196400
  0
LINE
  8
0
 62
     0
  6
CONTINUOUS
 10
2.988480
 20
5.196400
 11
2.976600
 21
5.208720
  0
LINE
  8
0
 62
     0
  6
CONTINUOUS
 10
2.976600
 20
5.208720
 11
2.988480
 21
5.196400
  0
LINE
  8
0
 62
     0
  6
CONTINUOUS
 10
2.988480
 20
5.196400
 11
2.982760
 21
5.211800
  0
LINE
  8
0
 62
     0
  6
CONTINUOUS
 10
2.982760
 20
5.211800
 11
2.988480
 21
5.196400
  0
LINE
  8
0
 62
     0
  6
CONTINUOUS
 10
2.988480
 20
5.196400
 11
2.988480
 21
5.213120
  0
LINE
  8
0
 62
     0
  6
CONTINUOUS
 10
2.988480
 20
5.213120
 11
2.988480
 21
5.196400
  0
LINE
  8
0
 62
     0
  6
CONTINUOUS
 10
2.988480
 20
5.196400
 11
2.994640
 21
5.211800
  0
LINE
  8
0
 62
     0
  6
CONTINUOUS
 10
2.994640
 20
5.211800
 11
2.988480
 21
5.196400
  0
LINE
  8
0
 62
     0
  6
CONTINUOUS
 10
2.988480
 20
5.196400
 11
3.000800
 21
5.208720
  0
LINE
  8
0
 62
     0
  6
CONTINUOUS
 10
3.000800
 20
5.208720
 11
2.988480
 21
5.196400
  0
LINE
  8
0
 62
     0
  6
CONTINUOUS
 10
2.988480
 20
5.196400
 11
3.003880
 21
5.202560
  0
LINE
  8
0
 62
     0
  6
CONTINUOUS
 10
3.003880
 20
5.202560
 11
3.000800
 21
5.208720
  0
LINE
  8
0
 62
     0
  6
CONTINUOUS
 10
3.000800
 20
5.208720
 11
2.994640
 21
5.211800
  0
LINE
  8
0
 62
     0
  6
CONTINUOUS
 10
2.994640
 20
5.211800
 11
2.988480
 21
5.213120
  0
LINE
  8
0
 62
     0
  6
CONTINUOUS
 10
2.988480
 20
5.213120
 11
2.988480
 21
5.196400
  0
LINE
  8
0
 62
     0
  6
CONTINUOUS
 10
2.988480
 20
5.196400
 11
2.988480
 21
5.179680
  0
LINE
  8
0
 62
     0
  6
CONTINUOUS
 10
2.988480
 20
5.179680
 11
2.994640
 21
5.181440
  0
LINE
  8
0
 62
     0
  6
CONTINUOUS
 10
2.994640
 20
5.181440
 11
3.000800
 21
5.184080
  0
LINE
  8
0
 62
     0
  6
CONTINUOUS
 10
3.000800
 20
5.184080
 11
3.003880
 21
5.190240
  0
LINE
  8
0
 62
     0
  6
CONTINUOUS
 10
3.003880
 20
5.190240
 11
3.005200
 21
5.196400
  0
LINE
  8
0
 62
     0
  6
CONTINUOUS
 10
3.005200
 20
5.196400
 11
3.003880
 21
5.202560
  0
LINE
  8
0
 62
     0
  6
CONTINUOUS
 10
3.003880
 20
5.202560
 11
3.002560
 21
5.203880
  0
LINE
  8
0
 62
     0
  6
CONTINUOUS
 10
3.002560
 20
5.203880
 11
2.994640
 21
5.203880
  0
LINE
  8
0
 62
     0
  6
CONTINUOUS
 10
2.991560
 20
5.198160
 11
3.005200
 21
5.198160
  0
LINE
  8
0
 62
     0
  6
CONTINUOUS
 10
2.985840
 20
5.198160
 11
2.971760
 21
5.198160
  0
LINE
  8
0
 62
     0
  6
CONTINUOUS
 10
2.971760
 20
5.198160
 11
2.971760
 21
5.196400
  0
LINE
  8
0
 62
     0
  6
CONTINUOUS
 10
2.971760
 20
5.196400
 11
2.973520
 21
5.190240
  0
LINE
  8
0
 62
     0
  6
CONTINUOUS
 10
2.973520
 20
5.190240
 11
2.976600
 21
5.184080
  0
LINE
  8
0
 62
     0
  6
CONTINUOUS
 10
2.976600
 20
5.184080
 11
2.982760
 21
5.181440
  0
LINE
  8
0
 62
     0
  6
CONTINUOUS
 10
2.982760
 20
5.181440
 11
2.988480
 21
5.179680
  0
LINE
  8
0
 62
     0
  6
CONTINUOUS
 10
2.981000
 20
5.181440
 11
2.981000
 21
5.188920
  0
LINE
  8
0
 62
     0
  6
CONTINUOUS
 10
2.981000
 20
5.203880
 11
2.981000
 21
5.211800
  0
LINE
  8
0
 62
     0
  6
CONTINUOUS
 10
2.981000
 20
5.211800
 11
2.982760
 21
5.211800
  0
LINE
  8
0
 62
     0
  6
CONTINUOUS
 10
2.982760
 20
5.211800
 11
2.976600
 21
5.208720
  0
LINE
  8
0
 62
     0
  6
CONTINUOUS
 10
2.976600
 20
5.208720
 11
2.973520
 21
5.202560
  0
LINE
  8
0
 62
     0
  6
CONTINUOUS
 10
2.973520
 20
5.202560
 11
2.971760
 21
5.196400
  0
LINE
  8
0
 62
     0
  6
CONTINUOUS
 10
2.973520
 20
5.203880
 11
2.981000
 21
5.203880
  0
LINE
  8
0
 62
     0
  6
CONTINUOUS
 10
2.982760
 20
5.211800
 11
2.988480
 21
5.213120
  0
LINE
  8
0
 62
     0
  6
CONTINUOUS
 10
2.909720
 20
5.208720
 11
2.898720
 21
5.196400
  0
LINE
  8
0
 62
     0
  6
CONTINUOUS
 10
2.898720
 20
5.196400
 11
2.914120
 21
5.202560
  0
LINE
  8
0
 62
     0
  6
CONTINUOUS
 10
2.914120
 20
5.202560
 11
2.898720
 21
5.196400
  0
LINE
  8
0
 62
     0
  6
CONTINUOUS
 10
2.898720
 20
5.196400
 11
2.914120
 21
5.196400
  0
LINE
  8
0
 62
     0
  6
CONTINUOUS
 10
2.914120
 20
5.196400
 11
2.898720
 21
5.196400
  0
LINE
  8
0
 62
     0
  6
CONTINUOUS
 10
2.898720
 20
5.196400
 11
2.914120
 21
5.190240
  0
LINE
  8
0
 62
     0
  6
CONTINUOUS
 10
2.914120
 20
5.190240
 11
2.898720
 21
5.196400
  0
LINE
  8
0
 62
     0
  6
CONTINUOUS
 10
2.898720
 20
5.196400
 11
2.909720
 21
5.184080
  0
LINE
  8
0
 62
     0
  6
CONTINUOUS
 10
2.909720
 20
5.184080
 11
2.898720
 21
5.196400
  0
LINE
  8
0
 62
     0
  6
CONTINUOUS
 10
2.898720
 20
5.196400
 11
2.904880
 21
5.181440
  0
LINE
  8
0
 62
     0
  6
CONTINUOUS
 10
2.904880
 20
5.181440
 11
2.898720
 21
5.196400
  0
LINE
  8
0
 62
     0
  6
CONTINUOUS
 10
2.898720
 20
5.196400
 11
2.898720
 21
5.179680
  0
LINE
  8
0
 62
     0
  6
CONTINUOUS
 10
2.898720
 20
5.179680
 11
2.898720
 21
5.196400
  0
LINE
  8
0
 62
     0
  6
CONTINUOUS
 10
2.898720
 20
5.196400
 11
2.891240
 21
5.181440
  0
LINE
  8
0
 62
     0
  6
CONTINUOUS
 10
2.891240
 20
5.181440
 11
2.898720
 21
5.196400
  0
LINE
  8
0
 62
     0
  6
CONTINUOUS
 10
2.898720
 20
5.196400
 11
2.885080
 21
5.184080
  0
LINE
  8
0
 62
     0
  6
CONTINUOUS
 10
2.885080
 20
5.184080
 11
2.898720
 21
5.196400
  0
LINE
  8
0
 62
     0
  6
CONTINUOUS
 10
2.898720
 20
5.196400
 11
2.882000
 21
5.190240
  0
LINE
  8
0
 62
     0
  6
CONTINUOUS
 10
2.882000
 20
5.190240
 11
2.898720
 21
5.196400
  0
LINE
  8
0
 62
     0
  6
CONTINUOUS
 10
2.898720
 20
5.196400
 11
2.880680
 21
5.196400
  0
LINE
  8
0
 62
     0
  6
CONTINUOUS
 10
2.880680
 20
5.196400
 11
2.898720
 21
5.196400
  0
LINE
  8
0
 62
     0
  6
CONTINUOUS
 10
2.898720
 20
5.196400
 11
2.882000
 21
5.202560
  0
LINE
  8
0
 62
     0
  6
CONTINUOUS
 10
2.882000
 20
5.202560
 11
2.898720
 21
5.196400
  0
LINE
  8
0
 62
     0
  6
CONTINUOUS
 10
2.898720
 20
5.196400
 11
2.885080
 21
5.208720
  0
LINE
  8
0
 62
     0
  6
CONTINUOUS
 10
2.885080
 20
5.208720
 11
2.898720
 21
5.196400
  0
LINE
  8
0
 62
     0
  6
CONTINUOUS
 10
2.898720
 20
5.196400
 11
2.891240
 21
5.211800
  0
LINE
  8
0
 62
     0
  6
CONTINUOUS
 10
2.891240
 20
5.211800
 11
2.898720
 21
5.196400
  0
LINE
  8
0
 62
     0
  6
CONTINUOUS
 10
2.898720
 20
5.196400
 11
2.898720
 21
5.213120
  0
LINE
  8
0
 62
     0
  6
CONTINUOUS
 10
2.898720
 20
5.213120
 11
2.898720
 21
5.196400
  0
LINE
  8
0
 62
     0
  6
CONTINUOUS
 10
2.898720
 20
5.196400
 11
2.904880
 21
5.211800
  0
LINE
  8
0
 62
     0
  6
CONTINUOUS
 10
2.904880
 20
5.211800
 11
2.904880
 21
5.202560
  0
LINE
  8
0
 62
     0
  6
CONTINUOUS
 10
2.904880
 20
5.202560
 11
2.904880
 21
5.203880
  0
LINE
  8
0
 62
     0
  6
CONTINUOUS
 10
2.904880
 20
5.203880
 11
2.912800
 21
5.203880
  0
LINE
  8
0
 62
     0
  6
CONTINUOUS
 10
2.912800
 20
5.203880
 11
2.914120
 21
5.202560
  0
LINE
  8
0
 62
     0
  6
CONTINUOUS
 10
2.914120
 20
5.202560
 11
2.909720
 21
5.208720
  0
LINE
  8
0
 62
     0
  6
CONTINUOUS
 10
2.909720
 20
5.208720
 11
2.904880
 21
5.211800
  0
LINE
  8
0
 62
     0
  6
CONTINUOUS
 10
2.904880
 20
5.211800
 11
2.898720
 21
5.196400
  0
LINE
  8
0
 62
     0
  6
CONTINUOUS
 10
2.898720
 20
5.196400
 11
2.909720
 21
5.208720
  0
LINE
  8
0
 62
     0
  6
CONTINUOUS
 10
2.904880
 20
5.211800
 11
2.898720
 21
5.213120
  0
LINE
  8
0
 62
     0
  6
CONTINUOUS
 10
2.898720
 20
5.213120
 11
2.898720
 21
5.196400
  0
LINE
  8
0
 62
     0
  6
CONTINUOUS
 10
2.898720
 20
5.196400
 11
2.898720
 21
5.179680
  0
LINE
  8
0
 62
     0
  6
CONTINUOUS
 10
2.898720
 20
5.179680
 11
2.904880
 21
5.181440
  0
LINE
  8
0
 62
     0
  6
CONTINUOUS
 10
2.904880
 20
5.181440
 11
2.909720
 21
5.184080
  0
LINE
  8
0
 62
     0
  6
CONTINUOUS
 10
2.909720
 20
5.184080
 11
2.914120
 21
5.190240
  0
LINE
  8
0
 62
     0
  6
CONTINUOUS
 10
2.914120
 20
5.190240
 11
2.914120
 21
5.196400
  0
LINE
  8
0
 62
     0
  6
CONTINUOUS
 10
2.914120
 20
5.196400
 11
2.914120
 21
5.202560
  0
LINE
  8
0
 62
     0
  6
CONTINUOUS
 10
2.914120
 20
5.198160
 11
2.900480
 21
5.198160
  0
LINE
  8
0
 62
     0
  6
CONTINUOUS
 10
2.900480
 20
5.198160
 11
2.898720
 21
5.198160
  0
LINE
  8
0
 62
     0
  6
CONTINUOUS
 10
2.898720
 20
5.198160
 11
2.898720
 21
5.213120
  0
LINE
  8
0
 62
     0
  6
CONTINUOUS
 10
2.898720
 20
5.213120
 11
2.891240
 21
5.211800
  0
LINE
  8
0
 62
     0
  6
CONTINUOUS
 10
2.891240
 20
5.211800
 11
2.885080
 21
5.208720
  0
LINE
  8
0
 62
     0
  6
CONTINUOUS
 10
2.885080
 20
5.208720
 11
2.882000
 21
5.202560
  0
LINE
  8
0
 62
     0
  6
CONTINUOUS
 10
2.882000
 20
5.202560
 11
2.880680
 21
5.196400
  0
LINE
  8
0
 62
     0
  6
CONTINUOUS
 10
2.880680
 20
5.196400
 11
2.882000
 21
5.190240
  0
LINE
  8
0
 62
     0
  6
CONTINUOUS
 10
2.882000
 20
5.190240
 11
2.885080
 21
5.184080
  0
LINE
  8
0
 62
     0
  6
CONTINUOUS
 10
2.885080
 20
5.184080
 11
2.891240
 21
5.181440
  0
LINE
  8
0
 62
     0
  6
CONTINUOUS
 10
2.891240
 20
5.181440
 11
2.898720
 21
5.179680
  0
LINE
  8
0
 62
     0
  6
CONTINUOUS
 10
2.898720
 20
5.179680
 11
2.898720
 21
5.195080
  0
LINE
  8
0
 62
     0
  6
CONTINUOUS
 10
2.898720
 20
5.195080
 11
2.894320
 21
5.198160
  0
LINE
  8
0
 62
     0
  6
CONTINUOUS
 10
2.894320
 20
5.198160
 11
2.880680
 21
5.198160
  0
LINE
  8
0
 62
     0
  6
CONTINUOUS
 10
2.883760
 20
5.203880
 11
2.891240
 21
5.203880
  0
LINE
  8
0
 62
     0
  6
CONTINUOUS
 10
2.904880
 20
5.190240
 11
2.904880
 21
5.181440
  0
LINE
  8
0
 62
     0
  6
CONTINUOUS
 10
2.930840
 20
5.080680
 11
3.032920
 21
5.294080
  0
LINE
  8
0
 62
     0
  6
CONTINUOUS
 10
2.943160
 20
5.294080
 11
2.841080
 21
5.080680
  0
LINE
  8
0
 62
     0
  6
CONTINUOUS
 10
3.037320
 20
5.080680
 11
3.139400
 21
5.294080
  0
LINE
  8
0
 62
     0
  6
CONTINUOUS
 10
2.812040
 20
5.395720
 11
2.812040
 21
4.581720
  0
LINE
  8
0
 62
     0
  6
CONTINUOUS
 10
2.812040
 20
4.581720
 11
3.098040
 21
4.867720
  0
LINE
  8
0
 62
     0
  6
CONTINUOUS
 10
3.098040
 20
4.867720
 11
3.366000
 21
4.581720
  0
LINE
  8
0
 62
     0
  6
CONTINUOUS
 10
3.366000
 20
4.581720
 11
3.366000
 21
5.395720
  0
LINE
  8
0
 62
     0
  6
CONTINUOUS
 10
3.117840
 20
4.770480
 11
3.087480
 21
4.722960
  0
LINE
  8
0
 62
     0
  6
CONTINUOUS
 10
3.078680
 20
4.722960
 11
3.069440
 21
4.748920
  0
LINE
  8
0
 62
     0
  6
CONTINUOUS
 10
3.069440
 20
4.748920
 11
3.073840
 21
4.748920
  0
LINE
  8
0
 62
     0
  6
CONTINUOUS
 10
3.073840
 20
4.748920
 11
3.052720
 21
4.748920
  0
LINE
  8
0
 62
     0
  6
CONTINUOUS
 10
3.073840
 20
4.748920
 11
3.081320
 21
4.750680
  0
LINE
  8
0
 62
     0
  6
CONTINUOUS
 10
3.081320
 20
4.750680
 11
3.083080
 21
4.753320
  0
LINE
  8
0
 62
     0
  6
CONTINUOUS
 10
3.058880
 20
4.770480
 11
3.046560
 21
4.722960
  0
LINE
  8
0
 62
     0
  6
CONTINUOUS
 10
3.098040
 20
4.739680
 11
3.120920
 21
4.739680
  0
LINE
  8
0
 62
     0
  6
CONTINUOUS
 10
3.124000
 20
4.722960
 11
3.117840
 21
4.770480
  0
LINE
  8
0
 62
     0
  6
CONTINUOUS
 10
1.972520
 20
5.663680
 11
1.684760
 21
5.395720
  0
LINE
  8
0
 62
     0
  6
CONTINUOUS
 10
1.684760
 20
5.395720
 11
2.812040
 21
5.395720
  0
LINE
  8
0
 62
     0
  6
CONTINUOUS
 10
2.830520
 20
5.196400
 11
2.966040
 21
5.196400
  0
LINE
  8
0
 62
     0
  6
CONTINUOUS
 10
3.037320
 20
5.196400
 11
3.174160
 21
5.196400
  0
LINE
  8
0
 62
     0
  6
CONTINUOUS
 10
3.242800
 20
5.196400
 11
3.393720
 21
5.196400
  0
LINE
  8
0
 62
     0
  6
CONTINUOUS
 10
1.972520
 20
5.663680
 11
1.684760
 21
5.949680
  0
LINE
  8
0
 62
     0
  6
CONTINUOUS
 10
1.684760
 20
5.949680
 11
6.673040
 21
5.949680
  0
LINE
  8
0
 62
     0
  6
CONTINUOUS
 10
6.433240
 20
5.961560
 11
6.119960
 21
5.961560
  0
LINE
  8
0
 62
     0
  6
CONTINUOUS
 10
6.119960
 20
5.961560
 11
6.119960
 21
6.078600
  0
LINE
  8
0
 62
     0
  6
CONTINUOUS
 10
6.119960
 20
6.078600
 11
6.112480
 21
6.078600
  0
LINE
  8
0
 62
     0
  6
CONTINUOUS
 10
6.112480
 20
6.078600
 11
6.119960
 21
6.094000
  0
LINE
  8
0
 62
     0
  6
CONTINUOUS
 10
6.119960
 20
6.094000
 11
6.433240
 21
6.094000
  0
LINE
  8
0
 62
     0
  6
CONTINUOUS
 10
6.433240
 20
6.094000
 11
6.440720
 21
6.078600
  0
LINE
  8
0
 62
     0
  6
CONTINUOUS
 10
6.440720
 20
6.078600
 11
6.433240
 21
6.078600
  0
LINE
  8
0
 62
     0
  6
CONTINUOUS
 10
6.433240
 20
6.078600
 11
6.433240
 21
5.961560
  0
LINE
  8
0
 62
     0
  6
CONTINUOUS
 10
6.390560
 20
5.998080
 11
6.396720
 21
6.004240
  0
LINE
  8
0
 62
     0
  6
CONTINUOUS
 10
6.396720
 20
6.004240
 11
6.398040
 21
6.011720
  0
LINE
  8
0
 62
     0
  6
CONTINUOUS
 10
6.398040
 20
6.011720
 11
6.401120
 21
6.019200
  0
LINE
  8
0
 62
     0
  6
CONTINUOUS
 10
6.401120
 20
6.019200
 11
6.398040
 21
6.027120
  0
LINE
  8
0
 62
     0
  6
CONTINUOUS
 10
6.398040
 20
6.027120
 11
6.396720
 21
6.034600
  0
LINE
  8
0
 62
     0
  6
CONTINUOUS
 10
6.396720
 20
6.034600
 11
6.390560
 21
6.040760
  0
LINE
  8
0
 62
     0
  6
CONTINUOUS
 10
6.390560
 20
6.040760
 11
6.384400
 21
6.046480
  0
LINE
  8
0
 62
     0
  6
CONTINUOUS
 10
6.384400
 20
6.046480
 11
6.378680
 21
6.048240
  0
LINE
  8
0
 62
     0
  6
CONTINUOUS
 10
6.378680
 20
6.048240
 11
6.369440
 21
6.049560
  0
LINE
  8
0
 62
     0
  6
CONTINUOUS
 10
6.369440
 20
6.049560
 11
6.361520
 21
6.048240
  0
LINE
  8
0
 62
     0
  6
CONTINUOUS
 10
6.361520
 20
6.048240
 11
6.354040
 21
6.046480
  0
LINE
  8
0
 62
     0
  6
CONTINUOUS
 10
6.354040
 20
6.046480
 11
6.347880
 21
6.040760
  0
LINE
  8
0
 62
     0
  6
CONTINUOUS
 10
6.347880
 20
6.040760
 11
6.343480
 21
6.034600
  0
LINE
  8
0
 62
     0
  6
CONTINUOUS
 10
6.343480
 20
6.034600
 11
6.340400
 21
6.027120
  0
LINE
  8
0
 62
     0
  6
CONTINUOUS
 10
6.340400
 20
6.027120
 11
6.339080
 21
6.019200
  0
LINE
  8
0
 62
     0
  6
CONTINUOUS
 10
6.339080
 20
6.019200
 11
6.340400
 21
6.011720
  0
LINE
  8
0
 62
     0
  6
CONTINUOUS
 10
6.340400
 20
6.011720
 11
6.343480
 21
6.004240
  0
LINE
  8
0
 62
     0
  6
CONTINUOUS
 10
6.343480
 20
6.004240
 11
6.347880
 21
5.998080
  0
LINE
  8
0
 62
     0
  6
CONTINUOUS
 10
6.347880
 20
5.998080
 11
6.354040
 21
5.993240
  0
LINE
  8
0
 62
     0
  6
CONTINUOUS
 10
6.354040
 20
5.993240
 11
6.361520
 21
5.990160
  0
LINE
  8
0
 62
     0
  6
CONTINUOUS
 10
6.378680
 20
5.990160
 11
6.384400
 21
5.993240
  0
LINE
  8
0
 62
     0
  6
CONTINUOUS
 10
6.384400
 20
5.993240
 11
6.390560
 21
5.998080
  0
LINE
  8
0
 62
     0
  6
CONTINUOUS
 10
6.298160
 20
5.998080
 11
6.303000
 21
6.004240
  0
LINE
  8
0
 62
     0
  6
CONTINUOUS
 10
6.303000
 20
6.004240
 11
6.305640
 21
6.011720
  0
LINE
  8
0
 62
     0
  6
CONTINUOUS
 10
6.305640
 20
6.011720
 11
6.307400
 21
6.019200
  0
LINE
  8
0
 62
     0
  6
CONTINUOUS
 10
6.307400
 20
6.019200
 11
6.305640
 21
6.027120
  0
LINE
  8
0
 62
     0
  6
CONTINUOUS
 10
6.305640
 20
6.027120
 11
6.303000
 21
6.034600
  0
LINE
  8
0
 62
     0
  6
CONTINUOUS
 10
6.303000
 20
6.034600
 11
6.298160
 21
6.040760
  0
LINE
  8
0
 62
     0
  6
CONTINUOUS
 10
6.298160
 20
6.040760
 11
6.290680
 21
6.046480
  0
LINE
  8
0
 62
     0
  6
CONTINUOUS
 10
6.290680
 20
6.046480
 11
6.284520
 21
6.048240
  0
LINE
  8
0
 62
     0
  6
CONTINUOUS
 10
6.284520
 20
6.048240
 11
6.275280
 21
6.049560
  0
LINE
  8
0
 62
     0
  6
CONTINUOUS
 10
6.275280
 20
6.049560
 11
6.267800
 21
6.048240
  0
LINE
  8
0
 62
     0
  6
CONTINUOUS
 10
6.267800
 20
6.048240
 11
6.260320
 21
6.046480
  0
LINE
  8
0
 62
     0
  6
CONTINUOUS
 10
6.260320
 20
6.046480
 11
6.254160
 21
6.040760
  0
LINE
  8
0
 62
     0
  6
CONTINUOUS
 10
6.254160
 20
6.040760
 11
6.251080
 21
6.034600
  0
LINE
  8
0
 62
     0
  6
CONTINUOUS
 10
6.251080
 20
6.034600
 11
6.246680
 21
6.027120
  0
LINE
  8
0
 62
     0
  6
CONTINUOUS
 10
6.246680
 20
6.027120
 11
6.244920
 21
6.019200
  0
LINE
  8
0
 62
     0
  6
CONTINUOUS
 10
6.244920
 20
6.019200
 11
6.246680
 21
6.011720
  0
LINE
  8
0
 62
     0
  6
CONTINUOUS
 10
6.246680
 20
6.011720
 11
6.251080
 21
6.004240
  0
LINE
  8
0
 62
     0
  6
CONTINUOUS
 10
6.251080
 20
6.004240
 11
6.254160
 21
5.998080
  0
LINE
  8
0
 62
     0
  6
CONTINUOUS
 10
6.254160
 20
5.998080
 11
6.260320
 21
5.993240
  0
LINE
  8
0
 62
     0
  6
CONTINUOUS
 10
6.260320
 20
5.993240
 11
6.267800
 21
5.990160
  0
LINE
  8
0
 62
     0
  6
CONTINUOUS
 10
6.284520
 20
5.990160
 11
6.290680
 21
5.993240
  0
LINE
  8
0
 62
     0
  6
CONTINUOUS
 10
6.290680
 20
5.993240
 11
6.298160
 21
5.998080
  0
LINE
  8
0
 62
     0
  6
CONTINUOUS
 10
6.301240
 20
5.952320
 11
6.301240
 21
5.932520
  0
LINE
  8
0
 62
     0
  6
CONTINUOUS
 10
6.301240
 20
5.932520
 11
6.307400
 21
5.929440
  0
LINE
  8
0
 62
     0
  6
CONTINUOUS
 10
6.307400
 20
5.929440
 11
6.301240
 21
5.926360
  0
LINE
  8
0
 62
     0
  6
CONTINUOUS
 10
6.301240
 20
5.926360
 11
6.307400
 21
5.921960
  0
LINE
  8
0
 62
     0
  6
CONTINUOUS
 10
6.307400
 20
5.921960
 11
6.301240
 21
5.917120
  0
LINE
  8
0
 62
     0
  6
CONTINUOUS
 10
6.301240
 20
5.917120
 11
6.307400
 21
5.914480
  0
LINE
  8
0
 62
     0
  6
CONTINUOUS
 10
6.307400
 20
5.914480
 11
6.301240
 21
5.911400
  0
LINE
  8
0
 62
     0
  6
CONTINUOUS
 10
6.301240
 20
5.911400
 11
6.307400
 21
5.906560
  0
LINE
  8
0
 62
     0
  6
CONTINUOUS
 10
6.307400
 20
5.906560
 11
6.301240
 21
5.903480
  0
LINE
  8
0
 62
     0
  6
CONTINUOUS
 10
6.301240
 20
5.903480
 11
6.307400
 21
5.899080
  0
LINE
  8
0
 62
     0
  6
CONTINUOUS
 10
6.307400
 20
5.899080
 11
6.301240
 21
5.896000
  0
LINE
  8
0
 62
     0
  6
CONTINUOUS
 10
6.301240
 20
5.896000
 11
6.252400
 21
5.896000
  0
LINE
  8
0
 62
     0
  6
CONTINUOUS
 10
6.252400
 20
5.896000
 11
6.244920
 21
5.899080
  0
LINE
  8
0
 62
     0
  6
CONTINUOUS
 10
6.244920
 20
5.899080
 11
6.252400
 21
5.903480
  0
LINE
  8
0
 62
     0
  6
CONTINUOUS
 10
6.252400
 20
5.903480
 11
6.244920
 21
5.906560
  0
LINE
  8
0
 62
     0
  6
CONTINUOUS
 10
6.244920
 20
5.906560
 11
6.252400
 21
5.911400
  0
LINE
  8
0
 62
     0
  6
CONTINUOUS
 10
6.252400
 20
5.911400
 11
6.244920
 21
5.914480
  0
LINE
  8
0
 62
     0
  6
CONTINUOUS
 10
6.244920
 20
5.914480
 11
6.252400
 21
5.917120
  0
LINE
  8
0
 62
     0
  6
CONTINUOUS
 10
6.252400
 20
5.917120
 11
6.244920
 21
5.921960
  0
LINE
  8
0
 62
     0
  6
CONTINUOUS
 10
6.244920
 20
5.921960
 11
6.252400
 21
5.926360
  0
LINE
  8
0
 62
     0
  6
CONTINUOUS
 10
6.252400
 20
5.926360
 11
6.244920
 21
5.929440
  0
LINE
  8
0
 62
     0
  6
CONTINUOUS
 10
6.244920
 20
5.929440
 11
6.252400
 21
5.932520
  0
LINE
  8
0
 62
     0
  6
CONTINUOUS
 10
6.252400
 20
5.932520
 11
6.254160
 21
5.933840
  0
LINE
  8
0
 62
     0
  6
CONTINUOUS
 10
6.254160
 20
5.933840
 11
6.257240
 21
5.932520
  0
LINE
  8
0
 62
     0
  6
CONTINUOUS
 10
6.257240
 20
5.932520
 11
6.254160
 21
5.933840
  0
LINE
  8
0
 62
     0
  6
CONTINUOUS
 10
6.254160
 20
5.933840
 11
6.252400
 21
5.936920
  0
LINE
  8
0
 62
     0
  6
CONTINUOUS
 10
6.252400
 20
5.936920
 11
6.252400
 21
5.953640
  0
LINE
  8
0
 62
     0
  6
CONTINUOUS
 10
6.252400
 20
5.953640
 11
6.266480
 21
5.952320
  0
LINE
  8
0
 62
     0
  6
CONTINUOUS
 10
6.266480
 20
5.952320
 11
6.266480
 21
5.932520
  0
LINE
  8
0
 62
     0
  6
CONTINUOUS
 10
6.266480
 20
5.947920
 11
6.287600
 21
5.947920
  0
LINE
  8
0
 62
     0
  6
CONTINUOUS
 10
6.287600
 20
5.953640
 11
6.301240
 21
5.952320
  0
LINE
  8
0
 62
     0
  6
CONTINUOUS
 10
6.301240
 20
5.952320
 11
6.301240
 21
5.947920
  0
LINE
  8
0
 62
     0
  6
CONTINUOUS
 10
6.301240
 20
5.947920
 11
6.317960
 21
5.947920
  0
LINE
  8
0
 62
     0
  6
CONTINUOUS
 10
6.317960
 20
5.947920
 11
6.325440
 21
5.953640
  0
LINE
  8
0
 62
     0
  6
CONTINUOUS
 10
6.325440
 20
5.953640
 11
6.333360
 21
5.938680
  0
LINE
  8
0
 62
     0
  6
CONTINUOUS
 10
6.333360
 20
5.938680
 11
6.317960
 21
5.932520
  0
LINE
  8
0
 62
     0
  6
CONTINUOUS
 10
6.317960
 20
5.932520
 11
6.234360
 21
5.932520
  0
LINE
  8
0
 62
     0
  6
CONTINUOUS
 10
6.234360
 20
5.932520
 11
6.232600
 21
5.932520
  0
LINE
  8
0
 62
     0
  6
CONTINUOUS
 10
6.232600
 20
5.932520
 11
6.217640
 21
5.938680
  0
LINE
  8
0
 62
     0
  6
CONTINUOUS
 10
6.217640
 20
5.938680
 11
6.225120
 21
5.953640
  0
LINE
  8
0
 62
     0
  6
CONTINUOUS
 10
6.225120
 20
5.953640
 11
6.234360
 21
5.947920
  0
LINE
  8
0
 62
     0
  6
CONTINUOUS
 10
6.234360
 20
5.947920
 11
6.252400
 21
5.947920
  0
LINE
  8
0
 62
     0
  6
CONTINUOUS
 10
6.252400
 20
5.926360
 11
6.301240
 21
5.926360
  0
LINE
  8
0
 62
     0
  6
CONTINUOUS
 10
6.301240
 20
5.917120
 11
6.252400
 21
5.917120
  0
LINE
  8
0
 62
     0
  6
CONTINUOUS
 10
6.252400
 20
5.911400
 11
6.301240
 21
5.911400
  0
LINE
  8
0
 62
     0
  6
CONTINUOUS
 10
6.301240
 20
5.903480
 11
6.252400
 21
5.903480
  0
LINE
  8
0
 62
     0
  6
CONTINUOUS
 10
6.258560
 20
5.896000
 11
6.258560
 21
5.888520
  0
LINE
  8
0
 62
     0
  6
CONTINUOUS
 10
6.258560
 20
5.888520
 11
6.296840
 21
5.888520
  0
LINE
  8
0
 62
     0
  6
CONTINUOUS
 10
6.296840
 20
5.888520
 11
6.296840
 21
5.896000
  0
LINE
  8
0
 62
     0
  6
CONTINUOUS
 10
6.296840
 20
5.886760
 11
6.292000
 21
5.883680
  0
LINE
  8
0
 62
     0
  6
CONTINUOUS
 10
6.292000
 20
5.883680
 11
6.296840
 21
5.880600
  0
LINE
  8
0
 62
     0
  6
CONTINUOUS
 10
6.296840
 20
5.880600
 11
6.290680
 21
5.879280
  0
LINE
  8
0
 62
     0
  6
CONTINUOUS
 10
6.290680
 20
5.879280
 11
6.296840
 21
5.876200
  0
LINE
  8
0
 62
     0
  6
CONTINUOUS
 10
6.296840
 20
5.876200
 11
6.290680
 21
5.873120
  0
LINE
  8
0
 62
     0
  6
CONTINUOUS
 10
6.290680
 20
5.873120
 11
6.296840
 21
5.871800
  0
LINE
  8
0
 62
     0
  6
CONTINUOUS
 10
6.296840
 20
5.871800
 11
6.290680
 21
5.868720
  0
LINE
  8
0
 62
     0
  6
CONTINUOUS
 10
6.290680
 20
5.868720
 11
6.296840
 21
5.866960
  0
LINE
  8
0
 62
     0
  6
CONTINUOUS
 10
6.296840
 20
5.866960
 11
6.290680
 21
5.863880
  0
LINE
  8
0
 62
     0
  6
CONTINUOUS
 10
6.290680
 20
5.863880
 11
6.296840
 21
5.860800
  0
LINE
  8
0
 62
     0
  6
CONTINUOUS
 10
6.296840
 20
5.860800
 11
6.290680
 21
5.859480
  0
LINE
  8
0
 62
     0
  6
CONTINUOUS
 10
6.290680
 20
5.859480
 11
6.296840
 21
5.856400
  0
LINE
  8
0
 62
     0
  6
CONTINUOUS
 10
6.296840
 20
5.856400
 11
6.290680
 21
5.853320
  0
LINE
  8
0
 62
     0
  6
CONTINUOUS
 10
6.290680
 20
5.853320
 11
6.296840
 21
5.852000
  0
LINE
  8
0
 62
     0
  6
CONTINUOUS
 10
6.296840
 20
5.852000
 11
6.290680
 21
5.848920
  0
LINE
  8
0
 62
     0
  6
CONTINUOUS
 10
6.290680
 20
5.848920
 11
6.296840
 21
5.845840
  0
LINE
  8
0
 62
     0
  6
CONTINUOUS
 10
6.296840
 20
5.845840
 11
6.290680
 21
5.844080
  0
LINE
  8
0
 62
     0
  6
CONTINUOUS
 10
6.290680
 20
5.844080
 11
6.261640
 21
5.844080
  0
LINE
  8
0
 62
     0
  6
CONTINUOUS
 10
6.261640
 20
5.844080
 11
6.261640
 21
5.842760
  0
LINE
  8
0
 62
     0
  6
CONTINUOUS
 10
6.261640
 20
5.842760
 11
6.290680
 21
5.842760
  0
LINE
  8
0
 62
     0
  6
CONTINUOUS
 10
6.290680
 20
5.842760
 11
6.290680
 21
5.844080
  0
LINE
  8
0
 62
     0
  6
CONTINUOUS
 10
6.290680
 20
5.844080
 11
6.290680
 21
5.848920
  0
LINE
  8
0
 62
     0
  6
CONTINUOUS
 10
6.290680
 20
5.848920
 11
6.261640
 21
5.848920
  0
LINE
  8
0
 62
     0
  6
CONTINUOUS
 10
6.261640
 20
5.848920
 11
6.263400
 21
5.848920
  0
LINE
  8
0
 62
     0
  6
CONTINUOUS
 10
6.263400
 20
5.848920
 11
6.258560
 21
5.845840
  0
LINE
  8
0
 62
     0
  6
CONTINUOUS
 10
6.258560
 20
5.845840
 11
6.263400
 21
5.844080
  0
LINE
  8
0
 62
     0
  6
CONTINUOUS
 10
6.263400
 20
5.844080
 11
6.263400
 21
5.848920
  0
LINE
  8
0
 62
     0
  6
CONTINUOUS
 10
6.263400
 20
5.848920
 11
6.258560
 21
5.852000
  0
LINE
  8
0
 62
     0
  6
CONTINUOUS
 10
6.258560
 20
5.852000
 11
6.263400
 21
5.853320
  0
LINE
  8
0
 62
     0
  6
CONTINUOUS
 10
6.263400
 20
5.853320
 11
6.258560
 21
5.856400
  0
LINE
  8
0
 62
     0
  6
CONTINUOUS
 10
6.258560
 20
5.856400
 11
6.263400
 21
5.859480
  0
LINE
  8
0
 62
     0
  6
CONTINUOUS
 10
6.263400
 20
5.859480
 11
6.258560
 21
5.860800
  0
LINE
  8
0
 62
     0
  6
CONTINUOUS
 10
6.258560
 20
5.860800
 11
6.263400
 21
5.863880
  0
LINE
  8
0
 62
     0
  6
CONTINUOUS
 10
6.263400
 20
5.863880
 11
6.258560
 21
5.866960
  0
LINE
  8
0
 62
     0
  6
CONTINUOUS
 10
6.258560
 20
5.866960
 11
6.263400
 21
5.868720
  0
LINE
  8
0
 62
     0
  6
CONTINUOUS
 10
6.263400
 20
5.868720
 11
6.258560
 21
5.871800
  0
LINE
  8
0
 62
     0
  6
CONTINUOUS
 10
6.258560
 20
5.871800
 11
6.263400
 21
5.873120
  0
LINE
  8
0
 62
     0
  6
CONTINUOUS
 10
6.263400
 20
5.873120
 11
6.257240
 21
5.876200
  0
LINE
  8
0
 62
     0
  6
CONTINUOUS
 10
6.257240
 20
5.876200
 11
6.263400
 21
5.879280
  0
LINE
  8
0
 62
     0
  6
CONTINUOUS
 10
6.263400
 20
5.879280
 11
6.257240
 21
5.880600
  0
LINE
  8
0
 62
     0
  6
CONTINUOUS
 10
6.257240
 20
5.880600
 11
6.261640
 21
5.883680
  0
LINE
  8
0
 62
     0
  6
CONTINUOUS
 10
6.261640
 20
5.883680
 11
6.257240
 21
5.886760
  0
LINE
  8
0
 62
     0
  6
CONTINUOUS
 10
6.257240
 20
5.886760
 11
6.261640
 21
5.888520
  0
LINE
  8
0
 62
     0
  6
CONTINUOUS
 10
6.261640
 20
5.888520
 11
6.261640
 21
5.883680
  0
LINE
  8
0
 62
     0
  6
CONTINUOUS
 10
6.261640
 20
5.883680
 11
6.292000
 21
5.883680
  0
LINE
  8
0
 62
     0
  6
CONTINUOUS
 10
6.292000
 20
5.883680
 11
6.292000
 21
5.888520
  0
LINE
  8
0
 62
     0
  6
CONTINUOUS
 10
6.292000
 20
5.888520
 11
6.296840
 21
5.886760
  0
LINE
  8
0
 62
     0
  6
CONTINUOUS
 10
6.290680
 20
5.879280
 11
6.261640
 21
5.879280
  0
LINE
  8
0
 62
     0
  6
CONTINUOUS
 10
6.261640
 20
5.879280
 11
6.261640
 21
5.873120
  0
LINE
  8
0
 62
     0
  6
CONTINUOUS
 10
6.261640
 20
5.873120
 11
6.290680
 21
5.873120
  0
LINE
  8
0
 62
     0
  6
CONTINUOUS
 10
6.290680
 20
5.873120
 11
6.290680
 21
5.868720
  0
LINE
  8
0
 62
     0
  6
CONTINUOUS
 10
6.290680
 20
5.868720
 11
6.261640
 21
5.868720
  0
LINE
  8
0
 62
     0
  6
CONTINUOUS
 10
6.261640
 20
5.868720
 11
6.261640
 21
5.863880
  0
LINE
  8
0
 62
     0
  6
CONTINUOUS
 10
6.261640
 20
5.863880
 11
6.290680
 21
5.863880
  0
LINE
  8
0
 62
     0
  6
CONTINUOUS
 10
6.290680
 20
5.863880
 11
6.290680
 21
5.859480
  0
LINE
  8
0
 62
     0
  6
CONTINUOUS
 10
6.290680
 20
5.859480
 11
6.261640
 21
5.859480
  0
LINE
  8
0
 62
     0
  6
CONTINUOUS
 10
6.261640
 20
5.859480
 11
6.261640
 21
5.853320
  0
LINE
  8
0
 62
     0
  6
CONTINUOUS
 10
6.261640
 20
5.853320
 11
6.290680
 21
5.853320
  0
LINE
  8
0
 62
     0
  6
CONTINUOUS
 10
6.287600
 20
5.842760
 11
6.287600
 21
5.787760
  0
LINE
  8
0
 62
     0
  6
CONTINUOUS
 10
6.287600
 20
5.787760
 11
6.287600
 21
5.608240
  0
LINE
  8
0
 62
     0
  6
CONTINUOUS
 10
6.287600
 20
5.608240
 11
6.285840
 21
5.602080
  0
LINE
  8
0
 62
     0
  6
CONTINUOUS
 10
6.285840
 20
5.602080
 11
6.281440
 21
5.599000
  0
LINE
  8
0
 62
     0
  6
CONTINUOUS
 10
6.281440
 20
5.599000
 11
6.277040
 21
5.597680
  0
LINE
  8
0
 62
     0
  6
CONTINUOUS
 10
6.277040
 20
5.597680
 11
6.272200
 21
5.599000
  0
LINE
  8
0
 62
     0
  6
CONTINUOUS
 10
6.272200
 20
5.599000
 11
6.267800
 21
5.602080
  0
LINE
  8
0
 62
     0
  6
CONTINUOUS
 10
6.267800
 20
5.602080
 11
6.266480
 21
5.606920
  0
LINE
  8
0
 62
     0
  6
CONTINUOUS
 10
6.266480
 20
5.606920
 11
6.266480
 21
5.608240
  0
LINE
  8
0
 62
     0
  6
CONTINUOUS
 10
6.266480
 20
5.608240
 11
6.266480
 21
5.787760
  0
LINE
  8
0
 62
     0
  6
CONTINUOUS
 10
6.266480
 20
5.787760
 11
6.266480
 21
5.842760
  0
LINE
  8
0
 62
     0
  6
CONTINUOUS
 10
6.288920
 20
5.933840
 11
6.290680
 21
5.932520
  0
LINE
  8
0
 62
     0
  6
CONTINUOUS
 10
6.290680
 20
5.932520
 11
6.288920
 21
5.933840
  0
LINE
  8
0
 62
     0
  6
CONTINUOUS
 10
6.288920
 20
5.933840
 11
6.287600
 21
5.936920
  0
LINE
  8
0
 62
     0
  6
CONTINUOUS
 10
6.287600
 20
5.936920
 11
6.287600
 21
5.953640
  0
LINE
  8
0
 62
     0
  6
CONTINUOUS
 10
6.334680
 20
5.961560
 11
6.217640
 21
5.961560
  0
LINE
  8
0
 62
     0
  6
CONTINUOUS
 10
6.217640
 20
5.961560
 11
6.334680
 21
5.961560
  0
LINE
  8
0
 62
     0
  6
CONTINUOUS
 10
6.194760
 20
5.998080
 11
6.200920
 21
6.004240
  0
LINE
  8
0
 62
     0
  6
CONTINUOUS
 10
6.200920
 20
6.004240
 11
6.202240
 21
6.011720
  0
LINE
  8
0
 62
     0
  6
CONTINUOUS
 10
6.202240
 20
6.011720
 11
6.204000
 21
6.019200
  0
LINE
  8
0
 62
     0
  6
CONTINUOUS
 10
6.204000
 20
6.019200
 11
6.202240
 21
6.027120
  0
LINE
  8
0
 62
     0
  6
CONTINUOUS
 10
6.202240
 20
6.027120
 11
6.200920
 21
6.034600
  0
LINE
  8
0
 62
     0
  6
CONTINUOUS
 10
6.200920
 20
6.034600
 11
6.194760
 21
6.040760
  0
LINE
  8
0
 62
     0
  6
CONTINUOUS
 10
6.194760
 20
6.040760
 11
6.190360
 21
6.046480
  0
LINE
  8
0
 62
     0
  6
CONTINUOUS
 10
6.190360
 20
6.046480
 11
6.182440
 21
6.048240
  0
LINE
  8
0
 62
     0
  6
CONTINUOUS
 10
6.182440
 20
6.048240
 11
6.173640
 21
6.049560
  0
LINE
  8
0
 62
     0
  6
CONTINUOUS
 10
6.173640
 20
6.049560
 11
6.165720
 21
6.048240
  0
LINE
  8
0
 62
     0
  6
CONTINUOUS
 10
6.165720
 20
6.048240
 11
6.158240
 21
6.046480
  0
LINE
  8
0
 62
     0
  6
CONTINUOUS
 10
6.158240
 20
6.046480
 11
6.152080
 21
6.040760
  0
LINE
  8
0
 62
     0
  6
CONTINUOUS
 10
6.152080
 20
6.040760
 11
6.147680
 21
6.034600
  0
LINE
  8
0
 62
     0
  6
CONTINUOUS
 10
6.147680
 20
6.034600
 11
6.144600
 21
6.027120
  0
LINE
  8
0
 62
     0
  6
CONTINUOUS
 10
6.144600
 20
6.027120
 11
6.142840
 21
6.019200
  0
LINE
  8
0
 62
     0
  6
CONTINUOUS
 10
6.142840
 20
6.019200
 11
6.144600
 21
6.011720
  0
LINE
  8
0
 62
     0
  6
CONTINUOUS
 10
6.144600
 20
6.011720
 11
6.147680
 21
6.004240
  0
LINE
  8
0
 62
     0
  6
CONTINUOUS
 10
6.147680
 20
6.004240
 11
6.152080
 21
5.998080
  0
LINE
  8
0
 62
     0
  6
CONTINUOUS
 10
6.152080
 20
5.998080
 11
6.158240
 21
5.993240
  0
LINE
  8
0
 62
     0
  6
CONTINUOUS
 10
6.158240
 20
5.993240
 11
6.165720
 21
5.990160
  0
LINE
  8
0
 62
     0
  6
CONTINUOUS
 10
6.182440
 20
5.990160
 11
6.190360
 21
5.993240
  0
LINE
  8
0
 62
     0
  6
CONTINUOUS
 10
6.190360
 20
5.993240
 11
6.194760
 21
5.998080
  0
LINE
  8
0
 62
     0
  6
CONTINUOUS
 10
6.119960
 20
6.078600
 11
6.433240
 21
6.078600
  0
LINE
  8
0
 62
     0
  6
CONTINUOUS
 10
1.882760
 20
5.659280
 11
1.859880
 21
5.659280
  0
LINE
  8
0
 62
     0
  6
CONTINUOUS
 10
1.844480
 20
5.662360
 11
1.847560
 21
5.672920
  0
LINE
  8
0
 62
     0
  6
CONTINUOUS
 10
1.847560
 20
5.672920
 11
1.847560
 21
5.680400
  0
LINE
  8
0
 62
     0
  6
CONTINUOUS
 10
1.847560
 20
5.680400
 11
1.846240
 21
5.685240
  0
LINE
  8
0
 62
     0
  6
CONTINUOUS
 10
1.846240
 20
5.685240
 11
1.843160
 21
5.689640
  0
LINE
  8
0
 62
     0
  6
CONTINUOUS
 10
1.843160
 20
5.689640
 11
1.838320
 21
5.692720
  0
LINE
  8
0
 62
     0
  6
CONTINUOUS
 10
1.838320
 20
5.692720
 11
1.829520
 21
5.692720
  0
LINE
  8
0
 62
     0
  6
CONTINUOUS
 10
1.829520
 20
5.692720
 11
1.824680
 21
5.689640
  0
LINE
  8
0
 62
     0
  6
CONTINUOUS
 10
1.824680
 20
5.689640
 11
1.818520
 21
5.685240
  0
LINE
  8
0
 62
     0
  6
CONTINUOUS
 10
1.818520
 20
5.685240
 11
1.815440
 21
5.680400
  0
LINE
  8
0
 62
     0
  6
CONTINUOUS
 10
1.815440
 20
5.680400
 11
1.811040
 21
5.672920
  0
LINE
  8
0
 62
     0
  6
CONTINUOUS
 10
1.811040
 20
5.672920
 11
1.809720
 21
5.662360
  0
LINE
  8
0
 62
     0
  6
CONTINUOUS
 10
1.809720
 20
5.662360
 11
1.809720
 21
5.656200
  0
LINE
  8
0
 62
     0
  6
CONTINUOUS
 10
1.809720
 20
5.656200
 11
1.809720
 21
5.651360
  0
LINE
  8
0
 62
     0
  6
CONTINUOUS
 10
1.809720
 20
5.651360
 11
1.814120
 21
5.646960
  0
LINE
  8
0
 62
     0
  6
CONTINUOUS
 10
1.814120
 20
5.646960
 11
1.817200
 21
5.643880
  0
LINE
  8
0
 62
     0
  6
CONTINUOUS
 10
1.817200
 20
5.643880
 11
1.826440
 21
5.643880
  0
LINE
  8
0
 62
     0
  6
CONTINUOUS
 10
1.826440
 20
5.643880
 11
1.830840
 21
5.646960
  0
LINE
  8
0
 62
     0
  6
CONTINUOUS
 10
1.830840
 20
5.646960
 11
1.838320
 21
5.651360
  0
LINE
  8
0
 62
     0
  6
CONTINUOUS
 10
1.838320
 20
5.651360
 11
1.840080
 21
5.656200
  0
LINE
  8
0
 62
     0
  6
CONTINUOUS
 10
1.840080
 20
5.656200
 11
1.844480
 21
5.662360
  0
LINE
  8
0
 62
     0
  6
CONTINUOUS
 10
1.849320
 20
5.643880
 11
1.879680
 21
5.692720
  0
LINE
  8
0
 62
     0
  6
CONTINUOUS
 10
1.879680
 20
5.692720
 11
1.885840
 21
5.643880
  0
LINE
  8
0
 62
     0
  6
CONTINUOUS
 10
3.083080
 20
4.753320
 11
3.087480
 21
4.756400
  0
LINE
  8
0
 62
     0
  6
CONTINUOUS
 10
3.087480
 20
4.756400
 11
3.087480
 21
4.762560
  0
LINE
  8
0
 62
     0
  6
CONTINUOUS
 10
3.087480
 20
4.762560
 11
3.087480
 21
4.765640
  0
LINE
  8
0
 62
     0
  6
CONTINUOUS
 10
3.087480
 20
4.765640
 11
3.086160
 21
4.768720
  0
LINE
  8
0
 62
     0
  6
CONTINUOUS
 10
3.086160
 20
4.768720
 11
3.080000
 21
4.770480
  0
LINE
  8
0
 62
     0
  6
CONTINUOUS
 10
3.080000
 20
4.770480
 11
3.058880
 21
4.770480
  0
SOLID
  8
0
 62
     7
 10
7.170240
 20
5.000600
 11
7.417080
 21
5.000600
 12
7.170240
 22
4.811400
 13
7.417080
 23
4.811400
  0
POLYLINE
  8
0
 62
     0
  6
CONTINUOUS
 66
     1
 40
0.000000
 41
0.000000
  0
VERTEX
  8
0
 62
     0
  6
CONTINUOUS
 10
7.170240
 20
5.000600
  0
VERTEX
  8
0
 62
     0
  6
CONTINUOUS
 10
7.417080
 20
5.000600
  0
VERTEX
  8
0
 62
     0
  6
CONTINUOUS
 10
7.417080
 20
4.811400
  0
VERTEX
  8
0
 62
     0
  6
CONTINUOUS
 10
7.170240
 20
4.811400
  0
VERTEX
  8
0
 62
     0
  6
CONTINUOUS
 10
7.170240
 20
5.000600
  0
SEQEND
  8
0
  0
TEXT
  8
0
 62
     0
 10
7.219520
 20
4.898080
 40
0.108501
  1
AI
 41
1.000000
  7
SN0
 71
     0
 72
     5
 11
7.387600
 21
4.898080
  0
POLYLINE
  8
0
 62
     0
  6
CONTINUOUS
 66
     1
 40
0.000000
 41
0.000000
  0
VERTEX
  8
0
 62
     0
  6
CONTINUOUS
 10
6.281440
 20
6.092240
  0
VERTEX
  8
0
 62
     0
  6
CONTINUOUS
 10
6.281440
 20
6.297280
  0
VERTEX
  8
0
 62
     0
  6
CONTINUOUS
 10
7.265720
 20
6.297280
  0
VERTEX
  8
0
 62
     0
  6
CONTINUOUS
 10
7.265720
 20
4.970680
  0
SEQEND
  8
0
  0
LINE
  8
0
 62
     0
  6
CONTINUOUS
 10
1.060840
 20
5.512760
 11
1.060840
 21
5.175280
  0
SOLID
  8
0
 62
     7
 10
0.928840
 20
5.289240
 11
1.179200
 21
5.289240
 12
0.928840
 22
5.096960
 13
1.179200
 23
5.096960
  0
POLYLINE
  8
0
 62
     0
  6
CONTINUOUS
 66
     1
 40
0.000000
 41
0.000000
  0
VERTEX
  8
0
 62
     0
  6
CONTINUOUS
 10
0.928840
 20
5.289240
  0
VERTEX
  8
0
 62
     0
  6
CONTINUOUS
 10
1.179200
 20
5.289240
  0
VERTEX
  8
0
 62
     0
  6
CONTINUOUS
 10
1.179200
 20
5.096960
  0
VERTEX
  8
0
 62
     0
  6
CONTINUOUS
 10
0.928840
 20
5.096960
  0
VERTEX
  8
0
 62
     0
  6
CONTINUOUS
 10
0.928840
 20
5.289240
  0
SEQEND
  8
0
  0
TEXT
  8
0
 62
     0
 10
0.979000
 20
5.184960
 40
0.110114
  1
AI
 41
1.000000
  7
SN0
 71
     0
 72
     5
 11
1.147960
 21
5.184960
  0
POLYLINE
  8
0
 62
     0
  6
CONTINUOUS
 66
     1
 40
0.002200
 41
0.002200
  0
VERTEX
  8
0
 62
     0
  6
CONTINUOUS
 10
6.271320
 20
5.687440
  0
VERTEX
  8
0
 62
     0
  6
CONTINUOUS
 10
6.270000
 20
5.683040
  0
SEQEND
  8
0
  0
POLYLINE
  8
0
 62
     0
  6
CONTINUOUS
 66
     1
 40
0.002200
 41
0.002200
  0
VERTEX
  8
0
 62
     0
  6
CONTINUOUS
 10
6.270000
 20
5.683040
  0
VERTEX
  8
0
 62
     0
  6
CONTINUOUS
 10
6.271320
 20
5.678640
  0
SEQEND
  8
0
  0
POLYLINE
  8
0
 62
     0
  6
CONTINUOUS
 66
     1
 40
0.002200
 41
0.002200
  0
VERTEX
  8
0
 62
     0
  6
CONTINUOUS
 10
6.271320
 20
5.678640
  0
VERTEX
  8
0
 62
     0
  6
CONTINUOUS
 10
6.274400
 20
5.675560
  0
SEQEND
  8
0
  0
POLYLINE
  8
0
 62
     0
  6
CONTINUOUS
 66
     1
 40
0.002200
 41
0.002200
  0
VERTEX
  8
0
 62
     0
  6
CONTINUOUS
 10
6.274400
 20
5.675560
  0
VERTEX
  8
0
 62
     0
  6
CONTINUOUS
 10
6.277480
 20
5.674240
  0
SEQEND
  8
0
  0
POLYLINE
  8
0
 62
     0
  6
CONTINUOUS
 66
     1
 40
0.002200
 41
0.002200
  0
VERTEX
  8
0
 62
     0
  6
CONTINUOUS
 10
6.271320
 20
5.645200
  0
VERTEX
  8
0
 62
     0
  6
CONTINUOUS
 10
6.265160
 20
5.646960
  0
SEQEND
  8
0
  0
POLYLINE
  8
0
 62
     0
  6
CONTINUOUS
 66
     1
 40
0.002200
 41
0.002200
  0
VERTEX
  8
0
 62
     0
  6
CONTINUOUS
 10
6.265160
 20
5.646960
  0
VERTEX
  8
0
 62
     0
  6
CONTINUOUS
 10
6.262520
 20
5.651360
  0
SEQEND
  8
0
  0
POLYLINE
  8
0
 62
     0
  6
CONTINUOUS
 66
     1
 40
0.002200
 41
0.002200
  0
VERTEX
  8
0
 62
     0
  6
CONTINUOUS
 10
6.271320
 20
5.687440
  0
VERTEX
  8
0
 62
     0
  6
CONTINUOUS
 10
6.277480
 20
5.692280
  0
SEQEND
  8
0
  0
LINE
  8
0
 62
     0
  6
CONTINUOUS
 10
5.491200
 20
5.397040
 11
5.491200
 21
5.782040
  0
LINE
  8
0
 62
     0
  6
CONTINUOUS
 10
5.568640
 20
5.740240
 11
5.572600
 21
5.733200
  0
LINE
  8
0
 62
     0
  6
CONTINUOUS
 10
5.572600
 20
5.733200
 11
5.573480
 21
5.725720
  0
LINE
  8
0
 62
     0
  6
CONTINUOUS
 10
5.568640
 20
5.740240
 11
5.567760
 21
5.746400
  0
LINE
  8
0
 62
     0
  6
CONTINUOUS
 10
5.567760
 20
5.746400
 11
5.559400
 21
5.751240
  0
LINE
  8
0
 62
     0
  6
CONTINUOUS
 10
5.559400
 20
5.751240
 11
5.553240
 21
5.753440
  0
LINE
  8
0
 62
     0
  6
CONTINUOUS
 10
5.553240
 20
5.753440
 11
5.546200
 21
5.754760
  0
LINE
  8
0
 62
     0
  6
CONTINUOUS
 10
5.546200
 20
5.754760
 11
5.539160
 21
5.753440
  0
LINE
  8
0
 62
     0
  6
CONTINUOUS
 10
5.539160
 20
5.753440
 11
5.531680
 21
5.751240
  0
LINE
  8
0
 62
     0
  6
CONTINUOUS
 10
5.531680
 20
5.751240
 11
5.524640
 21
5.746400
  0
LINE
  8
0
 62
     0
  6
CONTINUOUS
 10
5.524640
 20
5.746400
 11
5.522440
 21
5.740240
  0
LINE
  8
0
 62
     0
  6
CONTINUOUS
 10
5.522440
 20
5.740240
 11
5.519800
 21
5.733200
  0
LINE
  8
0
 62
     0
  6
CONTINUOUS
 10
5.519800
 20
5.733200
 11
5.517600
 21
5.725720
  0
LINE
  8
0
 62
     0
  6
CONTINUOUS
 10
5.517600
 20
5.725720
 11
5.519800
 21
5.718680
  0
LINE
  8
0
 62
     0
  6
CONTINUOUS
 10
5.519800
 20
5.718680
 11
5.522440
 21
5.712960
  0
LINE
  8
0
 62
     0
  6
CONTINUOUS
 10
5.522440
 20
5.712960
 11
5.524640
 21
5.705480
  0
LINE
  8
0
 62
     0
  6
CONTINUOUS
 10
5.524640
 20
5.705480
 11
5.531680
 21
5.700640
  0
LINE
  8
0
 62
     0
  6
CONTINUOUS
 10
5.531680
 20
5.700640
 11
5.539160
 21
5.698440
  0
LINE
  8
0
 62
     0
  6
CONTINUOUS
 10
5.539160
 20
5.698440
 11
5.546200
 21
5.698440
  0
LINE
  8
0
 62
     0
  6
CONTINUOUS
 10
5.546200
 20
5.698440
 11
5.553240
 21
5.698440
  0
LINE
  8
0
 62
     0
  6
CONTINUOUS
 10
5.553240
 20
5.698440
 11
5.559400
 21
5.700640
  0
LINE
  8
0
 62
     0
  6
CONTINUOUS
 10
5.559400
 20
5.700640
 11
5.567760
 21
5.705480
  0
LINE
  8
0
 62
     0
  6
CONTINUOUS
 10
5.567760
 20
5.705480
 11
5.568640
 21
5.712960
  0
LINE
  8
0
 62
     0
  6
CONTINUOUS
 10
5.568640
 20
5.712960
 11
5.572600
 21
5.718680
  0
LINE
  8
0
 62
     0
  6
CONTINUOUS
 10
5.572600
 20
5.718680
 11
5.573480
 21
5.725720
  0
LINE
  8
0
 62
     0
  6
CONTINUOUS
 10
5.581840
 20
5.679520
 11
5.579640
 21
5.674680
  0
LINE
  8
0
 62
     0
  6
CONTINUOUS
 10
5.579640
 20
5.674680
 11
5.574800
 21
5.667200
  0
LINE
  8
0
 62
     0
  6
CONTINUOUS
 10
5.574800
 20
5.667200
 11
5.573480
 21
5.660160
  0
LINE
  8
0
 62
     0
  6
CONTINUOUS
 10
5.573480
 20
5.660160
 11
5.574800
 21
5.653120
  0
LINE
  8
0
 62
     0
  6
CONTINUOUS
 10
5.574800
 20
5.653120
 11
5.579640
 21
5.645640
  0
LINE
  8
0
 62
     0
  6
CONTINUOUS
 10
5.579640
 20
5.645640
 11
5.581840
 21
5.639920
  0
LINE
  8
0
 62
     0
  6
CONTINUOUS
 10
5.581840
 20
5.639920
 11
5.588000
 21
5.636400
  0
LINE
  8
0
 62
     0
  6
CONTINUOUS
 10
5.588000
 20
5.636400
 11
5.596360
 21
5.632880
  0
LINE
  8
0
 62
     0
  6
CONTINUOUS
 10
5.596360
 20
5.632880
 11
5.602520
 21
5.631560
  0
LINE
  8
0
 62
     0
  6
CONTINUOUS
 10
5.602520
 20
5.631560
 11
5.610880
 21
5.632880
  0
LINE
  8
0
 62
     0
  6
CONTINUOUS
 10
5.610880
 20
5.632880
 11
5.616600
 21
5.636400
  0
LINE
  8
0
 62
     0
  6
CONTINUOUS
 10
5.616600
 20
5.636400
 11
5.624080
 21
5.639920
  0
LINE
  8
0
 62
     0
  6
CONTINUOUS
 10
5.624080
 20
5.639920
 11
5.624960
 21
5.645640
  0
LINE
  8
0
 62
     0
  6
CONTINUOUS
 10
5.624960
 20
5.645640
 11
5.629800
 21
5.653120
  0
LINE
  8
0
 62
     0
  6
CONTINUOUS
 10
5.629800
 20
5.653120
 11
5.631120
 21
5.660160
  0
LINE
  8
0
 62
     0
  6
CONTINUOUS
 10
5.631120
 20
5.660160
 11
5.629800
 21
5.667200
  0
LINE
  8
0
 62
     0
  6
CONTINUOUS
 10
5.629800
 20
5.667200
 11
5.624960
 21
5.674680
  0
LINE
  8
0
 62
     0
  6
CONTINUOUS
 10
5.624960
 20
5.674680
 11
5.624080
 21
5.679520
  0
LINE
  8
0
 62
     0
  6
CONTINUOUS
 10
5.624080
 20
5.679520
 11
5.616600
 21
5.683920
  0
LINE
  8
0
 62
     0
  6
CONTINUOUS
 10
5.616600
 20
5.683920
 11
5.610880
 21
5.687880
  0
LINE
  8
0
 62
     0
  6
CONTINUOUS
 10
5.610880
 20
5.687880
 11
5.602520
 21
5.688760
  0
LINE
  8
0
 62
     0
  6
CONTINUOUS
 10
5.602520
 20
5.688760
 11
5.596360
 21
5.687880
  0
LINE
  8
0
 62
     0
  6
CONTINUOUS
 10
5.596360
 20
5.687880
 11
5.588000
 21
5.683920
  0
LINE
  8
0
 62
     0
  6
CONTINUOUS
 10
5.588000
 20
5.683920
 11
5.581840
 21
5.679520
  0
LINE
  8
0
 62
     0
  6
CONTINUOUS
 10
5.581840
 20
5.764000
 11
5.588000
 21
5.759600
  0
LINE
  8
0
 62
     0
  6
CONTINUOUS
 10
5.588000
 20
5.759600
 11
5.596360
 21
5.755640
  0
LINE
  8
0
 62
     0
  6
CONTINUOUS
 10
5.596360
 20
5.755640
 11
5.602520
 21
5.755640
  0
LINE
  8
0
 62
     0
  6
CONTINUOUS
 10
5.602520
 20
5.755640
 11
5.610880
 21
5.755640
  0
LINE
  8
0
 62
     0
  6
CONTINUOUS
 10
5.610880
 20
5.755640
 11
5.616600
 21
5.759600
  0
LINE
  8
0
 62
     0
  6
CONTINUOUS
 10
5.616600
 20
5.759600
 11
5.624080
 21
5.764000
  0
LINE
  8
0
 62
     0
  6
CONTINUOUS
 10
5.624080
 20
5.764000
 11
5.624960
 21
5.770160
  0
LINE
  8
0
 62
     0
  6
CONTINUOUS
 10
5.624960
 20
5.770160
 11
5.629800
 21
5.776320
  0
LINE
  8
0
 62
     0
  6
CONTINUOUS
 10
5.629800
 20
5.776320
 11
5.631120
 21
5.783360
  0
LINE
  8
0
 62
     0
  6
CONTINUOUS
 10
5.631120
 20
5.783360
 11
5.629800
 21
5.790400
  0
LINE
  8
0
 62
     0
  6
CONTINUOUS
 10
5.629800
 20
5.790400
 11
5.624960
 21
5.797880
  0
LINE
  8
0
 62
     0
  6
CONTINUOUS
 10
5.624960
 20
5.797880
 11
5.624080
 21
5.803600
  0
LINE
  8
0
 62
     0
  6
CONTINUOUS
 10
5.624080
 20
5.803600
 11
5.616600
 21
5.808440
  0
LINE
  8
0
 62
     0
  6
CONTINUOUS
 10
5.616600
 20
5.808440
 11
5.610880
 21
5.810640
  0
LINE
  8
0
 62
     0
  6
CONTINUOUS
 10
5.610880
 20
5.810640
 11
5.602520
 21
5.811960
  0
LINE
  8
0
 62
     0
  6
CONTINUOUS
 10
5.602520
 20
5.811960
 11
5.596360
 21
5.810640
  0
LINE
  8
0
 62
     0
  6
CONTINUOUS
 10
5.596360
 20
5.810640
 11
5.588000
 21
5.808440
  0
LINE
  8
0
 62
     0
  6
CONTINUOUS
 10
5.588000
 20
5.808440
 11
5.581840
 21
5.803600
  0
LINE
  8
0
 62
     0
  6
CONTINUOUS
 10
5.581840
 20
5.803600
 11
5.579640
 21
5.797880
  0
LINE
  8
0
 62
     0
  6
CONTINUOUS
 10
5.579640
 20
5.797880
 11
5.574800
 21
5.790400
  0
LINE
  8
0
 62
     0
  6
CONTINUOUS
 10
5.574800
 20
5.790400
 11
5.573480
 21
5.783360
  0
LINE
  8
0
 62
     0
  6
CONTINUOUS
 10
5.573480
 20
5.783360
 11
5.574800
 21
5.776320
  0
LINE
  8
0
 62
     0
  6
CONTINUOUS
 10
5.574800
 20
5.776320
 11
5.579640
 21
5.770160
  0
LINE
  8
0
 62
     0
  6
CONTINUOUS
 10
5.579640
 20
5.770160
 11
5.581840
 21
5.764000
  0
LINE
  8
0
 62
     0
  6
CONTINUOUS
 10
5.639480
 20
5.782040
 11
5.639480
 21
5.397040
  0
LINE
  8
0
 62
     0
  6
CONTINUOUS
 10
5.567760
 20
5.433120
 11
5.568640
 21
5.438840
  0
LINE
  8
0
 62
     0
  6
CONTINUOUS
 10
5.568640
 20
5.438840
 11
5.572600
 21
5.446320
  0
LINE
  8
0
 62
     0
  6
CONTINUOUS
 10
5.572600
 20
5.446320
 11
5.573480
 21
5.453360
  0
LINE
  8
0
 62
     0
  6
CONTINUOUS
 10
5.573480
 20
5.453360
 11
5.572600
 21
5.460400
  0
LINE
  8
0
 62
     0
  6
CONTINUOUS
 10
5.572600
 20
5.460400
 11
5.568640
 21
5.467880
  0
LINE
  8
0
 62
     0
  6
CONTINUOUS
 10
5.568640
 20
5.467880
 11
5.567760
 21
5.473600
  0
LINE
  8
0
 62
     0
  6
CONTINUOUS
 10
5.567760
 20
5.473600
 11
5.559400
 21
5.477120
  0
LINE
  8
0
 62
     0
  6
CONTINUOUS
 10
5.559400
 20
5.477120
 11
5.553240
 21
5.480640
  0
LINE
  8
0
 62
     0
  6
CONTINUOUS
 10
5.553240
 20
5.480640
 11
5.546200
 21
5.480640
  0
LINE
  8
0
 62
     0
  6
CONTINUOUS
 10
5.546200
 20
5.480640
 11
5.539160
 21
5.480640
  0
LINE
  8
0
 62
     0
  6
CONTINUOUS
 10
5.539160
 20
5.480640
 11
5.531680
 21
5.477120
  0
LINE
  8
0
 62
     0
  6
CONTINUOUS
 10
5.531680
 20
5.477120
 11
5.524640
 21
5.473600
  0
LINE
  8
0
 62
     0
  6
CONTINUOUS
 10
5.524640
 20
5.473600
 11
5.522440
 21
5.467880
  0
LINE
  8
0
 62
     0
  6
CONTINUOUS
 10
5.522440
 20
5.467880
 11
5.519800
 21
5.460400
  0
LINE
  8
0
 62
     0
  6
CONTINUOUS
 10
5.519800
 20
5.460400
 11
5.517600
 21
5.453360
  0
LINE
  8
0
 62
     0
  6
CONTINUOUS
 10
5.517600
 20
5.453360
 11
5.519800
 21
5.446320
  0
LINE
  8
0
 62
     0
  6
CONTINUOUS
 10
5.519800
 20
5.446320
 11
5.522440
 21
5.438840
  0
LINE
  8
0
 62
     0
  6
CONTINUOUS
 10
5.522440
 20
5.438840
 11
5.524640
 21
5.433120
  0
LINE
  8
0
 62
     0
  6
CONTINUOUS
 10
5.524640
 20
5.433120
 11
5.531680
 21
5.428280
  0
LINE
  8
0
 62
     0
  6
CONTINUOUS
 10
5.531680
 20
5.428280
 11
5.539160
 21
5.426080
  0
LINE
  8
0
 62
     0
  6
CONTINUOUS
 10
5.539160
 20
5.426080
 11
5.546200
 21
5.426080
  0
LINE
  8
0
 62
     0
  6
CONTINUOUS
 10
5.546200
 20
5.426080
 11
5.553240
 21
5.426080
  0
LINE
  8
0
 62
     0
  6
CONTINUOUS
 10
5.553240
 20
5.426080
 11
5.559400
 21
5.428280
  0
LINE
  8
0
 62
     0
  6
CONTINUOUS
 10
5.559400
 20
5.428280
 11
5.567760
 21
5.433120
  0
LINE
  8
0
 62
     0
  6
CONTINUOUS
 10
5.581840
 20
5.508360
 11
5.588000
 21
5.503520
  0
LINE
  8
0
 62
     0
  6
CONTINUOUS
 10
5.588000
 20
5.503520
 11
5.596360
 21
5.501320
  0
LINE
  8
0
 62
     0
  6
CONTINUOUS
 10
5.596360
 20
5.501320
 11
5.602520
 21
5.500000
  0
LINE
  8
0
 62
     0
  6
CONTINUOUS
 10
5.602520
 20
5.500000
 11
5.610880
 21
5.501320
  0
LINE
  8
0
 62
     0
  6
CONTINUOUS
 10
5.610880
 20
5.501320
 11
5.616600
 21
5.503520
  0
LINE
  8
0
 62
     0
  6
CONTINUOUS
 10
5.616600
 20
5.503520
 11
5.624080
 21
5.508360
  0
LINE
  8
0
 62
     0
  6
CONTINUOUS
 10
5.624080
 20
5.508360
 11
5.624960
 21
5.514520
  0
LINE
  8
0
 62
     0
  6
CONTINUOUS
 10
5.624960
 20
5.514520
 11
5.629800
 21
5.521560
  0
LINE
  8
0
 62
     0
  6
CONTINUOUS
 10
5.629800
 20
5.521560
 11
5.631120
 21
5.528600
  0
LINE
  8
0
 62
     0
  6
CONTINUOUS
 10
5.631120
 20
5.528600
 11
5.629800
 21
5.535640
  0
LINE
  8
0
 62
     0
  6
CONTINUOUS
 10
5.629800
 20
5.535640
 11
5.624960
 21
5.543120
  0
LINE
  8
0
 62
     0
  6
CONTINUOUS
 10
5.624960
 20
5.543120
 11
5.624080
 21
5.547960
  0
LINE
  8
0
 62
     0
  6
CONTINUOUS
 10
5.624080
 20
5.547960
 11
5.616600
 21
5.552800
  0
LINE
  8
0
 62
     0
  6
CONTINUOUS
 10
5.616600
 20
5.552800
 11
5.610880
 21
5.555000
  0
LINE
  8
0
 62
     0
  6
CONTINUOUS
 10
5.610880
 20
5.555000
 11
5.602520
 21
5.557200
  0
LINE
  8
0
 62
     0
  6
CONTINUOUS
 10
5.602520
 20
5.557200
 11
5.596360
 21
5.555000
  0
LINE
  8
0
 62
     0
  6
CONTINUOUS
 10
5.596360
 20
5.555000
 11
5.588000
 21
5.552800
  0
LINE
  8
0
 62
     0
  6
CONTINUOUS
 10
5.588000
 20
5.552800
 11
5.581840
 21
5.547960
  0
LINE
  8
0
 62
     0
  6
CONTINUOUS
 10
5.581840
 20
5.547960
 11
5.579640
 21
5.543120
  0
LINE
  8
0
 62
     0
  6
CONTINUOUS
 10
5.579640
 20
5.543120
 11
5.574800
 21
5.535640
  0
LINE
  8
0
 62
     0
  6
CONTINUOUS
 10
5.574800
 20
5.535640
 11
5.573480
 21
5.528600
  0
LINE
  8
0
 62
     0
  6
CONTINUOUS
 10
5.573480
 20
5.528600
 11
5.574800
 21
5.521560
  0
LINE
  8
0
 62
     0
  6
CONTINUOUS
 10
5.574800
 20
5.521560
 11
5.579640
 21
5.514520
  0
LINE
  8
0
 62
     0
  6
CONTINUOUS
 10
5.579640
 20
5.514520
 11
5.581840
 21
5.508360
  0
LINE
  8
0
 62
     0
  6
CONTINUOUS
 10
5.567760
 20
5.564680
 11
5.568640
 21
5.570400
  0
LINE
  8
0
 62
     0
  6
CONTINUOUS
 10
5.568640
 20
5.570400
 11
5.572600
 21
5.577880
  0
LINE
  8
0
 62
     0
  6
CONTINUOUS
 10
5.572600
 20
5.577880
 11
5.573480
 21
5.584920
  0
LINE
  8
0
 62
     0
  6
CONTINUOUS
 10
5.573480
 20
5.584920
 11
5.572600
 21
5.591960
  0
LINE
  8
0
 62
     0
  6
CONTINUOUS
 10
5.572600
 20
5.591960
 11
5.568640
 21
5.599000
  0
LINE
  8
0
 62
     0
  6
CONTINUOUS
 10
5.568640
 20
5.599000
 11
5.567760
 21
5.605160
  0
LINE
  8
0
 62
     0
  6
CONTINUOUS
 10
5.567760
 20
5.605160
 11
5.559400
 21
5.608680
  0
LINE
  8
0
 62
     0
  6
CONTINUOUS
 10
5.559400
 20
5.608680
 11
5.553240
 21
5.612200
  0
LINE
  8
0
 62
     0
  6
CONTINUOUS
 10
5.553240
 20
5.612200
 11
5.546200
 21
5.612200
  0
LINE
  8
0
 62
     0
  6
CONTINUOUS
 10
5.546200
 20
5.612200
 11
5.539160
 21
5.612200
  0
LINE
  8
0
 62
     0
  6
CONTINUOUS
 10
5.539160
 20
5.612200
 11
5.531680
 21
5.608680
  0
LINE
  8
0
 62
     0
  6
CONTINUOUS
 10
5.531680
 20
5.608680
 11
5.524640
 21
5.605160
  0
LINE
  8
0
 62
     0
  6
CONTINUOUS
 10
5.524640
 20
5.605160
 11
5.522440
 21
5.599000
  0
LINE
  8
0
 62
     0
  6
CONTINUOUS
 10
5.522440
 20
5.599000
 11
5.519800
 21
5.591960
  0
LINE
  8
0
 62
     0
  6
CONTINUOUS
 10
5.519800
 20
5.591960
 11
5.517600
 21
5.584920
  0
LINE
  8
0
 62
     0
  6
CONTINUOUS
 10
5.517600
 20
5.584920
 11
5.519800
 21
5.577880
  0
LINE
  8
0
 62
     0
  6
CONTINUOUS
 10
5.519800
 20
5.577880
 11
5.522440
 21
5.570400
  0
LINE
  8
0
 62
     0
  6
CONTINUOUS
 10
5.522440
 20
5.570400
 11
5.524640
 21
5.564680
  0
LINE
  8
0
 62
     0
  6
CONTINUOUS
 10
5.524640
 20
5.564680
 11
5.531680
 21
5.559840
  0
LINE
  8
0
 62
     0
  6
CONTINUOUS
 10
5.531680
 20
5.559840
 11
5.539160
 21
5.557200
  0
LINE
  8
0
 62
     0
  6
CONTINUOUS
 10
5.539160
 20
5.557200
 11
5.546200
 21
5.557200
  0
LINE
  8
0
 62
     0
  6
CONTINUOUS
 10
5.546200
 20
5.557200
 11
5.553240
 21
5.557200
  0
LINE
  8
0
 62
     0
  6
CONTINUOUS
 10
5.553240
 20
5.557200
 11
5.559400
 21
5.559840
  0
LINE
  8
0
 62
     0
  6
CONTINUOUS
 10
5.559400
 20
5.559840
 11
5.567760
 21
5.564680
  0
LINE
  8
0
 62
     0
  6
CONTINUOUS
 10
5.639480
 20
5.397040
 11
5.491200
 21
5.397040
  0
LINE
  8
0
 62
     0
  6
CONTINUOUS
 10
5.491200
 20
5.782040
 11
5.491200
 21
5.956720
  0
LINE
  8
0
 62
     0
  6
CONTINUOUS
 10
5.491200
 20
5.956720
 11
5.639480
 21
5.956720
  0
LINE
  8
0
 62
     0
  6
CONTINUOUS
 10
5.639480
 20
5.956720
 11
5.639480
 21
5.782040
  0
LINE
  8
0
 62
     0
  6
CONTINUOUS
 10
5.567760
 20
5.819000
 11
5.568640
 21
5.825160
  0
LINE
  8
0
 62
     0
  6
CONTINUOUS
 10
5.568640
 20
5.825160
 11
5.572600
 21
5.832200
  0
LINE
  8
0
 62
     0
  6
CONTINUOUS
 10
5.572600
 20
5.832200
 11
5.573480
 21
5.839680
  0
LINE
  8
0
 62
     0
  6
CONTINUOUS
 10
5.573480
 20
5.839680
 11
5.572600
 21
5.846720
  0
LINE
  8
0
 62
     0
  6
CONTINUOUS
 10
5.572600
 20
5.846720
 11
5.568640
 21
5.853760
  0
LINE
  8
0
 62
     0
  6
CONTINUOUS
 10
5.568640
 20
5.853760
 11
5.567760
 21
5.859920
  0
LINE
  8
0
 62
     0
  6
CONTINUOUS
 10
5.567760
 20
5.859920
 11
5.559400
 21
5.863440
  0
LINE
  8
0
 62
     0
  6
CONTINUOUS
 10
5.559400
 20
5.863440
 11
5.553240
 21
5.866960
  0
LINE
  8
0
 62
     0
  6
CONTINUOUS
 10
5.553240
 20
5.866960
 11
5.546200
 21
5.868280
  0
LINE
  8
0
 62
     0
  6
CONTINUOUS
 10
5.546200
 20
5.868280
 11
5.539160
 21
5.866960
  0
LINE
  8
0
 62
     0
  6
CONTINUOUS
 10
5.539160
 20
5.866960
 11
5.531680
 21
5.863440
  0
LINE
  8
0
 62
     0
  6
CONTINUOUS
 10
5.531680
 20
5.863440
 11
5.524640
 21
5.859920
  0
LINE
  8
0
 62
     0
  6
CONTINUOUS
 10
5.524640
 20
5.859920
 11
5.522440
 21
5.853760
  0
LINE
  8
0
 62
     0
  6
CONTINUOUS
 10
5.522440
 20
5.853760
 11
5.519800
 21
5.846720
  0
LINE
  8
0
 62
     0
  6
CONTINUOUS
 10
5.519800
 20
5.846720
 11
5.517600
 21
5.839680
  0
LINE
  8
0
 62
     0
  6
CONTINUOUS
 10
5.517600
 20
5.839680
 11
5.519800
 21
5.832200
  0
LINE
  8
0
 62
     0
  6
CONTINUOUS
 10
5.519800
 20
5.832200
 11
5.522440
 21
5.825160
  0
LINE
  8
0
 62
     0
  6
CONTINUOUS
 10
5.522440
 20
5.825160
 11
5.524640
 21
5.819000
  0
LINE
  8
0
 62
     0
  6
CONTINUOUS
 10
5.524640
 20
5.819000
 11
5.531680
 21
5.815480
  0
LINE
  8
0
 62
     0
  6
CONTINUOUS
 10
5.531680
 20
5.815480
 11
5.539160
 21
5.811960
  0
LINE
  8
0
 62
     0
  6
CONTINUOUS
 10
5.539160
 20
5.811960
 11
5.546200
 21
5.810640
  0
LINE
  8
0
 62
     0
  6
CONTINUOUS
 10
5.546200
 20
5.810640
 11
5.553240
 21
5.811960
  0
LINE
  8
0
 62
     0
  6
CONTINUOUS
 10
5.553240
 20
5.811960
 11
5.559400
 21
5.815480
  0
LINE
  8
0
 62
     0
  6
CONTINUOUS
 10
5.559400
 20
5.815480
 11
5.567760
 21
5.819000
  0
LINE
  8
0
 62
     0
  6
CONTINUOUS
 10
5.581840
 20
5.887200
 11
5.588000
 21
5.882360
  0
LINE
  8
0
 62
     0
  6
CONTINUOUS
 10
5.588000
 20
5.882360
 11
5.596360
 21
5.880160
  0
LINE
  8
0
 62
     0
  6
CONTINUOUS
 10
5.596360
 20
5.880160
 11
5.602520
 21
5.878840
  0
LINE
  8
0
 62
     0
  6
CONTINUOUS
 10
5.602520
 20
5.878840
 11
5.610880
 21
5.880160
  0
LINE
  8
0
 62
     0
  6
CONTINUOUS
 10
5.610880
 20
5.880160
 11
5.616600
 21
5.882360
  0
LINE
  8
0
 62
     0
  6
CONTINUOUS
 10
5.616600
 20
5.882360
 11
5.624080
 21
5.887200
  0
LINE
  8
0
 62
     0
  6
CONTINUOUS
 10
5.624080
 20
5.887200
 11
5.624960
 21
5.893360
  0
LINE
  8
0
 62
     0
  6
CONTINUOUS
 10
5.624960
 20
5.893360
 11
5.629800
 21
5.899080
  0
LINE
  8
0
 62
     0
  6
CONTINUOUS
 10
5.629800
 20
5.899080
 11
5.631120
 21
5.907880
  0
LINE
  8
0
 62
     0
  6
CONTINUOUS
 10
5.631120
 20
5.907880
 11
5.629800
 21
5.914920
  0
LINE
  8
0
 62
     0
  6
CONTINUOUS
 10
5.629800
 20
5.914920
 11
5.624960
 21
5.920640
  0
LINE
  8
0
 62
     0
  6
CONTINUOUS
 10
5.624960
 20
5.920640
 11
5.624080
 21
5.928120
  0
LINE
  8
0
 62
     0
  6
CONTINUOUS
 10
5.624080
 20
5.928120
 11
5.616600
 21
5.932960
  0
LINE
  8
0
 62
     0
  6
CONTINUOUS
 10
5.616600
 20
5.932960
 11
5.610880
 21
5.935160
  0
LINE
  8
0
 62
     0
  6
CONTINUOUS
 10
5.610880
 20
5.935160
 11
5.602520
 21
5.935160
  0
LINE
  8
0
 62
     0
  6
CONTINUOUS
 10
5.602520
 20
5.935160
 11
5.596360
 21
5.935160
  0
LINE
  8
0
 62
     0
  6
CONTINUOUS
 10
5.596360
 20
5.935160
 11
5.588000
 21
5.932960
  0
LINE
  8
0
 62
     0
  6
CONTINUOUS
 10
5.588000
 20
5.932960
 11
5.581840
 21
5.928120
  0
LINE
  8
0
 62
     0
  6
CONTINUOUS
 10
5.581840
 20
5.928120
 11
5.579640
 21
5.920640
  0
LINE
  8
0
 62
     0
  6
CONTINUOUS
 10
5.579640
 20
5.920640
 11
5.574800
 21
5.914920
  0
LINE
  8
0
 62
     0
  6
CONTINUOUS
 10
5.574800
 20
5.914920
 11
5.573480
 21
5.907880
  0
LINE
  8
0
 62
     0
  6
CONTINUOUS
 10
5.573480
 20
5.907880
 11
5.574800
 21
5.899080
  0
LINE
  8
0
 62
     0
  6
CONTINUOUS
 10
5.574800
 20
5.899080
 11
5.579640
 21
5.893360
  0
LINE
  8
0
 62
     0
  6
CONTINUOUS
 10
5.579640
 20
5.893360
 11
5.581840
 21
5.887200
  0
LINE
  8
0
 62
     0
  6
CONTINUOUS
 10
5.677760
 20
5.183200
 11
5.670280
 21
5.179680
  0
LINE
  8
0
 62
     0
  6
CONTINUOUS
 10
5.670280
 20
5.179680
 11
5.668080
 21
5.174840
  0
LINE
  8
0
 62
     0
  6
CONTINUOUS
 10
5.668080
 20
5.174840
 11
5.668080
 21
5.168680
  0
LINE
  8
0
 62
     0
  6
CONTINUOUS
 10
5.668080
 20
5.168680
 11
5.668080
 21
4.947800
  0
LINE
  8
0
 62
     0
  6
CONTINUOUS
 10
5.668080
 20
4.947800
 11
5.856840
 21
4.947800
  0
LINE
  8
0
 62
     0
  6
CONTINUOUS
 10
5.856840
 20
4.947800
 11
5.856840
 21
4.954840
  0
LINE
  8
0
 62
     0
  6
CONTINUOUS
 10
5.856840
 20
4.954840
 11
5.668080
 21
4.954840
  0
LINE
  8
0
 62
     0
  6
CONTINUOUS
 10
5.716920
 20
4.947800
 11
5.725280
 21
4.935480
  0
LINE
  8
0
 62
     0
  6
CONTINUOUS
 10
5.725280
 20
4.935480
 11
5.725280
 21
4.934600
  0
LINE
  8
0
 62
     0
  6
CONTINUOUS
 10
5.725280
 20
4.934600
 11
5.821200
 21
4.934600
  0
LINE
  8
0
 62
     0
  6
CONTINUOUS
 10
5.821200
 20
4.934600
 11
5.824720
 21
4.935480
  0
LINE
  8
0
 62
     0
  6
CONTINUOUS
 10
5.824720
 20
4.935480
 11
5.828240
 21
4.947800
  0
LINE
  8
0
 62
     0
  6
CONTINUOUS
 10
5.814160
 20
4.934600
 11
5.811520
 21
4.926240
  0
LINE
  8
0
 62
     0
  6
CONTINUOUS
 10
5.811520
 20
4.926240
 11
5.811520
 21
4.923600
  0
LINE
  8
0
 62
     0
  6
CONTINUOUS
 10
5.811520
 20
4.923600
 11
5.738480
 21
4.923600
  0
LINE
  8
0
 62
     0
  6
CONTINUOUS
 10
5.738480
 20
4.923600
 11
5.736280
 21
4.923600
  0
LINE
  8
0
 62
     0
  6
CONTINUOUS
 10
5.736280
 20
4.923600
 11
5.734960
 21
4.926240
  0
LINE
  8
0
 62
     0
  6
CONTINUOUS
 10
5.734960
 20
4.926240
 11
5.731440
 21
4.934600
  0
LINE
  8
0
 62
     0
  6
CONTINUOUS
 10
5.736280
 20
4.923600
 11
5.811520
 21
4.923600
  0
LINE
  8
0
 62
     0
  6
CONTINUOUS
 10
5.796120
 20
4.906000
 11
5.754320
 21
4.906000
  0
LINE
  8
0
 62
     0
  6
CONTINUOUS
 10
5.754320
 20
4.866400
 11
5.754320
 21
4.817560
  0
LINE
  8
0
 62
     0
  6
CONTINUOUS
 10
5.754320
 20
4.817560
 11
5.768400
 21
4.814920
  0
LINE
  8
0
 62
     0
  6
CONTINUOUS
 10
5.768400
 20
4.814920
 11
5.782920
 21
4.814920
  0
LINE
  8
0
 62
     0
  6
CONTINUOUS
 10
5.782920
 20
4.814920
 11
5.796120
 21
4.817560
  0
LINE
  8
0
 62
     0
  6
CONTINUOUS
 10
5.796120
 20
4.817560
 11
5.796120
 21
4.867720
  0
LINE
  8
0
 62
     0
  6
CONTINUOUS
 10
5.796120
 20
4.867720
 11
5.801840
 21
4.867720
  0
LINE
  8
0
 62
     0
  6
CONTINUOUS
 10
5.801840
 20
4.867720
 11
5.817680
 21
4.869920
  0
LINE
  8
0
 62
     0
  6
CONTINUOUS
 10
5.810200
 20
4.869920
 11
5.739800
 21
4.869920
  0
LINE
  8
0
 62
     0
  6
CONTINUOUS
 10
5.739800
 20
4.876960
 11
5.810200
 21
4.876960
  0
LINE
  8
0
 62
     0
  6
CONTINUOUS
 10
5.801840
 20
4.867720
 11
5.801840
 21
4.817560
  0
LINE
  8
0
 62
     0
  6
CONTINUOUS
 10
5.801840
 20
4.817560
 11
5.811520
 21
4.814920
  0
LINE
  8
0
 62
     0
  6
CONTINUOUS
 10
5.811520
 20
4.814920
 11
5.824720
 21
4.813600
  0
LINE
  8
0
 62
     0
  6
CONTINUOUS
 10
5.830880
 20
4.813600
 11
5.718240
 21
4.813600
  0
LINE
  8
0
 62
     0
  6
CONTINUOUS
 10
5.725280
 20
4.813600
 11
5.736280
 21
4.814920
  0
LINE
  8
0
 62
     0
  6
CONTINUOUS
 10
5.736280
 20
4.814920
 11
5.745960
 21
4.817560
  0
LINE
  8
0
 62
     0
  6
CONTINUOUS
 10
5.745960
 20
4.817560
 11
5.745960
 21
4.866400
  0
LINE
  8
0
 62
     0
  6
CONTINUOUS
 10
5.745960
 20
4.866400
 11
5.731440
 21
4.869920
  0
LINE
  8
0
 62
     0
  6
CONTINUOUS
 10
5.745960
 20
4.866400
 11
5.754320
 21
4.866400
  0
LINE
  8
0
 62
     0
  6
CONTINUOUS
 10
5.754320
 20
4.866400
 11
5.768400
 21
4.869920
  0
LINE
  8
0
 62
     0
  6
CONTINUOUS
 10
5.768400
 20
4.869920
 11
5.782920
 21
4.869920
  0
LINE
  8
0
 62
     0
  6
CONTINUOUS
 10
5.782920
 20
4.869920
 11
5.796120
 21
4.867720
  0
LINE
  8
0
 62
     0
  6
CONTINUOUS
 10
5.796120
 20
4.867720
 11
5.796120
 21
4.817560
  0
LINE
  8
0
 62
     0
  6
CONTINUOUS
 10
5.796120
 20
4.817560
 11
5.801840
 21
4.817560
  0
LINE
  8
0
 62
     0
  6
CONTINUOUS
 10
5.793480
 20
4.800400
 11
5.789960
 21
4.801720
  0
LINE
  8
0
 62
     0
  6
CONTINUOUS
 10
5.789960
 20
4.801720
 11
5.756520
 21
4.801720
  0
LINE
  8
0
 62
     0
  6
CONTINUOUS
 10
5.756520
 20
4.801720
 11
5.754320
 21
4.800400
  0
LINE
  8
0
 62
     0
  6
CONTINUOUS
 10
5.754320
 20
4.800400
 11
5.754320
 21
4.798200
  0
LINE
  8
0
 62
     0
  6
CONTINUOUS
 10
5.754320
 20
4.798200
 11
5.754320
 21
4.756400
  0
LINE
  8
0
 62
     0
  6
CONTINUOUS
 10
5.754320
 20
4.756400
 11
5.754320
 21
4.755080
  0
LINE
  8
0
 62
     0
  6
CONTINUOUS
 10
5.754320
 20
4.755080
 11
5.796120
 21
4.755080
  0
LINE
  8
0
 62
     0
  6
CONTINUOUS
 10
5.796120
 20
4.755080
 11
5.840120
 21
4.755080
  0
LINE
  8
0
 62
     0
  6
CONTINUOUS
 10
5.840120
 20
4.755080
 11
5.856840
 21
4.755080
  0
LINE
  8
0
 62
     0
  6
CONTINUOUS
 10
5.856840
 20
4.755080
 11
5.856840
 21
4.782800
  0
LINE
  8
0
 62
     0
  6
CONTINUOUS
 10
5.856840
 20
4.782800
 11
5.840120
 21
4.782800
  0
LINE
  8
0
 62
     0
  6
CONTINUOUS
 10
5.840120
 20
4.782800
 11
5.840120
 21
4.755080
  0
LINE
  8
0
 62
     0
  6
CONTINUOUS
 10
5.842760
 20
4.751560
 11
5.842760
 21
4.786320
  0
LINE
  8
0
 62
     0
  6
CONTINUOUS
 10
5.854640
 20
4.786320
 11
5.854640
 21
4.751560
  0
LINE
  8
0
 62
     0
  6
CONTINUOUS
 10
5.823400
 20
4.766960
 11
5.823400
 21
4.769600
  0
LINE
  8
0
 62
     0
  6
CONTINUOUS
 10
5.823400
 20
4.769600
 11
5.823400
 21
4.782800
  0
LINE
  8
0
 62
     0
  6
CONTINUOUS
 10
5.823400
 20
4.766960
 11
5.821200
 21
4.766080
  0
LINE
  8
0
 62
     0
  6
CONTINUOUS
 10
5.821200
 20
4.766080
 11
5.794800
 21
4.763440
  0
LINE
  8
0
 62
     0
  6
CONTINUOUS
 10
5.794800
 20
4.755080
 11
5.794800
 21
4.798200
  0
LINE
  8
0
 62
     0
  6
CONTINUOUS
 10
5.794800
 20
4.798200
 11
5.793480
 21
4.800400
  0
LINE
  8
0
 62
     0
  6
CONTINUOUS
 10
5.824720
 20
4.806560
 11
5.725280
 21
4.806560
  0
LINE
  8
0
 62
     0
  6
CONTINUOUS
 10
5.725280
 20
4.806560
 11
5.718240
 21
4.806560
  0
LINE
  8
0
 62
     0
  6
CONTINUOUS
 10
5.718240
 20
4.806560
 11
5.718240
 21
4.813600
  0
LINE
  8
0
 62
     0
  6
CONTINUOUS
 10
5.718240
 20
4.813600
 11
5.704160
 21
4.821080
  0
LINE
  8
0
 62
     0
  6
CONTINUOUS
 10
5.704160
 20
4.821080
 11
5.704160
 21
4.855400
  0
LINE
  8
0
 62
     0
  6
CONTINUOUS
 10
5.704160
 20
4.855400
 11
5.731440
 21
4.869920
  0
LINE
  8
0
 62
     0
  6
CONTINUOUS
 10
5.731440
 20
4.869920
 11
5.739800
 21
4.869920
  0
LINE
  8
0
 62
     0
  6
CONTINUOUS
 10
5.739800
 20
4.869920
 11
5.739800
 21
4.876960
  0
LINE
  8
0
 62
     0
  6
CONTINUOUS
 10
5.739800
 20
4.876960
 11
5.731440
 21
4.876960
  0
LINE
  8
0
 62
     0
  6
CONTINUOUS
 10
5.731440
 20
4.876960
 11
5.731440
 21
4.897640
  0
LINE
  8
0
 62
     0
  6
CONTINUOUS
 10
5.731440
 20
4.897640
 11
5.734960
 21
4.902040
  0
LINE
  8
0
 62
     0
  6
CONTINUOUS
 10
5.734960
 20
4.902040
 11
5.736280
 21
4.904680
  0
LINE
  8
0
 62
     0
  6
CONTINUOUS
 10
5.736280
 20
4.904680
 11
5.739800
 21
4.904680
  0
LINE
  8
0
 62
     0
  6
CONTINUOUS
 10
5.739800
 20
4.904680
 11
5.754320
 21
4.904680
  0
LINE
  8
0
 62
     0
  6
CONTINUOUS
 10
5.754320
 20
4.904680
 11
5.754320
 21
4.906000
  0
LINE
  8
0
 62
     0
  6
CONTINUOUS
 10
5.754320
 20
4.906000
 11
5.754320
 21
4.923600
  0
LINE
  8
0
 62
     0
  6
CONTINUOUS
 10
5.796120
 20
4.923600
 11
5.796120
 21
4.904680
  0
LINE
  8
0
 62
     0
  6
CONTINUOUS
 10
5.796120
 20
4.904680
 11
5.794800
 21
4.904680
  0
LINE
  8
0
 62
     0
  6
CONTINUOUS
 10
5.794800
 20
4.904680
 11
5.809320
 21
4.904680
  0
LINE
  8
0
 62
     0
  6
CONTINUOUS
 10
5.809320
 20
4.904680
 11
5.811520
 21
4.904680
  0
LINE
  8
0
 62
     0
  6
CONTINUOUS
 10
5.811520
 20
4.904680
 11
5.814160
 21
4.902040
  0
LINE
  8
0
 62
     0
  6
CONTINUOUS
 10
5.814160
 20
4.902040
 11
5.814160
 21
4.897640
  0
LINE
  8
0
 62
     0
  6
CONTINUOUS
 10
5.814160
 20
4.897640
 11
5.814160
 21
4.876960
  0
LINE
  8
0
 62
     0
  6
CONTINUOUS
 10
5.814160
 20
4.876960
 11
5.809320
 21
4.876960
  0
LINE
  8
0
 62
     0
  6
CONTINUOUS
 10
5.809320
 20
4.876960
 11
5.809320
 21
4.869920
  0
LINE
  8
0
 62
     0
  6
CONTINUOUS
 10
5.809320
 20
4.869920
 11
5.814160
 21
4.869920
  0
LINE
  8
0
 62
     0
  6
CONTINUOUS
 10
5.814160
 20
4.869920
 11
5.842760
 21
4.855400
  0
LINE
  8
0
 62
     0
  6
CONTINUOUS
 10
5.842760
 20
4.855400
 11
5.842760
 21
4.821080
  0
LINE
  8
0
 62
     0
  6
CONTINUOUS
 10
5.842760
 20
4.821080
 11
5.828240
 21
4.813600
  0
LINE
  8
0
 62
     0
  6
CONTINUOUS
 10
5.828240
 20
4.813600
 11
5.828240
 21
4.806560
  0
LINE
  8
0
 62
     0
  6
CONTINUOUS
 10
5.828240
 20
4.806560
 11
5.823400
 21
4.806560
  0
LINE
  8
0
 62
     0
  6
CONTINUOUS
 10
5.823400
 20
4.806560
 11
5.823400
 21
4.789840
  0
LINE
  8
0
 62
     0
  6
CONTINUOUS
 10
5.823400
 20
4.789840
 11
5.823400
 21
4.782800
  0
LINE
  8
0
 62
     0
  6
CONTINUOUS
 10
5.823400
 20
4.782800
 11
5.840120
 21
4.782800
  0
LINE
  8
0
 62
     0
  6
CONTINUOUS
 10
5.840120
 20
4.782800
 11
5.842760
 21
4.786320
  0
LINE
  8
0
 62
     0
  6
CONTINUOUS
 10
5.842760
 20
4.786320
 11
5.854640
 21
4.786320
  0
LINE
  8
0
 62
     0
  6
CONTINUOUS
 10
5.854640
 20
4.786320
 11
5.856840
 21
4.782800
  0
LINE
  8
0
 62
     0
  6
CONTINUOUS
 10
5.856840
 20
4.782800
 11
5.856840
 21
4.755080
  0
LINE
  8
0
 62
     0
  6
CONTINUOUS
 10
5.856840
 20
4.755080
 11
5.854640
 21
4.751560
  0
LINE
  8
0
 62
     0
  6
CONTINUOUS
 10
5.854640
 20
4.751560
 11
5.842760
 21
4.751560
  0
LINE
  8
0
 62
     0
  6
CONTINUOUS
 10
5.842760
 20
4.751560
 11
5.840120
 21
4.755080
  0
LINE
  8
0
 62
     0
  6
CONTINUOUS
 10
5.856840
 20
4.763440
 11
5.978720
 21
4.763440
  0
LINE
  8
0
 62
     0
  6
CONTINUOUS
 10
5.978720
 20
4.763440
 11
5.978720
 21
4.769600
  0
LINE
  8
0
 62
     0
  6
CONTINUOUS
 10
5.978720
 20
4.769600
 11
5.856840
 21
4.769600
  0
LINE
  8
0
 62
     0
  6
CONTINUOUS
 10
5.856840
 20
4.769600
 11
5.856840
 21
4.775320
  0
LINE
  8
0
 62
     0
  6
CONTINUOUS
 10
5.856840
 20
4.775320
 11
5.978720
 21
4.775320
  0
LINE
  8
0
 62
     0
  6
CONTINUOUS
 10
5.978720
 20
4.775320
 11
5.978720
 21
4.761240
  0
LINE
  8
0
 62
     0
  6
CONTINUOUS
 10
5.978720
 20
4.761240
 11
5.856840
 21
4.761240
  0
LINE
  8
0
 62
     0
  6
CONTINUOUS
 10
5.856840
 20
4.761240
 11
5.856840
 21
4.775320
  0
LINE
  8
0
 62
     0
  6
CONTINUOUS
 10
5.856840
 20
4.775320
 11
5.978720
 21
4.775320
  0
LINE
  8
0
 62
     0
  6
CONTINUOUS
 10
5.754320
 20
4.763440
 11
5.726600
 21
4.766080
  0
LINE
  8
0
 62
     0
  6
CONTINUOUS
 10
5.726600
 20
4.766080
 11
5.725280
 21
4.766960
  0
LINE
  8
0
 62
     0
  6
CONTINUOUS
 10
5.725280
 20
4.766960
 11
5.725280
 21
4.769600
  0
LINE
  8
0
 62
     0
  6
CONTINUOUS
 10
5.725280
 20
4.769600
 11
5.725280
 21
4.782800
  0
LINE
  8
0
 62
     0
  6
CONTINUOUS
 10
5.725280
 20
4.782800
 11
5.725280
 21
4.789840
  0
LINE
  8
0
 62
     0
  6
CONTINUOUS
 10
5.725280
 20
4.789840
 11
5.725280
 21
4.806560
  0
LINE
  8
0
 62
     0
  6
CONTINUOUS
 10
5.725280
 20
4.782800
 11
5.708560
 21
4.782800
  0
LINE
  8
0
 62
     0
  6
CONTINUOUS
 10
5.708560
 20
4.782800
 11
5.708560
 21
4.755080
  0
LINE
  8
0
 62
     0
  6
CONTINUOUS
 10
5.708560
 20
4.755080
 11
5.754320
 21
4.755080
  0
LINE
  8
0
 62
     0
  6
CONTINUOUS
 10
5.708560
 20
4.755080
 11
5.704160
 21
4.751560
  0
LINE
  8
0
 62
     0
  6
CONTINUOUS
 10
5.704160
 20
4.751560
 11
5.704160
 21
4.786320
  0
LINE
  8
0
 62
     0
  6
CONTINUOUS
 10
5.704160
 20
4.786320
 11
5.708560
 21
4.782800
  0
LINE
  8
0
 62
     0
  6
CONTINUOUS
 10
5.708560
 20
4.782800
 11
5.689640
 21
4.782800
  0
LINE
  8
0
 62
     0
  6
CONTINUOUS
 10
5.689640
 20
4.782800
 11
5.694480
 21
4.786320
  0
LINE
  8
0
 62
     0
  6
CONTINUOUS
 10
5.694480
 20
4.786320
 11
5.694480
 21
4.751560
  0
LINE
  8
0
 62
     0
  6
CONTINUOUS
 10
5.694480
 20
4.751560
 11
5.704160
 21
4.751560
  0
LINE
  8
0
 62
     0
  6
CONTINUOUS
 10
5.708560
 20
4.755080
 11
5.689640
 21
4.755080
  0
LINE
  8
0
 62
     0
  6
CONTINUOUS
 10
5.689640
 20
4.755080
 11
5.689640
 21
4.782800
  0
LINE
  8
0
 62
     0
  6
CONTINUOUS
 10
5.689640
 20
4.782800
 11
5.689640
 21
4.755080
  0
LINE
  8
0
 62
     0
  6
CONTINUOUS
 10
5.689640
 20
4.755080
 11
5.694480
 21
4.751560
  0
LINE
  8
0
 62
     0
  6
CONTINUOUS
 10
5.689640
 20
4.761240
 11
5.510120
 21
4.761240
  0
LINE
  8
0
 62
     0
  6
CONTINUOUS
 10
5.510120
 20
4.761240
 11
5.524640
 21
4.775320
  0
LINE
  8
0
 62
     0
  6
CONTINUOUS
 10
5.524640
 20
4.775320
 11
5.689640
 21
4.775320
  0
LINE
  8
0
 62
     0
  6
CONTINUOUS
 10
5.689640
 20
4.775320
 11
5.689640
 21
4.761240
  0
LINE
  8
0
 62
     0
  6
CONTINUOUS
 10
5.689640
 20
4.761240
 11
5.689640
 21
4.763440
  0
LINE
  8
0
 62
     0
  6
CONTINUOUS
 10
5.689640
 20
4.763440
 11
5.510120
 21
4.763440
  0
LINE
  8
0
 62
     0
  6
CONTINUOUS
 10
5.510120
 20
4.763440
 11
5.510120
 21
4.761240
  0
LINE
  8
0
 62
     0
  6
CONTINUOUS
 10
5.510120
 20
4.761240
 11
5.510120
 21
5.397040
  0
LINE
  8
0
 62
     0
  6
CONTINUOUS
 10
5.510120
 20
5.397040
 11
5.524640
 21
5.397040
  0
LINE
  8
0
 62
     0
  6
CONTINUOUS
 10
5.524640
 20
5.397040
 11
5.524640
 21
4.775320
  0
LINE
  8
0
 62
     0
  6
CONTINUOUS
 10
5.524640
 20
4.775320
 11
5.510120
 21
4.761240
  0
LINE
  8
0
 62
     0
  6
CONTINUOUS
 10
5.512760
 20
4.766080
 11
5.512760
 21
5.397040
  0
LINE
  8
0
 62
     0
  6
CONTINUOUS
 10
5.512760
 20
5.397040
 11
5.521120
 21
5.397040
  0
LINE
  8
0
 62
     0
  6
CONTINUOUS
 10
5.521120
 20
5.397040
 11
5.521120
 21
4.771800
  0
LINE
  8
0
 62
     0
  6
CONTINUOUS
 10
5.521120
 20
4.771800
 11
5.512760
 21
4.766080
  0
LINE
  8
0
 62
     0
  6
CONTINUOUS
 10
5.512760
 20
4.766080
 11
5.517600
 21
4.769600
  0
LINE
  8
0
 62
     0
  6
CONTINUOUS
 10
5.517600
 20
4.769600
 11
5.689640
 21
4.769600
  0
LINE
  8
0
 62
     0
  6
CONTINUOUS
 10
5.689640
 20
4.769600
 11
5.689640
 21
4.763440
  0
LINE
  8
0
 62
     0
  6
CONTINUOUS
 10
5.689640
 20
4.775320
 11
5.524640
 21
4.775320
  0
LINE
  8
0
 62
     0
  6
CONTINUOUS
 10
5.524640
 20
4.775320
 11
5.517600
 21
4.769600
  0
LINE
  8
0
 62
     0
  6
CONTINUOUS
 10
5.694480
 20
4.786320
 11
5.704160
 21
4.786320
  0
LINE
  8
0
 62
     0
  6
CONTINUOUS
 10
5.745960
 20
4.817560
 11
5.754320
 21
4.817560
  0
LINE
  8
0
 62
     0
  6
CONTINUOUS
 10
5.739800
 20
4.957040
 11
5.742000
 21
4.959680
  0
LINE
  8
0
 62
     0
  6
CONTINUOUS
 10
5.742000
 20
4.959680
 11
5.744640
 21
4.961880
  0
LINE
  8
0
 62
     0
  6
CONTINUOUS
 10
5.744640
 20
4.961880
 11
5.742000
 21
4.965400
  0
LINE
  8
0
 62
     0
  6
CONTINUOUS
 10
5.742000
 20
4.965400
 11
5.739800
 21
4.968040
  0
LINE
  8
0
 62
     0
  6
CONTINUOUS
 10
5.739800
 20
4.968040
 11
5.736280
 21
4.968040
  0
LINE
  8
0
 62
     0
  6
CONTINUOUS
 10
5.736280
 20
4.968040
 11
5.734960
 21
4.965400
  0
LINE
  8
0
 62
     0
  6
CONTINUOUS
 10
5.734960
 20
4.965400
 11
5.732760
 21
4.961880
  0
LINE
  8
0
 62
     0
  6
CONTINUOUS
 10
5.732760
 20
4.961880
 11
5.734960
 21
4.959680
  0
LINE
  8
0
 62
     0
  6
CONTINUOUS
 10
5.734960
 20
4.959680
 11
5.736280
 21
4.957040
  0
LINE
  8
0
 62
     0
  6
CONTINUOUS
 10
5.736280
 20
4.957040
 11
5.739800
 21
4.956160
  0
LINE
  8
0
 62
     0
  6
CONTINUOUS
 10
5.739800
 20
4.956160
 11
5.739800
 21
4.957040
  0
LINE
  8
0
 62
     0
  6
CONTINUOUS
 10
5.739800
 20
4.957040
 11
5.739800
 21
4.958360
  0
LINE
  8
0
 62
     0
  6
CONTINUOUS
 10
5.739800
 20
4.958360
 11
5.739800
 21
4.961880
  0
LINE
  8
0
 62
     0
  6
CONTINUOUS
 10
5.739800
 20
4.961880
 11
5.741120
 21
4.961880
  0
LINE
  8
0
 62
     0
  6
CONTINUOUS
 10
5.741120
 20
4.961880
 11
5.741120
 21
4.963200
  0
LINE
  8
0
 62
     0
  6
CONTINUOUS
 10
5.741120
 20
4.963200
 11
5.739800
 21
4.963200
  0
LINE
  8
0
 62
     0
  6
CONTINUOUS
 10
5.739800
 20
4.963200
 11
5.739800
 21
4.966720
  0
LINE
  8
0
 62
     0
  6
CONTINUOUS
 10
5.739800
 20
4.966720
 11
5.738480
 21
4.966720
  0
LINE
  8
0
 62
     0
  6
CONTINUOUS
 10
5.738480
 20
4.966720
 11
5.738480
 21
4.963200
  0
LINE
  8
0
 62
     0
  6
CONTINUOUS
 10
5.738480
 20
4.963200
 11
5.736280
 21
4.963200
  0
LINE
  8
0
 62
     0
  6
CONTINUOUS
 10
5.736280
 20
4.963200
 11
5.736280
 21
4.961880
  0
LINE
  8
0
 62
     0
  6
CONTINUOUS
 10
5.736280
 20
4.961880
 11
5.738480
 21
4.961880
  0
LINE
  8
0
 62
     0
  6
CONTINUOUS
 10
5.738480
 20
4.961880
 11
5.738480
 21
4.958360
  0
LINE
  8
0
 62
     0
  6
CONTINUOUS
 10
5.738480
 20
4.958360
 11
5.739800
 21
4.958360
  0
LINE
  8
0
 62
     0
  6
CONTINUOUS
 10
5.814160
 20
4.983440
 11
5.856840
 21
4.983440
  0
LINE
  8
0
 62
     0
  6
CONTINUOUS
 10
5.856840
 20
4.983440
 11
5.856840
 21
5.007640
  0
LINE
  8
0
 62
     0
  6
CONTINUOUS
 10
5.856840
 20
5.007640
 11
5.837920
 21
5.007640
  0
LINE
  8
0
 62
     0
  6
CONTINUOUS
 10
5.837920
 20
5.007640
 11
5.837920
 21
5.005000
  0
LINE
  8
0
 62
     0
  6
CONTINUOUS
 10
5.837920
 20
5.005000
 11
5.856840
 21
5.005000
  0
LINE
  8
0
 62
     0
  6
CONTINUOUS
 10
5.856840
 20
5.005000
 11
5.856840
 21
5.000160
  0
LINE
  8
0
 62
     0
  6
CONTINUOUS
 10
5.856840
 20
5.000160
 11
5.837920
 21
5.000160
  0
LINE
  8
0
 62
     0
  6
CONTINUOUS
 10
5.837920
 20
5.000160
 11
5.837920
 21
4.997960
  0
LINE
  8
0
 62
     0
  6
CONTINUOUS
 10
5.837920
 20
4.997960
 11
5.856840
 21
4.997960
  0
LINE
  8
0
 62
     0
  6
CONTINUOUS
 10
5.856840
 20
4.997960
 11
5.856840
 21
4.993120
  0
LINE
  8
0
 62
     0
  6
CONTINUOUS
 10
5.856840
 20
4.993120
 11
5.864320
 21
4.993120
  0
LINE
  8
0
 62
     0
  6
CONTINUOUS
 10
5.864320
 20
4.993120
 11
5.866520
 21
4.986080
  0
LINE
  8
0
 62
     0
  6
CONTINUOUS
 10
5.866520
 20
4.986080
 11
5.866520
 21
4.968040
  0
LINE
  8
0
 62
     0
  6
CONTINUOUS
 10
5.866520
 20
4.968040
 11
5.864320
 21
4.976400
  0
LINE
  8
0
 62
     0
  6
CONTINUOUS
 10
5.864320
 20
4.976400
 11
5.856840
 21
4.976400
  0
LINE
  8
0
 62
     0
  6
CONTINUOUS
 10
5.864320
 20
4.976400
 11
5.866520
 21
4.986080
  0
LINE
  8
0
 62
     0
  6
CONTINUOUS
 10
5.856840
 20
4.986960
 11
5.837920
 21
4.986960
  0
LINE
  8
0
 62
     0
  6
CONTINUOUS
 10
5.837920
 20
4.986960
 11
5.837920
 21
4.990480
  0
LINE
  8
0
 62
     0
  6
CONTINUOUS
 10
5.837920
 20
4.990480
 11
5.856840
 21
4.990480
  0
LINE
  8
0
 62
     0
  6
CONTINUOUS
 10
5.856840
 20
4.990480
 11
5.856840
 21
4.993120
  0
LINE
  8
0
 62
     0
  6
CONTINUOUS
 10
5.856840
 20
4.993120
 11
5.837920
 21
4.993120
  0
LINE
  8
0
 62
     0
  6
CONTINUOUS
 10
5.837920
 20
4.983440
 11
5.837920
 21
5.168680
  0
LINE
  8
0
 62
     0
  6
CONTINUOUS
 10
5.837920
 20
5.168680
 11
5.836600
 21
5.174840
  0
LINE
  8
0
 62
     0
  6
CONTINUOUS
 10
5.836600
 20
5.174840
 11
5.833080
 21
5.179680
  0
LINE
  8
0
 62
     0
  6
CONTINUOUS
 10
5.833080
 20
5.179680
 11
5.828240
 21
5.183200
  0
LINE
  8
0
 62
     0
  6
CONTINUOUS
 10
5.828240
 20
5.183200
 11
5.826040
 21
5.185400
  0
LINE
  8
0
 62
     0
  6
CONTINUOUS
 10
5.826040
 20
5.185400
 11
5.821200
 21
5.186720
  0
LINE
  8
0
 62
     0
  6
CONTINUOUS
 10
5.821200
 20
5.186720
 11
5.684800
 21
5.186720
  0
LINE
  8
0
 62
     0
  6
CONTINUOUS
 10
5.684800
 20
5.186720
 11
5.682600
 21
5.185400
  0
LINE
  8
0
 62
     0
  6
CONTINUOUS
 10
5.682600
 20
5.185400
 11
5.677760
 21
5.183200
  0
LINE
  8
0
 62
     0
  6
CONTINUOUS
 10
5.615280
 20
5.264600
 11
5.978720
 21
5.264600
  0
LINE
  8
0
 62
     0
  6
CONTINUOUS
 10
5.978720
 20
5.264600
 11
5.978720
 21
5.258440
  0
LINE
  8
0
 62
     0
  6
CONTINUOUS
 10
5.978720
 20
5.258440
 11
5.610880
 21
5.258440
  0
LINE
  8
0
 62
     0
  6
CONTINUOUS
 10
5.610880
 20
5.258440
 11
5.624960
 21
5.273840
  0
LINE
  8
0
 62
     0
  6
CONTINUOUS
 10
5.624960
 20
5.273840
 11
5.978720
 21
5.273840
  0
LINE
  8
0
 62
     0
  6
CONTINUOUS
 10
5.978720
 20
5.273840
 11
5.978720
 21
5.258440
  0
LINE
  8
0
 62
     0
  6
CONTINUOUS
 10
5.978720
 20
5.270320
 11
5.621440
 21
5.270320
  0
LINE
  8
0
 62
     0
  6
CONTINUOUS
 10
5.621440
 20
5.270320
 11
5.615280
 21
5.264600
  0
LINE
  8
0
 62
     0
  6
CONTINUOUS
 10
5.615280
 20
5.264600
 11
5.615280
 21
5.397040
  0
LINE
  8
0
 62
     0
  6
CONTINUOUS
 10
5.615280
 20
5.397040
 11
5.610880
 21
5.397040
  0
LINE
  8
0
 62
     0
  6
CONTINUOUS
 10
5.610880
 20
5.397040
 11
5.624960
 21
5.397040
  0
LINE
  8
0
 62
     0
  6
CONTINUOUS
 10
5.624960
 20
5.397040
 11
5.624960
 21
5.273840
  0
LINE
  8
0
 62
     0
  6
CONTINUOUS
 10
5.624960
 20
5.273840
 11
5.610880
 21
5.258440
  0
LINE
  8
0
 62
     0
  6
CONTINUOUS
 10
5.610880
 20
5.258440
 11
5.610880
 21
5.397040
  0
LINE
  8
0
 62
     0
  6
CONTINUOUS
 10
5.622760
 20
5.397040
 11
5.622760
 21
5.270320
  0
LINE
  8
0
 62
     0
  6
CONTINUOUS
 10
5.622760
 20
5.270320
 11
5.615280
 21
5.264600
  0
LINE
  8
0
 62
     0
  6
CONTINUOUS
 10
6.018320
 20
5.265480
 11
6.053080
 21
5.265480
  0
LINE
  8
0
 62
     0
  6
CONTINUOUS
 10
6.056600
 20
5.289680
 11
6.043400
 21
5.239520
  0
LINE
  8
0
 62
     0
  6
CONTINUOUS
 10
6.069800
 20
5.239520
 11
6.071120
 21
5.289680
  0
LINE
  8
0
 62
     0
  6
CONTINUOUS
 10
6.097520
 20
5.289680
 11
6.069800
 21
5.239520
  0
LINE
  8
0
 62
     0
  6
CONTINUOUS
 10
6.096200
 20
5.239520
 11
6.097520
 21
5.289680
  0
LINE
  8
0
 62
     0
  6
CONTINUOUS
 10
6.119960
 20
5.289680
 11
6.096200
 21
5.239520
  0
LINE
  8
0
 62
     0
  6
CONTINUOUS
 10
6.122600
 20
5.239520
 11
6.133160
 21
5.289680
  0
LINE
  8
0
 62
     0
  6
CONTINUOUS
 10
6.133160
 20
5.289680
 11
6.156040
 21
5.289680
  0
LINE
  8
0
 62
     0
  6
CONTINUOUS
 10
6.156040
 20
5.289680
 11
6.161760
 21
5.287040
  0
LINE
  8
0
 62
     0
  6
CONTINUOUS
 10
6.161760
 20
5.287040
 11
6.165280
 21
5.284840
  0
LINE
  8
0
 62
     0
  6
CONTINUOUS
 10
6.165280
 20
5.284840
 11
6.165280
 21
5.280000
  0
LINE
  8
0
 62
     0
  6
CONTINUOUS
 10
6.165280
 20
5.280000
 11
6.165280
 21
5.275160
  0
LINE
  8
0
 62
     0
  6
CONTINUOUS
 10
6.165280
 20
5.275160
 11
6.158240
 21
5.270320
  0
LINE
  8
0
 62
     0
  6
CONTINUOUS
 10
6.158240
 20
5.270320
 11
6.156040
 21
5.268120
  0
LINE
  8
0
 62
     0
  6
CONTINUOUS
 10
6.156040
 20
5.268120
 11
6.148560
 21
5.265480
  0
LINE
  8
0
 62
     0
  6
CONTINUOUS
 10
6.148560
 20
5.265480
 11
6.127000
 21
5.265480
  0
LINE
  8
0
 62
     0
  6
CONTINUOUS
 10
6.143720
 20
5.265480
 11
6.156040
 21
5.239520
  0
LINE
  8
0
 62
     0
  6
CONTINUOUS
 10
6.012600
 20
5.239520
 11
6.025360
 21
5.289680
  0
LINE
  8
0
 62
     0
  6
CONTINUOUS
 10
5.847600
 20
5.041960
 11
5.842760
 21
5.043280
  0
LINE
  8
0
 62
     0
  6
CONTINUOUS
 10
5.842760
 20
5.043280
 11
5.837920
 21
5.043280
  0
LINE
  8
0
 62
     0
  6
CONTINUOUS
 10
5.847600
 20
5.041960
 11
5.851120
 21
5.038440
  0
LINE
  8
0
 62
     0
  6
CONTINUOUS
 10
5.851120
 20
5.038440
 11
5.852000
 21
5.036240
  0
LINE
  8
0
 62
     0
  6
CONTINUOUS
 10
5.852000
 20
5.036240
 11
5.852000
 21
5.007640
  0
LINE
  8
0
 62
     0
  6
CONTINUOUS
 10
5.856840
 20
4.983440
 11
5.856840
 21
4.954840
  0
LINE
  8
0
 62
     0
  6
CONTINUOUS
 10
5.856840
 20
4.954840
 11
5.856840
 21
4.958360
  0
LINE
  8
0
 62
     0
  6
CONTINUOUS
 10
5.856840
 20
4.958360
 11
5.864320
 21
4.958360
  0
LINE
  8
0
 62
     0
  6
CONTINUOUS
 10
5.864320
 20
4.958360
 11
5.866520
 21
4.968040
  0
LINE
  8
0
 62
     0
  6
CONTINUOUS
 10
6.025360
 20
4.792040
 11
6.012600
 21
4.741880
  0
LINE
  8
0
 62
     0
  6
CONTINUOUS
 10
6.018320
 20
4.768280
 11
6.053080
 21
4.768280
  0
LINE
  8
0
 62
     0
  6
CONTINUOUS
 10
6.056600
 20
4.792040
 11
6.043400
 21
4.741880
  0
LINE
  8
0
 62
     0
  6
CONTINUOUS
 10
6.069800
 20
4.741880
 11
6.071120
 21
4.792040
  0
LINE
  8
0
 62
     0
  6
CONTINUOUS
 10
6.097520
 20
4.792040
 11
6.069800
 21
4.741880
  0
LINE
  8
0
 62
     0
  6
CONTINUOUS
 10
6.096200
 20
4.741880
 11
6.097520
 21
4.792040
  0
LINE
  8
0
 62
     0
  6
CONTINUOUS
 10
6.119960
 20
4.792040
 11
6.096200
 21
4.741880
  0
LINE
  8
0
 62
     0
  6
CONTINUOUS
 10
6.124800
 20
4.744520
 11
6.119960
 21
4.749360
  0
LINE
  8
0
 62
     0
  6
CONTINUOUS
 10
6.124800
 20
4.744520
 11
6.128320
 21
4.741880
  0
LINE
  8
0
 62
     0
  6
CONTINUOUS
 10
6.128320
 20
4.741880
 11
6.140200
 21
4.741880
  0
LINE
  8
0
 62
     0
  6
CONTINUOUS
 10
6.140200
 20
4.741880
 11
6.147680
 21
4.744520
  0
LINE
  8
0
 62
     0
  6
CONTINUOUS
 10
6.147680
 20
4.744520
 11
6.154720
 21
4.749360
  0
LINE
  8
0
 62
     0
  6
CONTINUOUS
 10
6.154720
 20
4.749360
 11
6.156040
 21
4.756400
  0
LINE
  8
0
 62
     0
  6
CONTINUOUS
 10
6.156040
 20
4.756400
 11
6.156040
 21
4.761240
  0
LINE
  8
0
 62
     0
  6
CONTINUOUS
 10
6.156040
 20
4.761240
 11
6.153400
 21
4.763440
  0
LINE
  8
0
 62
     0
  6
CONTINUOUS
 10
6.153400
 20
4.763440
 11
6.148560
 21
4.766080
  0
LINE
  8
0
 62
     0
  6
CONTINUOUS
 10
6.148560
 20
4.766080
 11
6.136680
 21
4.770920
  0
LINE
  8
0
 62
     0
  6
CONTINUOUS
 10
6.136680
 20
4.770920
 11
6.129640
 21
4.773120
  0
LINE
  8
0
 62
     0
  6
CONTINUOUS
 10
6.129640
 20
4.773120
 11
6.128320
 21
4.775320
  0
LINE
  8
0
 62
     0
  6
CONTINUOUS
 10
6.128320
 20
4.775320
 11
6.127000
 21
4.780160
  0
LINE
  8
0
 62
     0
  6
CONTINUOUS
 10
6.127000
 20
4.780160
 11
6.128320
 21
4.785000
  0
LINE
  8
0
 62
     0
  6
CONTINUOUS
 10
6.128320
 20
4.785000
 11
6.136680
 21
4.789840
  0
LINE
  8
0
 62
     0
  6
CONTINUOUS
 10
6.136680
 20
4.789840
 11
6.141520
 21
4.792040
  0
LINE
  8
0
 62
     0
  6
CONTINUOUS
 10
6.141520
 20
4.792040
 11
6.153400
 21
4.792040
  0
LINE
  8
0
 62
     0
  6
CONTINUOUS
 10
6.153400
 20
4.792040
 11
6.158240
 21
4.789840
  0
LINE
  8
0
 62
     0
  6
CONTINUOUS
 10
6.158240
 20
4.789840
 11
6.163080
 21
4.785000
  0
LINE
  8
0
 62
     0
  6
CONTINUOUS
 10
5.774560
 20
4.455000
 11
5.774560
 21
4.727800
  0
LINE
  8
0
 62
     0
  6
CONTINUOUS
 10
5.616600
 20
6.085640
 11
5.622760
 21
6.080800
  0
LINE
  8
0
 62
     0
  6
CONTINUOUS
 10
5.622760
 20
6.080800
 11
5.622760
 21
6.076400
  0
LINE
  8
0
 62
     0
  6
CONTINUOUS
 10
5.622760
 20
6.076400
 11
5.624080
 21
6.068920
  0
LINE
  8
0
 62
     0
  6
CONTINUOUS
 10
5.624080
 20
6.068920
 11
5.620120
 21
6.057040
  0
LINE
  8
0
 62
     0
  6
CONTINUOUS
 10
5.620120
 20
6.057040
 11
5.613080
 21
6.050000
  0
LINE
  8
0
 62
     0
  6
CONTINUOUS
 10
5.613080
 20
6.050000
 11
5.610880
 21
6.045160
  0
LINE
  8
0
 62
     0
  6
CONTINUOUS
 10
5.610880
 20
6.045160
 11
5.606040
 21
6.040320
  0
LINE
  8
0
 62
     0
  6
CONTINUOUS
 10
5.606040
 20
6.040320
 11
5.596360
 21
6.038120
  0
LINE
  8
0
 62
     0
  6
CONTINUOUS
 10
5.596360
 20
6.038120
 11
5.581840
 21
6.038120
  0
LINE
  8
0
 62
     0
  6
CONTINUOUS
 10
5.581840
 20
6.038120
 11
5.595040
 21
6.086960
  0
LINE
  8
0
 62
     0
  6
CONTINUOUS
 10
5.595040
 20
6.086960
 11
5.610880
 21
6.086960
  0
LINE
  8
0
 62
     0
  6
CONTINUOUS
 10
5.610880
 20
6.086960
 11
5.616600
 21
6.085640
  0
LINE
  8
0
 62
     0
  6
CONTINUOUS
 10
5.567760
 20
6.085640
 11
5.564240
 21
6.086960
  0
LINE
  8
0
 62
     0
  6
CONTINUOUS
 10
5.564240
 20
6.086960
 11
5.553240
 21
6.086960
  0
LINE
  8
0
 62
     0
  6
CONTINUOUS
 10
5.553240
 20
6.086960
 11
5.549720
 21
6.085640
  0
LINE
  8
0
 62
     0
  6
CONTINUOUS
 10
5.549720
 20
6.085640
 11
5.541360
 21
6.080800
  0
LINE
  8
0
 62
     0
  6
CONTINUOUS
 10
5.541360
 20
6.080800
 11
5.539160
 21
6.076400
  0
LINE
  8
0
 62
     0
  6
CONTINUOUS
 10
5.539160
 20
6.076400
 11
5.535200
 21
6.068920
  0
LINE
  8
0
 62
     0
  6
CONTINUOUS
 10
5.535200
 20
6.068920
 11
5.531680
 21
6.057040
  0
LINE
  8
0
 62
     0
  6
CONTINUOUS
 10
5.531680
 20
6.057040
 11
5.531680
 21
6.050000
  0
LINE
  8
0
 62
     0
  6
CONTINUOUS
 10
5.531680
 20
6.050000
 11
5.534320
 21
6.045160
  0
LINE
  8
0
 62
     0
  6
CONTINUOUS
 10
5.534320
 20
6.045160
 11
5.537840
 21
6.040320
  0
LINE
  8
0
 62
     0
  6
CONTINUOUS
 10
5.537840
 20
6.040320
 11
5.539160
 21
6.038120
  0
LINE
  8
0
 62
     0
  6
CONTINUOUS
 10
5.539160
 20
6.038120
 11
5.551040
 21
6.038120
  0
LINE
  8
0
 62
     0
  6
CONTINUOUS
 10
5.551040
 20
6.038120
 11
5.554560
 21
6.040320
  0
LINE
  8
0
 62
     0
  6
CONTINUOUS
 10
5.554560
 20
6.040320
 11
5.562920
 21
6.045160
  0
LINE
  8
0
 62
     0
  6
CONTINUOUS
 10
5.562920
 20
6.045160
 11
5.566440
 21
6.050000
  0
LINE
  8
0
 62
     0
  6
CONTINUOUS
 10
5.566440
 20
6.050000
 11
5.567760
 21
6.057040
  0
LINE
  8
0
 62
     0
  6
CONTINUOUS
 10
5.567760
 20
6.057040
 11
5.572600
 21
6.068920
  0
LINE
  8
0
 62
     0
  6
CONTINUOUS
 10
5.572600
 20
6.068920
 11
5.572600
 21
6.076400
  0
LINE
  8
0
 62
     0
  6
CONTINUOUS
 10
5.572600
 20
6.076400
 11
5.569960
 21
6.080800
  0
LINE
  8
0
 62
     0
  6
CONTINUOUS
 10
5.569960
 20
6.080800
 11
5.567760
 21
6.085640
  0
LINE
  8
0
 62
     0
  6
CONTINUOUS
 10
5.524640
 20
6.086960
 11
5.491200
 21
6.038120
  0
LINE
  8
0
 62
     0
  6
CONTINUOUS
 10
5.491200
 20
6.038120
 11
5.484160
 21
6.086960
  0
LINE
  8
0
 62
     0
  6
CONTINUOUS
 10
5.484160
 20
6.086960
 11
5.469640
 21
6.038120
  0
LINE
  8
0
 62
     0
  6
CONTINUOUS
 10
5.484160
 20
6.025800
 11
5.469640
 21
5.975640
  0
LINE
  8
0
 62
     0
  6
CONTINUOUS
 10
5.480200
 20
6.002040
 11
5.510120
 21
6.002040
  0
LINE
  8
0
 62
     0
  6
CONTINUOUS
 10
5.530800
 20
6.002040
 11
5.551040
 21
6.002040
  0
LINE
  8
0
 62
     0
  6
CONTINUOUS
 10
5.553240
 20
5.975640
 11
5.524640
 21
5.975640
  0
LINE
  8
0
 62
     0
  6
CONTINUOUS
 10
5.524640
 20
5.975640
 11
5.539160
 21
6.025800
  0
LINE
  8
0
 62
     0
  6
CONTINUOUS
 10
5.539160
 20
6.025800
 11
5.567760
 21
6.025800
  0
LINE
  8
0
 62
     0
  6
CONTINUOUS
 10
5.595040
 20
6.025800
 11
5.562920
 21
5.975640
  0
LINE
  8
0
 62
     0
  6
CONTINUOUS
 10
5.573480
 20
5.992360
 11
5.596360
 21
5.992360
  0
LINE
  8
0
 62
     0
  6
CONTINUOUS
 10
5.598560
 20
5.975640
 11
5.595040
 21
6.025800
  0
LINE
  8
0
 62
     0
  6
CONTINUOUS
 10
5.617920
 20
6.025800
 11
5.652680
 21
6.025800
  0
LINE
  8
0
 62
     0
  6
CONTINUOUS
 10
5.635960
 20
6.025800
 11
5.622760
 21
5.975640
  0
LINE
  8
0
 62
     0
  6
CONTINUOUS
 10
5.634640
 20
6.038120
 11
5.636840
 21
6.040320
  0
LINE
  8
0
 62
     0
  6
CONTINUOUS
 10
5.636840
 20
6.040320
 11
5.635960
 21
6.042960
  0
LINE
  8
0
 62
     0
  6
CONTINUOUS
 10
5.635960
 20
6.042960
 11
5.631120
 21
6.040320
  0
LINE
  8
0
 62
     0
  6
CONTINUOUS
 10
5.631120
 20
6.040320
 11
5.634640
 21
6.038120
  0
LINE
  8
0
 62
     0
  6
CONTINUOUS
 10
5.510120
 20
6.038120
 11
5.524640
 21
6.086960
  0
LINE
  8
0
 62
     0
  6
CONTINUOUS
 10
5.519800
 20
6.025800
 11
5.506600
 21
5.975640
  0
SOLID
  8
0
 62
     7
 10
5.672920
 20
4.546960
 11
5.919760
 21
4.546960
 12
5.672920
 22
4.357760
 13
5.919760
 23
4.357760
  0
POLYLINE
  8
0
 62
     0
  6
CONTINUOUS
 66
     1
 40
0.000000
 41
0.000000
  0
VERTEX
  8
0
 62
     0
  6
CONTINUOUS
 10
5.672920
 20
4.546960
  0
VERTEX
  8
0
 62
     0
  6
CONTINUOUS
 10
5.919760
 20
4.546960
  0
VERTEX
  8
0
 62
     0
  6
CONTINUOUS
 10
5.919760
 20
4.357760
  0
VERTEX
  8
0
 62
     0
  6
CONTINUOUS
 10
5.672920
 20
4.357760
  0
VERTEX
  8
0
 62
     0
  6
CONTINUOUS
 10
5.672920
 20
4.546960
  0
SEQEND
  8
0
  0
TEXT
  8
0
 62
     0
 10
5.692280
 20
4.444440
 40
0.108501
  1
AO
 41
1.000000
  7
SN0
 71
     0
 72
     5
 11
5.922840
 21
4.444440
  0
ENDSEC
  0
EOF
