  0
SECTION
  2
HEADER
  9
$EXTMIN
 10
1.131240
 20
7.209400
  9
$EXTMAX
 10
6.961680
 20
9.017360
  9
$LTSCALE
 40
0.044000
  9
$PDMODE
 70
    35
  9
$PDSIZE
 40
0.035200
  0
ENDSEC
  0
SECTION
  2
TABLES
  0
TABLE
  2
LTYPE
 70
     9
  0
LTYPE
  2
CONTINUOUS
 70
    64
  3
Solid line
 72
    65
 73
     0
 40
0.000000
  0
LTYPE
  2
DASHED
 70
    64
  3
__ __ __ __ __ __ __ __ __ __ __ __ __ __ __
 72
    65
 73
     2
 40
0.000330
 49
0.000220
 49
-0.000110
  0
LTYPE
  2
HIDDEN
 70
    64
  3
 _ _ _ _ _ _ _ _ _ _ _ _ _ _ _ _ _ _ _ _ _ _
 72
    65
 73
     2
 40
0.000165
 49
0.000110
 49
-0.000055
  0
LTYPE
  2
CENTER
 70
    64
  3
____ _ ____ _ ____ _ ____ _ ____ _ ____ _ ____
 72
    65
 73
     4
 40
0.000880
 49
0.000550
 49
-0.000110
 49
0.000110
 49
-0.000110
  0
LTYPE
  2
PHANTOM
 70
    64
  3
_____ _ _ _____ _ _ _____ _ _ _____ _ _ ____
 72
    65
 73
     6
 40
0.001100
 49
0.000550
 49
-0.000110
 49
0.000110
 49
-0.000110
 49
0.000110
 49
-0.000110
  0
LTYPE
  2
DOT
 70
    64
  3
...............................................
 72
    65
 73
     2
 40
0.000110
 49
0.000000
 49
-0.000110
  0
LTYPE
  2
DASHDOT
 70
    64
  3
__ . __ . __ . __ . __ . __ . __ . __ . __ . __
 72
    65
 73
     4
 40
0.000440
 49
0.000220
 49
-0.000110
 49
0.000000
 49
-0.000110
  0
LTYPE
  2
BORDER
 70
    64
  3
__ __ . __ __ . __ __ . __ __ . __ __ . __ __
 72
    65
 73
     6
 40
0.000770
 49
0.000220
 49
-0.000110
 49
0.000220
 49
-0.000110
 49
0.000000
 49
-0.000110
  0
LTYPE
  2
DIVIDE
 70
    64
  3
__ . . __ . . __ . . __ . . __ . . __ . . __
 72
    65
 73
     6
 40
0.000550
 49
0.000220
 49
-0.000110
 49
0.000000
 49
-0.000110
 49
0.000000
 49
-0.000110
  0
LTYPE
  2
DOTDOT
 70
    64
  3
 . .  . .  . .  . .  . .  . . 
 72
    65
 73
     5
 40
0.000242
 49
-0.000110
 49
0.000000
 49
-0.000110
 49
0.000000
 49
-0.000110
  0
ENDTAB
  0
TABLE
  2
STYLE
 70
     2
  0
STYLE
 70
     0
  2
SN0
 40
0.000000
 41
0.000440
 50
0.000000
 71
     0
 42
0.000000
  3
ROMANS
  0
STYLE
 70
    68
  2
SV0
 40
0.000000
 41
0.000440
 50
0.000000
 71
     0
 42
0.000000
  3
ROMANS
  0
ENDTAB
  0
TABLE
  2
LAYER
 70
     3
  0
LAYER
  2
FOREGROUND
 70
    64
 62
     7
  6
CONTINUOUS
  0
LAYER
  2
BACKGROUND
 70
    65
 62
    -7
  6
CONTINUOUS
  0
LAYER
  2
0
 70
    64
 62
     7
  6
CONTINUOUS
  0
ENDTAB
  0
ENDSEC
  0
SECTION
  2
ENTITIES
  0
POLYLINE
  8
0
 62
     0
  6
CONTINUOUS
 66
     1
 40
0.014520
 41
0.014520
  0
VERTEX
  8
0
 62
     0
  6
CONTINUOUS
 10
2.838000
 20
8.943000
  0
VERTEX
  8
0
 62
     0
  6
CONTINUOUS
 10
3.167560
 20
8.943000
  0
SEQEND
  8
0
  0
POLYLINE
  8
0
 62
     0
  6
CONTINUOUS
 66
     1
 40
0.014520
 41
0.014520
  0
VERTEX
  8
0
 62
     0
  6
CONTINUOUS
 10
3.167560
 20
8.943000
  0
VERTEX
  8
0
 62
     0
  6
CONTINUOUS
 10
3.158320
 20
8.796040
  0
SEQEND
  8
0
  0
POLYLINE
  8
0
 62
     0
  6
CONTINUOUS
 66
     1
 40
0.014520
 41
0.014520
  0
VERTEX
  8
0
 62
     0
  6
CONTINUOUS
 10
3.158320
 20
8.796040
  0
VERTEX
  8
0
 62
     0
  6
CONTINUOUS
 10
3.133240
 20
8.796040
  0
SEQEND
  8
0
  0
POLYLINE
  8
0
 62
     0
  6
CONTINUOUS
 66
     1
 40
0.014520
 41
0.014520
  0
VERTEX
  8
0
 62
     0
  6
CONTINUOUS
 10
3.133240
 20
8.790760
  0
VERTEX
  8
0
 62
     0
  6
CONTINUOUS
 10
3.087920
 20
8.790760
  0
SEQEND
  8
0
  0
POLYLINE
  8
0
 62
     0
  6
CONTINUOUS
 66
     1
 40
0.014520
 41
0.014520
  0
VERTEX
  8
0
 62
     0
  6
CONTINUOUS
 10
3.087920
 20
8.790760
  0
VERTEX
  8
0
 62
     0
  6
CONTINUOUS
 10
3.087920
 20
8.802640
  0
SEQEND
  8
0
  0
POLYLINE
  8
0
 62
     0
  6
CONTINUOUS
 66
     1
 40
0.014520
 41
0.014520
  0
VERTEX
  8
0
 62
     0
  6
CONTINUOUS
 10
3.087920
 20
8.802640
  0
VERTEX
  8
0
 62
     0
  6
CONTINUOUS
 10
3.133240
 20
8.802640
  0
SEQEND
  8
0
  0
POLYLINE
  8
0
 62
     0
  6
CONTINUOUS
 66
     1
 40
0.014520
 41
0.014520
  0
VERTEX
  8
0
 62
     0
  6
CONTINUOUS
 10
3.133240
 20
8.802640
  0
VERTEX
  8
0
 62
     0
  6
CONTINUOUS
 10
3.133240
 20
8.790760
  0
SEQEND
  8
0
  0
POLYLINE
  8
0
 62
     0
  6
CONTINUOUS
 66
     1
 40
0.014520
 41
0.014520
  0
VERTEX
  8
0
 62
     0
  6
CONTINUOUS
 10
3.087920
 20
8.796040
  0
VERTEX
  8
0
 62
     0
  6
CONTINUOUS
 10
2.917200
 20
8.796040
  0
SEQEND
  8
0
  0
POLYLINE
  8
0
 62
     0
  6
CONTINUOUS
 66
     1
 40
0.014520
 41
0.014520
  0
VERTEX
  8
0
 62
     0
  6
CONTINUOUS
 10
2.917200
 20
8.790760
  0
VERTEX
  8
0
 62
     0
  6
CONTINUOUS
 10
2.917200
 20
8.802640
  0
SEQEND
  8
0
  0
POLYLINE
  8
0
 62
     0
  6
CONTINUOUS
 66
     1
 40
0.014520
 41
0.014520
  0
VERTEX
  8
0
 62
     0
  6
CONTINUOUS
 10
2.917200
 20
8.802640
  0
VERTEX
  8
0
 62
     0
  6
CONTINUOUS
 10
2.872320
 20
8.802640
  0
SEQEND
  8
0
  0
POLYLINE
  8
0
 62
     0
  6
CONTINUOUS
 66
     1
 40
0.014520
 41
0.014520
  0
VERTEX
  8
0
 62
     0
  6
CONTINUOUS
 10
2.872320
 20
8.802640
  0
VERTEX
  8
0
 62
     0
  6
CONTINUOUS
 10
2.872320
 20
8.790760
  0
SEQEND
  8
0
  0
POLYLINE
  8
0
 62
     0
  6
CONTINUOUS
 66
     1
 40
0.014520
 41
0.014520
  0
VERTEX
  8
0
 62
     0
  6
CONTINUOUS
 10
2.872320
 20
8.790760
  0
VERTEX
  8
0
 62
     0
  6
CONTINUOUS
 10
2.917200
 20
8.790760
  0
SEQEND
  8
0
  0
POLYLINE
  8
0
 62
     0
  6
CONTINUOUS
 66
     1
 40
0.014520
 41
0.014520
  0
VERTEX
  8
0
 62
     0
  6
CONTINUOUS
 10
2.872320
 20
8.796040
  0
VERTEX
  8
0
 62
     0
  6
CONTINUOUS
 10
2.847240
 20
8.796040
  0
SEQEND
  8
0
  0
POLYLINE
  8
0
 62
     0
  6
CONTINUOUS
 66
     1
 40
0.014520
 41
0.014520
  0
VERTEX
  8
0
 62
     0
  6
CONTINUOUS
 10
2.847240
 20
8.796040
  0
VERTEX
  8
0
 62
     0
  6
CONTINUOUS
 10
2.838000
 20
8.943000
  0
SEQEND
  8
0
  0
POLYLINE
  8
0
 62
     0
  6
CONTINUOUS
 66
     1
 40
0.014520
 41
0.014520
  0
VERTEX
  8
0
 62
     0
  6
CONTINUOUS
 10
2.840640
 20
8.943440
  0
VERTEX
  8
0
 62
     0
  6
CONTINUOUS
 10
2.840640
 20
8.947400
  0
SEQEND
  8
0
  0
POLYLINE
  8
0
 62
     0
  6
CONTINUOUS
 66
     1
 40
0.014520
 41
0.014520
  0
VERTEX
  8
0
 62
     0
  6
CONTINUOUS
 10
2.840640
 20
8.947400
  0
VERTEX
  8
0
 62
     0
  6
CONTINUOUS
 10
3.165360
 20
8.947400
  0
SEQEND
  8
0
  0
POLYLINE
  8
0
 62
     0
  6
CONTINUOUS
 66
     1
 40
0.014520
 41
0.014520
  0
VERTEX
  8
0
 62
     0
  6
CONTINUOUS
 10
3.165360
 20
8.947400
  0
VERTEX
  8
0
 62
     0
  6
CONTINUOUS
 10
3.165360
 20
8.943440
  0
SEQEND
  8
0
  0
POLYLINE
  8
0
 62
     0
  6
CONTINUOUS
 66
     1
 40
0.014520
 41
0.014520
  0
VERTEX
  8
0
 62
     0
  6
CONTINUOUS
 10
3.165360
 20
8.943440
  0
VERTEX
  8
0
 62
     0
  6
CONTINUOUS
 10
2.840640
 20
8.943440
  0
SEQEND
  8
0
  0
POLYLINE
  8
0
 62
     0
  6
CONTINUOUS
 66
     1
 40
0.014520
 41
0.014520
  0
VERTEX
  8
0
 62
     0
  6
CONTINUOUS
 10
2.840640
 20
8.943440
  0
VERTEX
  8
0
 62
     0
  6
CONTINUOUS
 10
2.840640
 20
8.943880
  0
SEQEND
  8
0
  0
POLYLINE
  8
0
 62
     0
  6
CONTINUOUS
 66
     1
 40
0.014520
 41
0.014520
  0
VERTEX
  8
0
 62
     0
  6
CONTINUOUS
 10
2.840640
 20
8.943880
  0
VERTEX
  8
0
 62
     0
  6
CONTINUOUS
 10
3.165360
 20
8.943880
  0
SEQEND
  8
0
  0
POLYLINE
  8
0
 62
     0
  6
CONTINUOUS
 66
     1
 40
0.014520
 41
0.014520
  0
VERTEX
  8
0
 62
     0
  6
CONTINUOUS
 10
3.165360
 20
8.943880
  0
VERTEX
  8
0
 62
     0
  6
CONTINUOUS
 10
3.165360
 20
8.944760
  0
SEQEND
  8
0
  0
POLYLINE
  8
0
 62
     0
  6
CONTINUOUS
 66
     1
 40
0.014520
 41
0.014520
  0
VERTEX
  8
0
 62
     0
  6
CONTINUOUS
 10
3.165360
 20
8.944760
  0
VERTEX
  8
0
 62
     0
  6
CONTINUOUS
 10
2.840640
 20
8.944760
  0
SEQEND
  8
0
  0
POLYLINE
  8
0
 62
     0
  6
CONTINUOUS
 66
     1
 40
0.014520
 41
0.014520
  0
VERTEX
  8
0
 62
     0
  6
CONTINUOUS
 10
2.840640
 20
8.944760
  0
VERTEX
  8
0
 62
     0
  6
CONTINUOUS
 10
2.840640
 20
8.945640
  0
SEQEND
  8
0
  0
POLYLINE
  8
0
 62
     0
  6
CONTINUOUS
 66
     1
 40
0.014520
 41
0.014520
  0
VERTEX
  8
0
 62
     0
  6
CONTINUOUS
 10
2.840640
 20
8.945640
  0
VERTEX
  8
0
 62
     0
  6
CONTINUOUS
 10
3.165360
 20
8.945640
  0
SEQEND
  8
0
  0
POLYLINE
  8
0
 62
     0
  6
CONTINUOUS
 66
     1
 40
0.014520
 41
0.014520
  0
VERTEX
  8
0
 62
     0
  6
CONTINUOUS
 10
3.165360
 20
8.945640
  0
VERTEX
  8
0
 62
     0
  6
CONTINUOUS
 10
3.165360
 20
8.946520
  0
SEQEND
  8
0
  0
POLYLINE
  8
0
 62
     0
  6
CONTINUOUS
 66
     1
 40
0.014520
 41
0.014520
  0
VERTEX
  8
0
 62
     0
  6
CONTINUOUS
 10
3.165360
 20
8.946520
  0
VERTEX
  8
0
 62
     0
  6
CONTINUOUS
 10
2.840640
 20
8.946520
  0
SEQEND
  8
0
  0
POLYLINE
  8
0
 62
     0
  6
CONTINUOUS
 66
     1
 40
0.014520
 41
0.014520
  0
VERTEX
  8
0
 62
     0
  6
CONTINUOUS
 10
2.840640
 20
8.946520
  0
VERTEX
  8
0
 62
     0
  6
CONTINUOUS
 10
2.840640
 20
8.947400
  0
SEQEND
  8
0
  0
POLYLINE
  8
0
 62
     0
  6
CONTINUOUS
 66
     1
 40
0.014520
 41
0.014520
  0
VERTEX
  8
0
 62
     0
  6
CONTINUOUS
 10
2.840640
 20
8.947400
  0
VERTEX
  8
0
 62
     0
  6
CONTINUOUS
 10
3.165360
 20
8.947400
  0
SEQEND
  8
0
  0
POLYLINE
  8
0
 62
     0
  6
CONTINUOUS
 66
     1
 40
0.014520
 41
0.014520
  0
VERTEX
  8
0
 62
     0
  6
CONTINUOUS
 10
3.167560
 20
8.948280
  0
VERTEX
  8
0
 62
     0
  6
CONTINUOUS
 10
3.159200
 20
8.954880
  0
SEQEND
  8
0
  0
POLYLINE
  8
0
 62
     0
  6
CONTINUOUS
 66
     1
 40
0.014520
 41
0.014520
  0
VERTEX
  8
0
 62
     0
  6
CONTINUOUS
 10
3.159200
 20
8.954880
  0
VERTEX
  8
0
 62
     0
  6
CONTINUOUS
 10
2.960760
 20
8.954880
  0
SEQEND
  8
0
  0
POLYLINE
  8
0
 62
     0
  6
CONTINUOUS
 66
     1
 40
0.014520
 41
0.014520
  0
VERTEX
  8
0
 62
     0
  6
CONTINUOUS
 10
3.043920
 20
8.954880
  0
VERTEX
  8
0
 62
     0
  6
CONTINUOUS
 10
2.845920
 20
8.954880
  0
SEQEND
  8
0
  0
POLYLINE
  8
0
 62
     0
  6
CONTINUOUS
 66
     1
 40
0.014520
 41
0.014520
  0
VERTEX
  8
0
 62
     0
  6
CONTINUOUS
 10
2.845920
 20
8.954880
  0
VERTEX
  8
0
 62
     0
  6
CONTINUOUS
 10
2.838000
 20
8.948280
  0
SEQEND
  8
0
  0
POLYLINE
  8
0
 62
     0
  6
CONTINUOUS
 66
     1
 40
0.014520
 41
0.014520
  0
VERTEX
  8
0
 62
     0
  6
CONTINUOUS
 10
2.838000
 20
8.948280
  0
VERTEX
  8
0
 62
     0
  6
CONTINUOUS
 10
3.167560
 20
8.948280
  0
SEQEND
  8
0
  0
POLYLINE
  8
0
 62
     0
  6
CONTINUOUS
 66
     1
 40
0.014520
 41
0.014520
  0
VERTEX
  8
0
 62
     0
  6
CONTINUOUS
 10
3.041280
 20
8.796040
  0
VERTEX
  8
0
 62
     0
  6
CONTINUOUS
 10
3.041280
 20
8.745000
  0
SEQEND
  8
0
  0
POLYLINE
  8
0
 62
     0
  6
CONTINUOUS
 66
     1
 40
0.014520
 41
0.014520
  0
VERTEX
  8
0
 62
     0
  6
CONTINUOUS
 10
3.041280
 20
8.745000
  0
VERTEX
  8
0
 62
     0
  6
CONTINUOUS
 10
3.036880
 20
8.745000
  0
SEQEND
  8
0
  0
POLYLINE
  8
0
 62
     0
  6
CONTINUOUS
 66
     1
 40
0.014520
 41
0.014520
  0
VERTEX
  8
0
 62
     0
  6
CONTINUOUS
 10
3.036880
 20
8.745000
  0
VERTEX
  8
0
 62
     0
  6
CONTINUOUS
 10
3.036880
 20
8.557560
  0
SEQEND
  8
0
  0
POLYLINE
  8
0
 62
     0
  6
CONTINUOUS
 66
     1
 40
0.014520
 41
0.014520
  0
VERTEX
  8
0
 62
     0
  6
CONTINUOUS
 10
3.036880
 20
8.557560
  0
VERTEX
  8
0
 62
     0
  6
CONTINUOUS
 10
3.014880
 20
8.557560
  0
SEQEND
  8
0
  0
POLYLINE
  8
0
 62
     0
  6
CONTINUOUS
 66
     1
 40
0.014520
 41
0.014520
  0
VERTEX
  8
0
 62
     0
  6
CONTINUOUS
 10
3.014880
 20
8.557560
  0
VERTEX
  8
0
 62
     0
  6
CONTINUOUS
 10
3.014880
 20
8.547880
  0
SEQEND
  8
0
  0
POLYLINE
  8
0
 62
     0
  6
CONTINUOUS
 66
     1
 40
0.014520
 41
0.014520
  0
VERTEX
  8
0
 62
     0
  6
CONTINUOUS
 10
3.014880
 20
8.547880
  0
VERTEX
  8
0
 62
     0
  6
CONTINUOUS
 10
3.036880
 20
8.547880
  0
SEQEND
  8
0
  0
POLYLINE
  8
0
 62
     0
  6
CONTINUOUS
 66
     1
 40
0.014520
 41
0.014520
  0
VERTEX
  8
0
 62
     0
  6
CONTINUOUS
 10
3.036880
 20
8.547880
  0
VERTEX
  8
0
 62
     0
  6
CONTINUOUS
 10
3.036880
 20
8.542160
  0
SEQEND
  8
0
  0
POLYLINE
  8
0
 62
     0
  6
CONTINUOUS
 66
     1
 40
0.014520
 41
0.014520
  0
VERTEX
  8
0
 62
     0
  6
CONTINUOUS
 10
3.036880
 20
8.542160
  0
VERTEX
  8
0
 62
     0
  6
CONTINUOUS
 10
3.014880
 20
8.542160
  0
SEQEND
  8
0
  0
POLYLINE
  8
0
 62
     0
  6
CONTINUOUS
 66
     1
 40
0.014520
 41
0.014520
  0
VERTEX
  8
0
 62
     0
  6
CONTINUOUS
 10
3.014880
 20
8.542160
  0
VERTEX
  8
0
 62
     0
  6
CONTINUOUS
 10
3.014880
 20
8.533360
  0
SEQEND
  8
0
  0
POLYLINE
  8
0
 62
     0
  6
CONTINUOUS
 66
     1
 40
0.014520
 41
0.014520
  0
VERTEX
  8
0
 62
     0
  6
CONTINUOUS
 10
3.014880
 20
8.533360
  0
VERTEX
  8
0
 62
     0
  6
CONTINUOUS
 10
3.036880
 20
8.533360
  0
SEQEND
  8
0
  0
POLYLINE
  8
0
 62
     0
  6
CONTINUOUS
 66
     1
 40
0.014520
 41
0.014520
  0
VERTEX
  8
0
 62
     0
  6
CONTINUOUS
 10
3.036880
 20
8.533360
  0
VERTEX
  8
0
 62
     0
  6
CONTINUOUS
 10
3.036880
 20
8.523680
  0
SEQEND
  8
0
  0
POLYLINE
  8
0
 62
     0
  6
CONTINUOUS
 66
     1
 40
0.014520
 41
0.014520
  0
VERTEX
  8
0
 62
     0
  6
CONTINUOUS
 10
3.036880
 20
8.523680
  0
VERTEX
  8
0
 62
     0
  6
CONTINUOUS
 10
2.977480
 20
8.523680
  0
SEQEND
  8
0
  0
POLYLINE
  8
0
 62
     0
  6
CONTINUOUS
 66
     1
 40
0.014520
 41
0.014520
  0
VERTEX
  8
0
 62
     0
  6
CONTINUOUS
 10
2.977480
 20
8.523680
  0
VERTEX
  8
0
 62
     0
  6
CONTINUOUS
 10
2.977480
 20
8.533360
  0
SEQEND
  8
0
  0
POLYLINE
  8
0
 62
     0
  6
CONTINUOUS
 66
     1
 40
0.014520
 41
0.014520
  0
VERTEX
  8
0
 62
     0
  6
CONTINUOUS
 10
2.977480
 20
8.533360
  0
VERTEX
  8
0
 62
     0
  6
CONTINUOUS
 10
2.999040
 20
8.533360
  0
SEQEND
  8
0
  0
POLYLINE
  8
0
 62
     0
  6
CONTINUOUS
 66
     1
 40
0.014520
 41
0.014520
  0
VERTEX
  8
0
 62
     0
  6
CONTINUOUS
 10
2.999040
 20
8.533360
  0
VERTEX
  8
0
 62
     0
  6
CONTINUOUS
 10
2.999040
 20
8.542160
  0
SEQEND
  8
0
  0
POLYLINE
  8
0
 62
     0
  6
CONTINUOUS
 66
     1
 40
0.014520
 41
0.014520
  0
VERTEX
  8
0
 62
     0
  6
CONTINUOUS
 10
2.999040
 20
8.542160
  0
VERTEX
  8
0
 62
     0
  6
CONTINUOUS
 10
2.977480
 20
8.542160
  0
SEQEND
  8
0
  0
POLYLINE
  8
0
 62
     0
  6
CONTINUOUS
 66
     1
 40
0.014520
 41
0.014520
  0
VERTEX
  8
0
 62
     0
  6
CONTINUOUS
 10
2.977480
 20
8.542160
  0
VERTEX
  8
0
 62
     0
  6
CONTINUOUS
 10
2.977480
 20
8.547880
  0
SEQEND
  8
0
  0
POLYLINE
  8
0
 62
     0
  6
CONTINUOUS
 66
     1
 40
0.014520
 41
0.014520
  0
VERTEX
  8
0
 62
     0
  6
CONTINUOUS
 10
2.977480
 20
8.547880
  0
VERTEX
  8
0
 62
     0
  6
CONTINUOUS
 10
2.999040
 20
8.547880
  0
SEQEND
  8
0
  0
POLYLINE
  8
0
 62
     0
  6
CONTINUOUS
 66
     1
 40
0.014520
 41
0.014520
  0
VERTEX
  8
0
 62
     0
  6
CONTINUOUS
 10
2.999040
 20
8.547880
  0
VERTEX
  8
0
 62
     0
  6
CONTINUOUS
 10
2.999040
 20
8.557560
  0
SEQEND
  8
0
  0
POLYLINE
  8
0
 62
     0
  6
CONTINUOUS
 66
     1
 40
0.014520
 41
0.014520
  0
VERTEX
  8
0
 62
     0
  6
CONTINUOUS
 10
2.999040
 20
8.557560
  0
VERTEX
  8
0
 62
     0
  6
CONTINUOUS
 10
2.977480
 20
8.557560
  0
SEQEND
  8
0
  0
POLYLINE
  8
0
 62
     0
  6
CONTINUOUS
 66
     1
 40
0.014520
 41
0.014520
  0
VERTEX
  8
0
 62
     0
  6
CONTINUOUS
 10
2.977480
 20
8.557560
  0
VERTEX
  8
0
 62
     0
  6
CONTINUOUS
 10
2.977480
 20
8.745000
  0
SEQEND
  8
0
  0
POLYLINE
  8
0
 62
     0
  6
CONTINUOUS
 66
     1
 40
0.014520
 41
0.014520
  0
VERTEX
  8
0
 62
     0
  6
CONTINUOUS
 10
2.977480
 20
8.745000
  0
VERTEX
  8
0
 62
     0
  6
CONTINUOUS
 10
2.977040
 20
8.745000
  0
SEQEND
  8
0
  0
POLYLINE
  8
0
 62
     0
  6
CONTINUOUS
 66
     1
 40
0.014520
 41
0.014520
  0
VERTEX
  8
0
 62
     0
  6
CONTINUOUS
 10
2.977040
 20
8.745000
  0
VERTEX
  8
0
 62
     0
  6
CONTINUOUS
 10
2.977480
 20
8.745000
  0
SEQEND
  8
0
  0
POLYLINE
  8
0
 62
     0
  6
CONTINUOUS
 66
     1
 40
0.014520
 41
0.014520
  0
VERTEX
  8
0
 62
     0
  6
CONTINUOUS
 10
2.977480
 20
8.745000
  0
VERTEX
  8
0
 62
     0
  6
CONTINUOUS
 10
3.036880
 20
8.745000
  0
SEQEND
  8
0
  0
POLYLINE
  8
0
 62
     0
  6
CONTINUOUS
 66
     1
 40
0.014520
 41
0.014520
  0
VERTEX
  8
0
 62
     0
  6
CONTINUOUS
 10
3.036880
 20
8.745000
  0
VERTEX
  8
0
 62
     0
  6
CONTINUOUS
 10
3.037760
 20
8.745000
  0
SEQEND
  8
0
  0
POLYLINE
  8
0
 62
     0
  6
CONTINUOUS
 66
     1
 40
0.014520
 41
0.014520
  0
VERTEX
  8
0
 62
     0
  6
CONTINUOUS
 10
3.032480
 20
8.745000
  0
VERTEX
  8
0
 62
     0
  6
CONTINUOUS
 10
3.032040
 20
8.745000
  0
SEQEND
  8
0
  0
POLYLINE
  8
0
 62
     0
  6
CONTINUOUS
 66
     1
 40
0.014520
 41
0.014520
  0
VERTEX
  8
0
 62
     0
  6
CONTINUOUS
 10
3.032040
 20
8.745000
  0
VERTEX
  8
0
 62
     0
  6
CONTINUOUS
 10
3.032040
 20
8.796040
  0
SEQEND
  8
0
  0
POLYLINE
  8
0
 62
     0
  6
CONTINUOUS
 66
     1
 40
0.014520
 41
0.014520
  0
VERTEX
  8
0
 62
     0
  6
CONTINUOUS
 10
3.028520
 20
8.796040
  0
VERTEX
  8
0
 62
     0
  6
CONTINUOUS
 10
3.028520
 20
8.745000
  0
SEQEND
  8
0
  0
POLYLINE
  8
0
 62
     0
  6
CONTINUOUS
 66
     1
 40
0.014520
 41
0.014520
  0
VERTEX
  8
0
 62
     0
  6
CONTINUOUS
 10
3.028520
 20
8.745000
  0
VERTEX
  8
0
 62
     0
  6
CONTINUOUS
 10
3.028960
 20
8.745000
  0
SEQEND
  8
0
  0
POLYLINE
  8
0
 62
     0
  6
CONTINUOUS
 66
     1
 40
0.014520
 41
0.014520
  0
VERTEX
  8
0
 62
     0
  6
CONTINUOUS
 10
2.984520
 20
8.745000
  0
VERTEX
  8
0
 62
     0
  6
CONTINUOUS
 10
2.984520
 20
8.796040
  0
SEQEND
  8
0
  0
POLYLINE
  8
0
 62
     0
  6
CONTINUOUS
 66
     1
 40
0.014520
 41
0.014520
  0
VERTEX
  8
0
 62
     0
  6
CONTINUOUS
 10
2.981000
 20
8.796040
  0
VERTEX
  8
0
 62
     0
  6
CONTINUOUS
 10
2.981000
 20
8.745000
  0
SEQEND
  8
0
  0
POLYLINE
  8
0
 62
     0
  6
CONTINUOUS
 66
     1
 40
0.014520
 41
0.014520
  0
VERTEX
  8
0
 62
     0
  6
CONTINUOUS
 10
2.981000
 20
8.745000
  0
VERTEX
  8
0
 62
     0
  6
CONTINUOUS
 10
2.980560
 20
8.745000
  0
SEQEND
  8
0
  0
POLYLINE
  8
0
 62
     0
  6
CONTINUOUS
 66
     1
 40
0.014520
 41
0.014520
  0
VERTEX
  8
0
 62
     0
  6
CONTINUOUS
 10
2.973520
 20
8.745000
  0
VERTEX
  8
0
 62
     0
  6
CONTINUOUS
 10
2.973080
 20
8.745000
  0
SEQEND
  8
0
  0
POLYLINE
  8
0
 62
     0
  6
CONTINUOUS
 66
     1
 40
0.014520
 41
0.014520
  0
VERTEX
  8
0
 62
     0
  6
CONTINUOUS
 10
2.973080
 20
8.745000
  0
VERTEX
  8
0
 62
     0
  6
CONTINUOUS
 10
2.973080
 20
8.796040
  0
SEQEND
  8
0
  0
POLYLINE
  8
0
 62
     0
  6
CONTINUOUS
 66
     1
 40
0.014520
 41
0.014520
  0
VERTEX
  8
0
 62
     0
  6
CONTINUOUS
 10
2.973080
 20
8.745000
  0
VERTEX
  8
0
 62
     0
  6
CONTINUOUS
 10
3.041280
 20
8.745000
  0
SEQEND
  8
0
  0
LINE
  8
0
 62
     0
  6
CONTINUOUS
 10
2.404600
 20
8.015040
 11
2.404600
 21
8.171680
  0
LINE
  8
0
 62
     0
  6
CONTINUOUS
 10
2.404600
 20
8.241640
 11
2.404600
 21
8.378920
  0
LINE
  8
0
 62
     0
  6
CONTINUOUS
 10
2.404600
 20
8.447120
 11
2.404600
 21
8.584400
  0
LINE
  8
0
 62
     0
  6
CONTINUOUS
 10
2.404600
 20
8.654360
 11
2.404600
 21
8.809680
  0
LINE
  8
0
 62
     0
  6
CONTINUOUS
 10
5.122480
 20
8.598040
 11
5.136120
 21
8.645120
  0
LINE
  8
0
 62
     0
  6
CONTINUOUS
 10
5.136120
 20
8.645120
 11
5.166920
 21
8.645120
  0
LINE
  8
0
 62
     0
  6
CONTINUOUS
 10
5.188040
 20
8.645120
 11
5.157680
 21
8.598040
  0
LINE
  8
0
 62
     0
  6
CONTINUOUS
 10
5.168240
 20
8.613440
 11
5.191120
 21
8.613440
  0
LINE
  8
0
 62
     0
  6
CONTINUOUS
 10
5.194200
 20
8.598040
 11
5.188040
 21
8.645120
  0
LINE
  8
0
 62
     0
  6
CONTINUOUS
 10
5.217080
 20
8.645120
 11
5.206520
 21
8.598040
  0
LINE
  8
0
 62
     0
  6
CONTINUOUS
 10
5.236880
 20
8.598040
 11
5.217080
 21
8.645120
  0
LINE
  8
0
 62
     0
  6
CONTINUOUS
 10
5.250520
 20
8.645120
 11
5.236880
 21
8.598040
  0
LINE
  8
0
 62
     0
  6
CONTINUOUS
 10
5.148440
 20
8.622240
 11
5.130400
 21
8.622240
  0
LINE
  8
0
 62
     0
  6
CONTINUOUS
 10
2.418240
 20
8.297960
 11
2.407680
 21
8.287400
  0
LINE
  8
0
 62
     0
  6
CONTINUOUS
 10
2.407680
 20
8.287400
 11
2.421320
 21
8.293560
  0
LINE
  8
0
 62
     0
  6
CONTINUOUS
 10
2.421320
 20
8.293560
 11
2.407680
 21
8.287400
  0
LINE
  8
0
 62
     0
  6
CONTINUOUS
 10
2.407680
 20
8.287400
 11
2.423080
 21
8.287400
  0
LINE
  8
0
 62
     0
  6
CONTINUOUS
 10
2.423080
 20
8.287400
 11
2.421320
 21
8.293560
  0
LINE
  8
0
 62
     0
  6
CONTINUOUS
 10
2.421320
 20
8.293560
 11
2.418240
 21
8.297960
  0
LINE
  8
0
 62
     0
  6
CONTINUOUS
 10
2.418240
 20
8.297960
 11
2.412080
 21
8.301040
  0
LINE
  8
0
 62
     0
  6
CONTINUOUS
 10
2.412080
 20
8.301040
 11
2.407680
 21
8.287400
  0
LINE
  8
0
 62
     0
  6
CONTINUOUS
 10
2.407680
 20
8.287400
 11
2.418240
 21
8.297960
  0
LINE
  8
0
 62
     0
  6
CONTINUOUS
 10
2.412080
 20
8.301040
 11
2.407680
 21
8.302800
  0
LINE
  8
0
 62
     0
  6
CONTINUOUS
 10
2.407680
 20
8.302800
 11
2.407680
 21
8.287400
  0
LINE
  8
0
 62
     0
  6
CONTINUOUS
 10
2.407680
 20
8.287400
 11
2.412080
 21
8.301040
  0
LINE
  8
0
 62
     0
  6
CONTINUOUS
 10
2.412080
 20
8.301040
 11
2.412080
 21
8.293560
  0
LINE
  8
0
 62
     0
  6
CONTINUOUS
 10
2.407680
 20
8.287400
 11
2.407680
 21
8.302800
  0
LINE
  8
0
 62
     0
  6
CONTINUOUS
 10
2.407680
 20
8.302800
 11
2.407680
 21
8.287400
  0
LINE
  8
0
 62
     0
  6
CONTINUOUS
 10
2.407680
 20
8.287400
 11
2.407680
 21
8.302800
  0
LINE
  8
0
 62
     0
  6
CONTINUOUS
 10
2.407680
 20
8.302800
 11
2.400200
 21
8.301040
  0
LINE
  8
0
 62
     0
  6
CONTINUOUS
 10
2.400200
 20
8.301040
 11
2.407680
 21
8.287400
  0
LINE
  8
0
 62
     0
  6
CONTINUOUS
 10
2.407680
 20
8.287400
 11
2.400200
 21
8.301040
  0
LINE
  8
0
 62
     0
  6
CONTINUOUS
 10
2.400200
 20
8.301040
 11
2.395360
 21
8.297960
  0
LINE
  8
0
 62
     0
  6
CONTINUOUS
 10
2.395360
 20
8.297960
 11
2.407680
 21
8.287400
  0
LINE
  8
0
 62
     0
  6
CONTINUOUS
 10
2.407680
 20
8.287400
 11
2.395360
 21
8.297960
  0
LINE
  8
0
 62
     0
  6
CONTINUOUS
 10
2.395360
 20
8.297960
 11
2.390960
 21
8.293560
  0
LINE
  8
0
 62
     0
  6
CONTINUOUS
 10
2.390960
 20
8.293560
 11
2.407680
 21
8.287400
  0
LINE
  8
0
 62
     0
  6
CONTINUOUS
 10
2.407680
 20
8.287400
 11
2.390960
 21
8.293560
  0
LINE
  8
0
 62
     0
  6
CONTINUOUS
 10
2.390960
 20
8.293560
 11
2.390960
 21
8.287400
  0
LINE
  8
0
 62
     0
  6
CONTINUOUS
 10
2.390960
 20
8.287400
 11
2.407680
 21
8.287400
  0
LINE
  8
0
 62
     0
  6
CONTINUOUS
 10
2.407680
 20
8.287400
 11
2.390960
 21
8.287400
  0
LINE
  8
0
 62
     0
  6
CONTINUOUS
 10
2.390960
 20
8.287400
 11
2.407680
 21
8.287400
  0
LINE
  8
0
 62
     0
  6
CONTINUOUS
 10
2.407680
 20
8.287400
 11
2.390960
 21
8.279920
  0
LINE
  8
0
 62
     0
  6
CONTINUOUS
 10
2.390960
 20
8.279920
 11
2.407680
 21
8.287400
  0
LINE
  8
0
 62
     0
  6
CONTINUOUS
 10
2.407680
 20
8.287400
 11
2.395360
 21
8.275520
  0
LINE
  8
0
 62
     0
  6
CONTINUOUS
 10
2.395360
 20
8.275520
 11
2.407680
 21
8.287400
  0
LINE
  8
0
 62
     0
  6
CONTINUOUS
 10
2.407680
 20
8.287400
 11
2.407680
 21
8.270680
  0
LINE
  8
0
 62
     0
  6
CONTINUOUS
 10
2.407680
 20
8.270680
 11
2.407680
 21
8.287400
  0
LINE
  8
0
 62
     0
  6
CONTINUOUS
 10
2.407680
 20
8.287400
 11
2.400200
 21
8.272440
  0
LINE
  8
0
 62
     0
  6
CONTINUOUS
 10
2.400200
 20
8.272440
 11
2.407680
 21
8.287400
  0
LINE
  8
0
 62
     0
  6
CONTINUOUS
 10
2.407680
 20
8.287400
 11
2.407680
 21
8.270680
  0
LINE
  8
0
 62
     0
  6
CONTINUOUS
 10
2.407680
 20
8.270680
 11
2.407680
 21
8.287400
  0
LINE
  8
0
 62
     0
  6
CONTINUOUS
 10
2.407680
 20
8.287400
 11
2.412080
 21
8.272440
  0
LINE
  8
0
 62
     0
  6
CONTINUOUS
 10
2.412080
 20
8.272440
 11
2.407680
 21
8.287400
  0
LINE
  8
0
 62
     0
  6
CONTINUOUS
 10
2.407680
 20
8.287400
 11
2.418240
 21
8.275520
  0
LINE
  8
0
 62
     0
  6
CONTINUOUS
 10
2.418240
 20
8.275520
 11
2.407680
 21
8.287400
  0
LINE
  8
0
 62
     0
  6
CONTINUOUS
 10
2.407680
 20
8.287400
 11
2.421320
 21
8.279920
  0
LINE
  8
0
 62
     0
  6
CONTINUOUS
 10
2.421320
 20
8.279920
 11
2.407680
 21
8.287400
  0
LINE
  8
0
 62
     0
  6
CONTINUOUS
 10
2.407680
 20
8.287400
 11
2.423080
 21
8.287400
  0
LINE
  8
0
 62
     0
  6
CONTINUOUS
 10
2.423080
 20
8.287400
 11
2.407680
 21
8.287400
  0
LINE
  8
0
 62
     0
  6
CONTINUOUS
 10
2.412080
 20
8.279920
 11
2.412080
 21
8.272440
  0
LINE
  8
0
 62
     0
  6
CONTINUOUS
 10
2.412080
 20
8.272440
 11
2.418240
 21
8.275520
  0
LINE
  8
0
 62
     0
  6
CONTINUOUS
 10
2.418240
 20
8.275520
 11
2.421320
 21
8.279920
  0
LINE
  8
0
 62
     0
  6
CONTINUOUS
 10
2.421320
 20
8.279920
 11
2.423080
 21
8.287400
  0
LINE
  8
0
 62
     0
  6
CONTINUOUS
 10
2.412080
 20
8.272440
 11
2.407680
 21
8.270680
  0
LINE
  8
0
 62
     0
  6
CONTINUOUS
 10
2.407680
 20
8.270680
 11
2.400200
 21
8.272440
  0
LINE
  8
0
 62
     0
  6
CONTINUOUS
 10
2.400200
 20
8.272440
 11
2.395360
 21
8.275520
  0
LINE
  8
0
 62
     0
  6
CONTINUOUS
 10
2.395360
 20
8.275520
 11
2.390960
 21
8.279920
  0
LINE
  8
0
 62
     0
  6
CONTINUOUS
 10
2.390960
 20
8.279920
 11
2.390960
 21
8.287400
  0
LINE
  8
0
 62
     0
  6
CONTINUOUS
 10
2.392280
 20
8.389480
 11
2.400200
 21
8.389480
  0
LINE
  8
0
 62
     0
  6
CONTINUOUS
 10
2.400200
 20
8.396960
 11
2.407680
 21
8.382000
  0
LINE
  8
0
 62
     0
  6
CONTINUOUS
 10
2.407680
 20
8.382000
 11
2.407680
 21
8.398720
  0
LINE
  8
0
 62
     0
  6
CONTINUOUS
 10
2.407680
 20
8.398720
 11
2.407680
 21
8.382000
  0
LINE
  8
0
 62
     0
  6
CONTINUOUS
 10
2.407680
 20
8.382000
 11
2.412080
 21
8.396960
  0
LINE
  8
0
 62
     0
  6
CONTINUOUS
 10
2.412080
 20
8.396960
 11
2.412080
 21
8.388160
  0
LINE
  8
0
 62
     0
  6
CONTINUOUS
 10
2.412080
 20
8.388160
 11
2.412080
 21
8.389480
  0
LINE
  8
0
 62
     0
  6
CONTINUOUS
 10
2.412080
 20
8.389480
 11
2.421320
 21
8.389480
  0
LINE
  8
0
 62
     0
  6
CONTINUOUS
 10
2.421320
 20
8.389480
 11
2.421320
 21
8.388160
  0
LINE
  8
0
 62
     0
  6
CONTINUOUS
 10
2.421320
 20
8.388160
 11
2.418240
 21
8.393880
  0
LINE
  8
0
 62
     0
  6
CONTINUOUS
 10
2.418240
 20
8.393880
 11
2.407680
 21
8.382000
  0
LINE
  8
0
 62
     0
  6
CONTINUOUS
 10
2.407680
 20
8.382000
 11
2.421320
 21
8.388160
  0
LINE
  8
0
 62
     0
  6
CONTINUOUS
 10
2.421320
 20
8.388160
 11
2.407680
 21
8.382000
  0
LINE
  8
0
 62
     0
  6
CONTINUOUS
 10
2.407680
 20
8.382000
 11
2.423080
 21
8.382000
  0
LINE
  8
0
 62
     0
  6
CONTINUOUS
 10
2.423080
 20
8.382000
 11
2.421320
 21
8.388160
  0
LINE
  8
0
 62
     0
  6
CONTINUOUS
 10
2.423080
 20
8.383320
 11
2.410760
 21
8.383320
  0
LINE
  8
0
 62
     0
  6
CONTINUOUS
 10
2.410760
 20
8.383320
 11
2.407680
 21
8.382000
  0
LINE
  8
0
 62
     0
  6
CONTINUOUS
 10
2.407680
 20
8.382000
 11
2.418240
 21
8.393880
  0
LINE
  8
0
 62
     0
  6
CONTINUOUS
 10
2.418240
 20
8.393880
 11
2.412080
 21
8.396960
  0
LINE
  8
0
 62
     0
  6
CONTINUOUS
 10
2.412080
 20
8.396960
 11
2.407680
 21
8.382000
  0
LINE
  8
0
 62
     0
  6
CONTINUOUS
 10
2.407680
 20
8.382000
 11
2.407680
 21
8.398720
  0
LINE
  8
0
 62
     0
  6
CONTINUOUS
 10
2.407680
 20
8.398720
 11
2.407680
 21
8.382000
  0
LINE
  8
0
 62
     0
  6
CONTINUOUS
 10
2.407680
 20
8.382000
 11
2.400200
 21
8.396960
  0
LINE
  8
0
 62
     0
  6
CONTINUOUS
 10
2.400200
 20
8.396960
 11
2.395360
 21
8.393880
  0
LINE
  8
0
 62
     0
  6
CONTINUOUS
 10
2.395360
 20
8.393880
 11
2.407680
 21
8.382000
  0
LINE
  8
0
 62
     0
  6
CONTINUOUS
 10
2.407680
 20
8.382000
 11
2.395360
 21
8.393880
  0
LINE
  8
0
 62
     0
  6
CONTINUOUS
 10
2.395360
 20
8.393880
 11
2.390960
 21
8.388160
  0
LINE
  8
0
 62
     0
  6
CONTINUOUS
 10
2.390960
 20
8.388160
 11
2.407680
 21
8.382000
  0
LINE
  8
0
 62
     0
  6
CONTINUOUS
 10
2.407680
 20
8.382000
 11
2.390960
 21
8.388160
  0
LINE
  8
0
 62
     0
  6
CONTINUOUS
 10
2.390960
 20
8.388160
 11
2.390960
 21
8.382000
  0
LINE
  8
0
 62
     0
  6
CONTINUOUS
 10
2.390960
 20
8.382000
 11
2.407680
 21
8.382000
  0
LINE
  8
0
 62
     0
  6
CONTINUOUS
 10
2.407680
 20
8.382000
 11
2.390960
 21
8.382000
  0
LINE
  8
0
 62
     0
  6
CONTINUOUS
 10
2.390960
 20
8.382000
 11
2.390960
 21
8.375840
  0
LINE
  8
0
 62
     0
  6
CONTINUOUS
 10
2.390960
 20
8.375840
 11
2.407680
 21
8.382000
  0
LINE
  8
0
 62
     0
  6
CONTINUOUS
 10
2.407680
 20
8.382000
 11
2.390960
 21
8.382000
  0
LINE
  8
0
 62
     0
  6
CONTINUOUS
 10
2.390960
 20
8.382000
 11
2.390960
 21
8.383320
  0
LINE
  8
0
 62
     0
  6
CONTINUOUS
 10
2.390960
 20
8.383320
 11
2.404600
 21
8.383320
  0
LINE
  8
0
 62
     0
  6
CONTINUOUS
 10
2.404600
 20
8.383320
 11
2.407680
 21
8.382000
  0
LINE
  8
0
 62
     0
  6
CONTINUOUS
 10
2.407680
 20
8.382000
 11
2.390960
 21
8.375840
  0
LINE
  8
0
 62
     0
  6
CONTINUOUS
 10
2.390960
 20
8.375840
 11
2.395360
 21
8.371000
  0
LINE
  8
0
 62
     0
  6
CONTINUOUS
 10
2.395360
 20
8.371000
 11
2.407680
 21
8.382000
  0
LINE
  8
0
 62
     0
  6
CONTINUOUS
 10
2.407680
 20
8.382000
 11
2.395360
 21
8.371000
  0
LINE
  8
0
 62
     0
  6
CONTINUOUS
 10
2.395360
 20
8.371000
 11
2.400200
 21
8.366600
  0
LINE
  8
0
 62
     0
  6
CONTINUOUS
 10
2.400200
 20
8.366600
 11
2.407680
 21
8.382000
  0
LINE
  8
0
 62
     0
  6
CONTINUOUS
 10
2.407680
 20
8.382000
 11
2.407680
 21
8.366600
  0
LINE
  8
0
 62
     0
  6
CONTINUOUS
 10
2.407680
 20
8.366600
 11
2.407680
 21
8.382000
  0
LINE
  8
0
 62
     0
  6
CONTINUOUS
 10
2.407680
 20
8.382000
 11
2.400200
 21
8.366600
  0
LINE
  8
0
 62
     0
  6
CONTINUOUS
 10
2.400200
 20
8.366600
 11
2.407680
 21
8.366600
  0
LINE
  8
0
 62
     0
  6
CONTINUOUS
 10
2.407680
 20
8.366600
 11
2.407680
 21
8.382000
  0
LINE
  8
0
 62
     0
  6
CONTINUOUS
 10
2.407680
 20
8.382000
 11
2.407680
 21
8.366600
  0
LINE
  8
0
 62
     0
  6
CONTINUOUS
 10
2.407680
 20
8.366600
 11
2.412080
 21
8.366600
  0
LINE
  8
0
 62
     0
  6
CONTINUOUS
 10
2.412080
 20
8.366600
 11
2.407680
 21
8.382000
  0
LINE
  8
0
 62
     0
  6
CONTINUOUS
 10
2.407680
 20
8.382000
 11
2.412080
 21
8.366600
  0
LINE
  8
0
 62
     0
  6
CONTINUOUS
 10
2.412080
 20
8.366600
 11
2.418240
 21
8.371000
  0
LINE
  8
0
 62
     0
  6
CONTINUOUS
 10
2.418240
 20
8.371000
 11
2.407680
 21
8.382000
  0
LINE
  8
0
 62
     0
  6
CONTINUOUS
 10
2.407680
 20
8.382000
 11
2.418240
 21
8.371000
  0
LINE
  8
0
 62
     0
  6
CONTINUOUS
 10
2.418240
 20
8.371000
 11
2.421320
 21
8.375840
  0
LINE
  8
0
 62
     0
  6
CONTINUOUS
 10
2.421320
 20
8.375840
 11
2.407680
 21
8.382000
  0
LINE
  8
0
 62
     0
  6
CONTINUOUS
 10
2.407680
 20
8.382000
 11
2.421320
 21
8.375840
  0
LINE
  8
0
 62
     0
  6
CONTINUOUS
 10
2.421320
 20
8.375840
 11
2.423080
 21
8.382000
  0
LINE
  8
0
 62
     0
  6
CONTINUOUS
 10
2.423080
 20
8.382000
 11
2.407680
 21
8.382000
  0
LINE
  8
0
 62
     0
  6
CONTINUOUS
 10
2.407680
 20
8.382000
 11
2.423080
 21
8.382000
  0
LINE
  8
0
 62
     0
  6
CONTINUOUS
 10
2.412080
 20
8.375840
 11
2.412080
 21
8.366600
  0
LINE
  8
0
 62
     0
  6
CONTINUOUS
 10
2.412080
 20
8.396960
 11
2.407680
 21
8.398720
  0
LINE
  8
0
 62
     0
  6
CONTINUOUS
 10
2.407680
 20
8.398720
 11
2.400200
 21
8.396960
  0
LINE
  8
0
 62
     0
  6
CONTINUOUS
 10
2.407680
 20
8.491560
 11
2.423080
 21
8.491560
  0
LINE
  8
0
 62
     0
  6
CONTINUOUS
 10
2.423080
 20
8.491560
 11
2.421320
 21
8.497720
  0
LINE
  8
0
 62
     0
  6
CONTINUOUS
 10
2.421320
 20
8.497720
 11
2.407680
 21
8.491560
  0
LINE
  8
0
 62
     0
  6
CONTINUOUS
 10
2.407680
 20
8.491560
 11
2.421320
 21
8.497720
  0
LINE
  8
0
 62
     0
  6
CONTINUOUS
 10
2.421320
 20
8.497720
 11
2.418240
 21
8.505200
  0
LINE
  8
0
 62
     0
  6
CONTINUOUS
 10
2.418240
 20
8.505200
 11
2.407680
 21
8.491560
  0
LINE
  8
0
 62
     0
  6
CONTINUOUS
 10
2.407680
 20
8.491560
 11
2.418240
 21
8.505200
  0
LINE
  8
0
 62
     0
  6
CONTINUOUS
 10
2.418240
 20
8.505200
 11
2.412080
 21
8.508280
  0
LINE
  8
0
 62
     0
  6
CONTINUOUS
 10
2.412080
 20
8.508280
 11
2.407680
 21
8.491560
  0
LINE
  8
0
 62
     0
  6
CONTINUOUS
 10
2.407680
 20
8.491560
 11
2.407680
 21
8.508280
  0
LINE
  8
0
 62
     0
  6
CONTINUOUS
 10
2.407680
 20
8.508280
 11
2.407680
 21
8.491560
  0
LINE
  8
0
 62
     0
  6
CONTINUOUS
 10
2.407680
 20
8.491560
 11
2.412080
 21
8.508280
  0
LINE
  8
0
 62
     0
  6
CONTINUOUS
 10
2.412080
 20
8.508280
 11
2.412080
 21
8.497720
  0
LINE
  8
0
 62
     0
  6
CONTINUOUS
 10
2.412080
 20
8.508280
 11
2.407680
 21
8.508280
  0
LINE
  8
0
 62
     0
  6
CONTINUOUS
 10
2.407680
 20
8.508280
 11
2.407680
 21
8.491560
  0
LINE
  8
0
 62
     0
  6
CONTINUOUS
 10
2.407680
 20
8.491560
 11
2.407680
 21
8.508280
  0
LINE
  8
0
 62
     0
  6
CONTINUOUS
 10
2.407680
 20
8.508280
 11
2.400200
 21
8.508280
  0
LINE
  8
0
 62
     0
  6
CONTINUOUS
 10
2.400200
 20
8.508280
 11
2.407680
 21
8.491560
  0
LINE
  8
0
 62
     0
  6
CONTINUOUS
 10
2.407680
 20
8.491560
 11
2.400200
 21
8.508280
  0
LINE
  8
0
 62
     0
  6
CONTINUOUS
 10
2.400200
 20
8.508280
 11
2.395360
 21
8.505200
  0
LINE
  8
0
 62
     0
  6
CONTINUOUS
 10
2.395360
 20
8.505200
 11
2.407680
 21
8.491560
  0
LINE
  8
0
 62
     0
  6
CONTINUOUS
 10
2.407680
 20
8.491560
 11
2.395360
 21
8.505200
  0
LINE
  8
0
 62
     0
  6
CONTINUOUS
 10
2.395360
 20
8.505200
 11
2.390960
 21
8.497720
  0
LINE
  8
0
 62
     0
  6
CONTINUOUS
 10
2.390960
 20
8.497720
 11
2.407680
 21
8.491560
  0
LINE
  8
0
 62
     0
  6
CONTINUOUS
 10
2.407680
 20
8.491560
 11
2.390960
 21
8.497720
  0
LINE
  8
0
 62
     0
  6
CONTINUOUS
 10
2.390960
 20
8.497720
 11
2.390960
 21
8.491560
  0
LINE
  8
0
 62
     0
  6
CONTINUOUS
 10
2.390960
 20
8.491560
 11
2.407680
 21
8.491560
  0
LINE
  8
0
 62
     0
  6
CONTINUOUS
 10
2.407680
 20
8.491560
 11
2.390960
 21
8.491560
  0
LINE
  8
0
 62
     0
  6
CONTINUOUS
 10
2.390960
 20
8.491560
 11
2.390960
 21
8.485400
  0
LINE
  8
0
 62
     0
  6
CONTINUOUS
 10
2.390960
 20
8.485400
 11
2.407680
 21
8.491560
  0
LINE
  8
0
 62
     0
  6
CONTINUOUS
 10
2.407680
 20
8.491560
 11
2.390960
 21
8.485400
  0
LINE
  8
0
 62
     0
  6
CONTINUOUS
 10
2.390960
 20
8.485400
 11
2.395360
 21
8.481000
  0
LINE
  8
0
 62
     0
  6
CONTINUOUS
 10
2.395360
 20
8.481000
 11
2.407680
 21
8.491560
  0
LINE
  8
0
 62
     0
  6
CONTINUOUS
 10
2.407680
 20
8.491560
 11
2.395360
 21
8.481000
  0
LINE
  8
0
 62
     0
  6
CONTINUOUS
 10
2.395360
 20
8.481000
 11
2.400200
 21
8.476160
  0
LINE
  8
0
 62
     0
  6
CONTINUOUS
 10
2.400200
 20
8.476160
 11
2.407680
 21
8.491560
  0
LINE
  8
0
 62
     0
  6
CONTINUOUS
 10
2.407680
 20
8.491560
 11
2.407680
 21
8.476160
  0
LINE
  8
0
 62
     0
  6
CONTINUOUS
 10
2.407680
 20
8.476160
 11
2.407680
 21
8.491560
  0
LINE
  8
0
 62
     0
  6
CONTINUOUS
 10
2.407680
 20
8.491560
 11
2.400200
 21
8.476160
  0
LINE
  8
0
 62
     0
  6
CONTINUOUS
 10
2.400200
 20
8.476160
 11
2.407680
 21
8.476160
  0
LINE
  8
0
 62
     0
  6
CONTINUOUS
 10
2.407680
 20
8.476160
 11
2.407680
 21
8.491560
  0
LINE
  8
0
 62
     0
  6
CONTINUOUS
 10
2.407680
 20
8.491560
 11
2.407680
 21
8.476160
  0
LINE
  8
0
 62
     0
  6
CONTINUOUS
 10
2.407680
 20
8.476160
 11
2.412080
 21
8.476160
  0
LINE
  8
0
 62
     0
  6
CONTINUOUS
 10
2.412080
 20
8.476160
 11
2.407680
 21
8.491560
  0
LINE
  8
0
 62
     0
  6
CONTINUOUS
 10
2.407680
 20
8.491560
 11
2.412080
 21
8.476160
  0
LINE
  8
0
 62
     0
  6
CONTINUOUS
 10
2.412080
 20
8.476160
 11
2.418240
 21
8.481000
  0
LINE
  8
0
 62
     0
  6
CONTINUOUS
 10
2.418240
 20
8.481000
 11
2.407680
 21
8.491560
  0
LINE
  8
0
 62
     0
  6
CONTINUOUS
 10
2.407680
 20
8.491560
 11
2.418240
 21
8.481000
  0
LINE
  8
0
 62
     0
  6
CONTINUOUS
 10
2.418240
 20
8.481000
 11
2.421320
 21
8.485400
  0
LINE
  8
0
 62
     0
  6
CONTINUOUS
 10
2.421320
 20
8.485400
 11
2.407680
 21
8.491560
  0
LINE
  8
0
 62
     0
  6
CONTINUOUS
 10
2.407680
 20
8.491560
 11
2.421320
 21
8.485400
  0
LINE
  8
0
 62
     0
  6
CONTINUOUS
 10
2.421320
 20
8.485400
 11
2.423080
 21
8.491560
  0
LINE
  8
0
 62
     0
  6
CONTINUOUS
 10
2.423080
 20
8.491560
 11
2.407680
 21
8.491560
  0
LINE
  8
0
 62
     0
  6
CONTINUOUS
 10
2.401520
 20
8.489800
 11
2.390960
 21
8.489800
  0
LINE
  8
0
 62
     0
  6
CONTINUOUS
 10
2.412080
 20
8.485400
 11
2.412080
 21
8.476160
  0
LINE
  8
0
 62
     0
  6
CONTINUOUS
 10
2.506680
 20
8.447120
 11
2.291960
 21
8.549200
  0
LINE
  8
0
 62
     0
  6
CONTINUOUS
 10
2.291960
 20
8.655680
 11
2.506680
 21
8.552280
  0
LINE
  8
0
 62
     0
  6
CONTINUOUS
 10
2.423080
 20
8.598040
 11
2.421320
 21
8.604200
  0
LINE
  8
0
 62
     0
  6
CONTINUOUS
 10
2.421320
 20
8.604200
 11
2.407680
 21
8.598040
  0
LINE
  8
0
 62
     0
  6
CONTINUOUS
 10
2.407680
 20
8.598040
 11
2.423080
 21
8.598040
  0
LINE
  8
0
 62
     0
  6
CONTINUOUS
 10
2.421320
 20
8.604200
 11
2.418240
 21
8.608600
  0
LINE
  8
0
 62
     0
  6
CONTINUOUS
 10
2.418240
 20
8.608600
 11
2.407680
 21
8.598040
  0
LINE
  8
0
 62
     0
  6
CONTINUOUS
 10
2.407680
 20
8.598040
 11
2.421320
 21
8.604200
  0
LINE
  8
0
 62
     0
  6
CONTINUOUS
 10
2.418240
 20
8.608600
 11
2.412080
 21
8.613440
  0
LINE
  8
0
 62
     0
  6
CONTINUOUS
 10
2.412080
 20
8.613440
 11
2.407680
 21
8.598040
  0
LINE
  8
0
 62
     0
  6
CONTINUOUS
 10
2.407680
 20
8.598040
 11
2.418240
 21
8.608600
  0
LINE
  8
0
 62
     0
  6
CONTINUOUS
 10
2.412080
 20
8.613440
 11
2.407680
 21
8.613440
  0
LINE
  8
0
 62
     0
  6
CONTINUOUS
 10
2.407680
 20
8.613440
 11
2.407680
 21
8.598040
  0
LINE
  8
0
 62
     0
  6
CONTINUOUS
 10
2.407680
 20
8.598040
 11
2.412080
 21
8.613440
  0
LINE
  8
0
 62
     0
  6
CONTINUOUS
 10
2.412080
 20
8.613440
 11
2.412080
 21
8.604200
  0
LINE
  8
0
 62
     0
  6
CONTINUOUS
 10
2.407680
 20
8.598040
 11
2.407680
 21
8.613440
  0
LINE
  8
0
 62
     0
  6
CONTINUOUS
 10
2.407680
 20
8.613440
 11
2.407680
 21
8.598040
  0
LINE
  8
0
 62
     0
  6
CONTINUOUS
 10
2.407680
 20
8.598040
 11
2.407680
 21
8.613440
  0
LINE
  8
0
 62
     0
  6
CONTINUOUS
 10
2.407680
 20
8.613440
 11
2.400200
 21
8.613440
  0
LINE
  8
0
 62
     0
  6
CONTINUOUS
 10
2.400200
 20
8.613440
 11
2.407680
 21
8.598040
  0
LINE
  8
0
 62
     0
  6
CONTINUOUS
 10
2.407680
 20
8.598040
 11
2.400200
 21
8.613440
  0
LINE
  8
0
 62
     0
  6
CONTINUOUS
 10
2.400200
 20
8.613440
 11
2.395360
 21
8.608600
  0
LINE
  8
0
 62
     0
  6
CONTINUOUS
 10
2.395360
 20
8.608600
 11
2.407680
 21
8.598040
  0
LINE
  8
0
 62
     0
  6
CONTINUOUS
 10
2.407680
 20
8.598040
 11
2.395360
 21
8.608600
  0
LINE
  8
0
 62
     0
  6
CONTINUOUS
 10
2.395360
 20
8.608600
 11
2.390960
 21
8.604200
  0
LINE
  8
0
 62
     0
  6
CONTINUOUS
 10
2.390960
 20
8.604200
 11
2.407680
 21
8.598040
  0
LINE
  8
0
 62
     0
  6
CONTINUOUS
 10
2.407680
 20
8.598040
 11
2.390960
 21
8.604200
  0
LINE
  8
0
 62
     0
  6
CONTINUOUS
 10
2.390960
 20
8.604200
 11
2.390960
 21
8.598040
  0
LINE
  8
0
 62
     0
  6
CONTINUOUS
 10
2.390960
 20
8.598040
 11
2.407680
 21
8.598040
  0
LINE
  8
0
 62
     0
  6
CONTINUOUS
 10
2.407680
 20
8.598040
 11
2.390960
 21
8.598040
  0
LINE
  8
0
 62
     0
  6
CONTINUOUS
 10
2.390960
 20
8.598040
 11
2.390960
 21
8.591880
  0
LINE
  8
0
 62
     0
  6
CONTINUOUS
 10
2.390960
 20
8.591880
 11
2.407680
 21
8.598040
  0
LINE
  8
0
 62
     0
  6
CONTINUOUS
 10
2.407680
 20
8.598040
 11
2.390960
 21
8.591880
  0
LINE
  8
0
 62
     0
  6
CONTINUOUS
 10
2.390960
 20
8.591880
 11
2.395360
 21
8.585720
  0
LINE
  8
0
 62
     0
  6
CONTINUOUS
 10
2.395360
 20
8.585720
 11
2.407680
 21
8.598040
  0
LINE
  8
0
 62
     0
  6
CONTINUOUS
 10
2.407680
 20
8.598040
 11
2.395360
 21
8.585720
  0
LINE
  8
0
 62
     0
  6
CONTINUOUS
 10
2.395360
 20
8.585720
 11
2.400200
 21
8.582640
  0
LINE
  8
0
 62
     0
  6
CONTINUOUS
 10
2.400200
 20
8.582640
 11
2.407680
 21
8.598040
  0
LINE
  8
0
 62
     0
  6
CONTINUOUS
 10
2.407680
 20
8.598040
 11
2.407680
 21
8.581320
  0
LINE
  8
0
 62
     0
  6
CONTINUOUS
 10
2.407680
 20
8.581320
 11
2.407680
 21
8.598040
  0
LINE
  8
0
 62
     0
  6
CONTINUOUS
 10
2.407680
 20
8.598040
 11
2.400200
 21
8.582640
  0
LINE
  8
0
 62
     0
  6
CONTINUOUS
 10
2.400200
 20
8.582640
 11
2.407680
 21
8.581320
  0
LINE
  8
0
 62
     0
  6
CONTINUOUS
 10
2.407680
 20
8.581320
 11
2.407680
 21
8.598040
  0
LINE
  8
0
 62
     0
  6
CONTINUOUS
 10
2.407680
 20
8.598040
 11
2.407680
 21
8.581320
  0
LINE
  8
0
 62
     0
  6
CONTINUOUS
 10
2.407680
 20
8.581320
 11
2.412080
 21
8.582640
  0
LINE
  8
0
 62
     0
  6
CONTINUOUS
 10
2.412080
 20
8.582640
 11
2.407680
 21
8.598040
  0
LINE
  8
0
 62
     0
  6
CONTINUOUS
 10
2.407680
 20
8.598040
 11
2.412080
 21
8.582640
  0
LINE
  8
0
 62
     0
  6
CONTINUOUS
 10
2.412080
 20
8.582640
 11
2.418240
 21
8.585720
  0
LINE
  8
0
 62
     0
  6
CONTINUOUS
 10
2.418240
 20
8.585720
 11
2.407680
 21
8.598040
  0
LINE
  8
0
 62
     0
  6
CONTINUOUS
 10
2.407680
 20
8.598040
 11
2.418240
 21
8.585720
  0
LINE
  8
0
 62
     0
  6
CONTINUOUS
 10
2.418240
 20
8.585720
 11
2.421320
 21
8.591880
  0
LINE
  8
0
 62
     0
  6
CONTINUOUS
 10
2.421320
 20
8.591880
 11
2.407680
 21
8.598040
  0
LINE
  8
0
 62
     0
  6
CONTINUOUS
 10
2.407680
 20
8.598040
 11
2.421320
 21
8.591880
  0
LINE
  8
0
 62
     0
  6
CONTINUOUS
 10
2.421320
 20
8.591880
 11
2.423080
 21
8.598040
  0
LINE
  8
0
 62
     0
  6
CONTINUOUS
 10
2.423080
 20
8.598040
 11
2.407680
 21
8.598040
  0
LINE
  8
0
 62
     0
  6
CONTINUOUS
 10
2.407680
 20
8.598040
 11
2.404600
 21
8.596280
  0
LINE
  8
0
 62
     0
  6
CONTINUOUS
 10
2.404600
 20
8.596280
 11
2.390960
 21
8.596280
  0
LINE
  8
0
 62
     0
  6
CONTINUOUS
 10
2.392280
 20
8.591880
 11
2.400200
 21
8.591880
  0
LINE
  8
0
 62
     0
  6
CONTINUOUS
 10
2.412080
 20
8.591880
 11
2.412080
 21
8.582640
  0
LINE
  8
0
 62
     0
  6
CONTINUOUS
 10
2.412080
 20
8.591880
 11
2.421320
 21
8.591880
  0
LINE
  8
0
 62
     0
  6
CONTINUOUS
 10
2.423080
 20
8.596280
 11
2.410760
 21
8.596280
  0
LINE
  8
0
 62
     0
  6
CONTINUOUS
 10
2.407680
 20
8.687800
 11
2.423080
 21
8.687800
  0
LINE
  8
0
 62
     0
  6
CONTINUOUS
 10
2.423080
 20
8.687800
 11
2.421320
 21
8.693960
  0
LINE
  8
0
 62
     0
  6
CONTINUOUS
 10
2.421320
 20
8.693960
 11
2.407680
 21
8.687800
  0
LINE
  8
0
 62
     0
  6
CONTINUOUS
 10
2.407680
 20
8.687800
 11
2.421320
 21
8.693960
  0
LINE
  8
0
 62
     0
  6
CONTINUOUS
 10
2.421320
 20
8.693960
 11
2.418240
 21
8.700120
  0
LINE
  8
0
 62
     0
  6
CONTINUOUS
 10
2.418240
 20
8.700120
 11
2.407680
 21
8.687800
  0
LINE
  8
0
 62
     0
  6
CONTINUOUS
 10
2.407680
 20
8.687800
 11
2.418240
 21
8.700120
  0
LINE
  8
0
 62
     0
  6
CONTINUOUS
 10
2.418240
 20
8.700120
 11
2.412080
 21
8.703200
  0
LINE
  8
0
 62
     0
  6
CONTINUOUS
 10
2.412080
 20
8.703200
 11
2.407680
 21
8.687800
  0
LINE
  8
0
 62
     0
  6
CONTINUOUS
 10
2.407680
 20
8.687800
 11
2.407680
 21
8.704520
  0
LINE
  8
0
 62
     0
  6
CONTINUOUS
 10
2.407680
 20
8.704520
 11
2.407680
 21
8.687800
  0
LINE
  8
0
 62
     0
  6
CONTINUOUS
 10
2.407680
 20
8.687800
 11
2.412080
 21
8.703200
  0
LINE
  8
0
 62
     0
  6
CONTINUOUS
 10
2.412080
 20
8.703200
 11
2.412080
 21
8.693960
  0
LINE
  8
0
 62
     0
  6
CONTINUOUS
 10
2.412080
 20
8.703200
 11
2.407680
 21
8.704520
  0
LINE
  8
0
 62
     0
  6
CONTINUOUS
 10
2.407680
 20
8.704520
 11
2.407680
 21
8.687800
  0
LINE
  8
0
 62
     0
  6
CONTINUOUS
 10
2.407680
 20
8.687800
 11
2.407680
 21
8.704520
  0
LINE
  8
0
 62
     0
  6
CONTINUOUS
 10
2.407680
 20
8.704520
 11
2.400200
 21
8.703200
  0
LINE
  8
0
 62
     0
  6
CONTINUOUS
 10
2.400200
 20
8.703200
 11
2.407680
 21
8.687800
  0
LINE
  8
0
 62
     0
  6
CONTINUOUS
 10
2.407680
 20
8.687800
 11
2.400200
 21
8.703200
  0
LINE
  8
0
 62
     0
  6
CONTINUOUS
 10
2.400200
 20
8.703200
 11
2.395360
 21
8.700120
  0
LINE
  8
0
 62
     0
  6
CONTINUOUS
 10
2.395360
 20
8.700120
 11
2.407680
 21
8.687800
  0
LINE
  8
0
 62
     0
  6
CONTINUOUS
 10
2.407680
 20
8.687800
 11
2.395360
 21
8.700120
  0
LINE
  8
0
 62
     0
  6
CONTINUOUS
 10
2.395360
 20
8.700120
 11
2.390960
 21
8.693960
  0
LINE
  8
0
 62
     0
  6
CONTINUOUS
 10
2.390960
 20
8.693960
 11
2.407680
 21
8.687800
  0
LINE
  8
0
 62
     0
  6
CONTINUOUS
 10
2.407680
 20
8.687800
 11
2.390960
 21
8.693960
  0
LINE
  8
0
 62
     0
  6
CONTINUOUS
 10
2.390960
 20
8.693960
 11
2.390960
 21
8.687800
  0
LINE
  8
0
 62
     0
  6
CONTINUOUS
 10
2.390960
 20
8.687800
 11
2.407680
 21
8.687800
  0
LINE
  8
0
 62
     0
  6
CONTINUOUS
 10
2.407680
 20
8.687800
 11
2.390960
 21
8.687800
  0
LINE
  8
0
 62
     0
  6
CONTINUOUS
 10
2.390960
 20
8.687800
 11
2.390960
 21
8.681640
  0
LINE
  8
0
 62
     0
  6
CONTINUOUS
 10
2.390960
 20
8.681640
 11
2.407680
 21
8.687800
  0
LINE
  8
0
 62
     0
  6
CONTINUOUS
 10
2.407680
 20
8.687800
 11
2.390960
 21
8.681640
  0
LINE
  8
0
 62
     0
  6
CONTINUOUS
 10
2.390960
 20
8.681640
 11
2.395360
 21
8.677240
  0
LINE
  8
0
 62
     0
  6
CONTINUOUS
 10
2.395360
 20
8.677240
 11
2.407680
 21
8.687800
  0
LINE
  8
0
 62
     0
  6
CONTINUOUS
 10
2.407680
 20
8.687800
 11
2.395360
 21
8.677240
  0
LINE
  8
0
 62
     0
  6
CONTINUOUS
 10
2.395360
 20
8.677240
 11
2.400200
 21
8.672400
  0
LINE
  8
0
 62
     0
  6
CONTINUOUS
 10
2.400200
 20
8.672400
 11
2.407680
 21
8.687800
  0
LINE
  8
0
 62
     0
  6
CONTINUOUS
 10
2.407680
 20
8.687800
 11
2.407680
 21
8.672400
  0
LINE
  8
0
 62
     0
  6
CONTINUOUS
 10
2.407680
 20
8.672400
 11
2.407680
 21
8.687800
  0
LINE
  8
0
 62
     0
  6
CONTINUOUS
 10
2.407680
 20
8.687800
 11
2.400200
 21
8.672400
  0
LINE
  8
0
 62
     0
  6
CONTINUOUS
 10
2.400200
 20
8.672400
 11
2.407680
 21
8.672400
  0
LINE
  8
0
 62
     0
  6
CONTINUOUS
 10
2.407680
 20
8.672400
 11
2.407680
 21
8.687800
  0
LINE
  8
0
 62
     0
  6
CONTINUOUS
 10
2.407680
 20
8.687800
 11
2.407680
 21
8.672400
  0
LINE
  8
0
 62
     0
  6
CONTINUOUS
 10
2.407680
 20
8.672400
 11
2.412080
 21
8.672400
  0
LINE
  8
0
 62
     0
  6
CONTINUOUS
 10
2.412080
 20
8.672400
 11
2.407680
 21
8.687800
  0
LINE
  8
0
 62
     0
  6
CONTINUOUS
 10
2.407680
 20
8.687800
 11
2.412080
 21
8.672400
  0
LINE
  8
0
 62
     0
  6
CONTINUOUS
 10
2.412080
 20
8.672400
 11
2.418240
 21
8.677240
  0
LINE
  8
0
 62
     0
  6
CONTINUOUS
 10
2.418240
 20
8.677240
 11
2.407680
 21
8.687800
  0
LINE
  8
0
 62
     0
  6
CONTINUOUS
 10
2.407680
 20
8.687800
 11
2.418240
 21
8.677240
  0
LINE
  8
0
 62
     0
  6
CONTINUOUS
 10
2.418240
 20
8.677240
 11
2.421320
 21
8.681640
  0
LINE
  8
0
 62
     0
  6
CONTINUOUS
 10
2.421320
 20
8.681640
 11
2.407680
 21
8.687800
  0
LINE
  8
0
 62
     0
  6
CONTINUOUS
 10
2.407680
 20
8.687800
 11
2.421320
 21
8.681640
  0
LINE
  8
0
 62
     0
  6
CONTINUOUS
 10
2.421320
 20
8.681640
 11
2.423080
 21
8.687800
  0
LINE
  8
0
 62
     0
  6
CONTINUOUS
 10
2.423080
 20
8.687800
 11
2.407680
 21
8.687800
  0
LINE
  8
0
 62
     0
  6
CONTINUOUS
 10
2.412080
 20
8.681640
 11
2.412080
 21
8.672400
  0
LINE
  8
0
 62
     0
  6
CONTINUOUS
 10
2.506680
 20
8.643800
 11
2.291960
 21
8.745440
  0
LINE
  8
0
 62
     0
  6
CONTINUOUS
 10
2.291960
 20
8.439640
 11
2.506680
 21
8.337560
  0
LINE
  8
0
 62
     0
  6
CONTINUOUS
 10
2.506680
 20
8.241640
 11
2.291960
 21
8.343720
  0
LINE
  8
0
 62
     0
  6
CONTINUOUS
 10
4.939880
 20
7.740920
 11
5.389120
 21
7.740920
  0
LINE
  8
0
 62
     0
  6
CONTINUOUS
 10
5.389120
 20
7.740920
 11
5.389120
 21
8.110960
  0
LINE
  8
0
 62
     0
  6
CONTINUOUS
 10
5.389120
 20
8.110960
 11
4.939880
 21
8.110960
  0
LINE
  8
0
 62
     0
  6
CONTINUOUS
 10
4.939880
 20
8.110960
 11
4.939880
 21
7.740920
  0
LINE
  8
0
 62
     0
  6
CONTINUOUS
 10
5.012920
 20
7.756320
 11
5.022160
 21
7.766880
  0
LINE
  8
0
 62
     0
  6
CONTINUOUS
 10
5.022160
 20
7.766880
 11
5.020400
 21
7.753240
  0
LINE
  8
0
 62
     0
  6
CONTINUOUS
 10
5.020400
 20
7.753240
 11
5.025240
 21
7.753240
  0
LINE
  8
0
 62
     0
  6
CONTINUOUS
 10
5.025240
 20
7.753240
 11
5.022160
 21
7.766880
  0
LINE
  8
0
 62
     0
  6
CONTINUOUS
 10
5.022160
 20
7.766880
 11
5.029640
 21
7.756320
  0
LINE
  8
0
 62
     0
  6
CONTINUOUS
 10
5.034480
 20
7.759400
 11
5.022160
 21
7.766880
  0
LINE
  8
0
 62
     0
  6
CONTINUOUS
 10
5.022160
 20
7.766880
 11
5.035800
 21
7.769960
  0
LINE
  8
0
 62
     0
  6
CONTINUOUS
 10
5.035800
 20
7.769960
 11
5.035800
 21
7.763800
  0
LINE
  8
0
 62
     0
  6
CONTINUOUS
 10
5.035800
 20
7.763800
 11
5.022160
 21
7.766880
  0
LINE
  8
0
 62
     0
  6
CONTINUOUS
 10
5.022160
 20
7.766880
 11
5.034480
 21
7.774360
  0
LINE
  8
0
 62
     0
  6
CONTINUOUS
 10
5.029640
 20
7.777440
 11
5.022160
 21
7.766880
  0
LINE
  8
0
 62
     0
  6
CONTINUOUS
 10
5.022160
 20
7.766880
 11
5.025240
 21
7.780520
  0
LINE
  8
0
 62
     0
  6
CONTINUOUS
 10
5.025240
 20
7.780520
 11
5.020400
 21
7.780520
  0
LINE
  8
0
 62
     0
  6
CONTINUOUS
 10
5.020400
 20
7.780520
 11
5.022160
 21
7.766880
  0
LINE
  8
0
 62
     0
  6
CONTINUOUS
 10
5.022160
 20
7.766880
 11
5.012920
 21
7.777440
  0
LINE
  8
0
 62
     0
  6
CONTINUOUS
 10
5.011600
 20
7.774360
 11
5.022160
 21
7.766880
  0
LINE
  8
0
 62
     0
  6
CONTINUOUS
 10
5.022160
 20
7.766880
 11
5.009840
 21
7.763800
  0
LINE
  8
0
 62
     0
  6
CONTINUOUS
 10
5.009840
 20
7.763800
 11
5.009840
 21
7.769960
  0
LINE
  8
0
 62
     0
  6
CONTINUOUS
 10
5.009840
 20
7.769960
 11
5.022160
 21
7.766880
  0
LINE
  8
0
 62
     0
  6
CONTINUOUS
 10
5.022160
 20
7.766880
 11
5.011600
 21
7.759400
  0
LINE
  8
0
 62
     0
  6
CONTINUOUS
 10
5.155920
 20
7.759400
 11
5.166920
 21
7.766880
  0
LINE
  8
0
 62
     0
  6
CONTINUOUS
 10
5.166920
 20
7.766880
 11
5.163840
 21
7.753240
  0
LINE
  8
0
 62
     0
  6
CONTINUOUS
 10
5.163840
 20
7.753240
 11
5.169560
 21
7.753240
  0
LINE
  8
0
 62
     0
  6
CONTINUOUS
 10
5.169560
 20
7.753240
 11
5.166920
 21
7.766880
  0
LINE
  8
0
 62
     0
  6
CONTINUOUS
 10
5.166920
 20
7.766880
 11
5.174400
 21
7.756320
  0
LINE
  8
0
 62
     0
  6
CONTINUOUS
 10
5.177480
 20
7.759400
 11
5.166920
 21
7.766880
  0
LINE
  8
0
 62
     0
  6
CONTINUOUS
 10
5.166920
 20
7.766880
 11
5.180560
 21
7.769960
  0
LINE
  8
0
 62
     0
  6
CONTINUOUS
 10
5.180560
 20
7.769960
 11
5.180560
 21
7.763800
  0
LINE
  8
0
 62
     0
  6
CONTINUOUS
 10
5.180560
 20
7.763800
 11
5.166920
 21
7.766880
  0
LINE
  8
0
 62
     0
  6
CONTINUOUS
 10
5.166920
 20
7.766880
 11
5.177480
 21
7.774360
  0
LINE
  8
0
 62
     0
  6
CONTINUOUS
 10
5.174400
 20
7.777440
 11
5.166920
 21
7.766880
  0
LINE
  8
0
 62
     0
  6
CONTINUOUS
 10
5.166920
 20
7.766880
 11
5.169560
 21
7.780520
  0
LINE
  8
0
 62
     0
  6
CONTINUOUS
 10
5.169560
 20
7.780520
 11
5.163840
 21
7.780520
  0
LINE
  8
0
 62
     0
  6
CONTINUOUS
 10
5.163840
 20
7.780520
 11
5.166920
 21
7.766880
  0
LINE
  8
0
 62
     0
  6
CONTINUOUS
 10
5.166920
 20
7.766880
 11
5.159000
 21
7.777440
  0
LINE
  8
0
 62
     0
  6
CONTINUOUS
 10
5.155920
 20
7.774360
 11
5.166920
 21
7.766880
  0
LINE
  8
0
 62
     0
  6
CONTINUOUS
 10
5.166920
 20
7.766880
 11
5.152840
 21
7.763800
  0
LINE
  8
0
 62
     0
  6
CONTINUOUS
 10
5.152840
 20
7.763800
 11
5.152840
 21
7.769960
  0
LINE
  8
0
 62
     0
  6
CONTINUOUS
 10
5.152840
 20
7.769960
 11
5.166920
 21
7.766880
  0
LINE
  8
0
 62
     0
  6
CONTINUOUS
 10
5.166920
 20
7.766880
 11
5.159000
 21
7.756320
  0
LINE
  8
0
 62
     0
  6
CONTINUOUS
 10
5.166920
 20
7.828040
 11
5.181880
 21
7.829360
  0
LINE
  8
0
 62
     0
  6
CONTINUOUS
 10
5.181880
 20
7.829360
 11
5.195520
 21
7.832440
  0
LINE
  8
0
 62
     0
  6
CONTINUOUS
 10
5.195520
 20
7.832440
 11
5.210920
 21
7.836840
  0
LINE
  8
0
 62
     0
  6
CONTINUOUS
 10
5.210920
 20
7.836840
 11
5.224560
 21
7.846080
  0
LINE
  8
0
 62
     0
  6
CONTINUOUS
 10
5.224560
 20
7.846080
 11
5.235120
 21
7.856640
  0
LINE
  8
0
 62
     0
  6
CONTINUOUS
 10
5.235120
 20
7.856640
 11
5.244360
 21
7.867200
  0
LINE
  8
0
 62
     0
  6
CONTINUOUS
 10
5.244360
 20
7.867200
 11
5.253600
 21
7.879520
  0
LINE
  8
0
 62
     0
  6
CONTINUOUS
 10
5.253600
 20
7.879520
 11
5.258000
 21
7.894920
  0
LINE
  8
0
 62
     0
  6
CONTINUOUS
 10
5.258000
 20
7.894920
 11
5.261080
 21
7.908560
  0
LINE
  8
0
 62
     0
  6
CONTINUOUS
 10
5.261080
 20
7.908560
 11
5.262840
 21
7.923520
  0
LINE
  8
0
 62
     0
  6
CONTINUOUS
 10
5.262840
 20
7.923520
 11
5.261080
 21
7.938920
  0
LINE
  8
0
 62
     0
  6
CONTINUOUS
 10
5.261080
 20
7.938920
 11
5.258000
 21
7.954320
  0
LINE
  8
0
 62
     0
  6
CONTINUOUS
 10
5.258000
 20
7.954320
 11
5.253600
 21
7.967960
  0
LINE
  8
0
 62
     0
  6
CONTINUOUS
 10
5.253600
 20
7.967960
 11
5.244360
 21
7.981600
  0
LINE
  8
0
 62
     0
  6
CONTINUOUS
 10
5.244360
 20
7.981600
 11
5.235120
 21
7.992160
  0
LINE
  8
0
 62
     0
  6
CONTINUOUS
 10
5.235120
 20
7.992160
 11
5.224560
 21
8.002720
  0
LINE
  8
0
 62
     0
  6
CONTINUOUS
 10
5.224560
 20
8.002720
 11
5.210920
 21
8.010640
  0
LINE
  8
0
 62
     0
  6
CONTINUOUS
 10
5.210920
 20
8.010640
 11
5.195520
 21
8.016360
  0
LINE
  8
0
 62
     0
  6
CONTINUOUS
 10
5.195520
 20
8.016360
 11
5.181880
 21
8.019440
  0
LINE
  8
0
 62
     0
  6
CONTINUOUS
 10
5.181880
 20
8.019440
 11
5.166920
 21
8.021200
  0
LINE
  8
0
 62
     0
  6
CONTINUOUS
 10
5.166920
 20
8.021200
 11
5.151520
 21
8.019440
  0
LINE
  8
0
 62
     0
  6
CONTINUOUS
 10
5.151520
 20
8.019440
 11
5.137880
 21
8.016360
  0
LINE
  8
0
 62
     0
  6
CONTINUOUS
 10
5.137880
 20
8.016360
 11
5.122480
 21
8.010640
  0
LINE
  8
0
 62
     0
  6
CONTINUOUS
 10
5.122480
 20
8.010640
 11
5.110600
 21
8.002720
  0
LINE
  8
0
 62
     0
  6
CONTINUOUS
 10
5.110600
 20
8.002720
 11
5.098280
 21
7.992160
  0
LINE
  8
0
 62
     0
  6
CONTINUOUS
 10
5.098280
 20
7.992160
 11
5.089040
 21
7.981600
  0
LINE
  8
0
 62
     0
  6
CONTINUOUS
 10
5.089040
 20
7.981600
 11
5.079800
 21
7.967960
  0
LINE
  8
0
 62
     0
  6
CONTINUOUS
 10
5.079800
 20
7.967960
 11
5.075400
 21
7.954320
  0
LINE
  8
0
 62
     0
  6
CONTINUOUS
 10
5.075400
 20
7.954320
 11
5.071000
 21
7.938920
  0
LINE
  8
0
 62
     0
  6
CONTINUOUS
 10
5.071000
 20
7.938920
 11
5.071000
 21
7.923520
  0
LINE
  8
0
 62
     0
  6
CONTINUOUS
 10
5.071000
 20
7.923520
 11
5.071000
 21
7.908560
  0
LINE
  8
0
 62
     0
  6
CONTINUOUS
 10
5.071000
 20
7.908560
 11
5.075400
 21
7.894920
  0
LINE
  8
0
 62
     0
  6
CONTINUOUS
 10
5.075400
 20
7.894920
 11
5.079800
 21
7.879520
  0
LINE
  8
0
 62
     0
  6
CONTINUOUS
 10
5.079800
 20
7.879520
 11
5.089040
 21
7.867200
  0
LINE
  8
0
 62
     0
  6
CONTINUOUS
 10
5.089040
 20
7.867200
 11
5.098280
 21
7.856640
  0
LINE
  8
0
 62
     0
  6
CONTINUOUS
 10
5.098280
 20
7.856640
 11
5.110600
 21
7.846080
  0
LINE
  8
0
 62
     0
  6
CONTINUOUS
 10
5.110600
 20
7.846080
 11
5.122480
 21
7.836840
  0
LINE
  8
0
 62
     0
  6
CONTINUOUS
 10
5.122480
 20
7.836840
 11
5.137880
 21
7.832440
  0
LINE
  8
0
 62
     0
  6
CONTINUOUS
 10
5.137880
 20
7.832440
 11
5.151520
 21
7.829360
  0
LINE
  8
0
 62
     0
  6
CONTINUOUS
 10
5.151520
 20
7.829360
 11
5.166920
 21
7.828040
  0
LINE
  8
0
 62
     0
  6
CONTINUOUS
 10
5.303760
 20
7.777440
 11
5.311240
 21
7.766880
  0
LINE
  8
0
 62
     0
  6
CONTINUOUS
 10
5.311240
 20
7.766880
 11
5.297600
 21
7.763800
  0
LINE
  8
0
 62
     0
  6
CONTINUOUS
 10
5.297600
 20
7.763800
 11
5.297600
 21
7.769960
  0
LINE
  8
0
 62
     0
  6
CONTINUOUS
 10
5.297600
 20
7.769960
 11
5.311240
 21
7.766880
  0
LINE
  8
0
 62
     0
  6
CONTINUOUS
 10
5.311240
 20
7.766880
 11
5.299360
 21
7.759400
  0
LINE
  8
0
 62
     0
  6
CONTINUOUS
 10
5.303760
 20
7.756320
 11
5.311240
 21
7.766880
  0
LINE
  8
0
 62
     0
  6
CONTINUOUS
 10
5.311240
 20
7.766880
 11
5.308160
 21
7.753240
  0
LINE
  8
0
 62
     0
  6
CONTINUOUS
 10
5.308160
 20
7.753240
 11
5.313000
 21
7.753240
  0
LINE
  8
0
 62
     0
  6
CONTINUOUS
 10
5.313000
 20
7.753240
 11
5.311240
 21
7.766880
  0
LINE
  8
0
 62
     0
  6
CONTINUOUS
 10
5.311240
 20
7.766880
 11
5.319160
 21
7.756320
  0
LINE
  8
0
 62
     0
  6
CONTINUOUS
 10
5.321800
 20
7.759400
 11
5.311240
 21
7.766880
  0
LINE
  8
0
 62
     0
  6
CONTINUOUS
 10
5.311240
 20
7.766880
 11
5.323560
 21
7.769960
  0
LINE
  8
0
 62
     0
  6
CONTINUOUS
 10
5.323560
 20
7.769960
 11
5.323560
 21
7.763800
  0
LINE
  8
0
 62
     0
  6
CONTINUOUS
 10
5.323560
 20
7.763800
 11
5.311240
 21
7.766880
  0
LINE
  8
0
 62
     0
  6
CONTINUOUS
 10
5.311240
 20
7.766880
 11
5.321800
 21
7.774360
  0
LINE
  8
0
 62
     0
  6
CONTINUOUS
 10
5.319160
 20
7.777440
 11
5.311240
 21
7.766880
  0
LINE
  8
0
 62
     0
  6
CONTINUOUS
 10
5.311240
 20
7.766880
 11
5.313000
 21
7.780520
  0
LINE
  8
0
 62
     0
  6
CONTINUOUS
 10
5.313000
 20
7.780520
 11
5.308160
 21
7.780520
  0
LINE
  8
0
 62
     0
  6
CONTINUOUS
 10
5.308160
 20
7.780520
 11
5.311240
 21
7.766880
  0
LINE
  8
0
 62
     0
  6
CONTINUOUS
 10
5.311240
 20
7.766880
 11
5.299360
 21
7.774360
  0
LINE
  8
0
 62
     0
  6
CONTINUOUS
 10
5.274720
 20
7.972360
 11
5.276480
 21
7.976760
  0
LINE
  8
0
 62
     0
  6
CONTINUOUS
 10
5.276480
 20
7.976760
 11
5.279560
 21
7.982920
  0
LINE
  8
0
 62
     0
  6
CONTINUOUS
 10
5.279560
 20
7.982920
 11
5.276480
 21
7.989080
  0
LINE
  8
0
 62
     0
  6
CONTINUOUS
 10
5.276480
 20
7.989080
 11
5.274720
 21
7.995240
  0
LINE
  8
0
 62
     0
  6
CONTINUOUS
 10
5.274720
 20
7.995240
 11
5.268560
 21
7.996560
  0
LINE
  8
0
 62
     0
  6
CONTINUOUS
 10
5.268560
 20
7.996560
 11
5.261080
 21
7.998320
  0
LINE
  8
0
 62
     0
  6
CONTINUOUS
 10
5.261080
 20
7.998320
 11
5.256680
 21
7.996560
  0
LINE
  8
0
 62
     0
  6
CONTINUOUS
 10
5.256680
 20
7.996560
 11
5.250520
 21
7.995240
  0
LINE
  8
0
 62
     0
  6
CONTINUOUS
 10
5.250520
 20
7.995240
 11
5.247440
 21
7.989080
  0
LINE
  8
0
 62
     0
  6
CONTINUOUS
 10
5.247440
 20
7.989080
 11
5.247440
 21
7.982920
  0
LINE
  8
0
 62
     0
  6
CONTINUOUS
 10
5.247440
 20
7.982920
 11
5.247440
 21
7.976760
  0
LINE
  8
0
 62
     0
  6
CONTINUOUS
 10
5.247440
 20
7.976760
 11
5.250520
 21
7.972360
  0
LINE
  8
0
 62
     0
  6
CONTINUOUS
 10
5.250520
 20
7.972360
 11
5.256680
 21
7.967960
  0
LINE
  8
0
 62
     0
  6
CONTINUOUS
 10
5.256680
 20
7.967960
 11
5.261080
 21
7.966200
  0
LINE
  8
0
 62
     0
  6
CONTINUOUS
 10
5.261080
 20
7.966200
 11
5.268560
 21
7.967960
  0
LINE
  8
0
 62
     0
  6
CONTINUOUS
 10
5.268560
 20
7.967960
 11
5.274720
 21
7.972360
  0
LINE
  8
0
 62
     0
  6
CONTINUOUS
 10
5.261080
 20
7.982920
 11
5.227640
 21
8.047160
  0
LINE
  8
0
 62
     0
  6
CONTINUOUS
 10
5.227640
 20
8.047160
 11
4.939880
 21
8.047160
  0
LINE
  8
0
 62
     0
  6
CONTINUOUS
 10
4.939880
 20
8.047160
 11
4.944720
 21
8.033080
  0
LINE
  8
0
 62
     0
  6
CONTINUOUS
 10
4.944720
 20
8.033080
 11
4.944720
 21
8.027360
  0
LINE
  8
0
 62
     0
  6
CONTINUOUS
 10
4.944720
 20
8.027360
 11
4.939880
 21
8.015040
  0
LINE
  8
0
 62
     0
  6
CONTINUOUS
 10
4.939880
 20
8.015040
 11
4.944720
 21
8.001400
  0
LINE
  8
0
 62
     0
  6
CONTINUOUS
 10
4.949120
 20
8.002720
 11
4.939880
 21
8.015040
  0
LINE
  8
0
 62
     0
  6
CONTINUOUS
 10
4.939880
 20
8.015040
 11
4.952200
 21
8.007560
  0
LINE
  8
0
 62
     0
  6
CONTINUOUS
 10
4.955280
 20
8.011960
 11
4.939880
 21
8.015040
  0
LINE
  8
0
 62
     0
  6
CONTINUOUS
 10
4.939880
 20
8.015040
 11
4.952200
 21
8.022520
  0
LINE
  8
0
 62
     0
  6
CONTINUOUS
 10
4.949120
 20
8.025600
 11
4.939880
 21
8.015040
  0
LINE
  8
0
 62
     0
  6
CONTINUOUS
 10
4.939880
 20
8.015040
 11
5.045040
 21
8.015040
  0
LINE
  8
0
 62
     0
  6
CONTINUOUS
 10
5.045040
 20
8.015040
 11
5.071000
 21
7.982920
  0
LINE
  8
0
 62
     0
  6
CONTINUOUS
 10
5.071000
 20
7.998320
 11
5.064840
 21
7.996560
  0
LINE
  8
0
 62
     0
  6
CONTINUOUS
 10
5.064840
 20
7.996560
 11
5.058680
 21
7.995240
  0
LINE
  8
0
 62
     0
  6
CONTINUOUS
 10
5.058680
 20
7.995240
 11
5.055600
 21
7.989080
  0
LINE
  8
0
 62
     0
  6
CONTINUOUS
 10
5.055600
 20
7.989080
 11
5.055600
 21
7.982920
  0
LINE
  8
0
 62
     0
  6
CONTINUOUS
 10
5.055600
 20
7.982920
 11
5.055600
 21
7.976760
  0
LINE
  8
0
 62
     0
  6
CONTINUOUS
 10
5.055600
 20
7.976760
 11
5.058680
 21
7.972360
  0
LINE
  8
0
 62
     0
  6
CONTINUOUS
 10
5.058680
 20
7.972360
 11
5.064840
 21
7.967960
  0
LINE
  8
0
 62
     0
  6
CONTINUOUS
 10
5.064840
 20
7.967960
 11
5.071000
 21
7.966200
  0
LINE
  8
0
 62
     0
  6
CONTINUOUS
 10
5.071000
 20
7.966200
 11
5.076720
 21
7.967960
  0
LINE
  8
0
 62
     0
  6
CONTINUOUS
 10
5.076720
 20
7.967960
 11
5.082880
 21
7.972360
  0
LINE
  8
0
 62
     0
  6
CONTINUOUS
 10
5.082880
 20
7.972360
 11
5.085960
 21
7.976760
  0
LINE
  8
0
 62
     0
  6
CONTINUOUS
 10
5.085960
 20
7.976760
 11
5.085960
 21
7.982920
  0
LINE
  8
0
 62
     0
  6
CONTINUOUS
 10
5.085960
 20
7.982920
 11
5.085960
 21
7.989080
  0
LINE
  8
0
 62
     0
  6
CONTINUOUS
 10
5.085960
 20
7.989080
 11
5.082880
 21
7.995240
  0
LINE
  8
0
 62
     0
  6
CONTINUOUS
 10
5.082880
 20
7.995240
 11
5.076720
 21
7.996560
  0
LINE
  8
0
 62
     0
  6
CONTINUOUS
 10
5.076720
 20
7.996560
 11
5.071000
 21
7.998320
  0
LINE
  8
0
 62
     0
  6
CONTINUOUS
 10
5.034480
 20
8.085000
 11
5.022160
 21
8.092480
  0
LINE
  8
0
 62
     0
  6
CONTINUOUS
 10
5.022160
 20
8.092480
 11
5.035800
 21
8.095560
  0
LINE
  8
0
 62
     0
  6
CONTINUOUS
 10
5.035800
 20
8.095560
 11
5.035800
 21
8.089400
  0
LINE
  8
0
 62
     0
  6
CONTINUOUS
 10
5.035800
 20
8.089400
 11
5.022160
 21
8.092480
  0
LINE
  8
0
 62
     0
  6
CONTINUOUS
 10
5.022160
 20
8.092480
 11
5.034480
 21
8.098640
  0
LINE
  8
0
 62
     0
  6
CONTINUOUS
 10
5.029640
 20
8.104800
 11
5.022160
 21
8.092480
  0
LINE
  8
0
 62
     0
  6
CONTINUOUS
 10
5.022160
 20
8.092480
 11
5.025240
 21
8.104800
  0
LINE
  8
0
 62
     0
  6
CONTINUOUS
 10
5.025240
 20
8.104800
 11
5.020400
 21
8.104800
  0
LINE
  8
0
 62
     0
  6
CONTINUOUS
 10
5.020400
 20
8.104800
 11
5.022160
 21
8.092480
  0
LINE
  8
0
 62
     0
  6
CONTINUOUS
 10
5.022160
 20
8.092480
 11
5.012920
 21
8.104800
  0
LINE
  8
0
 62
     0
  6
CONTINUOUS
 10
5.011600
 20
8.098640
 11
5.022160
 21
8.092480
  0
LINE
  8
0
 62
     0
  6
CONTINUOUS
 10
5.022160
 20
8.092480
 11
5.009840
 21
8.089400
  0
LINE
  8
0
 62
     0
  6
CONTINUOUS
 10
5.009840
 20
8.089400
 11
5.009840
 21
8.095560
  0
LINE
  8
0
 62
     0
  6
CONTINUOUS
 10
5.009840
 20
8.095560
 11
5.022160
 21
8.092480
  0
LINE
  8
0
 62
     0
  6
CONTINUOUS
 10
5.022160
 20
8.092480
 11
5.011600
 21
8.085000
  0
LINE
  8
0
 62
     0
  6
CONTINUOUS
 10
5.012920
 20
8.081920
 11
5.022160
 21
8.092480
  0
LINE
  8
0
 62
     0
  6
CONTINUOUS
 10
5.022160
 20
8.092480
 11
5.020400
 21
8.078840
  0
LINE
  8
0
 62
     0
  6
CONTINUOUS
 10
5.020400
 20
8.078840
 11
5.025240
 21
8.078840
  0
LINE
  8
0
 62
     0
  6
CONTINUOUS
 10
5.025240
 20
8.078840
 11
5.022160
 21
8.092480
  0
LINE
  8
0
 62
     0
  6
CONTINUOUS
 10
5.022160
 20
8.092480
 11
5.029640
 21
8.081920
  0
LINE
  8
0
 62
     0
  6
CONTINUOUS
 10
4.949120
 20
8.057720
 11
4.939880
 21
8.047160
  0
LINE
  8
0
 62
     0
  6
CONTINUOUS
 10
4.939880
 20
8.047160
 11
4.952200
 21
8.039240
  0
LINE
  8
0
 62
     0
  6
CONTINUOUS
 10
4.955280
 20
8.044080
 11
4.939880
 21
8.047160
  0
LINE
  8
0
 62
     0
  6
CONTINUOUS
 10
4.939880
 20
8.047160
 11
4.952200
 21
8.054640
  0
LINE
  8
0
 62
     0
  6
CONTINUOUS
 10
4.955280
 20
8.048480
 11
4.939880
 21
8.047160
  0
LINE
  8
0
 62
     0
  6
CONTINUOUS
 10
4.939880
 20
8.047160
 11
4.944720
 21
8.060800
  0
LINE
  8
0
 62
     0
  6
CONTINUOUS
 10
4.939880
 20
8.047160
 11
4.949120
 21
8.034840
  0
LINE
  8
0
 62
     0
  6
CONTINUOUS
 10
4.955280
 20
8.018120
 11
4.939880
 21
8.015040
  0
LINE
  8
0
 62
     0
  6
CONTINUOUS
 10
5.155920
 20
8.085000
 11
5.166920
 21
8.092480
  0
LINE
  8
0
 62
     0
  6
CONTINUOUS
 10
5.166920
 20
8.092480
 11
5.163840
 21
8.078840
  0
LINE
  8
0
 62
     0
  6
CONTINUOUS
 10
5.163840
 20
8.078840
 11
5.169560
 21
8.078840
  0
LINE
  8
0
 62
     0
  6
CONTINUOUS
 10
5.169560
 20
8.078840
 11
5.166920
 21
8.092480
  0
LINE
  8
0
 62
     0
  6
CONTINUOUS
 10
5.166920
 20
8.092480
 11
5.174400
 21
8.081920
  0
LINE
  8
0
 62
     0
  6
CONTINUOUS
 10
5.177480
 20
8.085000
 11
5.166920
 21
8.092480
  0
LINE
  8
0
 62
     0
  6
CONTINUOUS
 10
5.166920
 20
8.092480
 11
5.180560
 21
8.095560
  0
LINE
  8
0
 62
     0
  6
CONTINUOUS
 10
5.180560
 20
8.095560
 11
5.180560
 21
8.089400
  0
LINE
  8
0
 62
     0
  6
CONTINUOUS
 10
5.180560
 20
8.089400
 11
5.166920
 21
8.092480
  0
LINE
  8
0
 62
     0
  6
CONTINUOUS
 10
5.166920
 20
8.092480
 11
5.177480
 21
8.098640
  0
LINE
  8
0
 62
     0
  6
CONTINUOUS
 10
5.174400
 20
8.104800
 11
5.166920
 21
8.092480
  0
LINE
  8
0
 62
     0
  6
CONTINUOUS
 10
5.166920
 20
8.092480
 11
5.169560
 21
8.104800
  0
LINE
  8
0
 62
     0
  6
CONTINUOUS
 10
5.169560
 20
8.104800
 11
5.163840
 21
8.104800
  0
LINE
  8
0
 62
     0
  6
CONTINUOUS
 10
5.163840
 20
8.104800
 11
5.166920
 21
8.092480
  0
LINE
  8
0
 62
     0
  6
CONTINUOUS
 10
5.166920
 20
8.092480
 11
5.159000
 21
8.104800
  0
LINE
  8
0
 62
     0
  6
CONTINUOUS
 10
5.155920
 20
8.098640
 11
5.166920
 21
8.092480
  0
LINE
  8
0
 62
     0
  6
CONTINUOUS
 10
5.166920
 20
8.092480
 11
5.152840
 21
8.089400
  0
LINE
  8
0
 62
     0
  6
CONTINUOUS
 10
5.152840
 20
8.089400
 11
5.152840
 21
8.095560
  0
LINE
  8
0
 62
     0
  6
CONTINUOUS
 10
5.152840
 20
8.095560
 11
5.166920
 21
8.092480
  0
LINE
  8
0
 62
     0
  6
CONTINUOUS
 10
5.166920
 20
8.092480
 11
5.159000
 21
8.081920
  0
LINE
  8
0
 62
     0
  6
CONTINUOUS
 10
5.159000
 20
7.940240
 11
5.155920
 21
7.937600
  0
LINE
  8
0
 62
     0
  6
CONTINUOUS
 10
5.155920
 20
7.937600
 11
5.154600
 21
7.931440
  0
LINE
  8
0
 62
     0
  6
CONTINUOUS
 10
5.154600
 20
7.931440
 11
5.155920
 21
7.926600
  0
LINE
  8
0
 62
     0
  6
CONTINUOUS
 10
5.155920
 20
7.926600
 11
5.157680
 21
7.923520
  0
LINE
  8
0
 62
     0
  6
CONTINUOUS
 10
5.157680
 20
7.923520
 11
5.159000
 21
7.923520
  0
LINE
  8
0
 62
     0
  6
CONTINUOUS
 10
5.159000
 20
7.923520
 11
5.174400
 21
7.917800
  0
LINE
  8
0
 62
     0
  6
CONTINUOUS
 10
5.174400
 20
7.917800
 11
5.177480
 21
7.916040
  0
LINE
  8
0
 62
     0
  6
CONTINUOUS
 10
5.177480
 20
7.916040
 11
5.177480
 21
7.912960
  0
LINE
  8
0
 62
     0
  6
CONTINUOUS
 10
5.177480
 20
7.912960
 11
5.180560
 21
7.908560
  0
LINE
  8
0
 62
     0
  6
CONTINUOUS
 10
5.180560
 20
7.908560
 11
5.177480
 21
7.901080
  0
LINE
  8
0
 62
     0
  6
CONTINUOUS
 10
5.177480
 20
7.901080
 11
5.172640
 21
7.898000
  0
LINE
  8
0
 62
     0
  6
CONTINUOUS
 10
5.172640
 20
7.898000
 11
5.166920
 21
7.894920
  0
LINE
  8
0
 62
     0
  6
CONTINUOUS
 10
5.166920
 20
7.894920
 11
5.155920
 21
7.894920
  0
LINE
  8
0
 62
     0
  6
CONTINUOUS
 10
5.155920
 20
7.894920
 11
5.150200
 21
7.898000
  0
LINE
  8
0
 62
     0
  6
CONTINUOUS
 10
5.150200
 20
7.898000
 11
5.145360
 21
7.901080
  0
LINE
  8
0
 62
     0
  6
CONTINUOUS
 10
5.159000
 20
7.940240
 11
5.168240
 21
7.943320
  0
LINE
  8
0
 62
     0
  6
CONTINUOUS
 10
5.168240
 20
7.943320
 11
5.177480
 21
7.943320
  0
LINE
  8
0
 62
     0
  6
CONTINUOUS
 10
5.177480
 20
7.943320
 11
5.183640
 21
7.940240
  0
LINE
  8
0
 62
     0
  6
CONTINUOUS
 10
5.183640
 20
7.940240
 11
5.188040
 21
7.937600
  0
LINE
  8
0
 62
     0
  6
CONTINUOUS
 10
5.166920
 20
7.766880
 11
5.166920
 21
7.675800
  0
LINE
  8
0
 62
     0
  6
CONTINUOUS
 10
5.166920
 20
7.652920
 11
5.157680
 21
7.652920
  0
LINE
  8
0
 62
     0
  6
CONTINUOUS
 10
5.157680
 20
7.652920
 11
5.150200
 21
7.651160
  0
LINE
  8
0
 62
     0
  6
CONTINUOUS
 10
5.150200
 20
7.651160
 11
5.144040
 21
7.646760
  0
LINE
  8
0
 62
     0
  6
CONTINUOUS
 10
5.144040
 20
7.646760
 11
5.144040
 21
7.641920
  0
LINE
  8
0
 62
     0
  6
CONTINUOUS
 10
5.144040
 20
7.641920
 11
5.144040
 21
7.637520
  0
LINE
  8
0
 62
     0
  6
CONTINUOUS
 10
5.144040
 20
7.637520
 11
5.145360
 21
7.634440
  0
LINE
  8
0
 62
     0
  6
CONTINUOUS
 10
5.145360
 20
7.634440
 11
5.150200
 21
7.633120
  0
LINE
  8
0
 62
     0
  6
CONTINUOUS
 10
5.150200
 20
7.633120
 11
5.159000
 21
7.628280
  0
LINE
  8
0
 62
     0
  6
CONTINUOUS
 10
5.159000
 20
7.628280
 11
5.166920
 21
7.625200
  0
LINE
  8
0
 62
     0
  6
CONTINUOUS
 10
5.166920
 20
7.625200
 11
5.168240
 21
7.619480
  0
LINE
  8
0
 62
     0
  6
CONTINUOUS
 10
5.168240
 20
7.619480
 11
5.166920
 21
7.611560
  0
LINE
  8
0
 62
     0
  6
CONTINUOUS
 10
5.166920
 20
7.611560
 11
5.159000
 21
7.608480
  0
LINE
  8
0
 62
     0
  6
CONTINUOUS
 10
5.159000
 20
7.608480
 11
5.152840
 21
7.605400
  0
LINE
  8
0
 62
     0
  6
CONTINUOUS
 10
5.152840
 20
7.605400
 11
5.145360
 21
7.605400
  0
LINE
  8
0
 62
     0
  6
CONTINUOUS
 10
5.145360
 20
7.605400
 11
5.137880
 21
7.608480
  0
LINE
  8
0
 62
     0
  6
CONTINUOUS
 10
5.137880
 20
7.608480
 11
5.136120
 21
7.611560
  0
LINE
  8
0
 62
     0
  6
CONTINUOUS
 10
5.184960
 20
7.611560
 11
5.188040
 21
7.608480
  0
LINE
  8
0
 62
     0
  6
CONTINUOUS
 10
5.188040
 20
7.608480
 11
5.194200
 21
7.605400
  0
LINE
  8
0
 62
     0
  6
CONTINUOUS
 10
5.194200
 20
7.605400
 11
5.198600
 21
7.605400
  0
LINE
  8
0
 62
     0
  6
CONTINUOUS
 10
5.198600
 20
7.605400
 11
5.206520
 21
7.608480
  0
LINE
  8
0
 62
     0
  6
CONTINUOUS
 10
5.206520
 20
7.608480
 11
5.210920
 21
7.611560
  0
LINE
  8
0
 62
     0
  6
CONTINUOUS
 10
5.210920
 20
7.611560
 11
5.217080
 21
7.619480
  0
LINE
  8
0
 62
     0
  6
CONTINUOUS
 10
5.217080
 20
7.619480
 11
5.225880
 21
7.652920
  0
LINE
  8
0
 62
     0
  6
CONTINUOUS
 10
5.244360
 20
7.652920
 11
5.232040
 21
7.605400
  0
LINE
  8
0
 62
     0
  6
CONTINUOUS
 10
5.236880
 20
7.628280
 11
5.258000
 21
7.628280
  0
LINE
  8
0
 62
     0
  6
CONTINUOUS
 10
5.258000
 20
7.628280
 11
5.264160
 21
7.631360
  0
LINE
  8
0
 62
     0
  6
CONTINUOUS
 10
5.264160
 20
7.631360
 11
5.268560
 21
7.633120
  0
LINE
  8
0
 62
     0
  6
CONTINUOUS
 10
5.268560
 20
7.633120
 11
5.271640
 21
7.637520
  0
LINE
  8
0
 62
     0
  6
CONTINUOUS
 10
5.271640
 20
7.637520
 11
5.273400
 21
7.645000
  0
LINE
  8
0
 62
     0
  6
CONTINUOUS
 10
5.273400
 20
7.645000
 11
5.271640
 21
7.648080
  0
LINE
  8
0
 62
     0
  6
CONTINUOUS
 10
5.271640
 20
7.648080
 11
5.268560
 21
7.651160
  0
LINE
  8
0
 62
     0
  6
CONTINUOUS
 10
5.268560
 20
7.651160
 11
5.264160
 21
7.652920
  0
LINE
  8
0
 62
     0
  6
CONTINUOUS
 10
5.264160
 20
7.652920
 11
5.244360
 21
7.652920
  0
LINE
  8
0
 62
     0
  6
CONTINUOUS
 10
5.291440
 20
7.652920
 11
5.277800
 21
7.605400
  0
LINE
  8
0
 62
     0
  6
CONTINUOUS
 10
5.283960
 20
7.628280
 11
5.305080
 21
7.628280
  0
LINE
  8
0
 62
     0
  6
CONTINUOUS
 10
5.305080
 20
7.628280
 11
5.313000
 21
7.631360
  0
LINE
  8
0
 62
     0
  6
CONTINUOUS
 10
5.313000
 20
7.631360
 11
5.316080
 21
7.633120
  0
LINE
  8
0
 62
     0
  6
CONTINUOUS
 10
5.316080
 20
7.633120
 11
5.319160
 21
7.637520
  0
LINE
  8
0
 62
     0
  6
CONTINUOUS
 10
5.319160
 20
7.637520
 11
5.320480
 21
7.645000
  0
LINE
  8
0
 62
     0
  6
CONTINUOUS
 10
5.320480
 20
7.645000
 11
5.319160
 21
7.648080
  0
LINE
  8
0
 62
     0
  6
CONTINUOUS
 10
5.319160
 20
7.648080
 11
5.319160
 21
7.651160
  0
LINE
  8
0
 62
     0
  6
CONTINUOUS
 10
5.319160
 20
7.651160
 11
5.313000
 21
7.652920
  0
LINE
  8
0
 62
     0
  6
CONTINUOUS
 10
5.313000
 20
7.652920
 11
5.291440
 21
7.652920
  0
LINE
  8
0
 62
     0
  6
CONTINUOUS
 10
5.313000
 20
7.675800
 11
5.313000
 21
7.766880
  0
LINE
  8
0
 62
     0
  6
CONTINUOUS
 10
5.340280
 20
7.652920
 11
5.326640
 21
7.605400
  0
LINE
  8
0
 62
     0
  6
CONTINUOUS
 10
5.326640
 20
7.605400
 11
5.353920
 21
7.605400
  0
LINE
  8
0
 62
     0
  6
CONTINUOUS
 10
5.376800
 20
7.605400
 11
5.382960
 21
7.631360
  0
LINE
  8
0
 62
     0
  6
CONTINUOUS
 10
5.382960
 20
7.631360
 11
5.407160
 21
7.652920
  0
LINE
  8
0
 62
     0
  6
CONTINUOUS
 10
5.370640
 20
7.652920
 11
5.382960
 21
7.631360
  0
LINE
  8
0
 62
     0
  6
CONTINUOUS
 10
5.184960
 20
7.619480
 11
5.184960
 21
7.611560
  0
LINE
  8
0
 62
     0
  6
CONTINUOUS
 10
5.184960
 20
7.619480
 11
5.194200
 21
7.652920
  0
LINE
  8
0
 62
     0
  6
CONTINUOUS
 10
5.172640
 20
7.651160
 11
5.166920
 21
7.652920
  0
LINE
  8
0
 62
     0
  6
CONTINUOUS
 10
5.172640
 20
7.651160
 11
5.175720
 21
7.646760
  0
LINE
  8
0
 62
     0
  6
CONTINUOUS
 10
5.085960
 20
7.652920
 11
5.057360
 21
7.652920
  0
LINE
  8
0
 62
     0
  6
CONTINUOUS
 10
5.057360
 20
7.652920
 11
5.045040
 21
7.605400
  0
LINE
  8
0
 62
     0
  6
CONTINUOUS
 10
5.045040
 20
7.605400
 11
5.074080
 21
7.605400
  0
LINE
  8
0
 62
     0
  6
CONTINUOUS
 10
5.067920
 20
7.631360
 11
5.049440
 21
7.631360
  0
LINE
  8
0
 62
     0
  6
CONTINUOUS
 10
5.038880
 20
7.652920
 11
5.026560
 21
7.605400
  0
LINE
  8
0
 62
     0
  6
CONTINUOUS
 10
5.026560
 20
7.605400
 11
5.006760
 21
7.652920
  0
LINE
  8
0
 62
     0
  6
CONTINUOUS
 10
5.006760
 20
7.652920
 11
4.994880
 21
7.605400
  0
LINE
  8
0
 62
     0
  6
CONTINUOUS
 10
4.976400
 20
7.605400
 11
4.990040
 21
7.652920
  0
LINE
  8
0
 62
     0
  6
CONTINUOUS
 10
4.949120
 20
7.652920
 11
4.938560
 21
7.605400
  0
LINE
  8
0
 62
     0
  6
CONTINUOUS
 10
4.938560
 20
7.605400
 11
4.964080
 21
7.605400
  0
LINE
  8
0
 62
     0
  6
CONTINUOUS
 10
5.022160
 20
7.675800
 11
5.022160
 21
7.766880
  0
LINE
  8
0
 62
     0
  6
CONTINUOUS
 10
4.942960
 20
8.013720
 11
4.837800
 21
8.013720
  0
LINE
  8
0
 62
     0
  6
CONTINUOUS
 10
4.837800
 20
8.013720
 11
4.837800
 21
7.323800
  0
LINE
  8
0
 62
     0
  6
CONTINUOUS
 10
5.022160
 20
8.182680
 11
5.104440
 21
8.264520
  0
LINE
  8
0
 62
     0
  6
CONTINUOUS
 10
5.145360
 20
8.333160
 11
5.151520
 21
8.330080
  0
LINE
  8
0
 62
     0
  6
CONTINUOUS
 10
5.151520
 20
8.330080
 11
5.159000
 21
8.325680
  0
LINE
  8
0
 62
     0
  6
CONTINUOUS
 10
5.159000
 20
8.325680
 11
5.166920
 21
8.325680
  0
LINE
  8
0
 62
     0
  6
CONTINUOUS
 10
5.166920
 20
8.325680
 11
5.174400
 21
8.325680
  0
LINE
  8
0
 62
     0
  6
CONTINUOUS
 10
5.174400
 20
8.325680
 11
5.180560
 21
8.330080
  0
LINE
  8
0
 62
     0
  6
CONTINUOUS
 10
5.180560
 20
8.330080
 11
5.186720
 21
8.333160
  0
LINE
  8
0
 62
     0
  6
CONTINUOUS
 10
5.186720
 20
8.333160
 11
5.191120
 21
8.339320
  0
LINE
  8
0
 62
     0
  6
CONTINUOUS
 10
5.191120
 20
8.339320
 11
5.194200
 21
8.345480
  0
LINE
  8
0
 62
     0
  6
CONTINUOUS
 10
5.194200
 20
8.345480
 11
5.194200
 21
8.352960
  0
LINE
  8
0
 62
     0
  6
CONTINUOUS
 10
5.194200
 20
8.352960
 11
5.194200
 21
8.360440
  0
LINE
  8
0
 62
     0
  6
CONTINUOUS
 10
5.194200
 20
8.360440
 11
5.191120
 21
8.366600
  0
LINE
  8
0
 62
     0
  6
CONTINUOUS
 10
5.191120
 20
8.366600
 11
5.186720
 21
8.374080
  0
LINE
  8
0
 62
     0
  6
CONTINUOUS
 10
5.186720
 20
8.374080
 11
5.180560
 21
8.378920
  0
LINE
  8
0
 62
     0
  6
CONTINUOUS
 10
5.180560
 20
8.378920
 11
5.174400
 21
8.382000
  0
LINE
  8
0
 62
     0
  6
CONTINUOUS
 10
5.174400
 20
8.382000
 11
5.166920
 21
8.382000
  0
LINE
  8
0
 62
     0
  6
CONTINUOUS
 10
5.166920
 20
8.382000
 11
5.159000
 21
8.382000
  0
LINE
  8
0
 62
     0
  6
CONTINUOUS
 10
5.159000
 20
8.382000
 11
5.151520
 21
8.378920
  0
LINE
  8
0
 62
     0
  6
CONTINUOUS
 10
5.151520
 20
8.378920
 11
5.145360
 21
8.374080
  0
LINE
  8
0
 62
     0
  6
CONTINUOUS
 10
5.145360
 20
8.374080
 11
5.140960
 21
8.366600
  0
LINE
  8
0
 62
     0
  6
CONTINUOUS
 10
5.140960
 20
8.366600
 11
5.137880
 21
8.360440
  0
LINE
  8
0
 62
     0
  6
CONTINUOUS
 10
5.137880
 20
8.360440
 11
5.137880
 21
8.352960
  0
LINE
  8
0
 62
     0
  6
CONTINUOUS
 10
5.137880
 20
8.352960
 11
5.137880
 21
8.345480
  0
LINE
  8
0
 62
     0
  6
CONTINUOUS
 10
5.137880
 20
8.345480
 11
5.140960
 21
8.339320
  0
LINE
  8
0
 62
     0
  6
CONTINUOUS
 10
5.140960
 20
8.339320
 11
5.145360
 21
8.333160
  0
LINE
  8
0
 62
     0
  6
CONTINUOUS
 10
5.166920
 20
8.325680
 11
4.787640
 21
8.327000
  0
LINE
  8
0
 62
     0
  6
CONTINUOUS
 10
4.789400
 20
8.336240
 11
4.789400
 21
8.362200
  0
LINE
  8
0
 62
     0
  6
CONTINUOUS
 10
4.789400
 20
8.352960
 11
4.806120
 21
8.354280
  0
LINE
  8
0
 62
     0
  6
CONTINUOUS
 10
4.806120
 20
8.354280
 11
4.824160
 21
8.359120
  0
LINE
  8
0
 62
     0
  6
CONTINUOUS
 10
4.824160
 20
8.359120
 11
4.839560
 21
8.365280
  0
LINE
  8
0
 62
     0
  6
CONTINUOUS
 10
4.839560
 20
8.365280
 11
4.854520
 21
8.372760
  0
LINE
  8
0
 62
     0
  6
CONTINUOUS
 10
4.854520
 20
8.372760
 11
4.866840
 21
8.382000
  0
LINE
  8
0
 62
     0
  6
CONTINUOUS
 10
4.866840
 20
8.382000
 11
4.883560
 21
8.393880
  0
LINE
  8
0
 62
     0
  6
CONTINUOUS
 10
4.883560
 20
8.393880
 11
4.894120
 21
8.406200
  0
LINE
  8
0
 62
     0
  6
CONTINUOUS
 10
4.894120
 20
8.406200
 11
4.903360
 21
8.421600
  0
LINE
  8
0
 62
     0
  6
CONTINUOUS
 10
4.903360
 20
8.421600
 11
4.912600
 21
8.438320
  0
LINE
  8
0
 62
     0
  6
CONTINUOUS
 10
4.912600
 20
8.438320
 11
4.918760
 21
8.453280
  0
LINE
  8
0
 62
     0
  6
CONTINUOUS
 10
4.918760
 20
8.453280
 11
4.921840
 21
8.470000
  0
LINE
  8
0
 62
     0
  6
CONTINUOUS
 10
4.921840
 20
8.470000
 11
4.921840
 21
8.488480
  0
LINE
  8
0
 62
     0
  6
CONTINUOUS
 10
4.921840
 20
8.488480
 11
4.921840
 21
8.505200
  0
LINE
  8
0
 62
     0
  6
CONTINUOUS
 10
4.921840
 20
8.505200
 11
4.918760
 21
8.523240
  0
LINE
  8
0
 62
     0
  6
CONTINUOUS
 10
4.918760
 20
8.523240
 11
4.912600
 21
8.541720
  0
LINE
  8
0
 62
     0
  6
CONTINUOUS
 10
4.912600
 20
8.541720
 11
4.903360
 21
8.555360
  0
LINE
  8
0
 62
     0
  6
CONTINUOUS
 10
4.903360
 20
8.555360
 11
4.894120
 21
8.570760
  0
LINE
  8
0
 62
     0
  6
CONTINUOUS
 10
4.894120
 20
8.570760
 11
4.883560
 21
8.584400
  0
LINE
  8
0
 62
     0
  6
CONTINUOUS
 10
4.883560
 20
8.584400
 11
4.866840
 21
8.594960
  0
LINE
  8
0
 62
     0
  6
CONTINUOUS
 10
4.866840
 20
8.594960
 11
4.854520
 21
8.605520
  0
LINE
  8
0
 62
     0
  6
CONTINUOUS
 10
4.854520
 20
8.605520
 11
4.839560
 21
8.613440
  0
LINE
  8
0
 62
     0
  6
CONTINUOUS
 10
4.839560
 20
8.613440
 11
4.824160
 21
8.619160
  0
LINE
  8
0
 62
     0
  6
CONTINUOUS
 10
4.824160
 20
8.619160
 11
4.806120
 21
8.620920
  0
LINE
  8
0
 62
     0
  6
CONTINUOUS
 10
4.806120
 20
8.620920
 11
4.789400
 21
8.622240
  0
LINE
  8
0
 62
     0
  6
CONTINUOUS
 10
4.789400
 20
8.622240
 11
4.770920
 21
8.620920
  0
LINE
  8
0
 62
     0
  6
CONTINUOUS
 10
4.770920
 20
8.620920
 11
4.752880
 21
8.619160
  0
LINE
  8
0
 62
     0
  6
CONTINUOUS
 10
4.752880
 20
8.619160
 11
4.737480
 21
8.613440
  0
LINE
  8
0
 62
     0
  6
CONTINUOUS
 10
4.737480
 20
8.613440
 11
4.720760
 21
8.605520
  0
LINE
  8
0
 62
     0
  6
CONTINUOUS
 10
4.720760
 20
8.605520
 11
4.705360
 21
8.594960
  0
LINE
  8
0
 62
     0
  6
CONTINUOUS
 10
4.705360
 20
8.594960
 11
4.693480
 21
8.584400
  0
LINE
  8
0
 62
     0
  6
CONTINUOUS
 10
4.693480
 20
8.584400
 11
4.679840
 21
8.570760
  0
LINE
  8
0
 62
     0
  6
CONTINUOUS
 10
4.679840
 20
8.570760
 11
4.671920
 21
8.555360
  0
LINE
  8
0
 62
     0
  6
CONTINUOUS
 10
4.671920
 20
8.555360
 11
4.664440
 21
8.541720
  0
LINE
  8
0
 62
     0
  6
CONTINUOUS
 10
4.664440
 20
8.541720
 11
4.658280
 21
8.523240
  0
LINE
  8
0
 62
     0
  6
CONTINUOUS
 10
4.658280
 20
8.523240
 11
4.653880
 21
8.505200
  0
LINE
  8
0
 62
     0
  6
CONTINUOUS
 10
4.653880
 20
8.505200
 11
4.652120
 21
8.488480
  0
LINE
  8
0
 62
     0
  6
CONTINUOUS
 10
4.652120
 20
8.488480
 11
4.653880
 21
8.470000
  0
LINE
  8
0
 62
     0
  6
CONTINUOUS
 10
4.653880
 20
8.470000
 11
4.658280
 21
8.453280
  0
LINE
  8
0
 62
     0
  6
CONTINUOUS
 10
4.658280
 20
8.453280
 11
4.664440
 21
8.438320
  0
LINE
  8
0
 62
     0
  6
CONTINUOUS
 10
4.664440
 20
8.438320
 11
4.671920
 21
8.421600
  0
LINE
  8
0
 62
     0
  6
CONTINUOUS
 10
4.671920
 20
8.421600
 11
4.679840
 21
8.406200
  0
LINE
  8
0
 62
     0
  6
CONTINUOUS
 10
4.679840
 20
8.406200
 11
4.693480
 21
8.393880
  0
LINE
  8
0
 62
     0
  6
CONTINUOUS
 10
4.693480
 20
8.393880
 11
4.705360
 21
8.382000
  0
LINE
  8
0
 62
     0
  6
CONTINUOUS
 10
4.705360
 20
8.382000
 11
4.720760
 21
8.372760
  0
LINE
  8
0
 62
     0
  6
CONTINUOUS
 10
4.720760
 20
8.372760
 11
4.737480
 21
8.365280
  0
LINE
  8
0
 62
     0
  6
CONTINUOUS
 10
4.737480
 20
8.365280
 11
4.752880
 21
8.359120
  0
LINE
  8
0
 62
     0
  6
CONTINUOUS
 10
4.752880
 20
8.359120
 11
4.770920
 21
8.354280
  0
LINE
  8
0
 62
     0
  6
CONTINUOUS
 10
4.770920
 20
8.354280
 11
4.789400
 21
8.352960
  0
LINE
  8
0
 62
     0
  6
CONTINUOUS
 10
4.833400
 20
8.371000
 11
4.843960
 21
8.345480
  0
LINE
  8
0
 62
     0
  6
CONTINUOUS
 10
4.902040
 20
8.383320
 11
4.883560
 21
8.403120
  0
LINE
  8
0
 62
     0
  6
CONTINUOUS
 10
4.910840
 20
8.441400
 11
4.935480
 21
8.432160
  0
LINE
  8
0
 62
     0
  6
CONTINUOUS
 10
4.949120
 20
8.488480
 11
4.949120
 21
8.508280
  0
LINE
  8
0
 62
     0
  6
CONTINUOUS
 10
4.949120
 20
8.508280
 11
4.944720
 21
8.526320
  0
LINE
  8
0
 62
     0
  6
CONTINUOUS
 10
4.944720
 20
8.526320
 11
4.939880
 21
8.546120
  0
LINE
  8
0
 62
     0
  6
CONTINUOUS
 10
4.939880
 20
8.546120
 11
4.932400
 21
8.562840
  0
LINE
  8
0
 62
     0
  6
CONTINUOUS
 10
4.932400
 20
8.562840
 11
4.920080
 21
8.581320
  0
LINE
  8
0
 62
     0
  6
CONTINUOUS
 10
4.920080
 20
8.581320
 11
4.909520
 21
8.596280
  0
LINE
  8
0
 62
     0
  6
CONTINUOUS
 10
4.909520
 20
8.596280
 11
4.895880
 21
8.608600
  0
LINE
  8
0
 62
     0
  6
CONTINUOUS
 10
4.895880
 20
8.608600
 11
4.879160
 21
8.620920
  0
LINE
  8
0
 62
     0
  6
CONTINUOUS
 10
4.879160
 20
8.620920
 11
4.863760
 21
8.631480
  0
LINE
  8
0
 62
     0
  6
CONTINUOUS
 10
4.863760
 20
8.631480
 11
4.845720
 21
8.638960
  0
LINE
  8
0
 62
     0
  6
CONTINUOUS
 10
4.845720
 20
8.638960
 11
4.825920
 21
8.645120
  0
LINE
  8
0
 62
     0
  6
CONTINUOUS
 10
4.825920
 20
8.645120
 11
4.807440
 21
8.649960
  0
LINE
  8
0
 62
     0
  6
CONTINUOUS
 10
4.807440
 20
8.649960
 11
4.789400
 21
8.649960
  0
LINE
  8
0
 62
     0
  6
CONTINUOUS
 10
4.789400
 20
8.649960
 11
4.767840
 21
8.649960
  0
LINE
  8
0
 62
     0
  6
CONTINUOUS
 10
4.767840
 20
8.649960
 11
4.749800
 21
8.645120
  0
LINE
  8
0
 62
     0
  6
CONTINUOUS
 10
4.749800
 20
8.645120
 11
4.730000
 21
8.638960
  0
LINE
  8
0
 62
     0
  6
CONTINUOUS
 10
4.730000
 20
8.638960
 11
4.713280
 21
8.631480
  0
LINE
  8
0
 62
     0
  6
CONTINUOUS
 10
4.713280
 20
8.631480
 11
4.696560
 21
8.620920
  0
LINE
  8
0
 62
     0
  6
CONTINUOUS
 10
4.696560
 20
8.620920
 11
4.679840
 21
8.608600
  0
LINE
  8
0
 62
     0
  6
CONTINUOUS
 10
4.679840
 20
8.608600
 11
4.666200
 21
8.596280
  0
LINE
  8
0
 62
     0
  6
CONTINUOUS
 10
4.666200
 20
8.596280
 11
4.655200
 21
8.581320
  0
LINE
  8
0
 62
     0
  6
CONTINUOUS
 10
4.655200
 20
8.581320
 11
4.644640
 21
8.562840
  0
LINE
  8
0
 62
     0
  6
CONTINUOUS
 10
4.644640
 20
8.562840
 11
4.637160
 21
8.546120
  0
LINE
  8
0
 62
     0
  6
CONTINUOUS
 10
4.637160
 20
8.546120
 11
4.629680
 21
8.526320
  0
LINE
  8
0
 62
     0
  6
CONTINUOUS
 10
4.629680
 20
8.526320
 11
4.627920
 21
8.508280
  0
LINE
  8
0
 62
     0
  6
CONTINUOUS
 10
4.627920
 20
8.508280
 11
4.626600
 21
8.488480
  0
LINE
  8
0
 62
     0
  6
CONTINUOUS
 10
4.626600
 20
8.488480
 11
4.627920
 21
8.468680
  0
LINE
  8
0
 62
     0
  6
CONTINUOUS
 10
4.627920
 20
8.468680
 11
4.629680
 21
8.450200
  0
LINE
  8
0
 62
     0
  6
CONTINUOUS
 10
4.629680
 20
8.450200
 11
4.637160
 21
8.432160
  0
LINE
  8
0
 62
     0
  6
CONTINUOUS
 10
4.637160
 20
8.432160
 11
4.644640
 21
8.413680
  0
LINE
  8
0
 62
     0
  6
CONTINUOUS
 10
4.644640
 20
8.413680
 11
4.655200
 21
8.396960
  0
LINE
  8
0
 62
     0
  6
CONTINUOUS
 10
4.655200
 20
8.396960
 11
4.666200
 21
8.382000
  0
LINE
  8
0
 62
     0
  6
CONTINUOUS
 10
4.666200
 20
8.382000
 11
4.679840
 21
8.366600
  0
LINE
  8
0
 62
     0
  6
CONTINUOUS
 10
4.679840
 20
8.366600
 11
4.696560
 21
8.356040
  0
LINE
  8
0
 62
     0
  6
CONTINUOUS
 10
4.696560
 20
8.356040
 11
4.713280
 21
8.345480
  0
LINE
  8
0
 62
     0
  6
CONTINUOUS
 10
4.713280
 20
8.345480
 11
4.730000
 21
8.337560
  0
LINE
  8
0
 62
     0
  6
CONTINUOUS
 10
4.730000
 20
8.337560
 11
4.749800
 21
8.331840
  0
LINE
  8
0
 62
     0
  6
CONTINUOUS
 10
4.749800
 20
8.331840
 11
4.767840
 21
8.328760
  0
LINE
  8
0
 62
     0
  6
CONTINUOUS
 10
4.767840
 20
8.328760
 11
4.789400
 21
8.327000
  0
LINE
  8
0
 62
     0
  6
CONTINUOUS
 10
4.789400
 20
8.327000
 11
4.807440
 21
8.328760
  0
LINE
  8
0
 62
     0
  6
CONTINUOUS
 10
4.807440
 20
8.328760
 11
4.825920
 21
8.331840
  0
LINE
  8
0
 62
     0
  6
CONTINUOUS
 10
4.825920
 20
8.331840
 11
4.845720
 21
8.337560
  0
LINE
  8
0
 62
     0
  6
CONTINUOUS
 10
4.845720
 20
8.337560
 11
4.863760
 21
8.345480
  0
LINE
  8
0
 62
     0
  6
CONTINUOUS
 10
4.863760
 20
8.345480
 11
4.879160
 21
8.356040
  0
LINE
  8
0
 62
     0
  6
CONTINUOUS
 10
4.879160
 20
8.356040
 11
4.895880
 21
8.366600
  0
LINE
  8
0
 62
     0
  6
CONTINUOUS
 10
4.895880
 20
8.366600
 11
4.909520
 21
8.382000
  0
LINE
  8
0
 62
     0
  6
CONTINUOUS
 10
4.909520
 20
8.382000
 11
4.920080
 21
8.396960
  0
LINE
  8
0
 62
     0
  6
CONTINUOUS
 10
4.920080
 20
8.396960
 11
4.932400
 21
8.413680
  0
LINE
  8
0
 62
     0
  6
CONTINUOUS
 10
4.932400
 20
8.413680
 11
4.939880
 21
8.432160
  0
LINE
  8
0
 62
     0
  6
CONTINUOUS
 10
4.939880
 20
8.432160
 11
4.944720
 21
8.450200
  0
LINE
  8
0
 62
     0
  6
CONTINUOUS
 10
4.944720
 20
8.450200
 11
4.949120
 21
8.468680
  0
LINE
  8
0
 62
     0
  6
CONTINUOUS
 10
4.949120
 20
8.468680
 11
4.949120
 21
8.488480
  0
LINE
  8
0
 62
     0
  6
CONTINUOUS
 10
4.949120
 20
8.497720
 11
4.921840
 21
8.497720
  0
LINE
  8
0
 62
     0
  6
CONTINUOUS
 10
4.910840
 20
8.554040
 11
4.935480
 21
8.562840
  0
LINE
  8
0
 62
     0
  6
CONTINUOUS
 10
4.909520
 20
8.605520
 11
4.888400
 21
8.587480
  0
LINE
  8
0
 62
     0
  6
CONTINUOUS
 10
4.889720
 20
8.613440
 11
5.183640
 21
8.375840
  0
LINE
  8
0
 62
     0
  6
CONTINUOUS
 10
5.181880
 20
8.461200
 11
5.166920
 21
8.461200
  0
LINE
  8
0
 62
     0
  6
CONTINUOUS
 10
5.166920
 20
8.461200
 11
5.150200
 21
8.461200
  0
LINE
  8
0
 62
     0
  6
CONTINUOUS
 10
5.150200
 20
8.461200
 11
5.136120
 21
8.458120
  0
LINE
  8
0
 62
     0
  6
CONTINUOUS
 10
5.136120
 20
8.458120
 11
5.121160
 21
8.451960
  0
LINE
  8
0
 62
     0
  6
CONTINUOUS
 10
5.121160
 20
8.451960
 11
5.107520
 21
8.444480
  0
LINE
  8
0
 62
     0
  6
CONTINUOUS
 10
5.107520
 20
8.444480
 11
5.095200
 21
8.435240
  0
LINE
  8
0
 62
     0
  6
CONTINUOUS
 10
5.095200
 20
8.435240
 11
5.082880
 21
8.424680
  0
LINE
  8
0
 62
     0
  6
CONTINUOUS
 10
5.082880
 20
8.424680
 11
5.075400
 21
8.412360
  0
LINE
  8
0
 62
     0
  6
CONTINUOUS
 10
5.075400
 20
8.412360
 11
5.066160
 21
8.398720
  0
LINE
  8
0
 62
     0
  6
CONTINUOUS
 10
5.066160
 20
8.398720
 11
5.061760
 21
8.385080
  0
LINE
  8
0
 62
     0
  6
CONTINUOUS
 10
5.061760
 20
8.385080
 11
5.058680
 21
8.369680
  0
LINE
  8
0
 62
     0
  6
CONTINUOUS
 10
5.058680
 20
8.369680
 11
5.057360
 21
8.352960
  0
LINE
  8
0
 62
     0
  6
CONTINUOUS
 10
5.057360
 20
8.352960
 11
5.058680
 21
8.337560
  0
LINE
  8
0
 62
     0
  6
CONTINUOUS
 10
5.058680
 20
8.337560
 11
5.061760
 21
8.322600
  0
LINE
  8
0
 62
     0
  6
CONTINUOUS
 10
5.061760
 20
8.322600
 11
5.066160
 21
8.308960
  0
LINE
  8
0
 62
     0
  6
CONTINUOUS
 10
5.066160
 20
8.308960
 11
5.075400
 21
8.294880
  0
LINE
  8
0
 62
     0
  6
CONTINUOUS
 10
5.075400
 20
8.294880
 11
5.082880
 21
8.283000
  0
LINE
  8
0
 62
     0
  6
CONTINUOUS
 10
5.082880
 20
8.283000
 11
5.095200
 21
8.272440
  0
LINE
  8
0
 62
     0
  6
CONTINUOUS
 10
5.095200
 20
8.272440
 11
5.107520
 21
8.263200
  0
LINE
  8
0
 62
     0
  6
CONTINUOUS
 10
5.107520
 20
8.263200
 11
5.121160
 21
8.257040
  0
LINE
  8
0
 62
     0
  6
CONTINUOUS
 10
5.121160
 20
8.257040
 11
5.136120
 21
8.250880
  0
LINE
  8
0
 62
     0
  6
CONTINUOUS
 10
5.136120
 20
8.250880
 11
5.150200
 21
8.246480
  0
LINE
  8
0
 62
     0
  6
CONTINUOUS
 10
5.150200
 20
8.246480
 11
5.166920
 21
8.246480
  0
LINE
  8
0
 62
     0
  6
CONTINUOUS
 10
5.166920
 20
8.246480
 11
5.181880
 21
8.246480
  0
LINE
  8
0
 62
     0
  6
CONTINUOUS
 10
5.181880
 20
8.246480
 11
5.195520
 21
8.250880
  0
LINE
  8
0
 62
     0
  6
CONTINUOUS
 10
5.195520
 20
8.250880
 11
5.210920
 21
8.257040
  0
LINE
  8
0
 62
     0
  6
CONTINUOUS
 10
5.210920
 20
8.257040
 11
5.224560
 21
8.263200
  0
LINE
  8
0
 62
     0
  6
CONTINUOUS
 10
5.224560
 20
8.263200
 11
5.236880
 21
8.272440
  0
LINE
  8
0
 62
     0
  6
CONTINUOUS
 10
5.236880
 20
8.272440
 11
5.247440
 21
8.283000
  0
LINE
  8
0
 62
     0
  6
CONTINUOUS
 10
5.247440
 20
8.283000
 11
5.256680
 21
8.294880
  0
LINE
  8
0
 62
     0
  6
CONTINUOUS
 10
5.256680
 20
8.294880
 11
5.262840
 21
8.308960
  0
LINE
  8
0
 62
     0
  6
CONTINUOUS
 10
5.262840
 20
8.308960
 11
5.268560
 21
8.322600
  0
LINE
  8
0
 62
     0
  6
CONTINUOUS
 10
5.268560
 20
8.322600
 11
5.271640
 21
8.337560
  0
LINE
  8
0
 62
     0
  6
CONTINUOUS
 10
5.271640
 20
8.337560
 11
5.273400
 21
8.352960
  0
LINE
  8
0
 62
     0
  6
CONTINUOUS
 10
5.273400
 20
8.352960
 11
5.271640
 21
8.369680
  0
LINE
  8
0
 62
     0
  6
CONTINUOUS
 10
5.271640
 20
8.369680
 11
5.268560
 21
8.385080
  0
LINE
  8
0
 62
     0
  6
CONTINUOUS
 10
5.268560
 20
8.385080
 11
5.262840
 21
8.398720
  0
LINE
  8
0
 62
     0
  6
CONTINUOUS
 10
5.262840
 20
8.398720
 11
5.256680
 21
8.412360
  0
LINE
  8
0
 62
     0
  6
CONTINUOUS
 10
5.256680
 20
8.412360
 11
5.247440
 21
8.424680
  0
LINE
  8
0
 62
     0
  6
CONTINUOUS
 10
5.247440
 20
8.424680
 11
5.236880
 21
8.435240
  0
LINE
  8
0
 62
     0
  6
CONTINUOUS
 10
5.236880
 20
8.435240
 11
5.224560
 21
8.444480
  0
LINE
  8
0
 62
     0
  6
CONTINUOUS
 10
5.224560
 20
8.444480
 11
5.210920
 21
8.451960
  0
LINE
  8
0
 62
     0
  6
CONTINUOUS
 10
5.210920
 20
8.451960
 11
5.195520
 21
8.458120
  0
LINE
  8
0
 62
     0
  6
CONTINUOUS
 10
5.195520
 20
8.458120
 11
5.181880
 21
8.461200
  0
LINE
  8
0
 62
     0
  6
CONTINUOUS
 10
5.055600
 20
8.456360
 11
5.057360
 21
8.481000
  0
LINE
  8
0
 62
     0
  6
CONTINUOUS
 10
5.057360
 20
8.481000
 11
5.057360
 21
8.505200
  0
LINE
  8
0
 62
     0
  6
CONTINUOUS
 10
5.057360
 20
8.505200
 11
5.320480
 21
8.505200
  0
LINE
  8
0
 62
     0
  6
CONTINUOUS
 10
5.320480
 20
8.505200
 11
5.320480
 21
8.759520
  0
LINE
  8
0
 62
     0
  6
CONTINUOUS
 10
5.320480
 20
8.759520
 11
4.792480
 21
8.759520
  0
LINE
  8
0
 62
     0
  6
CONTINUOUS
 10
4.792480
 20
8.759520
 11
4.789400
 21
8.759520
  0
LINE
  8
0
 62
     0
  6
CONTINUOUS
 10
4.789400
 20
8.759520
 11
4.763440
 21
8.757760
  0
LINE
  8
0
 62
     0
  6
CONTINUOUS
 10
4.763440
 20
8.757760
 11
4.737480
 21
8.753360
  0
LINE
  8
0
 62
     0
  6
CONTINUOUS
 10
4.737480
 20
8.753360
 11
4.714600
 21
8.748520
  0
LINE
  8
0
 62
     0
  6
CONTINUOUS
 10
4.714600
 20
8.748520
 11
4.690400
 21
8.739720
  0
LINE
  8
0
 62
     0
  6
CONTINUOUS
 10
4.690400
 20
8.739720
 11
4.666200
 21
8.730480
  0
LINE
  8
0
 62
     0
  6
CONTINUOUS
 10
4.666200
 20
8.730480
 11
4.647720
 21
8.718160
  0
LINE
  8
0
 62
     0
  6
CONTINUOUS
 10
4.647720
 20
8.718160
 11
4.626600
 21
8.704520
  0
LINE
  8
0
 62
     0
  6
CONTINUOUS
 10
4.626600
 20
8.704520
 11
4.606800
 21
8.687800
  0
LINE
  8
0
 62
     0
  6
CONTINUOUS
 10
4.606800
 20
8.687800
 11
4.590080
 21
8.672400
  0
LINE
  8
0
 62
     0
  6
CONTINUOUS
 10
4.590080
 20
8.672400
 11
4.573360
 21
8.651280
  0
LINE
  8
0
 62
     0
  6
CONTINUOUS
 10
4.573360
 20
8.651280
 11
4.559280
 21
8.631480
  0
LINE
  8
0
 62
     0
  6
CONTINUOUS
 10
4.559280
 20
8.631480
 11
4.547400
 21
8.610360
  0
LINE
  8
0
 62
     0
  6
CONTINUOUS
 10
4.547400
 20
8.610360
 11
4.536400
 21
8.587480
  0
LINE
  8
0
 62
     0
  6
CONTINUOUS
 10
4.536400
 20
8.587480
 11
4.528920
 21
8.564600
  0
LINE
  8
0
 62
     0
  6
CONTINUOUS
 10
4.528920
 20
8.564600
 11
4.522760
 21
8.541720
  0
LINE
  8
0
 62
     0
  6
CONTINUOUS
 10
4.522760
 20
8.541720
 11
4.519680
 21
8.515760
  0
LINE
  8
0
 62
     0
  6
CONTINUOUS
 10
4.519680
 20
8.515760
 11
4.519680
 21
8.489800
  0
LINE
  8
0
 62
     0
  6
CONTINUOUS
 10
4.519680
 20
8.489800
 11
4.519680
 21
8.466920
  0
LINE
  8
0
 62
     0
  6
CONTINUOUS
 10
4.519680
 20
8.466920
 11
4.522760
 21
8.441400
  0
LINE
  8
0
 62
     0
  6
CONTINUOUS
 10
4.522760
 20
8.441400
 11
4.527600
 21
8.416760
  0
LINE
  8
0
 62
     0
  6
CONTINUOUS
 10
4.527600
 20
8.416760
 11
4.535080
 21
8.393880
  0
LINE
  8
0
 62
     0
  6
CONTINUOUS
 10
4.535080
 20
8.393880
 11
4.545640
 21
8.371000
  0
LINE
  8
0
 62
     0
  6
CONTINUOUS
 10
4.545640
 20
8.371000
 11
4.556200
 21
8.349880
  0
LINE
  8
0
 62
     0
  6
CONTINUOUS
 10
4.556200
 20
8.349880
 11
4.570280
 21
8.330080
  0
LINE
  8
0
 62
     0
  6
CONTINUOUS
 10
4.570280
 20
8.330080
 11
4.587000
 21
8.308960
  0
LINE
  8
0
 62
     0
  6
CONTINUOUS
 10
4.587000
 20
8.308960
 11
4.603720
 21
8.292240
  0
LINE
  8
0
 62
     0
  6
CONTINUOUS
 10
4.603720
 20
8.292240
 11
4.621760
 21
8.276840
  0
LINE
  8
0
 62
     0
  6
CONTINUOUS
 10
4.621760
 20
8.276840
 11
4.643320
 21
8.261440
  0
LINE
  8
0
 62
     0
  6
CONTINUOUS
 10
4.643320
 20
8.261440
 11
4.664440
 21
8.249560
  0
LINE
  8
0
 62
     0
  6
CONTINUOUS
 10
4.664440
 20
8.249560
 11
4.687320
 21
8.238560
  0
LINE
  8
0
 62
     0
  6
CONTINUOUS
 10
4.687320
 20
8.238560
 11
4.710200
 21
8.229760
  0
LINE
  8
0
 62
     0
  6
CONTINUOUS
 10
4.710200
 20
8.229760
 11
4.734400
 21
8.224920
  0
LINE
  8
0
 62
     0
  6
CONTINUOUS
 10
4.734400
 20
8.224920
 11
4.757280
 21
8.221840
  0
LINE
  8
0
 62
     0
  6
CONTINUOUS
 10
4.757280
 20
8.221840
 11
4.783240
 21
8.219200
  0
LINE
  8
0
 62
     0
  6
CONTINUOUS
 10
4.783240
 20
8.219200
 11
4.807440
 21
8.220520
  0
LINE
  8
0
 62
     0
  6
CONTINUOUS
 10
4.807440
 20
8.220520
 11
4.830320
 21
8.221840
  0
LINE
  8
0
 62
     0
  6
CONTINUOUS
 10
4.830320
 20
8.221840
 11
4.856280
 21
8.228000
  0
LINE
  8
0
 62
     0
  6
CONTINUOUS
 10
4.856280
 20
8.228000
 11
4.880480
 21
8.235920
  0
LINE
  8
0
 62
     0
  6
CONTINUOUS
 10
4.880480
 20
8.235920
 11
4.903360
 21
8.244720
  0
LINE
  8
0
 62
     0
  6
CONTINUOUS
 10
4.903360
 20
8.244720
 11
4.924920
 21
8.257040
  0
LINE
  8
0
 62
     0
  6
CONTINUOUS
 10
4.924920
 20
8.257040
 11
4.946040
 21
8.270680
  0
LINE
  8
0
 62
     0
  6
CONTINUOUS
 10
4.946040
 20
8.270680
 11
4.964080
 21
8.286080
  0
LINE
  8
0
 62
     0
  6
CONTINUOUS
 10
4.964080
 20
8.286080
 11
4.982560
 21
8.302800
  0
LINE
  8
0
 62
     0
  6
CONTINUOUS
 10
4.982560
 20
8.302800
 11
4.999280
 21
8.320840
  0
LINE
  8
0
 62
     0
  6
CONTINUOUS
 10
4.999280
 20
8.320840
 11
5.012920
 21
8.340640
  0
LINE
  8
0
 62
     0
  6
CONTINUOUS
 10
5.012920
 20
8.340640
 11
5.026560
 21
8.362200
  0
LINE
  8
0
 62
     0
  6
CONTINUOUS
 10
5.026560
 20
8.362200
 11
5.035800
 21
8.385080
  0
LINE
  8
0
 62
     0
  6
CONTINUOUS
 10
5.035800
 20
8.385080
 11
5.045040
 21
8.407520
  0
LINE
  8
0
 62
     0
  6
CONTINUOUS
 10
5.045040
 20
8.407520
 11
5.049440
 21
8.432160
  0
LINE
  8
0
 62
     0
  6
CONTINUOUS
 10
5.049440
 20
8.432160
 11
5.055600
 21
8.456360
  0
LINE
  8
0
 62
     0
  6
CONTINUOUS
 10
5.057360
 20
8.352960
 11
5.057360
 21
8.244720
  0
LINE
  8
0
 62
     0
  6
CONTINUOUS
 10
5.022160
 20
8.182680
 11
5.022160
 21
8.092480
  0
LINE
  8
0
 62
     0
  6
CONTINUOUS
 10
5.166920
 20
8.092480
 11
5.166920
 21
8.243400
  0
LINE
  8
0
 62
     0
  6
CONTINUOUS
 10
5.230720
 20
8.264520
 11
5.311240
 21
8.182680
  0
LINE
  8
0
 62
     0
  6
CONTINUOUS
 10
5.311240
 20
8.182680
 11
5.311240
 21
8.092480
  0
LINE
  8
0
 62
     0
  6
CONTINUOUS
 10
5.311240
 20
8.092480
 11
5.323560
 21
8.095560
  0
LINE
  8
0
 62
     0
  6
CONTINUOUS
 10
5.323560
 20
8.095560
 11
5.323560
 21
8.089400
  0
LINE
  8
0
 62
     0
  6
CONTINUOUS
 10
5.323560
 20
8.089400
 11
5.311240
 21
8.092480
  0
LINE
  8
0
 62
     0
  6
CONTINUOUS
 10
5.311240
 20
8.092480
 11
5.321800
 21
8.098640
  0
LINE
  8
0
 62
     0
  6
CONTINUOUS
 10
5.319160
 20
8.104800
 11
5.311240
 21
8.092480
  0
LINE
  8
0
 62
     0
  6
CONTINUOUS
 10
5.311240
 20
8.092480
 11
5.313000
 21
8.104800
  0
LINE
  8
0
 62
     0
  6
CONTINUOUS
 10
5.313000
 20
8.104800
 11
5.308160
 21
8.104800
  0
LINE
  8
0
 62
     0
  6
CONTINUOUS
 10
5.308160
 20
8.104800
 11
5.311240
 21
8.092480
  0
LINE
  8
0
 62
     0
  6
CONTINUOUS
 10
5.311240
 20
8.092480
 11
5.303760
 21
8.104800
  0
LINE
  8
0
 62
     0
  6
CONTINUOUS
 10
5.299360
 20
8.098640
 11
5.311240
 21
8.092480
  0
LINE
  8
0
 62
     0
  6
CONTINUOUS
 10
5.311240
 20
8.092480
 11
5.297600
 21
8.089400
  0
LINE
  8
0
 62
     0
  6
CONTINUOUS
 10
5.297600
 20
8.089400
 11
5.297600
 21
8.095560
  0
LINE
  8
0
 62
     0
  6
CONTINUOUS
 10
5.297600
 20
8.095560
 11
5.311240
 21
8.092480
  0
LINE
  8
0
 62
     0
  6
CONTINUOUS
 10
5.311240
 20
8.092480
 11
5.299360
 21
8.085000
  0
LINE
  8
0
 62
     0
  6
CONTINUOUS
 10
5.303760
 20
8.081920
 11
5.311240
 21
8.092480
  0
LINE
  8
0
 62
     0
  6
CONTINUOUS
 10
5.311240
 20
8.092480
 11
5.308160
 21
8.078840
  0
LINE
  8
0
 62
     0
  6
CONTINUOUS
 10
5.308160
 20
8.078840
 11
5.313000
 21
8.078840
  0
LINE
  8
0
 62
     0
  6
CONTINUOUS
 10
5.313000
 20
8.078840
 11
5.311240
 21
8.092480
  0
LINE
  8
0
 62
     0
  6
CONTINUOUS
 10
5.311240
 20
8.092480
 11
5.319160
 21
8.081920
  0
LINE
  8
0
 62
     0
  6
CONTINUOUS
 10
5.321800
 20
8.085000
 11
5.311240
 21
8.092480
  0
LINE
  8
0
 62
     0
  6
CONTINUOUS
 10
5.271640
 20
8.219200
 11
5.271640
 21
8.352960
  0
LINE
  8
0
 62
     0
  6
CONTINUOUS
 10
5.271640
 20
8.244720
 11
4.906440
 21
8.244720
  0
LINE
  8
0
 62
     0
  6
CONTINUOUS
 10
4.723840
 20
8.349880
 11
4.734400
 21
8.374080
  0
LINE
  8
0
 62
     0
  6
CONTINUOUS
 10
4.684240
 20
8.412360
 11
4.663120
 21
8.395640
  0
LINE
  8
0
 62
     0
  6
CONTINUOUS
 10
4.664440
 20
8.445800
 11
4.640240
 21
8.433480
  0
LINE
  8
0
 62
     0
  6
CONTINUOUS
 10
4.626600
 20
8.497720
 11
4.652120
 21
8.497720
  0
LINE
  8
0
 62
     0
  6
CONTINUOUS
 10
4.664440
 20
8.550960
 11
4.640240
 21
8.561520
  0
LINE
  8
0
 62
     0
  6
CONTINUOUS
 10
4.693480
 20
8.584400
 11
4.673680
 21
8.602440
  0
LINE
  8
0
 62
     0
  6
CONTINUOUS
 10
4.733080
 20
8.611680
 11
4.723840
 21
8.635880
  0
LINE
  8
0
 62
     0
  6
CONTINUOUS
 10
4.789400
 20
8.631480
 11
4.789400
 21
8.658760
  0
LINE
  8
0
 62
     0
  6
CONTINUOUS
 10
4.851440
 20
8.646880
 11
4.840880
 21
8.620920
  0
LINE
  8
0
 62
     0
  6
CONTINUOUS
 10
3.557840
 20
8.424680
 11
3.475560
 21
8.461200
  0
LINE
  8
0
 62
     0
  6
CONTINUOUS
 10
3.475560
 20
8.473080
 11
3.557840
 21
8.508280
  0
LINE
  8
0
 62
     0
  6
CONTINUOUS
 10
3.557840
 20
8.497720
 11
3.475560
 21
8.534240
  0
LINE
  8
0
 62
     0
  6
CONTINUOUS
 10
3.475560
 20
8.534240
 11
3.557840
 21
8.569000
  0
LINE
  8
0
 62
     0
  6
CONTINUOUS
 10
3.557840
 20
8.550960
 11
3.475560
 21
8.585720
  0
LINE
  8
0
 62
     0
  6
CONTINUOUS
 10
3.475560
 20
8.594960
 11
3.557840
 21
8.630160
  0
LINE
  8
0
 62
     0
  6
CONTINUOUS
 10
3.557840
 20
8.620920
 11
3.475560
 21
8.655680
  0
LINE
  8
0
 62
     0
  6
CONTINUOUS
 10
3.475560
 20
8.643800
 11
3.557840
 21
8.678560
  0
LINE
  8
0
 62
     0
  6
CONTINUOUS
 10
3.557840
 20
8.686480
 11
3.475560
 21
8.721240
  0
LINE
  8
0
 62
     0
  6
CONTINUOUS
 10
3.475560
 20
8.712000
 11
3.557840
 21
8.747200
  0
LINE
  8
0
 62
     0
  6
CONTINUOUS
 10
3.557840
 20
8.768320
 11
3.557840
 21
8.214360
  0
LINE
  8
0
 62
     0
  6
CONTINUOUS
 10
3.557840
 20
8.226680
 11
3.475560
 21
8.261440
  0
LINE
  8
0
 62
     0
  6
CONTINUOUS
 10
3.475560
 20
8.250880
 11
3.557840
 21
8.287400
  0
LINE
  8
0
 62
     0
  6
CONTINUOUS
 10
3.557840
 20
8.294880
 11
3.475560
 21
8.330080
  0
LINE
  8
0
 62
     0
  6
CONTINUOUS
 10
3.475560
 20
8.343720
 11
3.557840
 21
8.378920
  0
LINE
  8
0
 62
     0
  6
CONTINUOUS
 10
3.557840
 20
8.378920
 11
3.557840
 21
8.382000
  0
LINE
  8
0
 62
     0
  6
CONTINUOUS
 10
3.557840
 20
8.382000
 11
3.475560
 21
8.416760
  0
LINE
  8
0
 62
     0
  6
CONTINUOUS
 10
3.475560
 20
8.416760
 11
3.557840
 21
8.453280
  0
LINE
  8
0
 62
     0
  6
CONTINUOUS
 10
3.557840
 20
8.463840
 11
3.475560
 21
8.500800
  0
LINE
  8
0
 62
     0
  6
CONTINUOUS
 10
3.475560
 20
8.512680
 11
3.557840
 21
8.547880
  0
LINE
  8
0
 62
     0
  6
CONTINUOUS
 10
3.557840
 20
8.520160
 11
3.475560
 21
8.555360
  0
LINE
  8
0
 62
     0
  6
CONTINUOUS
 10
3.475560
 20
8.555360
 11
3.557840
 21
8.591880
  0
LINE
  8
0
 62
     0
  6
CONTINUOUS
 10
3.557840
 20
8.591880
 11
3.557840
 21
8.593640
  0
LINE
  8
0
 62
     0
  6
CONTINUOUS
 10
3.557840
 20
8.593640
 11
3.475560
 21
8.628400
  0
LINE
  8
0
 62
     0
  6
CONTINUOUS
 10
3.475560
 20
8.613440
 11
3.557840
 21
8.648200
  0
LINE
  8
0
 62
     0
  6
CONTINUOUS
 10
3.557840
 20
8.648200
 11
3.557840
 21
8.651280
  0
LINE
  8
0
 62
     0
  6
CONTINUOUS
 10
3.557840
 20
8.651280
 11
3.475560
 21
8.686480
  0
LINE
  8
0
 62
     0
  6
CONTINUOUS
 10
3.475560
 20
8.677240
 11
3.557840
 21
8.712000
  0
LINE
  8
0
 62
     0
  6
CONTINUOUS
 10
3.557840
 20
8.712000
 11
3.557840
 21
8.715080
  0
LINE
  8
0
 62
     0
  6
CONTINUOUS
 10
3.557840
 20
8.715080
 11
3.475560
 21
8.751600
  0
LINE
  8
0
 62
     0
  6
CONTINUOUS
 10
3.475560
 20
8.768320
 11
3.475560
 21
8.214360
  0
LINE
  8
0
 62
     0
  6
CONTINUOUS
 10
3.475560
 20
8.221840
 11
3.557840
 21
8.257040
  0
LINE
  8
0
 62
     0
  6
CONTINUOUS
 10
3.557840
 20
8.257040
 11
3.557840
 21
8.260120
  0
LINE
  8
0
 62
     0
  6
CONTINUOUS
 10
3.557840
 20
8.260120
 11
3.475560
 21
8.294880
  0
LINE
  8
0
 62
     0
  6
CONTINUOUS
 10
3.475560
 20
8.304120
 11
3.557840
 21
8.269360
  0
LINE
  8
0
 62
     0
  6
CONTINUOUS
 10
3.557840
 20
8.322600
 11
3.475560
 21
8.287400
  0
LINE
  8
0
 62
     0
  6
CONTINUOUS
 10
3.475560
 20
8.316440
 11
3.557840
 21
8.352960
  0
LINE
  8
0
 62
     0
  6
CONTINUOUS
 10
3.557840
 20
8.342400
 11
3.475560
 21
8.377160
  0
LINE
  8
0
 62
     0
  6
CONTINUOUS
 10
3.475560
 20
8.388160
 11
3.557840
 21
8.421600
  0
LINE
  8
0
 62
     0
  6
CONTINUOUS
 10
3.557840
 20
8.403120
 11
3.475560
 21
8.439640
  0
LINE
  8
0
 62
     0
  6
CONTINUOUS
 10
3.475560
 20
8.439640
 11
3.475560
 21
8.438320
  0
LINE
  8
0
 62
     0
  6
CONTINUOUS
 10
3.475560
 20
8.438320
 11
3.557840
 21
8.474840
  0
LINE
  8
0
 62
     0
  6
CONTINUOUS
 10
3.557840
 20
8.325680
 11
3.475560
 21
8.360440
  0
LINE
  8
0
 62
     0
  6
CONTINUOUS
 10
3.366000
 20
8.214360
 11
6.673040
 21
8.214360
  0
LINE
  8
0
 62
     0
  6
CONTINUOUS
 10
6.671720
 20
8.214360
 11
6.959480
 21
8.482320
  0
LINE
  8
0
 62
     0
  6
CONTINUOUS
 10
6.959480
 20
8.482320
 11
6.673040
 21
8.768320
  0
LINE
  8
0
 62
     0
  6
CONTINUOUS
 10
3.557840
 20
8.704520
 11
3.475560
 21
8.669320
  0
LINE
  8
0
 62
     0
  6
CONTINUOUS
 10
3.469840
 20
8.780640
 11
3.497120
 21
8.780640
  0
LINE
  8
0
 62
     0
  6
CONTINUOUS
 10
3.516920
 20
8.780640
 11
3.530560
 21
8.827720
  0
LINE
  8
0
 62
     0
  6
CONTINUOUS
 10
3.515160
 20
8.827720
 11
3.545960
 21
8.827720
  0
LINE
  8
0
 62
     0
  6
CONTINUOUS
 10
3.557840
 20
8.827720
 11
3.545960
 21
8.780640
  0
LINE
  8
0
 62
     0
  6
CONTINUOUS
 10
3.545960
 20
8.780640
 11
3.574560
 21
8.780640
  0
LINE
  8
0
 62
     0
  6
CONTINUOUS
 10
3.588200
 20
8.780640
 11
3.600520
 21
8.827720
  0
LINE
  8
0
 62
     0
  6
CONTINUOUS
 10
3.600520
 20
8.827720
 11
3.622080
 21
8.827720
  0
LINE
  8
0
 62
     0
  6
CONTINUOUS
 10
3.622080
 20
8.827720
 11
3.627800
 21
8.824640
  0
LINE
  8
0
 62
     0
  6
CONTINUOUS
 10
3.627800
 20
8.824640
 11
3.629560
 21
8.823320
  0
LINE
  8
0
 62
     0
  6
CONTINUOUS
 10
3.629560
 20
8.823320
 11
3.630880
 21
8.817160
  0
LINE
  8
0
 62
     0
  6
CONTINUOUS
 10
3.630880
 20
8.817160
 11
3.629560
 21
8.814080
  0
LINE
  8
0
 62
     0
  6
CONTINUOUS
 10
3.629560
 20
8.814080
 11
3.626480
 21
8.809680
  0
LINE
  8
0
 62
     0
  6
CONTINUOUS
 10
3.626480
 20
8.809680
 11
3.623400
 21
8.806600
  0
LINE
  8
0
 62
     0
  6
CONTINUOUS
 10
3.623400
 20
8.806600
 11
3.615920
 21
8.803520
  0
LINE
  8
0
 62
     0
  6
CONTINUOUS
 10
3.615920
 20
8.803520
 11
3.596120
 21
8.803520
  0
LINE
  8
0
 62
     0
  6
CONTINUOUS
 10
3.611080
 20
8.803520
 11
3.620320
 21
8.780640
  0
LINE
  8
0
 62
     0
  6
CONTINUOUS
 10
3.570160
 20
8.803520
 11
3.553440
 21
8.803520
  0
LINE
  8
0
 62
     0
  6
CONTINUOUS
 10
3.557840
 20
8.827720
 11
3.588200
 21
8.827720
  0
LINE
  8
0
 62
     0
  6
CONTINUOUS
 10
3.481720
 20
8.827720
 11
3.469840
 21
8.780640
  0
LINE
  8
0
 62
     0
  6
CONTINUOUS
 10
3.451360
 20
8.780640
 11
3.465000
 21
8.827720
  0
LINE
  8
0
 62
     0
  6
CONTINUOUS
 10
3.454440
 20
8.827720
 11
3.424080
 21
8.827720
  0
LINE
  8
0
 62
     0
  6
CONTINUOUS
 10
3.424080
 20
8.827720
 11
3.411760
 21
8.780640
  0
LINE
  8
0
 62
     0
  6
CONTINUOUS
 10
3.417920
 20
8.803520
 11
3.435960
 21
8.803520
  0
LINE
  8
0
 62
     0
  6
CONTINUOUS
 10
3.344880
 20
8.112280
 11
3.242800
 21
7.899320
  0
LINE
  8
0
 62
     0
  6
CONTINUOUS
 10
3.145560
 20
7.899320
 11
3.247640
 21
8.112280
  0
LINE
  8
0
 62
     0
  6
CONTINUOUS
 10
3.288560
 20
8.027360
 11
3.299120
 21
8.015040
  0
LINE
  8
0
 62
     0
  6
CONTINUOUS
 10
3.299120
 20
8.015040
 11
3.292960
 21
8.030440
  0
LINE
  8
0
 62
     0
  6
CONTINUOUS
 10
3.292960
 20
8.030440
 11
3.299120
 21
8.015040
  0
LINE
  8
0
 62
     0
  6
CONTINUOUS
 10
3.299120
 20
8.015040
 11
3.299120
 21
8.031760
  0
LINE
  8
0
 62
     0
  6
CONTINUOUS
 10
3.299120
 20
8.031760
 11
3.299120
 21
8.015040
  0
LINE
  8
0
 62
     0
  6
CONTINUOUS
 10
3.299120
 20
8.015040
 11
3.305280
 21
8.030440
  0
LINE
  8
0
 62
     0
  6
CONTINUOUS
 10
3.305280
 20
8.030440
 11
3.299120
 21
8.015040
  0
LINE
  8
0
 62
     0
  6
CONTINUOUS
 10
3.299120
 20
8.015040
 11
3.311440
 21
8.027360
  0
LINE
  8
0
 62
     0
  6
CONTINUOUS
 10
3.311440
 20
8.027360
 11
3.299120
 21
8.015040
  0
LINE
  8
0
 62
     0
  6
CONTINUOUS
 10
3.299120
 20
8.015040
 11
3.314520
 21
8.021200
  0
LINE
  8
0
 62
     0
  6
CONTINUOUS
 10
3.314520
 20
8.021200
 11
3.299120
 21
8.015040
  0
LINE
  8
0
 62
     0
  6
CONTINUOUS
 10
3.299120
 20
8.015040
 11
3.315840
 21
8.015040
  0
LINE
  8
0
 62
     0
  6
CONTINUOUS
 10
3.315840
 20
8.015040
 11
3.299120
 21
8.015040
  0
LINE
  8
0
 62
     0
  6
CONTINUOUS
 10
3.299120
 20
8.015040
 11
3.314520
 21
8.008880
  0
LINE
  8
0
 62
     0
  6
CONTINUOUS
 10
3.314520
 20
8.008880
 11
3.299120
 21
8.015040
  0
LINE
  8
0
 62
     0
  6
CONTINUOUS
 10
3.299120
 20
8.015040
 11
3.311440
 21
8.002720
  0
LINE
  8
0
 62
     0
  6
CONTINUOUS
 10
3.311440
 20
8.002720
 11
3.299120
 21
8.015040
  0
LINE
  8
0
 62
     0
  6
CONTINUOUS
 10
3.299120
 20
8.015040
 11
3.305280
 21
7.999640
  0
LINE
  8
0
 62
     0
  6
CONTINUOUS
 10
3.305280
 20
7.999640
 11
3.299120
 21
8.015040
  0
LINE
  8
0
 62
     0
  6
CONTINUOUS
 10
3.299120
 20
8.015040
 11
3.299120
 21
7.998320
  0
LINE
  8
0
 62
     0
  6
CONTINUOUS
 10
3.299120
 20
7.998320
 11
3.299120
 21
8.015040
  0
LINE
  8
0
 62
     0
  6
CONTINUOUS
 10
3.299120
 20
8.015040
 11
3.292960
 21
7.999640
  0
LINE
  8
0
 62
     0
  6
CONTINUOUS
 10
3.292960
 20
7.999640
 11
3.299120
 21
8.015040
  0
LINE
  8
0
 62
     0
  6
CONTINUOUS
 10
3.299120
 20
8.015040
 11
3.288560
 21
8.002720
  0
LINE
  8
0
 62
     0
  6
CONTINUOUS
 10
3.288560
 20
8.002720
 11
3.299120
 21
8.015040
  0
LINE
  8
0
 62
     0
  6
CONTINUOUS
 10
3.299120
 20
8.015040
 11
3.284160
 21
8.008880
  0
LINE
  8
0
 62
     0
  6
CONTINUOUS
 10
3.284160
 20
8.008880
 11
3.299120
 21
8.015040
  0
LINE
  8
0
 62
     0
  6
CONTINUOUS
 10
3.299120
 20
8.015040
 11
3.284160
 21
8.015040
  0
LINE
  8
0
 62
     0
  6
CONTINUOUS
 10
3.284160
 20
8.015040
 11
3.299120
 21
8.015040
  0
LINE
  8
0
 62
     0
  6
CONTINUOUS
 10
3.299120
 20
8.015040
 11
3.284160
 21
8.021200
  0
LINE
  8
0
 62
     0
  6
CONTINUOUS
 10
3.284160
 20
8.021200
 11
3.299120
 21
8.015040
  0
LINE
  8
0
 62
     0
  6
CONTINUOUS
 10
3.299120
 20
8.015040
 11
3.288560
 21
8.027360
  0
LINE
  8
0
 62
     0
  6
CONTINUOUS
 10
3.288560
 20
8.027360
 11
3.284160
 21
8.021200
  0
LINE
  8
0
 62
     0
  6
CONTINUOUS
 10
3.284160
 20
8.021200
 11
3.284160
 21
8.015040
  0
LINE
  8
0
 62
     0
  6
CONTINUOUS
 10
3.284160
 20
8.015040
 11
3.284160
 21
8.008880
  0
LINE
  8
0
 62
     0
  6
CONTINUOUS
 10
3.284160
 20
8.008880
 11
3.288560
 21
8.002720
  0
LINE
  8
0
 62
     0
  6
CONTINUOUS
 10
3.288560
 20
8.002720
 11
3.292960
 21
7.999640
  0
LINE
  8
0
 62
     0
  6
CONTINUOUS
 10
3.292960
 20
7.999640
 11
3.299120
 21
7.998320
  0
LINE
  8
0
 62
     0
  6
CONTINUOUS
 10
3.299120
 20
7.998320
 11
3.299120
 21
8.015040
  0
LINE
  8
0
 62
     0
  6
CONTINUOUS
 10
3.299120
 20
8.015040
 11
3.299120
 21
8.031760
  0
LINE
  8
0
 62
     0
  6
CONTINUOUS
 10
3.299120
 20
8.031760
 11
3.292960
 21
8.030440
  0
LINE
  8
0
 62
     0
  6
CONTINUOUS
 10
3.292960
 20
8.030440
 11
3.288560
 21
8.027360
  0
LINE
  8
0
 62
     0
  6
CONTINUOUS
 10
3.284160
 20
8.022520
 11
3.292960
 21
8.022520
  0
LINE
  8
0
 62
     0
  6
CONTINUOUS
 10
3.297800
 20
8.016360
 11
3.284160
 21
8.016360
  0
LINE
  8
0
 62
     0
  6
CONTINUOUS
 10
3.303960
 20
8.016360
 11
3.315840
 21
8.016360
  0
LINE
  8
0
 62
     0
  6
CONTINUOUS
 10
3.315840
 20
8.016360
 11
3.315840
 21
8.015040
  0
LINE
  8
0
 62
     0
  6
CONTINUOUS
 10
3.315840
 20
8.015040
 11
3.314520
 21
8.021200
  0
LINE
  8
0
 62
     0
  6
CONTINUOUS
 10
3.314520
 20
8.021200
 11
3.311440
 21
8.027360
  0
LINE
  8
0
 62
     0
  6
CONTINUOUS
 10
3.311440
 20
8.027360
 11
3.305280
 21
8.030440
  0
LINE
  8
0
 62
     0
  6
CONTINUOUS
 10
3.305280
 20
8.030440
 11
3.299120
 21
8.031760
  0
LINE
  8
0
 62
     0
  6
CONTINUOUS
 10
3.306600
 20
8.030440
 11
3.306600
 21
8.022520
  0
LINE
  8
0
 62
     0
  6
CONTINUOUS
 10
3.306600
 20
8.022520
 11
3.305280
 21
8.022520
  0
LINE
  8
0
 62
     0
  6
CONTINUOUS
 10
3.305280
 20
8.022520
 11
3.312760
 21
8.022520
  0
LINE
  8
0
 62
     0
  6
CONTINUOUS
 10
3.315840
 20
8.015040
 11
3.314520
 21
8.008880
  0
LINE
  8
0
 62
     0
  6
CONTINUOUS
 10
3.314520
 20
8.008880
 11
3.311440
 21
8.002720
  0
LINE
  8
0
 62
     0
  6
CONTINUOUS
 10
3.311440
 20
8.002720
 11
3.305280
 21
7.999640
  0
LINE
  8
0
 62
     0
  6
CONTINUOUS
 10
3.305280
 20
7.999640
 11
3.299120
 21
7.998320
  0
LINE
  8
0
 62
     0
  6
CONTINUOUS
 10
3.306600
 20
7.999640
 11
3.306600
 21
8.007560
  0
LINE
  8
0
 62
     0
  6
CONTINUOUS
 10
3.218600
 20
8.008880
 11
3.204960
 21
8.015040
  0
LINE
  8
0
 62
     0
  6
CONTINUOUS
 10
3.204960
 20
8.015040
 11
3.215520
 21
8.002720
  0
LINE
  8
0
 62
     0
  6
CONTINUOUS
 10
3.215520
 20
8.002720
 11
3.204960
 21
8.015040
  0
LINE
  8
0
 62
     0
  6
CONTINUOUS
 10
3.204960
 20
8.015040
 11
3.210680
 21
7.999640
  0
LINE
  8
0
 62
     0
  6
CONTINUOUS
 10
3.210680
 20
7.999640
 11
3.204960
 21
8.015040
  0
LINE
  8
0
 62
     0
  6
CONTINUOUS
 10
3.204960
 20
8.015040
 11
3.204960
 21
7.998320
  0
LINE
  8
0
 62
     0
  6
CONTINUOUS
 10
3.204960
 20
7.998320
 11
3.204960
 21
8.015040
  0
LINE
  8
0
 62
     0
  6
CONTINUOUS
 10
3.204960
 20
8.015040
 11
3.197040
 21
7.999640
  0
LINE
  8
0
 62
     0
  6
CONTINUOUS
 10
3.197040
 20
7.999640
 11
3.204960
 21
8.015040
  0
LINE
  8
0
 62
     0
  6
CONTINUOUS
 10
3.204960
 20
8.015040
 11
3.192640
 21
8.002720
  0
LINE
  8
0
 62
     0
  6
CONTINUOUS
 10
3.192640
 20
8.002720
 11
3.204960
 21
8.015040
  0
LINE
  8
0
 62
     0
  6
CONTINUOUS
 10
3.204960
 20
8.015040
 11
3.188240
 21
8.008880
  0
LINE
  8
0
 62
     0
  6
CONTINUOUS
 10
3.188240
 20
8.008880
 11
3.204960
 21
8.015040
  0
LINE
  8
0
 62
     0
  6
CONTINUOUS
 10
3.204960
 20
8.015040
 11
3.188240
 21
8.015040
  0
LINE
  8
0
 62
     0
  6
CONTINUOUS
 10
3.188240
 20
8.015040
 11
3.204960
 21
8.015040
  0
LINE
  8
0
 62
     0
  6
CONTINUOUS
 10
3.204960
 20
8.015040
 11
3.188240
 21
8.021200
  0
LINE
  8
0
 62
     0
  6
CONTINUOUS
 10
3.188240
 20
8.021200
 11
3.204960
 21
8.015040
  0
LINE
  8
0
 62
     0
  6
CONTINUOUS
 10
3.204960
 20
8.015040
 11
3.192640
 21
8.027360
  0
LINE
  8
0
 62
     0
  6
CONTINUOUS
 10
3.192640
 20
8.027360
 11
3.204960
 21
8.015040
  0
LINE
  8
0
 62
     0
  6
CONTINUOUS
 10
3.204960
 20
8.015040
 11
3.197040
 21
8.030440
  0
LINE
  8
0
 62
     0
  6
CONTINUOUS
 10
3.197040
 20
8.030440
 11
3.204960
 21
8.015040
  0
LINE
  8
0
 62
     0
  6
CONTINUOUS
 10
3.204960
 20
8.015040
 11
3.204960
 21
8.031760
  0
LINE
  8
0
 62
     0
  6
CONTINUOUS
 10
3.204960
 20
8.031760
 11
3.204960
 21
8.015040
  0
LINE
  8
0
 62
     0
  6
CONTINUOUS
 10
3.204960
 20
8.015040
 11
3.210680
 21
8.030440
  0
LINE
  8
0
 62
     0
  6
CONTINUOUS
 10
3.210680
 20
8.030440
 11
3.204960
 21
8.015040
  0
LINE
  8
0
 62
     0
  6
CONTINUOUS
 10
3.204960
 20
8.015040
 11
3.215520
 21
8.027360
  0
LINE
  8
0
 62
     0
  6
CONTINUOUS
 10
3.215520
 20
8.027360
 11
3.204960
 21
8.015040
  0
LINE
  8
0
 62
     0
  6
CONTINUOUS
 10
3.204960
 20
8.015040
 11
3.218600
 21
8.021200
  0
LINE
  8
0
 62
     0
  6
CONTINUOUS
 10
3.218600
 20
8.021200
 11
3.204960
 21
8.015040
  0
LINE
  8
0
 62
     0
  6
CONTINUOUS
 10
3.204960
 20
8.015040
 11
3.219920
 21
8.015040
  0
LINE
  8
0
 62
     0
  6
CONTINUOUS
 10
3.219920
 20
8.015040
 11
3.204960
 21
8.015040
  0
LINE
  8
0
 62
     0
  6
CONTINUOUS
 10
3.204960
 20
8.015040
 11
3.218600
 21
8.008880
  0
LINE
  8
0
 62
     0
  6
CONTINUOUS
 10
3.218600
 20
8.008880
 11
3.219920
 21
8.015040
  0
LINE
  8
0
 62
     0
  6
CONTINUOUS
 10
3.219920
 20
8.015040
 11
3.218600
 21
8.021200
  0
LINE
  8
0
 62
     0
  6
CONTINUOUS
 10
3.218600
 20
8.021200
 11
3.215520
 21
8.027360
  0
LINE
  8
0
 62
     0
  6
CONTINUOUS
 10
3.215520
 20
8.027360
 11
3.210680
 21
8.030440
  0
LINE
  8
0
 62
     0
  6
CONTINUOUS
 10
3.210680
 20
8.030440
 11
3.204960
 21
8.031760
  0
LINE
  8
0
 62
     0
  6
CONTINUOUS
 10
3.204960
 20
8.031760
 11
3.197040
 21
8.030440
  0
LINE
  8
0
 62
     0
  6
CONTINUOUS
 10
3.197040
 20
8.030440
 11
3.192640
 21
8.027360
  0
LINE
  8
0
 62
     0
  6
CONTINUOUS
 10
3.192640
 20
8.027360
 11
3.188240
 21
8.021200
  0
LINE
  8
0
 62
     0
  6
CONTINUOUS
 10
3.188240
 20
8.021200
 11
3.188240
 21
8.015040
  0
LINE
  8
0
 62
     0
  6
CONTINUOUS
 10
3.188240
 20
8.015040
 11
3.188240
 21
8.008880
  0
LINE
  8
0
 62
     0
  6
CONTINUOUS
 10
3.188240
 20
8.008880
 11
3.192640
 21
8.002720
  0
LINE
  8
0
 62
     0
  6
CONTINUOUS
 10
3.192640
 20
8.002720
 11
3.197040
 21
7.999640
  0
LINE
  8
0
 62
     0
  6
CONTINUOUS
 10
3.197040
 20
7.999640
 11
3.204960
 21
7.998320
  0
LINE
  8
0
 62
     0
  6
CONTINUOUS
 10
3.204960
 20
7.998320
 11
3.210680
 21
7.999640
  0
LINE
  8
0
 62
     0
  6
CONTINUOUS
 10
3.210680
 20
7.999640
 11
3.215520
 21
8.002720
  0
LINE
  8
0
 62
     0
  6
CONTINUOUS
 10
3.215520
 20
8.002720
 11
3.218600
 21
8.008880
  0
LINE
  8
0
 62
     0
  6
CONTINUOUS
 10
3.219920
 20
8.016360
 11
3.206280
 21
8.016360
  0
LINE
  8
0
 62
     0
  6
CONTINUOUS
 10
3.206280
 20
8.016360
 11
3.206280
 21
8.019440
  0
LINE
  8
0
 62
     0
  6
CONTINUOUS
 10
3.206280
 20
8.019440
 11
3.206280
 21
8.031760
  0
LINE
  8
0
 62
     0
  6
CONTINUOUS
 10
3.210680
 20
8.022520
 11
3.218600
 21
8.022520
  0
LINE
  8
0
 62
     0
  6
CONTINUOUS
 10
3.197040
 20
8.022520
 11
3.189560
 21
8.022520
  0
LINE
  8
0
 62
     0
  6
CONTINUOUS
 10
3.188240
 20
8.016360
 11
3.200120
 21
8.016360
  0
LINE
  8
0
 62
     0
  6
CONTINUOUS
 10
3.206280
 20
8.010640
 11
3.206280
 21
7.998320
  0
LINE
  8
0
 62
     0
  6
CONTINUOUS
 10
3.105960
 20
8.002720
 11
3.093640
 21
8.015040
  0
LINE
  8
0
 62
     0
  6
CONTINUOUS
 10
3.093640
 20
8.015040
 11
3.099800
 21
7.999640
  0
LINE
  8
0
 62
     0
  6
CONTINUOUS
 10
3.099800
 20
7.999640
 11
3.093640
 21
8.015040
  0
LINE
  8
0
 62
     0
  6
CONTINUOUS
 10
3.093640
 20
8.015040
 11
3.093640
 21
7.998320
  0
LINE
  8
0
 62
     0
  6
CONTINUOUS
 10
3.093640
 20
7.998320
 11
3.093640
 21
8.015040
  0
LINE
  8
0
 62
     0
  6
CONTINUOUS
 10
3.093640
 20
8.015040
 11
3.087480
 21
7.999640
  0
LINE
  8
0
 62
     0
  6
CONTINUOUS
 10
3.087480
 20
7.999640
 11
3.093640
 21
8.015040
  0
LINE
  8
0
 62
     0
  6
CONTINUOUS
 10
3.093640
 20
8.015040
 11
3.081320
 21
8.002720
  0
LINE
  8
0
 62
     0
  6
CONTINUOUS
 10
3.081320
 20
8.002720
 11
3.093640
 21
8.015040
  0
LINE
  8
0
 62
     0
  6
CONTINUOUS
 10
3.093640
 20
8.015040
 11
3.080000
 21
8.008880
  0
LINE
  8
0
 62
     0
  6
CONTINUOUS
 10
3.080000
 20
8.008880
 11
3.093640
 21
8.015040
  0
LINE
  8
0
 62
     0
  6
CONTINUOUS
 10
3.093640
 20
8.015040
 11
3.076920
 21
8.015040
  0
LINE
  8
0
 62
     0
  6
CONTINUOUS
 10
3.076920
 20
8.015040
 11
3.093640
 21
8.015040
  0
LINE
  8
0
 62
     0
  6
CONTINUOUS
 10
3.093640
 20
8.015040
 11
3.080000
 21
8.021200
  0
LINE
  8
0
 62
     0
  6
CONTINUOUS
 10
3.080000
 20
8.021200
 11
3.093640
 21
8.015040
  0
LINE
  8
0
 62
     0
  6
CONTINUOUS
 10
3.093640
 20
8.015040
 11
3.081320
 21
8.027360
  0
LINE
  8
0
 62
     0
  6
CONTINUOUS
 10
3.081320
 20
8.027360
 11
3.093640
 21
8.015040
  0
LINE
  8
0
 62
     0
  6
CONTINUOUS
 10
3.093640
 20
8.015040
 11
3.087480
 21
8.030440
  0
LINE
  8
0
 62
     0
  6
CONTINUOUS
 10
3.087480
 20
8.030440
 11
3.093640
 21
8.015040
  0
LINE
  8
0
 62
     0
  6
CONTINUOUS
 10
3.093640
 20
8.015040
 11
3.093640
 21
8.031760
  0
LINE
  8
0
 62
     0
  6
CONTINUOUS
 10
3.093640
 20
8.031760
 11
3.093640
 21
8.015040
  0
LINE
  8
0
 62
     0
  6
CONTINUOUS
 10
3.093640
 20
8.015040
 11
3.099800
 21
8.030440
  0
LINE
  8
0
 62
     0
  6
CONTINUOUS
 10
3.099800
 20
8.030440
 11
3.093640
 21
8.015040
  0
LINE
  8
0
 62
     0
  6
CONTINUOUS
 10
3.093640
 20
8.015040
 11
3.105960
 21
8.027360
  0
LINE
  8
0
 62
     0
  6
CONTINUOUS
 10
3.105960
 20
8.027360
 11
3.093640
 21
8.015040
  0
LINE
  8
0
 62
     0
  6
CONTINUOUS
 10
3.093640
 20
8.015040
 11
3.110360
 21
8.021200
  0
LINE
  8
0
 62
     0
  6
CONTINUOUS
 10
3.110360
 20
8.021200
 11
3.093640
 21
8.015040
  0
LINE
  8
0
 62
     0
  6
CONTINUOUS
 10
3.093640
 20
8.015040
 11
3.110360
 21
8.015040
  0
LINE
  8
0
 62
     0
  6
CONTINUOUS
 10
3.110360
 20
8.015040
 11
3.093640
 21
8.015040
  0
LINE
  8
0
 62
     0
  6
CONTINUOUS
 10
3.093640
 20
8.015040
 11
3.110360
 21
8.008880
  0
LINE
  8
0
 62
     0
  6
CONTINUOUS
 10
3.110360
 20
8.008880
 11
3.093640
 21
8.015040
  0
LINE
  8
0
 62
     0
  6
CONTINUOUS
 10
3.093640
 20
8.015040
 11
3.105960
 21
8.002720
  0
LINE
  8
0
 62
     0
  6
CONTINUOUS
 10
3.105960
 20
8.002720
 11
3.110360
 21
8.008880
  0
LINE
  8
0
 62
     0
  6
CONTINUOUS
 10
3.110360
 20
8.008880
 11
3.110360
 21
8.015040
  0
LINE
  8
0
 62
     0
  6
CONTINUOUS
 10
3.110360
 20
8.015040
 11
3.110360
 21
8.021200
  0
LINE
  8
0
 62
     0
  6
CONTINUOUS
 10
3.110360
 20
8.021200
 11
3.105960
 21
8.027360
  0
LINE
  8
0
 62
     0
  6
CONTINUOUS
 10
3.105960
 20
8.027360
 11
3.099800
 21
8.030440
  0
LINE
  8
0
 62
     0
  6
CONTINUOUS
 10
3.099800
 20
8.030440
 11
3.093640
 21
8.031760
  0
LINE
  8
0
 62
     0
  6
CONTINUOUS
 10
3.093640
 20
8.031760
 11
3.093640
 21
8.015040
  0
LINE
  8
0
 62
     0
  6
CONTINUOUS
 10
3.093640
 20
8.015040
 11
3.093640
 21
7.998320
  0
LINE
  8
0
 62
     0
  6
CONTINUOUS
 10
3.093640
 20
7.998320
 11
3.093640
 21
8.015040
  0
LINE
  8
0
 62
     0
  6
CONTINUOUS
 10
3.093640
 20
8.015040
 11
3.093640
 21
8.031760
  0
LINE
  8
0
 62
     0
  6
CONTINUOUS
 10
3.093640
 20
8.031760
 11
3.087480
 21
8.030440
  0
LINE
  8
0
 62
     0
  6
CONTINUOUS
 10
3.087480
 20
8.030440
 11
3.081320
 21
8.027360
  0
LINE
  8
0
 62
     0
  6
CONTINUOUS
 10
3.081320
 20
8.027360
 11
3.080000
 21
8.021200
  0
LINE
  8
0
 62
     0
  6
CONTINUOUS
 10
3.080000
 20
8.021200
 11
3.076920
 21
8.015040
  0
LINE
  8
0
 62
     0
  6
CONTINUOUS
 10
3.076920
 20
8.015040
 11
3.080000
 21
8.008880
  0
LINE
  8
0
 62
     0
  6
CONTINUOUS
 10
3.080000
 20
8.008880
 11
3.081320
 21
8.002720
  0
LINE
  8
0
 62
     0
  6
CONTINUOUS
 10
3.081320
 20
8.002720
 11
3.087480
 21
7.999640
  0
LINE
  8
0
 62
     0
  6
CONTINUOUS
 10
3.087480
 20
7.999640
 11
3.093640
 21
7.998320
  0
LINE
  8
0
 62
     0
  6
CONTINUOUS
 10
3.093640
 20
7.998320
 11
3.099800
 21
7.999640
  0
LINE
  8
0
 62
     0
  6
CONTINUOUS
 10
3.099800
 20
7.999640
 11
3.105960
 21
8.002720
  0
LINE
  8
0
 62
     0
  6
CONTINUOUS
 10
3.110360
 20
8.016360
 11
3.096720
 21
8.016360
  0
LINE
  8
0
 62
     0
  6
CONTINUOUS
 10
3.096720
 20
8.016360
 11
3.090560
 21
8.016360
  0
LINE
  8
0
 62
     0
  6
CONTINUOUS
 10
3.090560
 20
8.016360
 11
3.076920
 21
8.016360
  0
LINE
  8
0
 62
     0
  6
CONTINUOUS
 10
3.080000
 20
8.022520
 11
3.087480
 21
8.022520
  0
LINE
  8
0
 62
     0
  6
CONTINUOUS
 10
3.101120
 20
8.022520
 11
3.109040
 21
8.022520
  0
LINE
  8
0
 62
     0
  6
CONTINUOUS
 10
3.003880
 20
8.021200
 11
2.988480
 21
8.015040
  0
LINE
  8
0
 62
     0
  6
CONTINUOUS
 10
2.988480
 20
8.015040
 11
3.005200
 21
8.015040
  0
LINE
  8
0
 62
     0
  6
CONTINUOUS
 10
3.005200
 20
8.015040
 11
2.988480
 21
8.015040
  0
LINE
  8
0
 62
     0
  6
CONTINUOUS
 10
2.988480
 20
8.015040
 11
3.003880
 21
8.008880
  0
LINE
  8
0
 62
     0
  6
CONTINUOUS
 10
3.003880
 20
8.008880
 11
2.988480
 21
8.015040
  0
LINE
  8
0
 62
     0
  6
CONTINUOUS
 10
2.988480
 20
8.015040
 11
3.000800
 21
8.002720
  0
LINE
  8
0
 62
     0
  6
CONTINUOUS
 10
3.000800
 20
8.002720
 11
2.988480
 21
8.015040
  0
LINE
  8
0
 62
     0
  6
CONTINUOUS
 10
2.988480
 20
8.015040
 11
2.994640
 21
7.999640
  0
LINE
  8
0
 62
     0
  6
CONTINUOUS
 10
2.994640
 20
7.999640
 11
2.988480
 21
8.015040
  0
LINE
  8
0
 62
     0
  6
CONTINUOUS
 10
2.988480
 20
8.015040
 11
2.988480
 21
7.998320
  0
LINE
  8
0
 62
     0
  6
CONTINUOUS
 10
2.988480
 20
7.998320
 11
2.988480
 21
8.015040
  0
LINE
  8
0
 62
     0
  6
CONTINUOUS
 10
2.988480
 20
8.015040
 11
2.982760
 21
7.999640
  0
LINE
  8
0
 62
     0
  6
CONTINUOUS
 10
2.982760
 20
7.999640
 11
2.988480
 21
8.015040
  0
LINE
  8
0
 62
     0
  6
CONTINUOUS
 10
2.988480
 20
8.015040
 11
2.976600
 21
8.002720
  0
LINE
  8
0
 62
     0
  6
CONTINUOUS
 10
2.976600
 20
8.002720
 11
2.988480
 21
8.015040
  0
LINE
  8
0
 62
     0
  6
CONTINUOUS
 10
2.988480
 20
8.015040
 11
2.973520
 21
8.008880
  0
LINE
  8
0
 62
     0
  6
CONTINUOUS
 10
2.973520
 20
8.008880
 11
2.988480
 21
8.015040
  0
LINE
  8
0
 62
     0
  6
CONTINUOUS
 10
2.988480
 20
8.015040
 11
2.971760
 21
8.015040
  0
LINE
  8
0
 62
     0
  6
CONTINUOUS
 10
2.971760
 20
8.015040
 11
2.988480
 21
8.015040
  0
LINE
  8
0
 62
     0
  6
CONTINUOUS
 10
2.988480
 20
8.015040
 11
2.973520
 21
8.021200
  0
LINE
  8
0
 62
     0
  6
CONTINUOUS
 10
2.973520
 20
8.021200
 11
2.988480
 21
8.015040
  0
LINE
  8
0
 62
     0
  6
CONTINUOUS
 10
2.988480
 20
8.015040
 11
2.976600
 21
8.027360
  0
LINE
  8
0
 62
     0
  6
CONTINUOUS
 10
2.976600
 20
8.027360
 11
2.988480
 21
8.015040
  0
LINE
  8
0
 62
     0
  6
CONTINUOUS
 10
2.988480
 20
8.015040
 11
2.982760
 21
8.030440
  0
LINE
  8
0
 62
     0
  6
CONTINUOUS
 10
2.982760
 20
8.030440
 11
2.988480
 21
8.015040
  0
LINE
  8
0
 62
     0
  6
CONTINUOUS
 10
2.988480
 20
8.015040
 11
2.988480
 21
8.031760
  0
LINE
  8
0
 62
     0
  6
CONTINUOUS
 10
2.988480
 20
8.031760
 11
2.988480
 21
8.015040
  0
LINE
  8
0
 62
     0
  6
CONTINUOUS
 10
2.988480
 20
8.015040
 11
2.994640
 21
8.030440
  0
LINE
  8
0
 62
     0
  6
CONTINUOUS
 10
2.994640
 20
8.030440
 11
2.988480
 21
8.015040
  0
LINE
  8
0
 62
     0
  6
CONTINUOUS
 10
2.988480
 20
8.015040
 11
3.000800
 21
8.027360
  0
LINE
  8
0
 62
     0
  6
CONTINUOUS
 10
3.000800
 20
8.027360
 11
2.988480
 21
8.015040
  0
LINE
  8
0
 62
     0
  6
CONTINUOUS
 10
2.988480
 20
8.015040
 11
3.003880
 21
8.021200
  0
LINE
  8
0
 62
     0
  6
CONTINUOUS
 10
3.003880
 20
8.021200
 11
3.000800
 21
8.027360
  0
LINE
  8
0
 62
     0
  6
CONTINUOUS
 10
3.000800
 20
8.027360
 11
2.994640
 21
8.030440
  0
LINE
  8
0
 62
     0
  6
CONTINUOUS
 10
2.994640
 20
8.030440
 11
2.988480
 21
8.031760
  0
LINE
  8
0
 62
     0
  6
CONTINUOUS
 10
2.988480
 20
8.031760
 11
2.988480
 21
8.015040
  0
LINE
  8
0
 62
     0
  6
CONTINUOUS
 10
2.988480
 20
8.015040
 11
2.988480
 21
7.998320
  0
LINE
  8
0
 62
     0
  6
CONTINUOUS
 10
2.988480
 20
7.998320
 11
2.994640
 21
7.999640
  0
LINE
  8
0
 62
     0
  6
CONTINUOUS
 10
2.994640
 20
7.999640
 11
3.000800
 21
8.002720
  0
LINE
  8
0
 62
     0
  6
CONTINUOUS
 10
3.000800
 20
8.002720
 11
3.003880
 21
8.008880
  0
LINE
  8
0
 62
     0
  6
CONTINUOUS
 10
3.003880
 20
8.008880
 11
3.005200
 21
8.015040
  0
LINE
  8
0
 62
     0
  6
CONTINUOUS
 10
3.005200
 20
8.015040
 11
3.003880
 21
8.021200
  0
LINE
  8
0
 62
     0
  6
CONTINUOUS
 10
3.003880
 20
8.021200
 11
3.002560
 21
8.022520
  0
LINE
  8
0
 62
     0
  6
CONTINUOUS
 10
3.002560
 20
8.022520
 11
2.994640
 21
8.022520
  0
LINE
  8
0
 62
     0
  6
CONTINUOUS
 10
2.991560
 20
8.016360
 11
3.005200
 21
8.016360
  0
LINE
  8
0
 62
     0
  6
CONTINUOUS
 10
2.985840
 20
8.016360
 11
2.971760
 21
8.016360
  0
LINE
  8
0
 62
     0
  6
CONTINUOUS
 10
2.971760
 20
8.016360
 11
2.971760
 21
8.015040
  0
LINE
  8
0
 62
     0
  6
CONTINUOUS
 10
2.971760
 20
8.015040
 11
2.973520
 21
8.008880
  0
LINE
  8
0
 62
     0
  6
CONTINUOUS
 10
2.973520
 20
8.008880
 11
2.976600
 21
8.002720
  0
LINE
  8
0
 62
     0
  6
CONTINUOUS
 10
2.976600
 20
8.002720
 11
2.982760
 21
7.999640
  0
LINE
  8
0
 62
     0
  6
CONTINUOUS
 10
2.982760
 20
7.999640
 11
2.988480
 21
7.998320
  0
LINE
  8
0
 62
     0
  6
CONTINUOUS
 10
2.981000
 20
7.999640
 11
2.981000
 21
8.007560
  0
LINE
  8
0
 62
     0
  6
CONTINUOUS
 10
2.981000
 20
8.022520
 11
2.981000
 21
8.030440
  0
LINE
  8
0
 62
     0
  6
CONTINUOUS
 10
2.981000
 20
8.030440
 11
2.982760
 21
8.030440
  0
LINE
  8
0
 62
     0
  6
CONTINUOUS
 10
2.982760
 20
8.030440
 11
2.976600
 21
8.027360
  0
LINE
  8
0
 62
     0
  6
CONTINUOUS
 10
2.976600
 20
8.027360
 11
2.973520
 21
8.021200
  0
LINE
  8
0
 62
     0
  6
CONTINUOUS
 10
2.973520
 20
8.021200
 11
2.971760
 21
8.015040
  0
LINE
  8
0
 62
     0
  6
CONTINUOUS
 10
2.973520
 20
8.022520
 11
2.981000
 21
8.022520
  0
LINE
  8
0
 62
     0
  6
CONTINUOUS
 10
2.982760
 20
8.030440
 11
2.988480
 21
8.031760
  0
LINE
  8
0
 62
     0
  6
CONTINUOUS
 10
2.910160
 20
8.027360
 11
2.899160
 21
8.015040
  0
LINE
  8
0
 62
     0
  6
CONTINUOUS
 10
2.899160
 20
8.015040
 11
2.914560
 21
8.021200
  0
LINE
  8
0
 62
     0
  6
CONTINUOUS
 10
2.914560
 20
8.021200
 11
2.899160
 21
8.015040
  0
LINE
  8
0
 62
     0
  6
CONTINUOUS
 10
2.899160
 20
8.015040
 11
2.914560
 21
8.015040
  0
LINE
  8
0
 62
     0
  6
CONTINUOUS
 10
2.914560
 20
8.015040
 11
2.899160
 21
8.015040
  0
LINE
  8
0
 62
     0
  6
CONTINUOUS
 10
2.899160
 20
8.015040
 11
2.914560
 21
8.008880
  0
LINE
  8
0
 62
     0
  6
CONTINUOUS
 10
2.914560
 20
8.008880
 11
2.899160
 21
8.015040
  0
LINE
  8
0
 62
     0
  6
CONTINUOUS
 10
2.899160
 20
8.015040
 11
2.910160
 21
8.002720
  0
LINE
  8
0
 62
     0
  6
CONTINUOUS
 10
2.910160
 20
8.002720
 11
2.899160
 21
8.015040
  0
LINE
  8
0
 62
     0
  6
CONTINUOUS
 10
2.899160
 20
8.015040
 11
2.905320
 21
7.999640
  0
LINE
  8
0
 62
     0
  6
CONTINUOUS
 10
2.905320
 20
7.999640
 11
2.899160
 21
8.015040
  0
LINE
  8
0
 62
     0
  6
CONTINUOUS
 10
2.899160
 20
8.015040
 11
2.899160
 21
7.998320
  0
LINE
  8
0
 62
     0
  6
CONTINUOUS
 10
2.899160
 20
7.998320
 11
2.899160
 21
8.015040
  0
LINE
  8
0
 62
     0
  6
CONTINUOUS
 10
2.899160
 20
8.015040
 11
2.891680
 21
7.999640
  0
LINE
  8
0
 62
     0
  6
CONTINUOUS
 10
2.891680
 20
7.999640
 11
2.899160
 21
8.015040
  0
LINE
  8
0
 62
     0
  6
CONTINUOUS
 10
2.899160
 20
8.015040
 11
2.885520
 21
8.002720
  0
LINE
  8
0
 62
     0
  6
CONTINUOUS
 10
2.885520
 20
8.002720
 11
2.899160
 21
8.015040
  0
LINE
  8
0
 62
     0
  6
CONTINUOUS
 10
2.899160
 20
8.015040
 11
2.882440
 21
8.008880
  0
LINE
  8
0
 62
     0
  6
CONTINUOUS
 10
2.882440
 20
8.008880
 11
2.899160
 21
8.015040
  0
LINE
  8
0
 62
     0
  6
CONTINUOUS
 10
2.899160
 20
8.015040
 11
2.881120
 21
8.015040
  0
LINE
  8
0
 62
     0
  6
CONTINUOUS
 10
2.881120
 20
8.015040
 11
2.899160
 21
8.015040
  0
LINE
  8
0
 62
     0
  6
CONTINUOUS
 10
2.899160
 20
8.015040
 11
2.882440
 21
8.021200
  0
LINE
  8
0
 62
     0
  6
CONTINUOUS
 10
2.882440
 20
8.021200
 11
2.899160
 21
8.015040
  0
LINE
  8
0
 62
     0
  6
CONTINUOUS
 10
2.899160
 20
8.015040
 11
2.885520
 21
8.027360
  0
LINE
  8
0
 62
     0
  6
CONTINUOUS
 10
2.885520
 20
8.027360
 11
2.899160
 21
8.015040
  0
LINE
  8
0
 62
     0
  6
CONTINUOUS
 10
2.899160
 20
8.015040
 11
2.891680
 21
8.030440
  0
LINE
  8
0
 62
     0
  6
CONTINUOUS
 10
2.891680
 20
8.030440
 11
2.899160
 21
8.015040
  0
LINE
  8
0
 62
     0
  6
CONTINUOUS
 10
2.899160
 20
8.015040
 11
2.899160
 21
8.031760
  0
LINE
  8
0
 62
     0
  6
CONTINUOUS
 10
2.899160
 20
8.031760
 11
2.899160
 21
8.015040
  0
LINE
  8
0
 62
     0
  6
CONTINUOUS
 10
2.899160
 20
8.015040
 11
2.905320
 21
8.030440
  0
LINE
  8
0
 62
     0
  6
CONTINUOUS
 10
2.905320
 20
8.030440
 11
2.905320
 21
8.021200
  0
LINE
  8
0
 62
     0
  6
CONTINUOUS
 10
2.905320
 20
8.021200
 11
2.905320
 21
8.022520
  0
LINE
  8
0
 62
     0
  6
CONTINUOUS
 10
2.905320
 20
8.022520
 11
2.913240
 21
8.022520
  0
LINE
  8
0
 62
     0
  6
CONTINUOUS
 10
2.913240
 20
8.022520
 11
2.914560
 21
8.021200
  0
LINE
  8
0
 62
     0
  6
CONTINUOUS
 10
2.914560
 20
8.021200
 11
2.910160
 21
8.027360
  0
LINE
  8
0
 62
     0
  6
CONTINUOUS
 10
2.910160
 20
8.027360
 11
2.905320
 21
8.030440
  0
LINE
  8
0
 62
     0
  6
CONTINUOUS
 10
2.905320
 20
8.030440
 11
2.899160
 21
8.015040
  0
LINE
  8
0
 62
     0
  6
CONTINUOUS
 10
2.899160
 20
8.015040
 11
2.910160
 21
8.027360
  0
LINE
  8
0
 62
     0
  6
CONTINUOUS
 10
2.905320
 20
8.030440
 11
2.899160
 21
8.031760
  0
LINE
  8
0
 62
     0
  6
CONTINUOUS
 10
2.899160
 20
8.031760
 11
2.899160
 21
8.015040
  0
LINE
  8
0
 62
     0
  6
CONTINUOUS
 10
2.899160
 20
8.015040
 11
2.899160
 21
7.998320
  0
LINE
  8
0
 62
     0
  6
CONTINUOUS
 10
2.899160
 20
7.998320
 11
2.905320
 21
7.999640
  0
LINE
  8
0
 62
     0
  6
CONTINUOUS
 10
2.905320
 20
7.999640
 11
2.910160
 21
8.002720
  0
LINE
  8
0
 62
     0
  6
CONTINUOUS
 10
2.910160
 20
8.002720
 11
2.914560
 21
8.008880
  0
LINE
  8
0
 62
     0
  6
CONTINUOUS
 10
2.914560
 20
8.008880
 11
2.914560
 21
8.015040
  0
LINE
  8
0
 62
     0
  6
CONTINUOUS
 10
2.914560
 20
8.015040
 11
2.914560
 21
8.021200
  0
LINE
  8
0
 62
     0
  6
CONTINUOUS
 10
2.914560
 20
8.016360
 11
2.900920
 21
8.016360
  0
LINE
  8
0
 62
     0
  6
CONTINUOUS
 10
2.900920
 20
8.016360
 11
2.899160
 21
8.016360
  0
LINE
  8
0
 62
     0
  6
CONTINUOUS
 10
2.899160
 20
8.016360
 11
2.899160
 21
8.031760
  0
LINE
  8
0
 62
     0
  6
CONTINUOUS
 10
2.899160
 20
8.031760
 11
2.891680
 21
8.030440
  0
LINE
  8
0
 62
     0
  6
CONTINUOUS
 10
2.891680
 20
8.030440
 11
2.885520
 21
8.027360
  0
LINE
  8
0
 62
     0
  6
CONTINUOUS
 10
2.885520
 20
8.027360
 11
2.882440
 21
8.021200
  0
LINE
  8
0
 62
     0
  6
CONTINUOUS
 10
2.882440
 20
8.021200
 11
2.881120
 21
8.015040
  0
LINE
  8
0
 62
     0
  6
CONTINUOUS
 10
2.881120
 20
8.015040
 11
2.882440
 21
8.008880
  0
LINE
  8
0
 62
     0
  6
CONTINUOUS
 10
2.882440
 20
8.008880
 11
2.885520
 21
8.002720
  0
LINE
  8
0
 62
     0
  6
CONTINUOUS
 10
2.885520
 20
8.002720
 11
2.891680
 21
7.999640
  0
LINE
  8
0
 62
     0
  6
CONTINUOUS
 10
2.891680
 20
7.999640
 11
2.899160
 21
7.998320
  0
LINE
  8
0
 62
     0
  6
CONTINUOUS
 10
2.899160
 20
7.998320
 11
2.899160
 21
8.013720
  0
LINE
  8
0
 62
     0
  6
CONTINUOUS
 10
2.899160
 20
8.013720
 11
2.894760
 21
8.016360
  0
LINE
  8
0
 62
     0
  6
CONTINUOUS
 10
2.894760
 20
8.016360
 11
2.881120
 21
8.016360
  0
LINE
  8
0
 62
     0
  6
CONTINUOUS
 10
2.884200
 20
8.022520
 11
2.891680
 21
8.022520
  0
LINE
  8
0
 62
     0
  6
CONTINUOUS
 10
2.905320
 20
8.008880
 11
2.905320
 21
7.999640
  0
LINE
  8
0
 62
     0
  6
CONTINUOUS
 10
2.931280
 20
7.899320
 11
3.032920
 21
8.112280
  0
LINE
  8
0
 62
     0
  6
CONTINUOUS
 10
2.943160
 20
8.112280
 11
2.841520
 21
7.899320
  0
LINE
  8
0
 62
     0
  6
CONTINUOUS
 10
3.037320
 20
7.899320
 11
3.139400
 21
8.112280
  0
LINE
  8
0
 62
     0
  6
CONTINUOUS
 10
2.812480
 20
8.214360
 11
2.812480
 21
7.399920
  0
LINE
  8
0
 62
     0
  6
CONTINUOUS
 10
2.812480
 20
7.399920
 11
3.098040
 21
7.686360
  0
LINE
  8
0
 62
     0
  6
CONTINUOUS
 10
3.098040
 20
7.686360
 11
3.366000
 21
7.399920
  0
LINE
  8
0
 62
     0
  6
CONTINUOUS
 10
3.366000
 20
7.399920
 11
3.366000
 21
8.214360
  0
LINE
  8
0
 62
     0
  6
CONTINUOUS
 10
3.117840
 20
7.588680
 11
3.087480
 21
7.541600
  0
LINE
  8
0
 62
     0
  6
CONTINUOUS
 10
3.078680
 20
7.541600
 11
3.069440
 21
7.567560
  0
LINE
  8
0
 62
     0
  6
CONTINUOUS
 10
3.069440
 20
7.567560
 11
3.073840
 21
7.567560
  0
LINE
  8
0
 62
     0
  6
CONTINUOUS
 10
3.073840
 20
7.567560
 11
3.052720
 21
7.567560
  0
LINE
  8
0
 62
     0
  6
CONTINUOUS
 10
3.073840
 20
7.567560
 11
3.081320
 21
7.568880
  0
LINE
  8
0
 62
     0
  6
CONTINUOUS
 10
3.081320
 20
7.568880
 11
3.083080
 21
7.571960
  0
LINE
  8
0
 62
     0
  6
CONTINUOUS
 10
3.058880
 20
7.588680
 11
3.046560
 21
7.541600
  0
LINE
  8
0
 62
     0
  6
CONTINUOUS
 10
3.098040
 20
7.558320
 11
3.120920
 21
7.558320
  0
LINE
  8
0
 62
     0
  6
CONTINUOUS
 10
3.124000
 20
7.541600
 11
3.117840
 21
7.588680
  0
LINE
  8
0
 62
     0
  6
CONTINUOUS
 10
2.555520
 20
8.015040
 11
2.404600
 21
8.015040
  0
LINE
  8
0
 62
     0
  6
CONTINUOUS
 10
1.972520
 20
8.482320
 11
1.684760
 21
8.214360
  0
LINE
  8
0
 62
     0
  6
CONTINUOUS
 10
1.684760
 20
8.214360
 11
2.812480
 21
8.214360
  0
LINE
  8
0
 62
     0
  6
CONTINUOUS
 10
2.830960
 20
8.015040
 11
2.966040
 21
8.015040
  0
LINE
  8
0
 62
     0
  6
CONTINUOUS
 10
3.037320
 20
8.015040
 11
3.174160
 21
8.015040
  0
LINE
  8
0
 62
     0
  6
CONTINUOUS
 10
3.242800
 20
8.015040
 11
3.393720
 21
8.015040
  0
LINE
  8
0
 62
     0
  6
CONTINUOUS
 10
1.972520
 20
8.482320
 11
1.684760
 21
8.768320
  0
LINE
  8
0
 62
     0
  6
CONTINUOUS
 10
1.684760
 20
8.768320
 11
6.673040
 21
8.768320
  0
LINE
  8
0
 62
     0
  6
CONTINUOUS
 10
1.882760
 20
8.477920
 11
1.859880
 21
8.477920
  0
LINE
  8
0
 62
     0
  6
CONTINUOUS
 10
1.844480
 20
8.481000
 11
1.847560
 21
8.491560
  0
LINE
  8
0
 62
     0
  6
CONTINUOUS
 10
1.847560
 20
8.491560
 11
1.847560
 21
8.499040
  0
LINE
  8
0
 62
     0
  6
CONTINUOUS
 10
1.847560
 20
8.499040
 11
1.846240
 21
8.503440
  0
LINE
  8
0
 62
     0
  6
CONTINUOUS
 10
1.846240
 20
8.503440
 11
1.843160
 21
8.508280
  0
LINE
  8
0
 62
     0
  6
CONTINUOUS
 10
1.843160
 20
8.508280
 11
1.838320
 21
8.511360
  0
LINE
  8
0
 62
     0
  6
CONTINUOUS
 10
1.838320
 20
8.511360
 11
1.829520
 21
8.511360
  0
LINE
  8
0
 62
     0
  6
CONTINUOUS
 10
1.829520
 20
8.511360
 11
1.824680
 21
8.508280
  0
LINE
  8
0
 62
     0
  6
CONTINUOUS
 10
1.824680
 20
8.508280
 11
1.818520
 21
8.503440
  0
LINE
  8
0
 62
     0
  6
CONTINUOUS
 10
1.818520
 20
8.503440
 11
1.815440
 21
8.499040
  0
LINE
  8
0
 62
     0
  6
CONTINUOUS
 10
1.815440
 20
8.499040
 11
1.811040
 21
8.491560
  0
LINE
  8
0
 62
     0
  6
CONTINUOUS
 10
1.811040
 20
8.491560
 11
1.809720
 21
8.481000
  0
LINE
  8
0
 62
     0
  6
CONTINUOUS
 10
1.809720
 20
8.481000
 11
1.809720
 21
8.474840
  0
LINE
  8
0
 62
     0
  6
CONTINUOUS
 10
1.809720
 20
8.474840
 11
1.809720
 21
8.470000
  0
LINE
  8
0
 62
     0
  6
CONTINUOUS
 10
1.809720
 20
8.470000
 11
1.814120
 21
8.465600
  0
LINE
  8
0
 62
     0
  6
CONTINUOUS
 10
1.814120
 20
8.465600
 11
1.817200
 21
8.462520
  0
LINE
  8
0
 62
     0
  6
CONTINUOUS
 10
1.817200
 20
8.462520
 11
1.826440
 21
8.462520
  0
LINE
  8
0
 62
     0
  6
CONTINUOUS
 10
1.826440
 20
8.462520
 11
1.830840
 21
8.465600
  0
LINE
  8
0
 62
     0
  6
CONTINUOUS
 10
1.830840
 20
8.465600
 11
1.838320
 21
8.470000
  0
LINE
  8
0
 62
     0
  6
CONTINUOUS
 10
1.838320
 20
8.470000
 11
1.840080
 21
8.474840
  0
LINE
  8
0
 62
     0
  6
CONTINUOUS
 10
1.840080
 20
8.474840
 11
1.844480
 21
8.481000
  0
LINE
  8
0
 62
     0
  6
CONTINUOUS
 10
1.849320
 20
8.462520
 11
1.879680
 21
8.511360
  0
LINE
  8
0
 62
     0
  6
CONTINUOUS
 10
1.879680
 20
8.511360
 11
1.885840
 21
8.462520
  0
LINE
  8
0
 62
     0
  6
CONTINUOUS
 10
4.684240
 20
7.858400
 11
4.684240
 21
8.054640
  0
LINE
  8
0
 62
     0
  6
CONTINUOUS
 10
4.684240
 20
8.054640
 11
4.939880
 21
8.054640
  0
POLYLINE
  8
0
 62
     0
  6
CONTINUOUS
 66
     1
 40
0.000000
 41
0.000000
  0
VERTEX
  8
0
 62
     0
  6
CONTINUOUS
 10
3.268760
 20
8.935960
  0
VERTEX
  8
0
 62
     0
  6
CONTINUOUS
 10
3.297800
 20
8.966320
  0
VERTEX
  8
0
 62
     0
  6
CONTINUOUS
 10
3.281080
 20
8.998440
  0
VERTEX
  8
0
 62
     0
  6
CONTINUOUS
 10
3.289880
 20
8.998440
  0
VERTEX
  8
0
 62
     0
  6
CONTINUOUS
 10
3.303960
 20
8.972480
  0
VERTEX
  8
0
 62
     0
  6
CONTINUOUS
 10
3.326400
 20
8.998440
  0
VERTEX
  8
0
 62
     0
  6
CONTINUOUS
 10
3.337400
 20
8.998440
  0
VERTEX
  8
0
 62
     0
  6
CONTINUOUS
 10
3.308360
 20
8.966320
  0
VERTEX
  8
0
 62
     0
  6
CONTINUOUS
 10
3.325080
 20
8.935960
  0
VERTEX
  8
0
 62
     0
  6
CONTINUOUS
 10
3.315840
 20
8.935960
  0
VERTEX
  8
0
 62
     0
  6
CONTINUOUS
 10
3.302200
 20
8.960160
  0
VERTEX
  8
0
 62
     0
  6
CONTINUOUS
 10
3.279320
 20
8.935960
  0
VERTEX
  8
0
 62
     0
  6
CONTINUOUS
 10
3.268760
 20
8.935960
  0
SEQEND
  8
0
  0
LINE
  8
0
 62
     0
  6
CONTINUOUS
 10
3.083080
 20
7.571960
 11
3.087480
 21
7.575040
  0
LINE
  8
0
 62
     0
  6
CONTINUOUS
 10
3.087480
 20
7.575040
 11
3.087480
 21
7.581200
  0
LINE
  8
0
 62
     0
  6
CONTINUOUS
 10
3.087480
 20
7.581200
 11
3.087480
 21
7.584280
  0
LINE
  8
0
 62
     0
  6
CONTINUOUS
 10
3.087480
 20
7.584280
 11
3.086160
 21
7.587360
  0
LINE
  8
0
 62
     0
  6
CONTINUOUS
 10
3.086160
 20
7.587360
 11
3.080000
 21
7.588680
  0
LINE
  8
0
 62
     0
  6
CONTINUOUS
 10
3.080000
 20
7.588680
 11
3.058880
 21
7.588680
  0
POLYLINE
  8
0
 62
     0
  6
CONTINUOUS
 66
     1
 40
0.000000
 41
0.000000
  0
VERTEX
  8
0
 62
     0
  6
CONTINUOUS
 10
2.970440
 20
8.944320
  0
VERTEX
  8
0
 62
     0
  6
CONTINUOUS
 10
2.970440
 20
9.018680
  0
VERTEX
  8
0
 62
     0
  6
CONTINUOUS
 10
1.232880
 20
9.018680
  0
VERTEX
  8
0
 62
     0
  6
CONTINUOUS
 10
1.232880
 20
7.358120
  0
SEQEND
  8
0
  0
SOLID
  8
0
 62
     7
 10
1.131240
 20
7.402120
 11
1.378520
 21
7.402120
 12
1.131240
 22
7.212920
 13
1.378520
 23
7.212920
  0
POLYLINE
  8
0
 62
     0
  6
CONTINUOUS
 66
     1
 40
0.000000
 41
0.000000
  0
VERTEX
  8
0
 62
     0
  6
CONTINUOUS
 10
1.131240
 20
7.402120
  0
VERTEX
  8
0
 62
     0
  6
CONTINUOUS
 10
1.378520
 20
7.402120
  0
VERTEX
  8
0
 62
     0
  6
CONTINUOUS
 10
1.378520
 20
7.212920
  0
VERTEX
  8
0
 62
     0
  6
CONTINUOUS
 10
1.131240
 20
7.212920
  0
VERTEX
  8
0
 62
     0
  6
CONTINUOUS
 10
1.131240
 20
7.402120
  0
SEQEND
  8
0
  0
TEXT
  8
0
 62
     0
 10
1.180960
 20
7.299600
 40
0.108501
  1
AI
 41
1.000000
  7
SN0
 71
     0
 72
     5
 11
1.349040
 21
7.299600
  0
SOLID
  8
0
 62
     7
 10
5.794800
 20
8.766120
 11
5.873120
 21
8.766120
 12
5.794800
 22
8.217000
 13
5.873120
 23
8.217000
  0
POLYLINE
  8
0
 62
     0
  6
CONTINUOUS
 66
     1
 40
0.000000
 41
0.000000
  0
VERTEX
  8
0
 62
     0
  6
CONTINUOUS
 10
5.794800
 20
8.766120
  0
VERTEX
  8
0
 62
     0
  6
CONTINUOUS
 10
5.873120
 20
8.766120
  0
VERTEX
  8
0
 62
     0
  6
CONTINUOUS
 10
5.873120
 20
8.217000
  0
VERTEX
  8
0
 62
     0
  6
CONTINUOUS
 10
5.794800
 20
8.217000
  0
VERTEX
  8
0
 62
     0
  6
CONTINUOUS
 10
5.794800
 20
8.766120
  0
SEQEND
  8
0
  0
LINE
  8
0
 62
     0
  6
CONTINUOUS
 10
5.918440
 20
8.661400
 11
6.022720
 21
8.713760
  0
LINE
  8
0
 62
     0
  6
CONTINUOUS
 10
5.919760
 20
8.646000
 11
6.046040
 21
8.646000
  0
LINE
  8
0
 62
     0
  6
CONTINUOUS
 10
5.918440
 20
8.629720
 11
6.024480
 21
8.587480
  0
LINE
  8
0
 62
     0
  6
CONTINUOUS
 10
5.918440
 20
8.498160
 11
6.022720
 21
8.550520
  0
LINE
  8
0
 62
     0
  6
CONTINUOUS
 10
5.919760
 20
8.482760
 11
6.046040
 21
8.482760
  0
LINE
  8
0
 62
     0
  6
CONTINUOUS
 10
5.918440
 20
8.466480
 11
6.024480
 21
8.424240
  0
LINE
  8
0
 62
     0
  6
CONTINUOUS
 10
5.918440
 20
8.334920
 11
6.022720
 21
8.386840
  0
LINE
  8
0
 62
     0
  6
CONTINUOUS
 10
5.919760
 20
8.319520
 11
6.046040
 21
8.319520
  0
LINE
  8
0
 62
     0
  6
CONTINUOUS
 10
5.918440
 20
8.303240
 11
6.024480
 21
8.261000
  0
SOLID
  8
0
 62
     7
 10
5.783360
 20
7.703080
 11
6.030200
 21
7.703080
 12
5.783360
 22
7.513880
 13
6.030200
 23
7.513880
  0
POLYLINE
  8
0
 62
     0
  6
CONTINUOUS
 66
     1
 40
0.000000
 41
0.000000
  0
VERTEX
  8
0
 62
     0
  6
CONTINUOUS
 10
5.783360
 20
7.703080
  0
VERTEX
  8
0
 62
     0
  6
CONTINUOUS
 10
6.030200
 20
7.703080
  0
VERTEX
  8
0
 62
     0
  6
CONTINUOUS
 10
6.030200
 20
7.513880
  0
VERTEX
  8
0
 62
     0
  6
CONTINUOUS
 10
5.783360
 20
7.513880
  0
VERTEX
  8
0
 62
     0
  6
CONTINUOUS
 10
5.783360
 20
7.703080
  0
SEQEND
  8
0
  0
TEXT
  8
0
 62
     0
 10
5.802720
 20
7.600560
 40
0.108501
  1
AO
 41
1.000000
  7
SN0
 71
     0
 72
     5
 11
6.033280
 21
7.600560
  0
LINE
  8
0
 62
     0
  6
CONTINUOUS
 10
5.827360
 20
8.217000
 11
5.827360
 21
7.700880
  0
ENDSEC
  0
EOF
