  0
SECTION
  2
HEADER
  9
$EXTMIN
 10
1.134760
 20
6.585480
  9
$EXTMAX
 10
6.460080
 20
9.173120
  9
$LTSCALE
 40
0.044000
  9
$PDMODE
 70
    35
  9
$PDSIZE
 40
0.035200
  0
ENDSEC
  0
SECTION
  2
TABLES
  0
TABLE
  2
LTYPE
 70
     9
  0
LTYPE
  2
CONTINUOUS
 70
    64
  3
Solid line
 72
    65
 73
     0
 40
0.000000
  0
LTYPE
  2
DASHED
 70
    64
  3
__ __ __ __ __ __ __ __ __ __ __ __ __ __ __
 72
    65
 73
     2
 40
0.000330
 49
0.000220
 49
-0.000110
  0
LTYPE
  2
HIDDEN
 70
    64
  3
 _ _ _ _ _ _ _ _ _ _ _ _ _ _ _ _ _ _ _ _ _ _
 72
    65
 73
     2
 40
0.000165
 49
0.000110
 49
-0.000055
  0
LTYPE
  2
CENTER
 70
    64
  3
____ _ ____ _ ____ _ ____ _ ____ _ ____ _ ____
 72
    65
 73
     4
 40
0.000880
 49
0.000550
 49
-0.000110
 49
0.000110
 49
-0.000110
  0
LTYPE
  2
PHANTOM
 70
    64
  3
_____ _ _ _____ _ _ _____ _ _ _____ _ _ ____
 72
    65
 73
     6
 40
0.001100
 49
0.000550
 49
-0.000110
 49
0.000110
 49
-0.000110
 49
0.000110
 49
-0.000110
  0
LTYPE
  2
DOT
 70
    64
  3
...............................................
 72
    65
 73
     2
 40
0.000110
 49
0.000000
 49
-0.000110
  0
LTYPE
  2
DASHDOT
 70
    64
  3
__ . __ . __ . __ . __ . __ . __ . __ . __ . __
 72
    65
 73
     4
 40
0.000440
 49
0.000220
 49
-0.000110
 49
0.000000
 49
-0.000110
  0
LTYPE
  2
BORDER
 70
    64
  3
__ __ . __ __ . __ __ . __ __ . __ __ . __ __
 72
    65
 73
     6
 40
0.000770
 49
0.000220
 49
-0.000110
 49
0.000220
 49
-0.000110
 49
0.000000
 49
-0.000110
  0
LTYPE
  2
DIVIDE
 70
    64
  3
__ . . __ . . __ . . __ . . __ . . __ . . __
 72
    65
 73
     6
 40
0.000550
 49
0.000220
 49
-0.000110
 49
0.000000
 49
-0.000110
 49
0.000000
 49
-0.000110
  0
LTYPE
  2
DOTDOT
 70
    64
  3
 . .  . .  . .  . .  . .  . . 
 72
    65
 73
     5
 40
0.000242
 49
-0.000110
 49
0.000000
 49
-0.000110
 49
0.000000
 49
-0.000110
  0
ENDTAB
  0
TABLE
  2
STYLE
 70
     4
  0
STYLE
 70
     0
  2
SN0
 40
0.000000
 41
0.000440
 50
0.000000
 71
     0
 42
0.000000
  3
ITALICC
  0
STYLE
 70
    68
  2
SV0
 40
0.000000
 41
0.000440
 50
0.000000
 71
     0
 42
0.000000
  3
ITALICC
  0
STYLE
 70
     0
  2
SN1
 40
0.000000
 41
0.000440
 50
0.000000
 71
     0
 42
0.000000
  3
ROMANS
  0
STYLE
 70
    68
  2
SV1
 40
0.000000
 41
0.000440
 50
0.000000
 71
     0
 42
0.000000
  3
ROMANS
  0
ENDTAB
  0
TABLE
  2
LAYER
 70
     3
  0
LAYER
  2
FOREGROUND
 70
    64
 62
     7
  6
CONTINUOUS
  0
LAYER
  2
BACKGROUND
 70
    65
 62
    -7
  6
CONTINUOUS
  0
LAYER
  2
0
 70
    64
 62
     7
  6
CONTINUOUS
  0
ENDTAB
  0
ENDSEC
  0
SECTION
  2
ENTITIES
  0
LINE
  8
0
 62
     0
  6
CONTINUOUS
 10
2.143240
 20
8.336240
 11
2.130920
 21
8.336240
  0
LINE
  8
0
 62
     0
  6
CONTINUOUS
 10
2.126080
 20
8.283440
 11
2.148080
 21
8.283440
  0
LINE
  8
0
 62
     0
  6
CONTINUOUS
 10
2.150720
 20
8.283440
 11
2.150720
 21
8.268040
  0
LINE
  8
0
 62
     0
  6
CONTINUOUS
 10
2.150720
 20
8.268040
 11
2.150720
 21
8.283440
  0
LINE
  8
0
 62
     0
  6
CONTINUOUS
 10
2.150720
 20
8.283440
 11
2.150720
 21
8.268040
  0
LINE
  8
0
 62
     0
  6
CONTINUOUS
 10
2.150720
 20
8.268040
 11
2.151160
 21
8.268040
  0
LINE
  8
0
 62
     0
  6
CONTINUOUS
 10
2.151160
 20
8.268040
 11
2.151160
 21
8.283440
  0
LINE
  8
0
 62
     0
  6
CONTINUOUS
 10
2.151160
 20
8.283440
 11
2.151160
 21
8.268040
  0
LINE
  8
0
 62
     0
  6
CONTINUOUS
 10
2.151160
 20
8.268040
 11
2.151160
 21
8.283440
  0
LINE
  8
0
 62
     0
  6
CONTINUOUS
 10
2.151160
 20
8.283440
 11
2.151600
 21
8.283440
  0
LINE
  8
0
 62
     0
  6
CONTINUOUS
 10
2.151600
 20
8.283440
 11
2.151600
 21
8.268040
  0
LINE
  8
0
 62
     0
  6
CONTINUOUS
 10
2.151600
 20
8.268040
 11
2.151600
 21
8.283440
  0
LINE
  8
0
 62
     0
  6
CONTINUOUS
 10
2.151600
 20
8.283440
 11
2.151600
 21
8.268040
  0
LINE
  8
0
 62
     0
  6
CONTINUOUS
 10
2.151600
 20
8.268040
 11
2.152040
 21
8.268040
  0
LINE
  8
0
 62
     0
  6
CONTINUOUS
 10
2.152040
 20
8.268040
 11
2.152040
 21
8.283440
  0
LINE
  8
0
 62
     0
  6
CONTINUOUS
 10
2.152040
 20
8.283440
 11
2.152040
 21
8.268040
  0
LINE
  8
0
 62
     0
  6
CONTINUOUS
 10
2.152040
 20
8.268040
 11
2.152040
 21
8.283440
  0
LINE
  8
0
 62
     0
  6
CONTINUOUS
 10
2.152040
 20
8.283440
 11
2.152480
 21
8.283440
  0
LINE
  8
0
 62
     0
  6
CONTINUOUS
 10
2.152480
 20
8.283440
 11
2.152480
 21
8.268040
  0
LINE
  8
0
 62
     0
  6
CONTINUOUS
 10
2.152480
 20
8.268040
 11
2.152480
 21
8.283440
  0
LINE
  8
0
 62
     0
  6
CONTINUOUS
 10
2.152480
 20
8.283440
 11
2.152480
 21
8.268040
  0
LINE
  8
0
 62
     0
  6
CONTINUOUS
 10
2.152480
 20
8.268040
 11
2.152920
 21
8.268040
  0
LINE
  8
0
 62
     0
  6
CONTINUOUS
 10
2.152920
 20
8.268040
 11
2.152920
 21
8.283440
  0
LINE
  8
0
 62
     0
  6
CONTINUOUS
 10
2.152920
 20
8.283440
 11
2.152920
 21
8.268040
  0
LINE
  8
0
 62
     0
  6
CONTINUOUS
 10
2.152920
 20
8.268040
 11
2.152920
 21
8.283440
  0
LINE
  8
0
 62
     0
  6
CONTINUOUS
 10
2.152920
 20
8.283440
 11
2.153360
 21
8.283440
  0
LINE
  8
0
 62
     0
  6
CONTINUOUS
 10
2.153360
 20
8.283440
 11
2.153360
 21
8.268040
  0
LINE
  8
0
 62
     0
  6
CONTINUOUS
 10
2.153360
 20
8.268040
 11
2.153360
 21
8.283440
  0
LINE
  8
0
 62
     0
  6
CONTINUOUS
 10
2.153360
 20
8.283440
 11
2.153360
 21
8.268040
  0
LINE
  8
0
 62
     0
  6
CONTINUOUS
 10
2.153360
 20
8.268040
 11
2.153800
 21
8.268040
  0
LINE
  8
0
 62
     0
  6
CONTINUOUS
 10
2.153800
 20
8.268040
 11
2.153800
 21
8.283440
  0
LINE
  8
0
 62
     0
  6
CONTINUOUS
 10
2.153800
 20
8.283440
 11
2.153800
 21
8.268040
  0
LINE
  8
0
 62
     0
  6
CONTINUOUS
 10
2.153800
 20
8.268040
 11
2.153800
 21
8.283440
  0
LINE
  8
0
 62
     0
  6
CONTINUOUS
 10
2.153800
 20
8.283440
 11
2.154240
 21
8.283440
  0
LINE
  8
0
 62
     0
  6
CONTINUOUS
 10
2.154240
 20
8.283440
 11
2.154240
 21
8.268040
  0
LINE
  8
0
 62
     0
  6
CONTINUOUS
 10
2.154240
 20
8.268040
 11
2.154240
 21
8.283440
  0
LINE
  8
0
 62
     0
  6
CONTINUOUS
 10
2.154240
 20
8.283440
 11
2.154240
 21
8.268040
  0
LINE
  8
0
 62
     0
  6
CONTINUOUS
 10
2.154240
 20
8.268040
 11
2.154240
 21
8.283440
  0
LINE
  8
0
 62
     0
  6
CONTINUOUS
 10
2.154240
 20
8.283440
 11
2.154680
 21
8.283440
  0
LINE
  8
0
 62
     0
  6
CONTINUOUS
 10
2.154680
 20
8.283440
 11
2.154680
 21
8.268040
  0
LINE
  8
0
 62
     0
  6
CONTINUOUS
 10
2.154680
 20
8.268040
 11
2.154680
 21
8.283440
  0
LINE
  8
0
 62
     0
  6
CONTINUOUS
 10
2.154680
 20
8.283440
 11
2.154680
 21
8.268040
  0
LINE
  8
0
 62
     0
  6
CONTINUOUS
 10
2.154680
 20
8.268040
 11
2.155120
 21
8.268040
  0
LINE
  8
0
 62
     0
  6
CONTINUOUS
 10
2.155120
 20
8.268040
 11
2.155120
 21
8.283440
  0
LINE
  8
0
 62
     0
  6
CONTINUOUS
 10
2.155120
 20
8.283440
 11
2.155120
 21
8.268040
  0
LINE
  8
0
 62
     0
  6
CONTINUOUS
 10
2.155120
 20
8.268040
 11
2.155120
 21
8.283440
  0
LINE
  8
0
 62
     0
  6
CONTINUOUS
 10
2.155120
 20
8.283440
 11
2.155560
 21
8.283440
  0
LINE
  8
0
 62
     0
  6
CONTINUOUS
 10
2.155560
 20
8.283440
 11
2.155560
 21
8.268040
  0
LINE
  8
0
 62
     0
  6
CONTINUOUS
 10
2.155560
 20
8.268040
 11
2.155560
 21
8.283440
  0
LINE
  8
0
 62
     0
  6
CONTINUOUS
 10
2.155560
 20
8.283440
 11
2.155560
 21
8.268040
  0
LINE
  8
0
 62
     0
  6
CONTINUOUS
 10
2.155560
 20
8.268040
 11
2.156000
 21
8.268040
  0
LINE
  8
0
 62
     0
  6
CONTINUOUS
 10
2.156000
 20
8.268040
 11
2.156000
 21
8.283440
  0
LINE
  8
0
 62
     0
  6
CONTINUOUS
 10
2.156000
 20
8.283440
 11
2.156000
 21
8.268040
  0
LINE
  8
0
 62
     0
  6
CONTINUOUS
 10
2.156000
 20
8.268040
 11
2.156000
 21
8.283440
  0
LINE
  8
0
 62
     0
  6
CONTINUOUS
 10
2.156000
 20
8.283440
 11
2.156440
 21
8.283440
  0
LINE
  8
0
 62
     0
  6
CONTINUOUS
 10
2.156440
 20
8.283440
 11
2.156440
 21
8.268040
  0
LINE
  8
0
 62
     0
  6
CONTINUOUS
 10
2.156440
 20
8.268040
 11
2.156440
 21
8.283440
  0
LINE
  8
0
 62
     0
  6
CONTINUOUS
 10
2.156440
 20
8.283440
 11
2.156440
 21
8.268040
  0
LINE
  8
0
 62
     0
  6
CONTINUOUS
 10
2.156440
 20
8.268040
 11
2.156880
 21
8.268040
  0
LINE
  8
0
 62
     0
  6
CONTINUOUS
 10
2.156880
 20
8.268040
 11
2.156880
 21
8.283440
  0
LINE
  8
0
 62
     0
  6
CONTINUOUS
 10
2.156880
 20
8.283440
 11
2.156880
 21
8.268040
  0
LINE
  8
0
 62
     0
  6
CONTINUOUS
 10
2.156880
 20
8.268040
 11
2.156880
 21
8.283440
  0
LINE
  8
0
 62
     0
  6
CONTINUOUS
 10
2.156880
 20
8.283440
 11
2.157320
 21
8.283440
  0
LINE
  8
0
 62
     0
  6
CONTINUOUS
 10
2.157320
 20
8.283440
 11
2.157760
 21
8.268040
  0
LINE
  8
0
 62
     0
  6
CONTINUOUS
 10
2.157760
 20
8.268040
 11
2.147200
 21
8.268040
  0
LINE
  8
0
 62
     0
  6
CONTINUOUS
 10
2.147200
 20
8.268040
 11
2.148080
 21
8.283440
  0
LINE
  8
0
 62
     0
  6
CONTINUOUS
 10
2.148080
 20
8.283440
 11
2.157320
 21
8.283440
  0
LINE
  8
0
 62
     0
  6
CONTINUOUS
 10
2.157320
 20
8.283440
 11
2.178880
 21
8.283440
  0
LINE
  8
0
 62
     0
  6
CONTINUOUS
 10
2.157320
 20
8.283440
 11
2.157320
 21
8.268040
  0
LINE
  8
0
 62
     0
  6
CONTINUOUS
 10
2.157320
 20
8.268040
 11
2.157320
 21
8.278160
  0
LINE
  8
0
 62
     0
  6
CONTINUOUS
 10
2.157320
 20
8.278160
 11
2.157320
 21
8.272880
  0
LINE
  8
0
 62
     0
  6
CONTINUOUS
 10
2.157320
 20
8.272880
 11
2.157320
 21
8.268040
  0
LINE
  8
0
 62
     0
  6
CONTINUOUS
 10
2.150720
 20
8.268040
 11
2.150280
 21
8.268040
  0
LINE
  8
0
 62
     0
  6
CONTINUOUS
 10
2.150280
 20
8.268040
 11
2.150280
 21
8.283440
  0
LINE
  8
0
 62
     0
  6
CONTINUOUS
 10
2.150280
 20
8.283440
 11
2.150280
 21
8.268040
  0
LINE
  8
0
 62
     0
  6
CONTINUOUS
 10
2.150280
 20
8.268040
 11
2.150280
 21
8.283440
  0
LINE
  8
0
 62
     0
  6
CONTINUOUS
 10
2.150280
 20
8.283440
 11
2.149840
 21
8.283440
  0
LINE
  8
0
 62
     0
  6
CONTINUOUS
 10
2.149840
 20
8.283440
 11
2.149840
 21
8.268040
  0
LINE
  8
0
 62
     0
  6
CONTINUOUS
 10
2.149840
 20
8.268040
 11
2.149840
 21
8.283440
  0
LINE
  8
0
 62
     0
  6
CONTINUOUS
 10
2.149840
 20
8.283440
 11
2.149840
 21
8.268040
  0
LINE
  8
0
 62
     0
  6
CONTINUOUS
 10
2.149840
 20
8.268040
 11
2.149400
 21
8.268040
  0
LINE
  8
0
 62
     0
  6
CONTINUOUS
 10
2.149400
 20
8.268040
 11
2.149400
 21
8.283440
  0
LINE
  8
0
 62
     0
  6
CONTINUOUS
 10
2.149400
 20
8.283440
 11
2.149400
 21
8.268040
  0
LINE
  8
0
 62
     0
  6
CONTINUOUS
 10
2.149400
 20
8.268040
 11
2.149400
 21
8.283440
  0
LINE
  8
0
 62
     0
  6
CONTINUOUS
 10
2.149400
 20
8.283440
 11
2.148960
 21
8.283440
  0
LINE
  8
0
 62
     0
  6
CONTINUOUS
 10
2.148960
 20
8.283440
 11
2.148960
 21
8.268040
  0
LINE
  8
0
 62
     0
  6
CONTINUOUS
 10
2.148960
 20
8.268040
 11
2.148960
 21
8.283440
  0
LINE
  8
0
 62
     0
  6
CONTINUOUS
 10
2.148960
 20
8.283440
 11
2.148960
 21
8.268040
  0
LINE
  8
0
 62
     0
  6
CONTINUOUS
 10
2.148960
 20
8.268040
 11
2.148520
 21
8.268040
  0
LINE
  8
0
 62
     0
  6
CONTINUOUS
 10
2.148520
 20
8.268040
 11
2.148520
 21
8.283440
  0
LINE
  8
0
 62
     0
  6
CONTINUOUS
 10
2.148520
 20
8.283440
 11
2.148520
 21
8.268040
  0
LINE
  8
0
 62
     0
  6
CONTINUOUS
 10
2.148520
 20
8.268040
 11
2.148520
 21
8.283440
  0
LINE
  8
0
 62
     0
  6
CONTINUOUS
 10
2.148520
 20
8.283440
 11
2.148080
 21
8.283440
  0
LINE
  8
0
 62
     0
  6
CONTINUOUS
 10
2.148080
 20
8.283440
 11
2.148080
 21
8.268040
  0
LINE
  8
0
 62
     0
  6
CONTINUOUS
 10
2.148080
 20
8.268040
 11
2.148080
 21
8.283440
  0
LINE
  8
0
 62
     0
  6
CONTINUOUS
 10
2.148080
 20
8.283440
 11
2.148080
 21
8.268040
  0
LINE
  8
0
 62
     0
  6
CONTINUOUS
 10
2.148080
 20
8.268040
 11
2.147640
 21
8.268040
  0
LINE
  8
0
 62
     0
  6
CONTINUOUS
 10
2.147640
 20
8.268040
 11
2.147640
 21
8.281680
  0
LINE
  8
0
 62
     0
  6
CONTINUOUS
 10
2.147640
 20
8.281680
 11
2.147640
 21
8.277720
  0
LINE
  8
0
 62
     0
  6
CONTINUOUS
 10
2.147640
 20
8.277720
 11
2.147640
 21
8.268040
  0
LINE
  8
0
 62
     0
  6
CONTINUOUS
 10
2.147640
 20
8.268040
 11
2.147640
 21
8.273760
  0
LINE
  8
0
 62
     0
  6
CONTINUOUS
 10
2.147640
 20
8.273760
 11
2.147200
 21
8.269800
  0
LINE
  8
0
 62
     0
  6
CONTINUOUS
 10
2.147200
 20
8.269800
 11
2.147200
 21
8.268040
  0
LINE
  8
0
 62
     0
  6
CONTINUOUS
 10
2.150720
 20
8.268040
 11
2.150720
 21
8.283440
  0
LINE
  8
0
 62
     0
  6
CONTINUOUS
 10
2.254120
 20
8.283440
 11
2.254120
 21
8.298840
  0
LINE
  8
0
 62
     0
  6
CONTINUOUS
 10
2.254120
 20
8.283440
 11
2.038520
 21
8.283440
  0
LINE
  8
0
 62
     0
  6
CONTINUOUS
 10
2.038520
 20
8.283440
 11
2.038520
 21
8.298840
  0
LINE
  8
0
 62
     0
  6
CONTINUOUS
 10
2.150280
 20
8.129440
 11
2.150280
 21
8.089400
  0
LINE
  8
0
 62
     0
  6
CONTINUOUS
 10
2.150280
 20
8.089400
 11
2.150280
 21
8.129440
  0
LINE
  8
0
 62
     0
  6
CONTINUOUS
 10
2.150280
 20
8.129440
 11
2.150280
 21
8.089400
  0
LINE
  8
0
 62
     0
  6
CONTINUOUS
 10
2.150280
 20
8.089400
 11
2.149840
 21
8.089400
  0
LINE
  8
0
 62
     0
  6
CONTINUOUS
 10
2.149840
 20
8.089400
 11
2.149840
 21
8.129440
  0
LINE
  8
0
 62
     0
  6
CONTINUOUS
 10
2.149840
 20
8.129440
 11
2.149840
 21
8.089400
  0
LINE
  8
0
 62
     0
  6
CONTINUOUS
 10
2.149840
 20
8.089400
 11
2.149840
 21
8.129440
  0
LINE
  8
0
 62
     0
  6
CONTINUOUS
 10
2.149840
 20
8.129440
 11
2.149400
 21
8.129440
  0
LINE
  8
0
 62
     0
  6
CONTINUOUS
 10
2.149400
 20
8.129440
 11
2.149400
 21
8.089400
  0
LINE
  8
0
 62
     0
  6
CONTINUOUS
 10
2.149400
 20
8.089400
 11
2.149400
 21
8.129440
  0
LINE
  8
0
 62
     0
  6
CONTINUOUS
 10
2.149400
 20
8.129440
 11
2.149400
 21
8.089400
  0
LINE
  8
0
 62
     0
  6
CONTINUOUS
 10
2.149400
 20
8.089400
 11
2.148960
 21
8.089400
  0
LINE
  8
0
 62
     0
  6
CONTINUOUS
 10
2.148960
 20
8.089400
 11
2.148960
 21
8.129440
  0
LINE
  8
0
 62
     0
  6
CONTINUOUS
 10
2.148960
 20
8.129440
 11
2.148960
 21
8.089400
  0
LINE
  8
0
 62
     0
  6
CONTINUOUS
 10
2.148960
 20
8.089400
 11
2.148960
 21
8.129440
  0
LINE
  8
0
 62
     0
  6
CONTINUOUS
 10
2.148960
 20
8.129440
 11
2.148520
 21
8.129440
  0
LINE
  8
0
 62
     0
  6
CONTINUOUS
 10
2.148520
 20
8.129440
 11
2.148520
 21
8.089400
  0
LINE
  8
0
 62
     0
  6
CONTINUOUS
 10
2.148520
 20
8.089400
 11
2.148520
 21
8.129440
  0
LINE
  8
0
 62
     0
  6
CONTINUOUS
 10
2.148520
 20
8.129440
 11
2.148520
 21
8.089400
  0
LINE
  8
0
 62
     0
  6
CONTINUOUS
 10
2.148520
 20
8.089400
 11
2.148080
 21
8.089400
  0
LINE
  8
0
 62
     0
  6
CONTINUOUS
 10
2.148080
 20
8.089400
 11
2.148080
 21
8.129440
  0
LINE
  8
0
 62
     0
  6
CONTINUOUS
 10
2.148080
 20
8.129440
 11
2.148080
 21
8.089400
  0
LINE
  8
0
 62
     0
  6
CONTINUOUS
 10
2.150720
 20
8.089400
 11
2.150720
 21
8.129440
  0
LINE
  8
0
 62
     0
  6
CONTINUOUS
 10
2.150720
 20
8.129440
 11
2.150280
 21
8.129440
  0
LINE
  8
0
 62
     0
  6
CONTINUOUS
 10
2.150720
 20
8.129440
 11
2.150720
 21
8.089400
  0
LINE
  8
0
 62
     0
  6
CONTINUOUS
 10
2.150720
 20
8.089400
 11
2.150720
 21
8.129440
  0
LINE
  8
0
 62
     0
  6
CONTINUOUS
 10
2.150720
 20
8.129440
 11
2.150720
 21
8.089400
  0
LINE
  8
0
 62
     0
  6
CONTINUOUS
 10
2.151160
 20
8.089400
 11
2.151160
 21
8.129440
  0
LINE
  8
0
 62
     0
  6
CONTINUOUS
 10
2.151160
 20
8.129440
 11
2.150720
 21
8.129440
  0
LINE
  8
0
 62
     0
  6
CONTINUOUS
 10
2.151160
 20
8.129440
 11
2.151160
 21
8.089400
  0
LINE
  8
0
 62
     0
  6
CONTINUOUS
 10
2.151160
 20
8.089400
 11
2.151160
 21
8.129440
  0
LINE
  8
0
 62
     0
  6
CONTINUOUS
 10
2.151600
 20
8.129440
 11
2.151600
 21
8.089400
  0
LINE
  8
0
 62
     0
  6
CONTINUOUS
 10
2.151600
 20
8.089400
 11
2.151160
 21
8.089400
  0
LINE
  8
0
 62
     0
  6
CONTINUOUS
 10
2.151600
 20
8.089400
 11
2.151600
 21
8.129440
  0
LINE
  8
0
 62
     0
  6
CONTINUOUS
 10
2.151600
 20
8.129440
 11
2.151600
 21
8.089400
  0
LINE
  8
0
 62
     0
  6
CONTINUOUS
 10
2.152040
 20
8.089400
 11
2.152040
 21
8.129440
  0
LINE
  8
0
 62
     0
  6
CONTINUOUS
 10
2.152040
 20
8.129440
 11
2.151600
 21
8.129440
  0
LINE
  8
0
 62
     0
  6
CONTINUOUS
 10
2.152040
 20
8.129440
 11
2.152040
 21
8.089400
  0
LINE
  8
0
 62
     0
  6
CONTINUOUS
 10
2.152040
 20
8.089400
 11
2.152040
 21
8.129440
  0
LINE
  8
0
 62
     0
  6
CONTINUOUS
 10
2.152480
 20
8.129440
 11
2.152480
 21
8.089400
  0
LINE
  8
0
 62
     0
  6
CONTINUOUS
 10
2.152480
 20
8.089400
 11
2.152040
 21
8.089400
  0
LINE
  8
0
 62
     0
  6
CONTINUOUS
 10
2.152480
 20
8.089400
 11
2.152480
 21
8.129440
  0
LINE
  8
0
 62
     0
  6
CONTINUOUS
 10
2.152480
 20
8.129440
 11
2.152480
 21
8.089400
  0
LINE
  8
0
 62
     0
  6
CONTINUOUS
 10
2.152920
 20
8.089400
 11
2.152920
 21
8.129440
  0
LINE
  8
0
 62
     0
  6
CONTINUOUS
 10
2.152920
 20
8.129440
 11
2.152480
 21
8.129440
  0
LINE
  8
0
 62
     0
  6
CONTINUOUS
 10
2.152920
 20
8.129440
 11
2.152920
 21
8.089400
  0
LINE
  8
0
 62
     0
  6
CONTINUOUS
 10
2.152920
 20
8.089400
 11
2.152920
 21
8.129440
  0
LINE
  8
0
 62
     0
  6
CONTINUOUS
 10
2.153360
 20
8.129440
 11
2.153360
 21
8.089400
  0
LINE
  8
0
 62
     0
  6
CONTINUOUS
 10
2.153360
 20
8.089400
 11
2.152920
 21
8.089400
  0
LINE
  8
0
 62
     0
  6
CONTINUOUS
 10
2.153360
 20
8.089400
 11
2.153360
 21
8.129440
  0
LINE
  8
0
 62
     0
  6
CONTINUOUS
 10
2.153360
 20
8.129440
 11
2.153360
 21
8.089400
  0
LINE
  8
0
 62
     0
  6
CONTINUOUS
 10
2.153800
 20
8.089400
 11
2.153800
 21
8.129440
  0
LINE
  8
0
 62
     0
  6
CONTINUOUS
 10
2.153800
 20
8.129440
 11
2.153360
 21
8.129440
  0
LINE
  8
0
 62
     0
  6
CONTINUOUS
 10
2.153800
 20
8.129440
 11
2.153800
 21
8.089400
  0
LINE
  8
0
 62
     0
  6
CONTINUOUS
 10
2.153800
 20
8.089400
 11
2.153800
 21
8.129440
  0
LINE
  8
0
 62
     0
  6
CONTINUOUS
 10
2.154240
 20
8.129440
 11
2.154240
 21
8.089400
  0
LINE
  8
0
 62
     0
  6
CONTINUOUS
 10
2.154240
 20
8.089400
 11
2.153800
 21
8.089400
  0
LINE
  8
0
 62
     0
  6
CONTINUOUS
 10
2.154240
 20
8.089400
 11
2.154240
 21
8.129440
  0
LINE
  8
0
 62
     0
  6
CONTINUOUS
 10
2.154240
 20
8.129440
 11
2.154240
 21
8.089400
  0
LINE
  8
0
 62
     0
  6
CONTINUOUS
 10
2.154240
 20
8.089400
 11
2.154240
 21
8.129440
  0
LINE
  8
0
 62
     0
  6
CONTINUOUS
 10
2.154680
 20
8.129440
 11
2.154680
 21
8.089400
  0
LINE
  8
0
 62
     0
  6
CONTINUOUS
 10
2.154680
 20
8.089400
 11
2.154240
 21
8.089400
  0
LINE
  8
0
 62
     0
  6
CONTINUOUS
 10
2.154680
 20
8.089400
 11
2.154680
 21
8.129440
  0
LINE
  8
0
 62
     0
  6
CONTINUOUS
 10
2.154680
 20
8.129440
 11
2.154680
 21
8.089400
  0
LINE
  8
0
 62
     0
  6
CONTINUOUS
 10
2.155120
 20
8.089400
 11
2.155120
 21
8.129440
  0
LINE
  8
0
 62
     0
  6
CONTINUOUS
 10
2.155120
 20
8.129440
 11
2.154680
 21
8.129440
  0
LINE
  8
0
 62
     0
  6
CONTINUOUS
 10
2.155120
 20
8.129440
 11
2.155120
 21
8.089400
  0
LINE
  8
0
 62
     0
  6
CONTINUOUS
 10
2.155120
 20
8.089400
 11
2.155120
 21
8.129440
  0
LINE
  8
0
 62
     0
  6
CONTINUOUS
 10
2.155560
 20
8.129440
 11
2.155560
 21
8.089400
  0
LINE
  8
0
 62
     0
  6
CONTINUOUS
 10
2.155560
 20
8.089400
 11
2.155120
 21
8.089400
  0
LINE
  8
0
 62
     0
  6
CONTINUOUS
 10
2.155560
 20
8.089400
 11
2.155560
 21
8.129440
  0
LINE
  8
0
 62
     0
  6
CONTINUOUS
 10
2.155560
 20
8.129440
 11
2.155560
 21
8.089400
  0
LINE
  8
0
 62
     0
  6
CONTINUOUS
 10
2.156000
 20
8.089400
 11
2.156000
 21
8.129440
  0
LINE
  8
0
 62
     0
  6
CONTINUOUS
 10
2.156000
 20
8.129440
 11
2.155560
 21
8.129440
  0
LINE
  8
0
 62
     0
  6
CONTINUOUS
 10
2.156000
 20
8.129440
 11
2.156000
 21
8.089400
  0
LINE
  8
0
 62
     0
  6
CONTINUOUS
 10
2.156000
 20
8.089400
 11
2.156000
 21
8.129440
  0
LINE
  8
0
 62
     0
  6
CONTINUOUS
 10
2.156440
 20
8.129440
 11
2.156440
 21
8.089400
  0
LINE
  8
0
 62
     0
  6
CONTINUOUS
 10
2.156440
 20
8.089400
 11
2.156000
 21
8.089400
  0
LINE
  8
0
 62
     0
  6
CONTINUOUS
 10
2.156440
 20
8.089400
 11
2.156440
 21
8.129440
  0
LINE
  8
0
 62
     0
  6
CONTINUOUS
 10
2.156440
 20
8.129440
 11
2.156440
 21
8.089400
  0
LINE
  8
0
 62
     0
  6
CONTINUOUS
 10
2.156880
 20
8.089400
 11
2.156880
 21
8.129440
  0
LINE
  8
0
 62
     0
  6
CONTINUOUS
 10
2.156880
 20
8.129440
 11
2.156440
 21
8.129440
  0
LINE
  8
0
 62
     0
  6
CONTINUOUS
 10
2.156880
 20
8.129440
 11
2.156880
 21
8.089400
  0
LINE
  8
0
 62
     0
  6
CONTINUOUS
 10
2.156880
 20
8.089400
 11
2.156880
 21
8.129440
  0
LINE
  8
0
 62
     0
  6
CONTINUOUS
 10
2.157320
 20
8.129440
 11
2.157320
 21
8.089400
  0
LINE
  8
0
 62
     0
  6
CONTINUOUS
 10
2.157320
 20
8.089400
 11
2.148080
 21
8.089400
  0
LINE
  8
0
 62
     0
  6
CONTINUOUS
 10
2.148080
 20
8.089400
 11
2.148080
 21
8.129440
  0
LINE
  8
0
 62
     0
  6
CONTINUOUS
 10
2.148080
 20
8.129440
 11
2.157320
 21
8.129440
  0
LINE
  8
0
 62
     0
  6
CONTINUOUS
 10
2.157320
 20
8.129440
 11
2.157320
 21
8.089400
  0
LINE
  8
0
 62
     0
  6
CONTINUOUS
 10
2.157320
 20
8.089400
 11
2.156880
 21
8.089400
  0
LINE
  8
0
 62
     0
  6
CONTINUOUS
 10
2.157320
 20
8.089400
 11
2.157320
 21
8.109200
  0
LINE
  8
0
 62
     0
  6
CONTINUOUS
 10
2.157320
 20
8.109200
 11
2.157320
 21
8.129440
  0
LINE
  8
0
 62
     0
  6
CONTINUOUS
 10
2.148080
 20
8.129440
 11
2.148080
 21
8.109200
  0
LINE
  8
0
 62
     0
  6
CONTINUOUS
 10
2.129600
 20
7.972360
 11
2.129600
 21
7.966200
  0
LINE
  8
0
 62
     0
  6
CONTINUOUS
 10
2.129600
 20
7.966200
 11
2.175800
 21
7.966200
  0
LINE
  8
0
 62
     0
  6
CONTINUOUS
 10
2.175800
 20
7.966200
 11
2.175800
 21
7.972360
  0
LINE
  8
0
 62
     0
  6
CONTINUOUS
 10
2.255000
 20
8.296200
 11
2.254560
 21
8.296200
  0
LINE
  8
0
 62
     0
  6
CONTINUOUS
 10
2.052160
 20
8.283440
 11
2.067560
 21
8.298840
  0
LINE
  8
0
 62
     0
  6
CONTINUOUS
 10
2.072840
 20
8.298840
 11
2.057440
 21
8.283440
  0
LINE
  8
0
 62
     0
  6
CONTINUOUS
 10
2.062720
 20
8.283440
 11
2.078560
 21
8.298840
  0
LINE
  8
0
 62
     0
  6
CONTINUOUS
 10
2.083840
 20
8.298840
 11
2.068440
 21
8.283440
  0
LINE
  8
0
 62
     0
  6
CONTINUOUS
 10
2.084720
 20
8.283440
 11
2.100120
 21
8.298840
  0
LINE
  8
0
 62
     0
  6
CONTINUOUS
 10
2.105840
 20
8.298840
 11
2.090440
 21
8.283440
  0
LINE
  8
0
 62
     0
  6
CONTINUOUS
 10
2.095720
 20
8.283440
 11
2.111120
 21
8.298840
  0
LINE
  8
0
 62
     0
  6
CONTINUOUS
 10
2.116400
 20
8.298840
 11
2.101000
 21
8.283440
  0
LINE
  8
0
 62
     0
  6
CONTINUOUS
 10
2.117280
 20
8.283440
 11
2.133120
 21
8.298840
  0
LINE
  8
0
 62
     0
  6
CONTINUOUS
 10
2.138400
 20
8.298840
 11
2.123000
 21
8.283440
  0
LINE
  8
0
 62
     0
  6
CONTINUOUS
 10
2.128280
 20
8.283440
 11
2.143680
 21
8.298840
  0
LINE
  8
0
 62
     0
  6
CONTINUOUS
 10
2.149400
 20
8.298840
 11
2.134000
 21
8.283440
  0
LINE
  8
0
 62
     0
  6
CONTINUOUS
 10
2.150280
 20
8.283440
 11
2.165680
 21
8.298840
  0
LINE
  8
0
 62
     0
  6
CONTINUOUS
 10
2.170960
 20
8.298840
 11
2.155560
 21
8.283440
  0
LINE
  8
0
 62
     0
  6
CONTINUOUS
 10
2.161280
 20
8.283440
 11
2.176680
 21
8.298840
  0
LINE
  8
0
 62
     0
  6
CONTINUOUS
 10
2.181960
 20
8.298840
 11
2.166560
 21
8.283440
  0
LINE
  8
0
 62
     0
  6
CONTINUOUS
 10
2.178440
 20
8.283440
 11
2.178440
 21
8.255720
  0
LINE
  8
0
 62
     0
  6
CONTINUOUS
 10
2.178440
 20
8.255720
 11
2.178440
 21
8.248680
  0
LINE
  8
0
 62
     0
  6
CONTINUOUS
 10
2.178440
 20
8.248680
 11
2.178440
 21
8.279920
  0
LINE
  8
0
 62
     0
  6
CONTINUOUS
 10
2.178440
 20
8.279920
 11
2.178000
 21
8.272880
  0
LINE
  8
0
 62
     0
  6
CONTINUOUS
 10
2.178000
 20
8.272880
 11
2.178000
 21
8.241640
  0
LINE
  8
0
 62
     0
  6
CONTINUOUS
 10
2.178000
 20
8.241640
 11
2.178000
 21
8.234600
  0
LINE
  8
0
 62
     0
  6
CONTINUOUS
 10
2.178000
 20
8.234600
 11
2.178000
 21
8.266280
  0
LINE
  8
0
 62
     0
  6
CONTINUOUS
 10
2.178000
 20
8.266280
 11
2.178000
 21
8.259240
  0
LINE
  8
0
 62
     0
  6
CONTINUOUS
 10
2.178000
 20
8.259240
 11
2.178000
 21
8.227560
  0
LINE
  8
0
 62
     0
  6
CONTINUOUS
 10
2.178000
 20
8.227560
 11
2.177560
 21
8.220520
  0
LINE
  8
0
 62
     0
  6
CONTINUOUS
 10
2.177560
 20
8.220520
 11
2.177560
 21
8.252200
  0
LINE
  8
0
 62
     0
  6
CONTINUOUS
 10
2.177560
 20
8.252200
 11
2.177560
 21
8.245160
  0
LINE
  8
0
 62
     0
  6
CONTINUOUS
 10
2.177560
 20
8.245160
 11
2.177560
 21
8.213480
  0
LINE
  8
0
 62
     0
  6
CONTINUOUS
 10
2.177560
 20
8.213480
 11
2.177560
 21
8.206440
  0
LINE
  8
0
 62
     0
  6
CONTINUOUS
 10
2.177560
 20
8.206440
 11
2.177560
 21
8.238120
  0
LINE
  8
0
 62
     0
  6
CONTINUOUS
 10
2.177560
 20
8.238120
 11
2.177120
 21
8.231080
  0
LINE
  8
0
 62
     0
  6
CONTINUOUS
 10
2.177120
 20
8.231080
 11
2.177120
 21
8.199840
  0
LINE
  8
0
 62
     0
  6
CONTINUOUS
 10
2.177120
 20
8.199840
 11
2.177120
 21
8.192800
  0
LINE
  8
0
 62
     0
  6
CONTINUOUS
 10
2.177120
 20
8.192800
 11
2.177120
 21
8.224040
  0
LINE
  8
0
 62
     0
  6
CONTINUOUS
 10
2.177120
 20
8.224040
 11
2.177120
 21
8.217000
  0
LINE
  8
0
 62
     0
  6
CONTINUOUS
 10
2.177120
 20
8.217000
 11
2.177120
 21
8.185760
  0
LINE
  8
0
 62
     0
  6
CONTINUOUS
 10
2.177120
 20
8.185760
 11
2.177120
 21
8.178720
  0
LINE
  8
0
 62
     0
  6
CONTINUOUS
 10
2.177120
 20
8.178720
 11
2.177120
 21
8.209960
  0
LINE
  8
0
 62
     0
  6
CONTINUOUS
 10
2.177120
 20
8.209960
 11
2.176680
 21
8.203360
  0
LINE
  8
0
 62
     0
  6
CONTINUOUS
 10
2.176680
 20
8.203360
 11
2.176680
 21
8.171680
  0
LINE
  8
0
 62
     0
  6
CONTINUOUS
 10
2.176680
 20
8.171680
 11
2.176680
 21
8.164640
  0
LINE
  8
0
 62
     0
  6
CONTINUOUS
 10
2.176680
 20
8.164640
 11
2.176680
 21
8.196320
  0
LINE
  8
0
 62
     0
  6
CONTINUOUS
 10
2.176680
 20
8.196320
 11
2.176680
 21
8.189280
  0
LINE
  8
0
 62
     0
  6
CONTINUOUS
 10
2.176680
 20
8.189280
 11
2.176680
 21
8.157600
  0
LINE
  8
0
 62
     0
  6
CONTINUOUS
 10
2.176680
 20
8.157600
 11
2.176240
 21
8.150560
  0
LINE
  8
0
 62
     0
  6
CONTINUOUS
 10
2.176240
 20
8.150560
 11
2.176240
 21
8.182240
  0
LINE
  8
0
 62
     0
  6
CONTINUOUS
 10
2.176240
 20
8.182240
 11
2.176240
 21
8.175200
  0
LINE
  8
0
 62
     0
  6
CONTINUOUS
 10
2.176240
 20
8.175200
 11
2.176240
 21
8.143520
  0
LINE
  8
0
 62
     0
  6
CONTINUOUS
 10
2.176240
 20
8.143520
 11
2.176240
 21
8.136480
  0
LINE
  8
0
 62
     0
  6
CONTINUOUS
 10
2.176240
 20
8.136480
 11
2.176240
 21
8.168160
  0
LINE
  8
0
 62
     0
  6
CONTINUOUS
 10
2.176240
 20
8.168160
 11
2.175800
 21
8.161120
  0
LINE
  8
0
 62
     0
  6
CONTINUOUS
 10
2.175800
 20
8.161120
 11
2.175800
 21
8.129440
  0
LINE
  8
0
 62
     0
  6
CONTINUOUS
 10
2.175800
 20
8.129440
 11
2.175800
 21
8.154080
  0
LINE
  8
0
 62
     0
  6
CONTINUOUS
 10
2.175800
 20
8.154080
 11
2.175800
 21
8.147040
  0
LINE
  8
0
 62
     0
  6
CONTINUOUS
 10
2.175800
 20
8.147040
 11
2.175800
 21
8.129440
  0
LINE
  8
0
 62
     0
  6
CONTINUOUS
 10
2.175800
 20
8.129440
 11
2.175360
 21
8.129440
  0
LINE
  8
0
 62
     0
  6
CONTINUOUS
 10
2.175360
 20
8.129440
 11
2.175360
 21
8.140000
  0
LINE
  8
0
 62
     0
  6
CONTINUOUS
 10
2.175360
 20
8.140000
 11
2.175360
 21
8.132960
  0
LINE
  8
0
 62
     0
  6
CONTINUOUS
 10
2.175360
 20
8.132960
 11
2.175360
 21
8.129440
  0
LINE
  8
0
 62
     0
  6
CONTINUOUS
 10
2.175360
 20
8.129440
 11
2.178440
 21
8.283440
  0
LINE
  8
0
 62
     0
  6
CONTINUOUS
 10
2.178440
 20
8.283440
 11
2.178880
 21
8.283440
  0
LINE
  8
0
 62
     0
  6
CONTINUOUS
 10
2.178880
 20
8.283440
 11
2.175800
 21
8.129440
  0
LINE
  8
0
 62
     0
  6
CONTINUOUS
 10
2.175800
 20
8.129440
 11
2.175360
 21
8.129440
  0
LINE
  8
0
 62
     0
  6
CONTINUOUS
 10
2.160400
 20
8.129440
 11
2.160400
 21
8.136480
  0
LINE
  8
0
 62
     0
  6
CONTINUOUS
 10
2.160400
 20
8.136480
 11
2.160400
 21
8.143520
  0
LINE
  8
0
 62
     0
  6
CONTINUOUS
 10
2.160400
 20
8.143520
 11
2.160400
 21
8.129440
  0
LINE
  8
0
 62
     0
  6
CONTINUOUS
 10
2.160400
 20
8.129440
 11
2.159960
 21
8.129440
  0
LINE
  8
0
 62
     0
  6
CONTINUOUS
 10
2.159960
 20
8.129440
 11
2.159960
 21
8.150560
  0
LINE
  8
0
 62
     0
  6
CONTINUOUS
 10
2.159960
 20
8.150560
 11
2.159960
 21
8.157600
  0
LINE
  8
0
 62
     0
  6
CONTINUOUS
 10
2.159960
 20
8.157600
 11
2.159960
 21
8.129440
  0
LINE
  8
0
 62
     0
  6
CONTINUOUS
 10
2.159960
 20
8.132960
 11
2.159960
 21
8.164640
  0
LINE
  8
0
 62
     0
  6
CONTINUOUS
 10
2.159960
 20
8.164640
 11
2.159520
 21
8.171680
  0
LINE
  8
0
 62
     0
  6
CONTINUOUS
 10
2.159520
 20
8.171680
 11
2.159520
 21
8.140440
  0
LINE
  8
0
 62
     0
  6
CONTINUOUS
 10
2.159520
 20
8.140440
 11
2.159520
 21
8.147480
  0
LINE
  8
0
 62
     0
  6
CONTINUOUS
 10
2.159520
 20
8.147480
 11
2.159520
 21
8.178720
  0
LINE
  8
0
 62
     0
  6
CONTINUOUS
 10
2.159520
 20
8.178720
 11
2.159520
 21
8.185760
  0
LINE
  8
0
 62
     0
  6
CONTINUOUS
 10
2.159520
 20
8.185760
 11
2.159520
 21
8.154520
  0
LINE
  8
0
 62
     0
  6
CONTINUOUS
 10
2.159520
 20
8.154520
 11
2.159080
 21
8.162000
  0
LINE
  8
0
 62
     0
  6
CONTINUOUS
 10
2.159080
 20
8.162000
 11
2.159080
 21
8.192800
  0
LINE
  8
0
 62
     0
  6
CONTINUOUS
 10
2.159080
 20
8.192800
 11
2.159080
 21
8.199840
  0
LINE
  8
0
 62
     0
  6
CONTINUOUS
 10
2.159080
 20
8.199840
 11
2.159080
 21
8.169040
  0
LINE
  8
0
 62
     0
  6
CONTINUOUS
 10
2.159080
 20
8.169040
 11
2.159080
 21
8.176080
  0
LINE
  8
0
 62
     0
  6
CONTINUOUS
 10
2.159080
 20
8.176080
 11
2.159080
 21
8.206880
  0
LINE
  8
0
 62
     0
  6
CONTINUOUS
 10
2.159080
 20
8.206880
 11
2.158640
 21
8.213480
  0
LINE
  8
0
 62
     0
  6
CONTINUOUS
 10
2.158640
 20
8.213480
 11
2.158640
 21
8.183120
  0
LINE
  8
0
 62
     0
  6
CONTINUOUS
 10
2.158640
 20
8.183120
 11
2.158640
 21
8.190600
  0
LINE
  8
0
 62
     0
  6
CONTINUOUS
 10
2.158640
 20
8.190600
 11
2.158640
 21
8.220520
  0
LINE
  8
0
 62
     0
  6
CONTINUOUS
 10
2.158640
 20
8.220520
 11
2.158640
 21
8.227560
  0
LINE
  8
0
 62
     0
  6
CONTINUOUS
 10
2.158640
 20
8.227560
 11
2.158640
 21
8.197640
  0
LINE
  8
0
 62
     0
  6
CONTINUOUS
 10
2.158640
 20
8.197640
 11
2.158200
 21
8.204680
  0
LINE
  8
0
 62
     0
  6
CONTINUOUS
 10
2.158200
 20
8.204680
 11
2.158200
 21
8.234600
  0
LINE
  8
0
 62
     0
  6
CONTINUOUS
 10
2.158200
 20
8.234600
 11
2.158200
 21
8.241640
  0
LINE
  8
0
 62
     0
  6
CONTINUOUS
 10
2.158200
 20
8.241640
 11
2.158200
 21
8.212160
  0
LINE
  8
0
 62
     0
  6
CONTINUOUS
 10
2.158200
 20
8.212160
 11
2.158200
 21
8.219200
  0
LINE
  8
0
 62
     0
  6
CONTINUOUS
 10
2.158200
 20
8.219200
 11
2.158200
 21
8.248680
  0
LINE
  8
0
 62
     0
  6
CONTINUOUS
 10
2.158200
 20
8.248680
 11
2.157760
 21
8.255720
  0
LINE
  8
0
 62
     0
  6
CONTINUOUS
 10
2.157760
 20
8.255720
 11
2.157760
 21
8.226240
  0
LINE
  8
0
 62
     0
  6
CONTINUOUS
 10
2.157760
 20
8.226240
 11
2.157760
 21
8.233720
  0
LINE
  8
0
 62
     0
  6
CONTINUOUS
 10
2.157760
 20
8.233720
 11
2.157760
 21
8.262760
  0
LINE
  8
0
 62
     0
  6
CONTINUOUS
 10
2.157760
 20
8.262760
 11
2.157760
 21
8.269800
  0
LINE
  8
0
 62
     0
  6
CONTINUOUS
 10
2.157760
 20
8.269800
 11
2.157760
 21
8.240760
  0
LINE
  8
0
 62
     0
  6
CONTINUOUS
 10
2.157760
 20
8.240760
 11
2.157760
 21
8.247800
  0
LINE
  8
0
 62
     0
  6
CONTINUOUS
 10
2.157760
 20
8.247800
 11
2.157760
 21
8.276400
  0
LINE
  8
0
 62
     0
  6
CONTINUOUS
 10
2.157760
 20
8.276400
 11
2.157320
 21
8.283440
  0
LINE
  8
0
 62
     0
  6
CONTINUOUS
 10
2.157320
 20
8.283440
 11
2.157320
 21
8.254840
  0
LINE
  8
0
 62
     0
  6
CONTINUOUS
 10
2.157320
 20
8.254840
 11
2.157320
 21
8.262320
  0
LINE
  8
0
 62
     0
  6
CONTINUOUS
 10
2.157320
 20
8.262320
 11
2.157320
 21
8.283440
  0
LINE
  8
0
 62
     0
  6
CONTINUOUS
 10
2.157320
 20
8.283440
 11
2.157320
 21
8.269360
  0
LINE
  8
0
 62
     0
  6
CONTINUOUS
 10
2.157320
 20
8.269360
 11
2.156880
 21
8.276400
  0
LINE
  8
0
 62
     0
  6
CONTINUOUS
 10
2.156880
 20
8.276400
 11
2.156880
 21
8.283440
  0
LINE
  8
0
 62
     0
  6
CONTINUOUS
 10
2.156880
 20
8.283440
 11
2.157320
 21
8.283440
  0
LINE
  8
0
 62
     0
  6
CONTINUOUS
 10
2.157320
 20
8.283440
 11
2.160400
 21
8.129440
  0
LINE
  8
0
 62
     0
  6
CONTINUOUS
 10
2.160400
 20
8.129440
 11
2.159960
 21
8.129440
  0
LINE
  8
0
 62
     0
  6
CONTINUOUS
 10
2.159960
 20
8.129440
 11
2.156880
 21
8.283440
  0
LINE
  8
0
 62
     0
  6
CONTINUOUS
 10
2.148080
 20
8.283440
 11
2.148080
 21
8.269800
  0
LINE
  8
0
 62
     0
  6
CONTINUOUS
 10
2.148080
 20
8.269800
 11
2.147640
 21
8.262760
  0
LINE
  8
0
 62
     0
  6
CONTINUOUS
 10
2.147640
 20
8.262760
 11
2.147640
 21
8.283440
  0
LINE
  8
0
 62
     0
  6
CONTINUOUS
 10
2.147640
 20
8.283440
 11
2.147640
 21
8.255720
  0
LINE
  8
0
 62
     0
  6
CONTINUOUS
 10
2.147640
 20
8.255720
 11
2.147640
 21
8.248680
  0
LINE
  8
0
 62
     0
  6
CONTINUOUS
 10
2.147640
 20
8.248680
 11
2.147640
 21
8.279920
  0
LINE
  8
0
 62
     0
  6
CONTINUOUS
 10
2.147640
 20
8.279920
 11
2.147200
 21
8.272880
  0
LINE
  8
0
 62
     0
  6
CONTINUOUS
 10
2.147200
 20
8.272880
 11
2.147200
 21
8.241640
  0
LINE
  8
0
 62
     0
  6
CONTINUOUS
 10
2.147200
 20
8.241640
 11
2.147200
 21
8.234600
  0
LINE
  8
0
 62
     0
  6
CONTINUOUS
 10
2.147200
 20
8.234600
 11
2.147200
 21
8.266280
  0
LINE
  8
0
 62
     0
  6
CONTINUOUS
 10
2.147200
 20
8.266280
 11
2.147200
 21
8.259240
  0
LINE
  8
0
 62
     0
  6
CONTINUOUS
 10
2.147200
 20
8.259240
 11
2.147200
 21
8.227560
  0
LINE
  8
0
 62
     0
  6
CONTINUOUS
 10
2.147200
 20
8.227560
 11
2.146760
 21
8.220520
  0
LINE
  8
0
 62
     0
  6
CONTINUOUS
 10
2.146760
 20
8.220520
 11
2.146760
 21
8.252200
  0
LINE
  8
0
 62
     0
  6
CONTINUOUS
 10
2.146760
 20
8.252200
 11
2.146760
 21
8.245160
  0
LINE
  8
0
 62
     0
  6
CONTINUOUS
 10
2.146760
 20
8.245160
 11
2.146760
 21
8.213480
  0
LINE
  8
0
 62
     0
  6
CONTINUOUS
 10
2.146760
 20
8.213480
 11
2.146760
 21
8.206440
  0
LINE
  8
0
 62
     0
  6
CONTINUOUS
 10
2.146760
 20
8.206440
 11
2.146760
 21
8.238120
  0
LINE
  8
0
 62
     0
  6
CONTINUOUS
 10
2.146760
 20
8.238120
 11
2.146320
 21
8.231080
  0
LINE
  8
0
 62
     0
  6
CONTINUOUS
 10
2.146320
 20
8.231080
 11
2.146320
 21
8.199840
  0
LINE
  8
0
 62
     0
  6
CONTINUOUS
 10
2.146320
 20
8.199840
 11
2.146320
 21
8.192800
  0
LINE
  8
0
 62
     0
  6
CONTINUOUS
 10
2.146320
 20
8.192800
 11
2.146320
 21
8.224040
  0
LINE
  8
0
 62
     0
  6
CONTINUOUS
 10
2.146320
 20
8.224040
 11
2.146320
 21
8.217000
  0
LINE
  8
0
 62
     0
  6
CONTINUOUS
 10
2.146320
 20
8.217000
 11
2.146320
 21
8.185760
  0
LINE
  8
0
 62
     0
  6
CONTINUOUS
 10
2.146320
 20
8.185760
 11
2.145880
 21
8.178720
  0
LINE
  8
0
 62
     0
  6
CONTINUOUS
 10
2.145880
 20
8.178720
 11
2.145880
 21
8.209960
  0
LINE
  8
0
 62
     0
  6
CONTINUOUS
 10
2.145880
 20
8.209960
 11
2.145880
 21
8.203360
  0
LINE
  8
0
 62
     0
  6
CONTINUOUS
 10
2.145880
 20
8.203360
 11
2.145880
 21
8.171680
  0
LINE
  8
0
 62
     0
  6
CONTINUOUS
 10
2.145880
 20
8.171680
 11
2.145880
 21
8.164640
  0
LINE
  8
0
 62
     0
  6
CONTINUOUS
 10
2.145880
 20
8.164640
 11
2.145880
 21
8.196320
  0
LINE
  8
0
 62
     0
  6
CONTINUOUS
 10
2.145880
 20
8.196320
 11
2.145440
 21
8.189280
  0
LINE
  8
0
 62
     0
  6
CONTINUOUS
 10
2.145440
 20
8.189280
 11
2.145440
 21
8.157600
  0
LINE
  8
0
 62
     0
  6
CONTINUOUS
 10
2.145440
 20
8.157600
 11
2.145440
 21
8.150560
  0
LINE
  8
0
 62
     0
  6
CONTINUOUS
 10
2.145440
 20
8.150560
 11
2.145440
 21
8.182240
  0
LINE
  8
0
 62
     0
  6
CONTINUOUS
 10
2.145440
 20
8.182240
 11
2.145440
 21
8.175200
  0
LINE
  8
0
 62
     0
  6
CONTINUOUS
 10
2.145440
 20
8.175200
 11
2.145440
 21
8.143520
  0
LINE
  8
0
 62
     0
  6
CONTINUOUS
 10
2.145440
 20
8.143520
 11
2.145440
 21
8.136480
  0
LINE
  8
0
 62
     0
  6
CONTINUOUS
 10
2.145440
 20
8.136480
 11
2.145440
 21
8.168160
  0
LINE
  8
0
 62
     0
  6
CONTINUOUS
 10
2.145440
 20
8.168160
 11
2.145000
 21
8.161120
  0
LINE
  8
0
 62
     0
  6
CONTINUOUS
 10
2.145000
 20
8.161120
 11
2.145000
 21
8.129440
  0
LINE
  8
0
 62
     0
  6
CONTINUOUS
 10
2.145000
 20
8.129440
 11
2.145000
 21
8.154080
  0
LINE
  8
0
 62
     0
  6
CONTINUOUS
 10
2.145000
 20
8.154080
 11
2.145000
 21
8.147040
  0
LINE
  8
0
 62
     0
  6
CONTINUOUS
 10
2.145000
 20
8.147040
 11
2.145000
 21
8.129440
  0
LINE
  8
0
 62
     0
  6
CONTINUOUS
 10
2.145000
 20
8.129440
 11
2.144560
 21
8.129440
  0
LINE
  8
0
 62
     0
  6
CONTINUOUS
 10
2.144560
 20
8.129440
 11
2.144560
 21
8.140000
  0
LINE
  8
0
 62
     0
  6
CONTINUOUS
 10
2.144560
 20
8.140000
 11
2.144560
 21
8.132960
  0
LINE
  8
0
 62
     0
  6
CONTINUOUS
 10
2.144560
 20
8.132960
 11
2.144560
 21
8.129440
  0
LINE
  8
0
 62
     0
  6
CONTINUOUS
 10
2.144560
 20
8.129440
 11
2.147640
 21
8.283440
  0
LINE
  8
0
 62
     0
  6
CONTINUOUS
 10
2.147640
 20
8.283440
 11
2.148080
 21
8.283440
  0
LINE
  8
0
 62
     0
  6
CONTINUOUS
 10
2.148080
 20
8.283440
 11
2.145000
 21
8.129440
  0
LINE
  8
0
 62
     0
  6
CONTINUOUS
 10
2.145000
 20
8.129440
 11
2.144560
 21
8.129440
  0
LINE
  8
0
 62
     0
  6
CONTINUOUS
 10
2.129600
 20
8.129440
 11
2.129600
 21
8.136480
  0
LINE
  8
0
 62
     0
  6
CONTINUOUS
 10
2.129600
 20
8.136480
 11
2.129600
 21
8.143520
  0
LINE
  8
0
 62
     0
  6
CONTINUOUS
 10
2.129600
 20
8.143520
 11
2.129600
 21
8.129440
  0
LINE
  8
0
 62
     0
  6
CONTINUOUS
 10
2.129600
 20
8.129440
 11
2.129160
 21
8.129440
  0
LINE
  8
0
 62
     0
  6
CONTINUOUS
 10
2.129160
 20
8.129440
 11
2.129160
 21
8.150560
  0
LINE
  8
0
 62
     0
  6
CONTINUOUS
 10
2.129160
 20
8.150560
 11
2.129160
 21
8.157600
  0
LINE
  8
0
 62
     0
  6
CONTINUOUS
 10
2.129160
 20
8.157600
 11
2.129160
 21
8.129440
  0
LINE
  8
0
 62
     0
  6
CONTINUOUS
 10
2.129160
 20
8.132960
 11
2.129160
 21
8.164640
  0
LINE
  8
0
 62
     0
  6
CONTINUOUS
 10
2.129160
 20
8.164640
 11
2.128720
 21
8.171680
  0
LINE
  8
0
 62
     0
  6
CONTINUOUS
 10
2.128720
 20
8.171680
 11
2.128720
 21
8.140440
  0
LINE
  8
0
 62
     0
  6
CONTINUOUS
 10
2.128720
 20
8.140440
 11
2.128720
 21
8.147480
  0
LINE
  8
0
 62
     0
  6
CONTINUOUS
 10
2.128720
 20
8.147480
 11
2.128720
 21
8.178720
  0
LINE
  8
0
 62
     0
  6
CONTINUOUS
 10
2.128720
 20
8.178720
 11
2.128720
 21
8.185760
  0
LINE
  8
0
 62
     0
  6
CONTINUOUS
 10
2.128720
 20
8.185760
 11
2.128720
 21
8.154520
  0
LINE
  8
0
 62
     0
  6
CONTINUOUS
 10
2.128720
 20
8.154520
 11
2.128280
 21
8.162000
  0
LINE
  8
0
 62
     0
  6
CONTINUOUS
 10
2.128280
 20
8.162000
 11
2.128280
 21
8.192800
  0
LINE
  8
0
 62
     0
  6
CONTINUOUS
 10
2.128280
 20
8.192800
 11
2.128280
 21
8.199840
  0
LINE
  8
0
 62
     0
  6
CONTINUOUS
 10
2.128280
 20
8.199840
 11
2.128280
 21
8.169040
  0
LINE
  8
0
 62
     0
  6
CONTINUOUS
 10
2.128280
 20
8.169040
 11
2.128280
 21
8.176080
  0
LINE
  8
0
 62
     0
  6
CONTINUOUS
 10
2.128280
 20
8.176080
 11
2.128280
 21
8.206880
  0
LINE
  8
0
 62
     0
  6
CONTINUOUS
 10
2.128280
 20
8.206880
 11
2.127840
 21
8.213480
  0
LINE
  8
0
 62
     0
  6
CONTINUOUS
 10
2.127840
 20
8.213480
 11
2.127840
 21
8.183120
  0
LINE
  8
0
 62
     0
  6
CONTINUOUS
 10
2.127840
 20
8.183120
 11
2.127840
 21
8.190600
  0
LINE
  8
0
 62
     0
  6
CONTINUOUS
 10
2.127840
 20
8.190600
 11
2.127840
 21
8.220520
  0
LINE
  8
0
 62
     0
  6
CONTINUOUS
 10
2.127840
 20
8.220520
 11
2.127840
 21
8.227560
  0
LINE
  8
0
 62
     0
  6
CONTINUOUS
 10
2.127840
 20
8.227560
 11
2.127840
 21
8.197640
  0
LINE
  8
0
 62
     0
  6
CONTINUOUS
 10
2.127840
 20
8.197640
 11
2.127400
 21
8.204680
  0
LINE
  8
0
 62
     0
  6
CONTINUOUS
 10
2.127400
 20
8.204680
 11
2.127400
 21
8.234600
  0
LINE
  8
0
 62
     0
  6
CONTINUOUS
 10
2.127400
 20
8.234600
 11
2.127400
 21
8.241640
  0
LINE
  8
0
 62
     0
  6
CONTINUOUS
 10
2.127400
 20
8.241640
 11
2.127400
 21
8.212160
  0
LINE
  8
0
 62
     0
  6
CONTINUOUS
 10
2.127400
 20
8.212160
 11
2.127400
 21
8.219200
  0
LINE
  8
0
 62
     0
  6
CONTINUOUS
 10
2.127400
 20
8.219200
 11
2.127400
 21
8.248680
  0
LINE
  8
0
 62
     0
  6
CONTINUOUS
 10
2.127400
 20
8.248680
 11
2.126960
 21
8.255720
  0
LINE
  8
0
 62
     0
  6
CONTINUOUS
 10
2.126960
 20
8.255720
 11
2.126960
 21
8.226240
  0
LINE
  8
0
 62
     0
  6
CONTINUOUS
 10
2.126960
 20
8.226240
 11
2.126960
 21
8.233720
  0
LINE
  8
0
 62
     0
  6
CONTINUOUS
 10
2.126960
 20
8.233720
 11
2.126960
 21
8.262760
  0
LINE
  8
0
 62
     0
  6
CONTINUOUS
 10
2.126960
 20
8.262760
 11
2.126960
 21
8.269800
  0
LINE
  8
0
 62
     0
  6
CONTINUOUS
 10
2.126960
 20
8.269800
 11
2.126960
 21
8.240760
  0
LINE
  8
0
 62
     0
  6
CONTINUOUS
 10
2.126960
 20
8.240760
 11
2.126520
 21
8.247800
  0
LINE
  8
0
 62
     0
  6
CONTINUOUS
 10
2.126520
 20
8.247800
 11
2.126520
 21
8.276400
  0
LINE
  8
0
 62
     0
  6
CONTINUOUS
 10
2.126520
 20
8.276400
 11
2.126520
 21
8.283440
  0
LINE
  8
0
 62
     0
  6
CONTINUOUS
 10
2.126520
 20
8.283440
 11
2.126520
 21
8.254840
  0
LINE
  8
0
 62
     0
  6
CONTINUOUS
 10
2.126520
 20
8.254840
 11
2.126520
 21
8.262320
  0
LINE
  8
0
 62
     0
  6
CONTINUOUS
 10
2.126520
 20
8.262320
 11
2.126520
 21
8.283440
  0
LINE
  8
0
 62
     0
  6
CONTINUOUS
 10
2.126520
 20
8.283440
 11
2.126080
 21
8.283440
  0
LINE
  8
0
 62
     0
  6
CONTINUOUS
 10
2.126080
 20
8.283440
 11
2.126080
 21
8.269360
  0
LINE
  8
0
 62
     0
  6
CONTINUOUS
 10
2.126080
 20
8.269360
 11
2.126080
 21
8.276400
  0
LINE
  8
0
 62
     0
  6
CONTINUOUS
 10
2.126080
 20
8.276400
 11
2.126080
 21
8.283440
  0
LINE
  8
0
 62
     0
  6
CONTINUOUS
 10
2.126080
 20
8.283440
 11
2.126520
 21
8.283440
  0
LINE
  8
0
 62
     0
  6
CONTINUOUS
 10
2.126520
 20
8.283440
 11
2.129600
 21
8.129440
  0
LINE
  8
0
 62
     0
  6
CONTINUOUS
 10
2.129600
 20
8.129440
 11
2.129160
 21
8.129440
  0
LINE
  8
0
 62
     0
  6
CONTINUOUS
 10
2.129160
 20
8.129440
 11
2.126080
 21
8.283440
  0
LINE
  8
0
 62
     0
  6
CONTINUOUS
 10
2.148080
 20
8.283440
 11
2.148080
 21
8.276400
  0
LINE
  8
0
 62
     0
  6
CONTINUOUS
 10
2.178880
 20
8.276400
 11
2.178880
 21
8.283440
  0
LINE
  8
0
 62
     0
  6
CONTINUOUS
 10
2.178880
 20
8.283440
 11
2.178880
 21
8.269800
  0
LINE
  8
0
 62
     0
  6
CONTINUOUS
 10
2.178880
 20
8.269800
 11
2.178440
 21
8.262760
  0
LINE
  8
0
 62
     0
  6
CONTINUOUS
 10
2.178440
 20
8.262760
 11
2.178440
 21
8.283440
  0
LINE
  8
0
 62
     0
  6
CONTINUOUS
 10
2.182840
 20
8.283440
 11
2.198240
 21
8.298840
  0
LINE
  8
0
 62
     0
  6
CONTINUOUS
 10
2.203520
 20
8.298840
 11
2.188120
 21
8.283440
  0
LINE
  8
0
 62
     0
  6
CONTINUOUS
 10
2.193840
 20
8.283440
 11
2.209240
 21
8.298840
  0
LINE
  8
0
 62
     0
  6
CONTINUOUS
 10
2.214520
 20
8.298840
 11
2.199120
 21
8.283440
  0
LINE
  8
0
 62
     0
  6
CONTINUOUS
 10
2.215400
 20
8.283440
 11
2.230800
 21
8.298840
  0
LINE
  8
0
 62
     0
  6
CONTINUOUS
 10
2.236520
 20
8.298840
 11
2.221120
 21
8.283440
  0
LINE
  8
0
 62
     0
  6
CONTINUOUS
 10
2.226400
 20
8.283440
 11
2.241800
 21
8.298840
  0
LINE
  8
0
 62
     0
  6
CONTINUOUS
 10
2.247080
 20
8.298840
 11
2.232120
 21
8.283440
  0
LINE
  8
0
 62
     0
  6
CONTINUOUS
 10
2.178880
 20
8.129440
 11
2.178880
 21
8.115360
  0
LINE
  8
0
 62
     0
  6
CONTINUOUS
 10
2.178880
 20
8.115360
 11
2.178440
 21
8.108320
  0
LINE
  8
0
 62
     0
  6
CONTINUOUS
 10
2.178440
 20
8.108320
 11
2.178440
 21
8.129440
  0
LINE
  8
0
 62
     0
  6
CONTINUOUS
 10
2.178440
 20
8.129440
 11
2.178440
 21
8.100840
  0
LINE
  8
0
 62
     0
  6
CONTINUOUS
 10
2.178440
 20
8.100840
 11
2.178440
 21
8.093800
  0
LINE
  8
0
 62
     0
  6
CONTINUOUS
 10
2.178440
 20
8.093800
 11
2.178440
 21
8.125920
  0
LINE
  8
0
 62
     0
  6
CONTINUOUS
 10
2.178440
 20
8.125920
 11
2.178000
 21
8.118880
  0
LINE
  8
0
 62
     0
  6
CONTINUOUS
 10
2.178000
 20
8.118880
 11
2.178000
 21
8.086760
  0
LINE
  8
0
 62
     0
  6
CONTINUOUS
 10
2.178000
 20
8.086760
 11
2.178000
 21
8.079720
  0
LINE
  8
0
 62
     0
  6
CONTINUOUS
 10
2.178000
 20
8.079720
 11
2.178000
 21
8.111840
  0
LINE
  8
0
 62
     0
  6
CONTINUOUS
 10
2.178000
 20
8.111840
 11
2.178000
 21
8.104360
  0
LINE
  8
0
 62
     0
  6
CONTINUOUS
 10
2.178000
 20
8.104360
 11
2.178000
 21
8.072240
  0
LINE
  8
0
 62
     0
  6
CONTINUOUS
 10
2.178000
 20
8.072240
 11
2.177560
 21
8.065200
  0
LINE
  8
0
 62
     0
  6
CONTINUOUS
 10
2.177560
 20
8.065200
 11
2.177560
 21
8.097320
  0
LINE
  8
0
 62
     0
  6
CONTINUOUS
 10
2.177560
 20
8.097320
 11
2.177560
 21
8.090280
  0
LINE
  8
0
 62
     0
  6
CONTINUOUS
 10
2.177560
 20
8.090280
 11
2.177560
 21
8.058160
  0
LINE
  8
0
 62
     0
  6
CONTINUOUS
 10
2.177560
 20
8.058160
 11
2.177560
 21
8.050680
  0
LINE
  8
0
 62
     0
  6
CONTINUOUS
 10
2.177560
 20
8.050680
 11
2.177560
 21
8.083240
  0
LINE
  8
0
 62
     0
  6
CONTINUOUS
 10
2.177560
 20
8.083240
 11
2.177120
 21
8.075760
  0
LINE
  8
0
 62
     0
  6
CONTINUOUS
 10
2.177120
 20
8.075760
 11
2.177120
 21
8.043640
  0
LINE
  8
0
 62
     0
  6
CONTINUOUS
 10
2.177120
 20
8.043640
 11
2.177120
 21
8.036600
  0
LINE
  8
0
 62
     0
  6
CONTINUOUS
 10
2.177120
 20
8.036600
 11
2.177120
 21
8.068720
  0
LINE
  8
0
 62
     0
  6
CONTINUOUS
 10
2.177120
 20
8.068720
 11
2.177120
 21
8.061680
  0
LINE
  8
0
 62
     0
  6
CONTINUOUS
 10
2.177120
 20
8.061680
 11
2.177120
 21
8.029560
  0
LINE
  8
0
 62
     0
  6
CONTINUOUS
 10
2.177120
 20
8.029560
 11
2.177120
 21
8.022520
  0
LINE
  8
0
 62
     0
  6
CONTINUOUS
 10
2.177120
 20
8.022520
 11
2.177120
 21
8.054640
  0
LINE
  8
0
 62
     0
  6
CONTINUOUS
 10
2.177120
 20
8.054640
 11
2.176680
 21
8.047160
  0
LINE
  8
0
 62
     0
  6
CONTINUOUS
 10
2.176680
 20
8.047160
 11
2.176680
 21
8.015040
  0
LINE
  8
0
 62
     0
  6
CONTINUOUS
 10
2.176680
 20
8.015040
 11
2.176680
 21
8.008000
  0
LINE
  8
0
 62
     0
  6
CONTINUOUS
 10
2.176680
 20
8.008000
 11
2.176680
 21
8.040120
  0
LINE
  8
0
 62
     0
  6
CONTINUOUS
 10
2.176680
 20
8.040120
 11
2.176680
 21
8.033080
  0
LINE
  8
0
 62
     0
  6
CONTINUOUS
 10
2.176680
 20
8.033080
 11
2.176680
 21
8.000960
  0
LINE
  8
0
 62
     0
  6
CONTINUOUS
 10
2.176680
 20
8.000960
 11
2.176240
 21
7.993920
  0
LINE
  8
0
 62
     0
  6
CONTINUOUS
 10
2.176240
 20
7.993920
 11
2.176240
 21
8.026040
  0
LINE
  8
0
 62
     0
  6
CONTINUOUS
 10
2.176240
 20
8.026040
 11
2.176240
 21
8.019000
  0
LINE
  8
0
 62
     0
  6
CONTINUOUS
 10
2.176240
 20
8.019000
 11
2.176240
 21
7.986440
  0
LINE
  8
0
 62
     0
  6
CONTINUOUS
 10
2.176240
 20
7.986440
 11
2.176240
 21
7.979400
  0
LINE
  8
0
 62
     0
  6
CONTINUOUS
 10
2.176240
 20
7.979400
 11
2.176240
 21
8.011520
  0
LINE
  8
0
 62
     0
  6
CONTINUOUS
 10
2.176240
 20
8.011520
 11
2.175800
 21
8.004480
  0
LINE
  8
0
 62
     0
  6
CONTINUOUS
 10
2.175800
 20
8.004480
 11
2.175800
 21
7.972360
  0
LINE
  8
0
 62
     0
  6
CONTINUOUS
 10
2.175800
 20
7.972360
 11
2.175800
 21
7.997440
  0
LINE
  8
0
 62
     0
  6
CONTINUOUS
 10
2.175800
 20
7.997440
 11
2.175800
 21
7.989960
  0
LINE
  8
0
 62
     0
  6
CONTINUOUS
 10
2.175800
 20
7.989960
 11
2.175800
 21
7.972360
  0
LINE
  8
0
 62
     0
  6
CONTINUOUS
 10
2.175800
 20
7.972360
 11
2.175360
 21
7.972360
  0
LINE
  8
0
 62
     0
  6
CONTINUOUS
 10
2.175360
 20
7.972360
 11
2.175360
 21
7.982920
  0
LINE
  8
0
 62
     0
  6
CONTINUOUS
 10
2.175360
 20
7.982920
 11
2.175360
 21
7.975880
  0
LINE
  8
0
 62
     0
  6
CONTINUOUS
 10
2.175360
 20
7.975880
 11
2.175360
 21
7.972360
  0
LINE
  8
0
 62
     0
  6
CONTINUOUS
 10
2.175360
 20
7.972360
 11
2.178440
 21
8.129440
  0
LINE
  8
0
 62
     0
  6
CONTINUOUS
 10
2.178440
 20
8.129440
 11
2.178880
 21
8.129440
  0
LINE
  8
0
 62
     0
  6
CONTINUOUS
 10
2.178880
 20
8.129440
 11
2.175800
 21
7.972360
  0
LINE
  8
0
 62
     0
  6
CONTINUOUS
 10
2.175800
 20
7.972360
 11
2.175360
 21
7.972360
  0
LINE
  8
0
 62
     0
  6
CONTINUOUS
 10
2.175800
 20
7.969280
 11
2.129600
 21
7.969280
  0
LINE
  8
0
 62
     0
  6
CONTINUOUS
 10
2.129600
 20
7.969280
 11
2.175800
 21
7.969280
  0
LINE
  8
0
 62
     0
  6
CONTINUOUS
 10
2.175800
 20
7.969280
 11
2.175800
 21
7.968840
  0
LINE
  8
0
 62
     0
  6
CONTINUOUS
 10
2.175800
 20
7.968840
 11
2.129600
 21
7.968840
  0
LINE
  8
0
 62
     0
  6
CONTINUOUS
 10
2.129600
 20
7.968840
 11
2.175800
 21
7.968840
  0
LINE
  8
0
 62
     0
  6
CONTINUOUS
 10
2.175800
 20
7.968840
 11
2.129600
 21
7.968840
  0
LINE
  8
0
 62
     0
  6
CONTINUOUS
 10
2.129600
 20
7.968840
 11
2.129600
 21
7.968400
  0
LINE
  8
0
 62
     0
  6
CONTINUOUS
 10
2.129600
 20
7.968400
 11
2.175800
 21
7.968400
  0
LINE
  8
0
 62
     0
  6
CONTINUOUS
 10
2.175800
 20
7.968400
 11
2.129600
 21
7.968400
  0
LINE
  8
0
 62
     0
  6
CONTINUOUS
 10
2.129600
 20
7.968400
 11
2.175800
 21
7.968400
  0
LINE
  8
0
 62
     0
  6
CONTINUOUS
 10
2.175800
 20
7.968400
 11
2.175800
 21
7.967960
  0
LINE
  8
0
 62
     0
  6
CONTINUOUS
 10
2.175800
 20
7.967960
 11
2.129600
 21
7.967960
  0
LINE
  8
0
 62
     0
  6
CONTINUOUS
 10
2.129600
 20
7.967960
 11
2.175800
 21
7.967960
  0
LINE
  8
0
 62
     0
  6
CONTINUOUS
 10
2.175800
 20
7.967960
 11
2.129600
 21
7.967960
  0
LINE
  8
0
 62
     0
  6
CONTINUOUS
 10
2.129600
 20
7.967960
 11
2.129600
 21
7.967520
  0
LINE
  8
0
 62
     0
  6
CONTINUOUS
 10
2.129600
 20
7.967520
 11
2.175800
 21
7.967520
  0
LINE
  8
0
 62
     0
  6
CONTINUOUS
 10
2.175800
 20
7.967520
 11
2.129600
 21
7.967520
  0
LINE
  8
0
 62
     0
  6
CONTINUOUS
 10
2.129600
 20
7.967520
 11
2.175800
 21
7.967520
  0
LINE
  8
0
 62
     0
  6
CONTINUOUS
 10
2.175800
 20
7.967520
 11
2.175800
 21
7.967080
  0
LINE
  8
0
 62
     0
  6
CONTINUOUS
 10
2.175800
 20
7.967080
 11
2.129600
 21
7.967080
  0
LINE
  8
0
 62
     0
  6
CONTINUOUS
 10
2.129600
 20
7.967080
 11
2.175800
 21
7.967080
  0
LINE
  8
0
 62
     0
  6
CONTINUOUS
 10
2.175800
 20
7.967080
 11
2.129600
 21
7.967080
  0
LINE
  8
0
 62
     0
  6
CONTINUOUS
 10
2.129600
 20
7.967080
 11
2.129600
 21
7.966640
  0
LINE
  8
0
 62
     0
  6
CONTINUOUS
 10
2.129600
 20
7.966640
 11
2.175800
 21
7.966640
  0
LINE
  8
0
 62
     0
  6
CONTINUOUS
 10
2.175800
 20
7.966640
 11
2.129600
 21
7.966640
  0
LINE
  8
0
 62
     0
  6
CONTINUOUS
 10
2.129600
 20
7.966640
 11
2.175800
 21
7.966640
  0
LINE
  8
0
 62
     0
  6
CONTINUOUS
 10
2.175800
 20
7.966640
 11
2.175800
 21
7.966200
  0
LINE
  8
0
 62
     0
  6
CONTINUOUS
 10
2.175800
 20
7.966200
 11
2.129600
 21
7.966200
  0
LINE
  8
0
 62
     0
  6
CONTINUOUS
 10
2.129600
 20
7.966200
 11
2.175800
 21
7.966200
  0
LINE
  8
0
 62
     0
  6
CONTINUOUS
 10
2.175800
 20
7.966200
 11
2.129600
 21
7.966200
  0
LINE
  8
0
 62
     0
  6
CONTINUOUS
 10
2.129600
 20
7.966200
 11
2.129600
 21
7.969280
  0
LINE
  8
0
 62
     0
  6
CONTINUOUS
 10
2.129600
 20
7.969280
 11
2.175800
 21
7.969280
  0
LINE
  8
0
 62
     0
  6
CONTINUOUS
 10
2.175800
 20
7.969280
 11
2.175800
 21
7.966200
  0
LINE
  8
0
 62
     0
  6
CONTINUOUS
 10
2.175800
 20
7.966200
 11
2.129600
 21
7.966200
  0
LINE
  8
0
 62
     0
  6
CONTINUOUS
 10
2.129600
 20
7.969280
 11
2.145000
 21
7.969280
  0
LINE
  8
0
 62
     0
  6
CONTINUOUS
 10
2.145000
 20
7.969280
 11
2.145000
 21
8.001840
  0
LINE
  8
0
 62
     0
  6
CONTINUOUS
 10
2.145000
 20
8.001840
 11
2.145440
 21
8.009320
  0
LINE
  8
0
 62
     0
  6
CONTINUOUS
 10
2.145440
 20
8.009320
 11
2.145440
 21
7.976320
  0
LINE
  8
0
 62
     0
  6
CONTINUOUS
 10
2.145440
 20
7.976320
 11
2.145440
 21
7.983800
  0
LINE
  8
0
 62
     0
  6
CONTINUOUS
 10
2.145440
 20
7.983800
 11
2.145440
 21
8.016800
  0
LINE
  8
0
 62
     0
  6
CONTINUOUS
 10
2.145440
 20
8.016800
 11
2.145440
 21
8.023840
  0
LINE
  8
0
 62
     0
  6
CONTINUOUS
 10
2.145440
 20
8.023840
 11
2.145440
 21
7.990840
  0
LINE
  8
0
 62
     0
  6
CONTINUOUS
 10
2.145440
 20
7.990840
 11
2.145440
 21
7.998320
  0
LINE
  8
0
 62
     0
  6
CONTINUOUS
 10
2.145440
 20
7.998320
 11
2.145440
 21
8.031320
  0
LINE
  8
0
 62
     0
  6
CONTINUOUS
 10
2.145440
 20
8.031320
 11
2.145880
 21
8.038360
  0
LINE
  8
0
 62
     0
  6
CONTINUOUS
 10
2.145880
 20
8.038360
 11
2.145880
 21
8.005800
  0
LINE
  8
0
 62
     0
  6
CONTINUOUS
 10
2.145880
 20
8.005800
 11
2.145880
 21
8.012840
  0
LINE
  8
0
 62
     0
  6
CONTINUOUS
 10
2.145880
 20
8.012840
 11
2.145880
 21
8.045840
  0
LINE
  8
0
 62
     0
  6
CONTINUOUS
 10
2.145880
 20
8.045840
 11
2.145880
 21
8.052880
  0
LINE
  8
0
 62
     0
  6
CONTINUOUS
 10
2.145880
 20
8.052880
 11
2.145880
 21
8.020320
  0
LINE
  8
0
 62
     0
  6
CONTINUOUS
 10
2.145880
 20
8.020320
 11
2.146320
 21
8.027360
  0
LINE
  8
0
 62
     0
  6
CONTINUOUS
 10
2.146320
 20
8.027360
 11
2.146320
 21
8.060360
  0
LINE
  8
0
 62
     0
  6
CONTINUOUS
 10
2.146320
 20
8.060360
 11
2.146320
 21
8.067400
  0
LINE
  8
0
 62
     0
  6
CONTINUOUS
 10
2.146320
 20
8.067400
 11
2.146320
 21
8.034840
  0
LINE
  8
0
 62
     0
  6
CONTINUOUS
 10
2.146320
 20
8.034840
 11
2.146320
 21
8.041880
  0
LINE
  8
0
 62
     0
  6
CONTINUOUS
 10
2.146320
 20
8.041880
 11
2.146320
 21
8.074880
  0
LINE
  8
0
 62
     0
  6
CONTINUOUS
 10
2.146320
 20
8.074880
 11
2.146760
 21
8.082360
  0
LINE
  8
0
 62
     0
  6
CONTINUOUS
 10
2.146760
 20
8.082360
 11
2.146760
 21
8.049360
  0
LINE
  8
0
 62
     0
  6
CONTINUOUS
 10
2.146760
 20
8.049360
 11
2.146760
 21
8.056840
  0
LINE
  8
0
 62
     0
  6
CONTINUOUS
 10
2.146760
 20
8.056840
 11
2.146760
 21
8.089400
  0
LINE
  8
0
 62
     0
  6
CONTINUOUS
 10
2.146760
 20
8.089400
 11
2.146760
 21
8.096880
  0
LINE
  8
0
 62
     0
  6
CONTINUOUS
 10
2.146760
 20
8.096880
 11
2.146760
 21
8.063880
  0
LINE
  8
0
 62
     0
  6
CONTINUOUS
 10
2.146760
 20
8.063880
 11
2.147200
 21
8.071360
  0
LINE
  8
0
 62
     0
  6
CONTINUOUS
 10
2.147200
 20
8.071360
 11
2.147200
 21
8.103920
  0
LINE
  8
0
 62
     0
  6
CONTINUOUS
 10
2.147200
 20
8.103920
 11
2.147200
 21
8.111400
  0
LINE
  8
0
 62
     0
  6
CONTINUOUS
 10
2.147200
 20
8.111400
 11
2.147200
 21
8.078400
  0
LINE
  8
0
 62
     0
  6
CONTINUOUS
 10
2.147200
 20
8.078400
 11
2.147200
 21
8.085880
  0
LINE
  8
0
 62
     0
  6
CONTINUOUS
 10
2.147200
 20
8.085880
 11
2.147200
 21
8.118440
  0
LINE
  8
0
 62
     0
  6
CONTINUOUS
 10
2.147200
 20
8.118440
 11
2.147640
 21
8.125920
  0
LINE
  8
0
 62
     0
  6
CONTINUOUS
 10
2.147640
 20
8.125920
 11
2.147640
 21
8.092920
  0
LINE
  8
0
 62
     0
  6
CONTINUOUS
 10
2.147640
 20
8.092920
 11
2.147640
 21
8.100400
  0
LINE
  8
0
 62
     0
  6
CONTINUOUS
 10
2.147640
 20
8.100400
 11
2.147640
 21
8.129440
  0
LINE
  8
0
 62
     0
  6
CONTINUOUS
 10
2.147640
 20
8.129440
 11
2.147640
 21
8.107880
  0
LINE
  8
0
 62
     0
  6
CONTINUOUS
 10
2.147640
 20
8.107880
 11
2.148080
 21
8.114920
  0
LINE
  8
0
 62
     0
  6
CONTINUOUS
 10
2.148080
 20
8.114920
 11
2.148080
 21
8.129440
  0
LINE
  8
0
 62
     0
  6
CONTINUOUS
 10
2.148080
 20
8.129440
 11
2.148080
 21
8.122400
  0
LINE
  8
0
 62
     0
  6
CONTINUOUS
 10
2.148080
 20
8.129440
 11
2.145000
 21
7.969280
  0
LINE
  8
0
 62
     0
  6
CONTINUOUS
 10
2.145000
 20
7.969280
 11
2.144560
 21
7.969280
  0
LINE
  8
0
 62
     0
  6
CONTINUOUS
 10
2.144560
 20
7.969280
 11
2.147640
 21
8.129440
  0
LINE
  8
0
 62
     0
  6
CONTINUOUS
 10
2.147640
 20
8.129440
 11
2.148080
 21
8.129440
  0
LINE
  8
0
 62
     0
  6
CONTINUOUS
 10
2.156880
 20
8.129440
 11
2.157320
 21
8.129440
  0
LINE
  8
0
 62
     0
  6
CONTINUOUS
 10
2.157320
 20
8.129440
 11
2.160400
 21
7.969280
  0
LINE
  8
0
 62
     0
  6
CONTINUOUS
 10
2.160400
 20
7.969280
 11
2.159960
 21
7.969280
  0
LINE
  8
0
 62
     0
  6
CONTINUOUS
 10
2.159960
 20
7.969280
 11
2.156880
 21
8.129440
  0
LINE
  8
0
 62
     0
  6
CONTINUOUS
 10
2.156880
 20
8.129440
 11
2.156880
 21
8.121960
  0
LINE
  8
0
 62
     0
  6
CONTINUOUS
 10
2.156880
 20
8.121960
 11
2.157320
 21
8.114480
  0
LINE
  8
0
 62
     0
  6
CONTINUOUS
 10
2.157320
 20
8.114480
 11
2.157320
 21
8.129440
  0
LINE
  8
0
 62
     0
  6
CONTINUOUS
 10
2.157320
 20
8.129440
 11
2.157320
 21
8.107000
  0
LINE
  8
0
 62
     0
  6
CONTINUOUS
 10
2.157320
 20
8.107000
 11
2.157320
 21
8.099960
  0
LINE
  8
0
 62
     0
  6
CONTINUOUS
 10
2.157320
 20
8.099960
 11
2.157320
 21
8.129440
  0
LINE
  8
0
 62
     0
  6
CONTINUOUS
 10
2.157320
 20
8.129440
 11
2.157760
 21
8.122400
  0
LINE
  8
0
 62
     0
  6
CONTINUOUS
 10
2.157760
 20
8.122400
 11
2.157760
 21
8.092480
  0
LINE
  8
0
 62
     0
  6
CONTINUOUS
 10
2.157760
 20
8.092480
 11
2.157760
 21
8.085000
  0
LINE
  8
0
 62
     0
  6
CONTINUOUS
 10
2.157760
 20
8.085000
 11
2.157760
 21
8.114920
  0
LINE
  8
0
 62
     0
  6
CONTINUOUS
 10
2.157760
 20
8.114920
 11
2.157760
 21
8.107880
  0
LINE
  8
0
 62
     0
  6
CONTINUOUS
 10
2.157760
 20
8.107880
 11
2.157760
 21
8.077520
  0
LINE
  8
0
 62
     0
  6
CONTINUOUS
 10
2.157760
 20
8.077520
 11
2.157760
 21
8.070040
  0
LINE
  8
0
 62
     0
  6
CONTINUOUS
 10
2.157760
 20
8.070040
 11
2.157760
 21
8.100400
  0
LINE
  8
0
 62
     0
  6
CONTINUOUS
 10
2.157760
 20
8.100400
 11
2.158200
 21
8.092920
  0
LINE
  8
0
 62
     0
  6
CONTINUOUS
 10
2.158200
 20
8.092920
 11
2.158200
 21
8.062560
  0
LINE
  8
0
 62
     0
  6
CONTINUOUS
 10
2.158200
 20
8.062560
 11
2.158200
 21
8.055080
  0
LINE
  8
0
 62
     0
  6
CONTINUOUS
 10
2.158200
 20
8.055080
 11
2.158200
 21
8.085880
  0
LINE
  8
0
 62
     0
  6
CONTINUOUS
 10
2.158200
 20
8.085880
 11
2.158200
 21
8.078400
  0
LINE
  8
0
 62
     0
  6
CONTINUOUS
 10
2.158200
 20
8.078400
 11
2.158200
 21
8.047600
  0
LINE
  8
0
 62
     0
  6
CONTINUOUS
 10
2.158200
 20
8.047600
 11
2.158640
 21
8.040120
  0
LINE
  8
0
 62
     0
  6
CONTINUOUS
 10
2.158640
 20
8.040120
 11
2.158640
 21
8.071360
  0
LINE
  8
0
 62
     0
  6
CONTINUOUS
 10
2.158640
 20
8.071360
 11
2.158640
 21
8.063880
  0
LINE
  8
0
 62
     0
  6
CONTINUOUS
 10
2.158640
 20
8.063880
 11
2.158640
 21
8.032640
  0
LINE
  8
0
 62
     0
  6
CONTINUOUS
 10
2.158640
 20
8.032640
 11
2.158640
 21
8.025160
  0
LINE
  8
0
 62
     0
  6
CONTINUOUS
 10
2.158640
 20
8.025160
 11
2.158640
 21
8.056840
  0
LINE
  8
0
 62
     0
  6
CONTINUOUS
 10
2.158640
 20
8.056840
 11
2.159080
 21
8.049360
  0
LINE
  8
0
 62
     0
  6
CONTINUOUS
 10
2.159080
 20
8.049360
 11
2.159080
 21
8.017680
  0
LINE
  8
0
 62
     0
  6
CONTINUOUS
 10
2.159080
 20
8.017680
 11
2.159080
 21
8.010200
  0
LINE
  8
0
 62
     0
  6
CONTINUOUS
 10
2.159080
 20
8.010200
 11
2.159080
 21
8.041880
  0
LINE
  8
0
 62
     0
  6
CONTINUOUS
 10
2.159080
 20
8.041880
 11
2.159080
 21
8.034840
  0
LINE
  8
0
 62
     0
  6
CONTINUOUS
 10
2.159080
 20
8.034840
 11
2.159080
 21
8.002720
  0
LINE
  8
0
 62
     0
  6
CONTINUOUS
 10
2.159080
 20
8.002720
 11
2.159520
 21
7.995240
  0
LINE
  8
0
 62
     0
  6
CONTINUOUS
 10
2.159520
 20
7.995240
 11
2.159520
 21
8.027360
  0
LINE
  8
0
 62
     0
  6
CONTINUOUS
 10
2.159520
 20
8.027360
 11
2.159520
 21
8.020320
  0
LINE
  8
0
 62
     0
  6
CONTINUOUS
 10
2.159520
 20
8.020320
 11
2.159520
 21
7.987760
  0
LINE
  8
0
 62
     0
  6
CONTINUOUS
 10
2.159520
 20
7.987760
 11
2.159520
 21
7.980280
  0
LINE
  8
0
 62
     0
  6
CONTINUOUS
 10
2.159520
 20
7.980280
 11
2.159520
 21
8.012840
  0
LINE
  8
0
 62
     0
  6
CONTINUOUS
 10
2.159520
 20
8.012840
 11
2.159960
 21
8.005800
  0
LINE
  8
0
 62
     0
  6
CONTINUOUS
 10
2.159960
 20
8.005800
 11
2.159960
 21
7.972800
  0
LINE
  8
0
 62
     0
  6
CONTINUOUS
 10
2.159960
 20
7.969280
 11
2.159960
 21
7.998320
  0
LINE
  8
0
 62
     0
  6
CONTINUOUS
 10
2.159960
 20
7.998320
 11
2.159960
 21
7.990840
  0
LINE
  8
0
 62
     0
  6
CONTINUOUS
 10
2.159960
 20
7.990840
 11
2.159960
 21
7.969280
  0
LINE
  8
0
 62
     0
  6
CONTINUOUS
 10
2.159960
 20
7.969280
 11
2.160400
 21
7.969280
  0
LINE
  8
0
 62
     0
  6
CONTINUOUS
 10
2.160400
 20
7.969280
 11
2.175800
 21
7.969280
  0
LINE
  8
0
 62
     0
  6
CONTINUOUS
 10
2.160400
 20
7.969280
 11
2.160400
 21
7.976320
  0
LINE
  8
0
 62
     0
  6
CONTINUOUS
 10
2.160400
 20
7.976320
 11
2.160400
 21
7.983800
  0
LINE
  8
0
 62
     0
  6
CONTINUOUS
 10
2.160400
 20
7.983800
 11
2.160400
 21
7.969280
  0
LINE
  8
0
 62
     0
  6
CONTINUOUS
 10
2.145000
 20
7.969280
 11
2.145000
 21
7.994800
  0
LINE
  8
0
 62
     0
  6
CONTINUOUS
 10
2.145000
 20
7.994800
 11
2.145000
 21
7.987320
  0
LINE
  8
0
 62
     0
  6
CONTINUOUS
 10
2.145000
 20
7.987320
 11
2.145000
 21
7.969280
  0
LINE
  8
0
 62
     0
  6
CONTINUOUS
 10
2.145000
 20
7.969280
 11
2.144560
 21
7.969280
  0
LINE
  8
0
 62
     0
  6
CONTINUOUS
 10
2.144560
 20
7.969280
 11
2.144560
 21
7.980280
  0
LINE
  8
0
 62
     0
  6
CONTINUOUS
 10
2.144560
 20
7.980280
 11
2.144560
 21
7.972800
  0
LINE
  8
0
 62
     0
  6
CONTINUOUS
 10
2.144560
 20
7.972800
 11
2.144560
 21
7.969280
  0
LINE
  8
0
 62
     0
  6
CONTINUOUS
 10
2.129600
 20
7.972360
 11
2.129160
 21
7.972360
  0
LINE
  8
0
 62
     0
  6
CONTINUOUS
 10
2.129160
 20
7.972360
 11
2.126080
 21
8.129440
  0
LINE
  8
0
 62
     0
  6
CONTINUOUS
 10
2.126080
 20
8.129440
 11
2.126520
 21
8.129440
  0
LINE
  8
0
 62
     0
  6
CONTINUOUS
 10
2.126520
 20
8.129440
 11
2.129600
 21
7.972360
  0
LINE
  8
0
 62
     0
  6
CONTINUOUS
 10
2.129600
 20
7.972360
 11
2.129600
 21
7.979400
  0
LINE
  8
0
 62
     0
  6
CONTINUOUS
 10
2.129600
 20
7.979400
 11
2.129600
 21
7.986440
  0
LINE
  8
0
 62
     0
  6
CONTINUOUS
 10
2.129600
 20
7.986440
 11
2.129600
 21
7.972360
  0
LINE
  8
0
 62
     0
  6
CONTINUOUS
 10
2.129600
 20
7.972360
 11
2.129160
 21
7.972360
  0
LINE
  8
0
 62
     0
  6
CONTINUOUS
 10
2.129160
 20
7.972360
 11
2.129160
 21
7.993920
  0
LINE
  8
0
 62
     0
  6
CONTINUOUS
 10
2.129160
 20
7.993920
 11
2.129160
 21
8.000960
  0
LINE
  8
0
 62
     0
  6
CONTINUOUS
 10
2.129160
 20
8.000960
 11
2.129160
 21
7.972360
  0
LINE
  8
0
 62
     0
  6
CONTINUOUS
 10
2.129160
 20
7.975880
 11
2.129160
 21
8.008000
  0
LINE
  8
0
 62
     0
  6
CONTINUOUS
 10
2.129160
 20
8.008000
 11
2.128720
 21
8.015040
  0
LINE
  8
0
 62
     0
  6
CONTINUOUS
 10
2.128720
 20
8.015040
 11
2.128720
 21
7.983360
  0
LINE
  8
0
 62
     0
  6
CONTINUOUS
 10
2.128720
 20
7.983360
 11
2.128720
 21
7.990400
  0
LINE
  8
0
 62
     0
  6
CONTINUOUS
 10
2.128720
 20
7.990400
 11
2.128720
 21
8.022520
  0
LINE
  8
0
 62
     0
  6
CONTINUOUS
 10
2.128720
 20
8.022520
 11
2.128720
 21
8.029560
  0
LINE
  8
0
 62
     0
  6
CONTINUOUS
 10
2.128720
 20
8.029560
 11
2.128720
 21
7.997880
  0
LINE
  8
0
 62
     0
  6
CONTINUOUS
 10
2.128720
 20
7.997880
 11
2.128280
 21
8.005360
  0
LINE
  8
0
 62
     0
  6
CONTINUOUS
 10
2.128280
 20
8.005360
 11
2.128280
 21
8.036600
  0
LINE
  8
0
 62
     0
  6
CONTINUOUS
 10
2.128280
 20
8.036600
 11
2.128280
 21
8.043640
  0
LINE
  8
0
 62
     0
  6
CONTINUOUS
 10
2.128280
 20
8.043640
 11
2.128280
 21
8.012400
  0
LINE
  8
0
 62
     0
  6
CONTINUOUS
 10
2.128280
 20
8.012400
 11
2.128280
 21
8.019880
  0
LINE
  8
0
 62
     0
  6
CONTINUOUS
 10
2.128280
 20
8.019880
 11
2.128280
 21
8.051120
  0
LINE
  8
0
 62
     0
  6
CONTINUOUS
 10
2.128280
 20
8.051120
 11
2.127840
 21
8.058160
  0
LINE
  8
0
 62
     0
  6
CONTINUOUS
 10
2.127840
 20
8.058160
 11
2.127840
 21
8.027360
  0
LINE
  8
0
 62
     0
  6
CONTINUOUS
 10
2.127840
 20
8.027360
 11
2.127840
 21
8.034400
  0
LINE
  8
0
 62
     0
  6
CONTINUOUS
 10
2.127840
 20
8.034400
 11
2.127840
 21
8.065200
  0
LINE
  8
0
 62
     0
  6
CONTINUOUS
 10
2.127840
 20
8.065200
 11
2.127840
 21
8.072240
  0
LINE
  8
0
 62
     0
  6
CONTINUOUS
 10
2.127840
 20
8.072240
 11
2.127840
 21
8.041880
  0
LINE
  8
0
 62
     0
  6
CONTINUOUS
 10
2.127840
 20
8.041880
 11
2.127400
 21
8.048920
  0
LINE
  8
0
 62
     0
  6
CONTINUOUS
 10
2.127400
 20
8.048920
 11
2.127400
 21
8.079720
  0
LINE
  8
0
 62
     0
  6
CONTINUOUS
 10
2.127400
 20
8.079720
 11
2.127400
 21
8.086760
  0
LINE
  8
0
 62
     0
  6
CONTINUOUS
 10
2.127400
 20
8.086760
 11
2.127400
 21
8.056400
  0
LINE
  8
0
 62
     0
  6
CONTINUOUS
 10
2.127400
 20
8.056400
 11
2.127400
 21
8.063880
  0
LINE
  8
0
 62
     0
  6
CONTINUOUS
 10
2.127400
 20
8.063880
 11
2.127400
 21
8.093800
  0
LINE
  8
0
 62
     0
  6
CONTINUOUS
 10
2.127400
 20
8.093800
 11
2.126960
 21
8.100840
  0
LINE
  8
0
 62
     0
  6
CONTINUOUS
 10
2.126960
 20
8.100840
 11
2.126960
 21
8.070920
  0
LINE
  8
0
 62
     0
  6
CONTINUOUS
 10
2.126960
 20
8.070920
 11
2.126960
 21
8.078400
  0
LINE
  8
0
 62
     0
  6
CONTINUOUS
 10
2.126960
 20
8.078400
 11
2.126960
 21
8.108320
  0
LINE
  8
0
 62
     0
  6
CONTINUOUS
 10
2.126960
 20
8.108320
 11
2.126960
 21
8.115360
  0
LINE
  8
0
 62
     0
  6
CONTINUOUS
 10
2.126960
 20
8.115360
 11
2.126960
 21
8.085880
  0
LINE
  8
0
 62
     0
  6
CONTINUOUS
 10
2.126960
 20
8.085880
 11
2.126520
 21
8.092920
  0
LINE
  8
0
 62
     0
  6
CONTINUOUS
 10
2.126520
 20
8.092920
 11
2.126520
 21
8.122400
  0
LINE
  8
0
 62
     0
  6
CONTINUOUS
 10
2.126520
 20
8.122400
 11
2.126520
 21
8.129440
  0
LINE
  8
0
 62
     0
  6
CONTINUOUS
 10
2.126520
 20
8.129440
 11
2.126520
 21
8.100400
  0
LINE
  8
0
 62
     0
  6
CONTINUOUS
 10
2.126520
 20
8.100400
 11
2.126520
 21
8.107440
  0
LINE
  8
0
 62
     0
  6
CONTINUOUS
 10
2.126520
 20
8.107440
 11
2.126520
 21
8.129440
  0
LINE
  8
0
 62
     0
  6
CONTINUOUS
 10
2.126520
 20
8.129440
 11
2.126080
 21
8.129440
  0
LINE
  8
0
 62
     0
  6
CONTINUOUS
 10
2.126080
 20
8.129440
 11
2.126080
 21
8.114920
  0
LINE
  8
0
 62
     0
  6
CONTINUOUS
 10
2.126080
 20
8.114920
 11
2.126080
 21
8.122400
  0
LINE
  8
0
 62
     0
  6
CONTINUOUS
 10
2.126080
 20
8.122400
 11
2.126080
 21
8.129440
  0
LINE
  8
0
 62
     0
  6
CONTINUOUS
 10
2.126080
 20
8.129440
 11
2.148080
 21
8.129440
  0
LINE
  8
0
 62
     0
  6
CONTINUOUS
 10
2.148080
 20
8.129440
 11
2.126080
 21
8.129440
  0
LINE
  8
0
 62
     0
  6
CONTINUOUS
 10
2.126080
 20
8.129440
 11
2.126080
 21
8.129880
  0
LINE
  8
0
 62
     0
  6
CONTINUOUS
 10
2.126080
 20
8.129880
 11
2.148080
 21
8.129880
  0
LINE
  8
0
 62
     0
  6
CONTINUOUS
 10
2.148080
 20
8.129880
 11
2.148080
 21
8.129440
  0
LINE
  8
0
 62
     0
  6
CONTINUOUS
 10
2.148080
 20
8.129440
 11
2.148080
 21
8.129880
  0
LINE
  8
0
 62
     0
  6
CONTINUOUS
 10
2.148080
 20
8.129880
 11
2.178880
 21
8.129880
  0
LINE
  8
0
 62
     0
  6
CONTINUOUS
 10
2.178880
 20
8.129880
 11
2.178880
 21
8.129440
  0
LINE
  8
0
 62
     0
  6
CONTINUOUS
 10
2.178880
 20
8.129440
 11
2.148080
 21
8.129440
  0
LINE
  8
0
 62
     0
  6
CONTINUOUS
 10
2.148080
 20
8.129440
 11
2.126080
 21
8.129440
  0
LINE
  8
0
 62
     0
  6
CONTINUOUS
 10
2.126080
 20
8.129440
 11
2.148080
 21
8.129440
  0
LINE
  8
0
 62
     0
  6
CONTINUOUS
 10
2.148080
 20
8.129440
 11
2.178880
 21
8.129440
  0
LINE
  8
0
 62
     0
  6
CONTINUOUS
 10
2.178880
 20
8.129440
 11
2.148080
 21
8.129440
  0
LINE
  8
0
 62
     0
  6
CONTINUOUS
 10
2.148080
 20
8.129440
 11
2.148080
 21
8.129880
  0
LINE
  8
0
 62
     0
  6
CONTINUOUS
 10
2.148080
 20
8.129880
 11
2.178880
 21
8.129880
  0
LINE
  8
0
 62
     0
  6
CONTINUOUS
 10
2.178880
 20
8.129880
 11
2.178880
 21
8.129440
  0
LINE
  8
0
 62
     0
  6
CONTINUOUS
 10
2.178880
 20
8.129440
 11
2.148080
 21
8.129440
  0
LINE
  8
0
 62
     0
  6
CONTINUOUS
 10
2.148080
 20
8.129440
 11
2.148080
 21
8.129880
  0
LINE
  8
0
 62
     0
  6
CONTINUOUS
 10
2.148080
 20
8.129880
 11
2.126080
 21
8.129880
  0
LINE
  8
0
 62
     0
  6
CONTINUOUS
 10
2.126080
 20
8.129880
 11
2.148080
 21
8.129880
  0
LINE
  8
0
 62
     0
  6
CONTINUOUS
 10
2.148080
 20
8.129880
 11
2.178880
 21
8.129880
  0
LINE
  8
0
 62
     0
  6
CONTINUOUS
 10
2.178880
 20
8.129440
 11
2.178880
 21
8.122400
  0
LINE
  8
0
 62
     0
  6
CONTINUOUS
 10
2.038520
 20
8.308520
 11
2.254120
 21
8.308520
  0
LINE
  8
0
 62
     0
  6
CONTINUOUS
 10
2.254120
 20
8.308520
 11
2.038520
 21
8.308520
  0
LINE
  8
0
 62
     0
  6
CONTINUOUS
 10
2.038520
 20
8.308520
 11
2.038520
 21
8.308080
  0
LINE
  8
0
 62
     0
  6
CONTINUOUS
 10
2.038520
 20
8.308080
 11
2.254120
 21
8.308080
  0
LINE
  8
0
 62
     0
  6
CONTINUOUS
 10
2.254120
 20
8.308080
 11
2.038520
 21
8.308080
  0
LINE
  8
0
 62
     0
  6
CONTINUOUS
 10
2.038520
 20
8.308080
 11
2.038520
 21
8.308520
  0
LINE
  8
0
 62
     0
  6
CONTINUOUS
 10
2.038520
 20
8.308520
 11
2.254120
 21
8.308520
  0
LINE
  8
0
 62
     0
  6
CONTINUOUS
 10
2.254120
 20
8.308520
 11
2.254120
 21
8.308080
  0
LINE
  8
0
 62
     0
  6
CONTINUOUS
 10
2.254120
 20
8.308080
 11
2.038520
 21
8.308080
  0
LINE
  8
0
 62
     0
  6
CONTINUOUS
 10
2.038520
 20
8.308520
 11
2.254120
 21
8.308520
  0
LINE
  8
0
 62
     0
  6
CONTINUOUS
 10
2.174480
 20
8.308080
 11
2.174040
 21
8.308080
  0
LINE
  8
0
 62
     0
  6
CONTINUOUS
 10
2.174040
 20
8.308080
 11
2.174040
 21
8.336240
  0
LINE
  8
0
 62
     0
  6
CONTINUOUS
 10
2.174040
 20
8.336240
 11
2.174040
 21
8.308080
  0
LINE
  8
0
 62
     0
  6
CONTINUOUS
 10
2.174040
 20
8.308080
 11
2.174040
 21
8.336240
  0
LINE
  8
0
 62
     0
  6
CONTINUOUS
 10
2.174040
 20
8.336240
 11
2.173600
 21
8.336240
  0
LINE
  8
0
 62
     0
  6
CONTINUOUS
 10
2.173600
 20
8.336240
 11
2.173600
 21
8.308080
  0
LINE
  8
0
 62
     0
  6
CONTINUOUS
 10
2.173600
 20
8.308080
 11
2.173600
 21
8.336240
  0
LINE
  8
0
 62
     0
  6
CONTINUOUS
 10
2.173600
 20
8.336240
 11
2.174480
 21
8.336240
  0
LINE
  8
0
 62
     0
  6
CONTINUOUS
 10
2.174480
 20
8.336240
 11
2.174480
 21
8.308080
  0
LINE
  8
0
 62
     0
  6
CONTINUOUS
 10
2.174480
 20
8.308080
 11
2.173600
 21
8.308080
  0
LINE
  8
0
 62
     0
  6
CONTINUOUS
 10
2.174480
 20
8.308080
 11
2.174480
 21
8.336240
  0
LINE
  8
0
 62
     0
  6
CONTINUOUS
 10
2.174040
 20
8.336240
 11
2.161720
 21
8.336240
  0
LINE
  8
0
 62
     0
  6
CONTINUOUS
 10
2.161720
 20
8.336240
 11
2.161720
 21
8.335800
  0
LINE
  8
0
 62
     0
  6
CONTINUOUS
 10
2.161720
 20
8.335800
 11
2.174040
 21
8.335800
  0
LINE
  8
0
 62
     0
  6
CONTINUOUS
 10
2.174040
 20
8.335800
 11
2.161720
 21
8.335800
  0
LINE
  8
0
 62
     0
  6
CONTINUOUS
 10
2.161720
 20
8.335800
 11
2.161720
 21
8.336240
  0
LINE
  8
0
 62
     0
  6
CONTINUOUS
 10
2.161720
 20
8.336240
 11
2.174040
 21
8.336240
  0
LINE
  8
0
 62
     0
  6
CONTINUOUS
 10
2.174040
 20
8.336240
 11
2.174040
 21
8.335800
  0
LINE
  8
0
 62
     0
  6
CONTINUOUS
 10
2.174040
 20
8.335800
 11
2.161720
 21
8.335800
  0
LINE
  8
0
 62
     0
  6
CONTINUOUS
 10
2.161720
 20
8.336240
 11
2.161720
 21
8.308080
  0
LINE
  8
0
 62
     0
  6
CONTINUOUS
 10
2.161720
 20
8.308080
 11
2.161720
 21
8.336240
  0
LINE
  8
0
 62
     0
  6
CONTINUOUS
 10
2.161720
 20
8.336240
 11
2.161280
 21
8.336240
  0
LINE
  8
0
 62
     0
  6
CONTINUOUS
 10
2.161280
 20
8.336240
 11
2.161280
 21
8.308080
  0
LINE
  8
0
 62
     0
  6
CONTINUOUS
 10
2.161280
 20
8.308080
 11
2.161280
 21
8.336240
  0
LINE
  8
0
 62
     0
  6
CONTINUOUS
 10
2.161280
 20
8.336240
 11
2.162160
 21
8.336240
  0
LINE
  8
0
 62
     0
  6
CONTINUOUS
 10
2.162160
 20
8.336240
 11
2.162160
 21
8.308080
  0
LINE
  8
0
 62
     0
  6
CONTINUOUS
 10
2.162160
 20
8.308080
 11
2.161720
 21
8.308080
  0
LINE
  8
0
 62
     0
  6
CONTINUOUS
 10
2.161720
 20
8.308080
 11
2.161720
 21
8.336240
  0
LINE
  8
0
 62
     0
  6
CONTINUOUS
 10
2.161720
 20
8.336240
 11
2.174040
 21
8.336240
  0
LINE
  8
0
 62
     0
  6
CONTINUOUS
 10
2.174040
 20
8.336240
 11
2.174040
 21
8.335800
  0
LINE
  8
0
 62
     0
  6
CONTINUOUS
 10
2.174040
 20
8.335800
 11
2.173600
 21
8.335800
  0
LINE
  8
0
 62
     0
  6
CONTINUOUS
 10
2.174040
 20
8.335800
 11
2.170960
 21
8.338880
  0
LINE
  8
0
 62
     0
  6
CONTINUOUS
 10
2.170960
 20
8.338880
 11
2.171400
 21
8.339320
  0
LINE
  8
0
 62
     0
  6
CONTINUOUS
 10
2.171400
 20
8.339320
 11
2.174480
 21
8.336240
  0
LINE
  8
0
 62
     0
  6
CONTINUOUS
 10
2.174480
 20
8.336240
 11
2.174040
 21
8.335800
  0
LINE
  8
0
 62
     0
  6
CONTINUOUS
 10
2.174040
 20
8.336240
 11
2.173600
 21
8.336240
  0
LINE
  8
0
 62
     0
  6
CONTINUOUS
 10
2.173600
 20
8.336240
 11
2.174040
 21
8.336240
  0
LINE
  8
0
 62
     0
  6
CONTINUOUS
 10
2.174040
 20
8.336240
 11
2.173160
 21
8.336240
  0
LINE
  8
0
 62
     0
  6
CONTINUOUS
 10
2.173160
 20
8.336240
 11
2.173160
 21
8.336680
  0
LINE
  8
0
 62
     0
  6
CONTINUOUS
 10
2.173160
 20
8.336680
 11
2.174040
 21
8.336680
  0
LINE
  8
0
 62
     0
  6
CONTINUOUS
 10
2.174040
 20
8.336680
 11
2.173160
 21
8.336680
  0
LINE
  8
0
 62
     0
  6
CONTINUOUS
 10
2.173160
 20
8.336680
 11
2.172720
 21
8.336680
  0
LINE
  8
0
 62
     0
  6
CONTINUOUS
 10
2.172720
 20
8.336680
 11
2.173600
 21
8.336680
  0
LINE
  8
0
 62
     0
  6
CONTINUOUS
 10
2.173600
 20
8.336680
 11
2.173600
 21
8.337120
  0
LINE
  8
0
 62
     0
  6
CONTINUOUS
 10
2.173600
 20
8.337120
 11
2.172720
 21
8.337120
  0
LINE
  8
0
 62
     0
  6
CONTINUOUS
 10
2.172720
 20
8.337120
 11
2.173600
 21
8.337120
  0
LINE
  8
0
 62
     0
  6
CONTINUOUS
 10
2.173600
 20
8.337120
 11
2.173160
 21
8.337120
  0
LINE
  8
0
 62
     0
  6
CONTINUOUS
 10
2.173160
 20
8.337120
 11
2.172280
 21
8.337120
  0
LINE
  8
0
 62
     0
  6
CONTINUOUS
 10
2.172280
 20
8.337120
 11
2.172280
 21
8.337560
  0
LINE
  8
0
 62
     0
  6
CONTINUOUS
 10
2.172280
 20
8.337560
 11
2.173160
 21
8.337560
  0
LINE
  8
0
 62
     0
  6
CONTINUOUS
 10
2.173160
 20
8.337560
 11
2.172280
 21
8.337560
  0
LINE
  8
0
 62
     0
  6
CONTINUOUS
 10
2.172280
 20
8.337560
 11
2.171840
 21
8.337560
  0
LINE
  8
0
 62
     0
  6
CONTINUOUS
 10
2.171840
 20
8.337560
 11
2.172720
 21
8.337560
  0
LINE
  8
0
 62
     0
  6
CONTINUOUS
 10
2.172720
 20
8.337560
 11
2.171840
 21
8.337560
  0
LINE
  8
0
 62
     0
  6
CONTINUOUS
 10
2.171840
 20
8.337560
 11
2.171840
 21
8.338000
  0
LINE
  8
0
 62
     0
  6
CONTINUOUS
 10
2.171840
 20
8.338000
 11
2.172720
 21
8.338000
  0
LINE
  8
0
 62
     0
  6
CONTINUOUS
 10
2.172720
 20
8.338000
 11
2.172280
 21
8.338000
  0
LINE
  8
0
 62
     0
  6
CONTINUOUS
 10
2.172280
 20
8.338000
 11
2.171840
 21
8.338000
  0
LINE
  8
0
 62
     0
  6
CONTINUOUS
 10
2.171840
 20
8.338000
 11
2.171400
 21
8.338000
  0
LINE
  8
0
 62
     0
  6
CONTINUOUS
 10
2.171400
 20
8.338000
 11
2.172280
 21
8.338000
  0
LINE
  8
0
 62
     0
  6
CONTINUOUS
 10
2.172280
 20
8.338000
 11
2.172280
 21
8.338440
  0
LINE
  8
0
 62
     0
  6
CONTINUOUS
 10
2.172280
 20
8.338440
 11
2.171400
 21
8.338440
  0
LINE
  8
0
 62
     0
  6
CONTINUOUS
 10
2.171400
 20
8.338440
 11
2.171840
 21
8.338440
  0
LINE
  8
0
 62
     0
  6
CONTINUOUS
 10
2.171840
 20
8.338440
 11
2.170960
 21
8.338440
  0
LINE
  8
0
 62
     0
  6
CONTINUOUS
 10
2.170960
 20
8.338440
 11
2.170960
 21
8.338880
  0
LINE
  8
0
 62
     0
  6
CONTINUOUS
 10
2.170960
 20
8.338880
 11
2.171840
 21
8.338880
  0
LINE
  8
0
 62
     0
  6
CONTINUOUS
 10
2.171840
 20
8.338880
 11
2.170960
 21
8.338880
  0
LINE
  8
0
 62
     0
  6
CONTINUOUS
 10
2.170960
 20
8.338880
 11
2.171400
 21
8.338880
  0
LINE
  8
0
 62
     0
  6
CONTINUOUS
 10
2.171400
 20
8.338880
 11
2.171400
 21
8.339320
  0
LINE
  8
0
 62
     0
  6
CONTINUOUS
 10
2.171400
 20
8.339320
 11
2.170960
 21
8.339320
  0
LINE
  8
0
 62
     0
  6
CONTINUOUS
 10
2.170960
 20
8.339320
 11
2.164800
 21
8.339320
  0
LINE
  8
0
 62
     0
  6
CONTINUOUS
 10
2.164800
 20
8.339320
 11
2.164800
 21
8.338880
  0
LINE
  8
0
 62
     0
  6
CONTINUOUS
 10
2.164800
 20
8.338880
 11
2.170960
 21
8.338880
  0
LINE
  8
0
 62
     0
  6
CONTINUOUS
 10
2.170960
 20
8.338880
 11
2.164800
 21
8.338880
  0
LINE
  8
0
 62
     0
  6
CONTINUOUS
 10
2.164800
 20
8.338880
 11
2.164800
 21
8.339320
  0
LINE
  8
0
 62
     0
  6
CONTINUOUS
 10
2.164800
 20
8.339320
 11
2.170960
 21
8.339320
  0
LINE
  8
0
 62
     0
  6
CONTINUOUS
 10
2.170960
 20
8.339320
 11
2.170960
 21
8.338880
  0
LINE
  8
0
 62
     0
  6
CONTINUOUS
 10
2.170960
 20
8.338880
 11
2.164800
 21
8.338880
  0
LINE
  8
0
 62
     0
  6
CONTINUOUS
 10
2.164800
 20
8.338880
 11
2.163920
 21
8.338880
  0
LINE
  8
0
 62
     0
  6
CONTINUOUS
 10
2.163920
 20
8.338880
 11
2.163920
 21
8.338440
  0
LINE
  8
0
 62
     0
  6
CONTINUOUS
 10
2.163920
 20
8.338440
 11
2.164800
 21
8.338440
  0
LINE
  8
0
 62
     0
  6
CONTINUOUS
 10
2.164800
 20
8.338440
 11
2.163920
 21
8.338440
  0
LINE
  8
0
 62
     0
  6
CONTINUOUS
 10
2.163920
 20
8.338440
 11
2.163480
 21
8.338440
  0
LINE
  8
0
 62
     0
  6
CONTINUOUS
 10
2.163480
 20
8.338440
 11
2.164360
 21
8.338440
  0
LINE
  8
0
 62
     0
  6
CONTINUOUS
 10
2.164360
 20
8.338440
 11
2.164360
 21
8.338000
  0
LINE
  8
0
 62
     0
  6
CONTINUOUS
 10
2.164360
 20
8.338000
 11
2.163480
 21
8.338000
  0
LINE
  8
0
 62
     0
  6
CONTINUOUS
 10
2.163480
 20
8.338000
 11
2.164360
 21
8.338000
  0
LINE
  8
0
 62
     0
  6
CONTINUOUS
 10
2.164360
 20
8.338000
 11
2.163920
 21
8.338000
  0
LINE
  8
0
 62
     0
  6
CONTINUOUS
 10
2.163920
 20
8.338000
 11
2.163040
 21
8.338000
  0
LINE
  8
0
 62
     0
  6
CONTINUOUS
 10
2.163040
 20
8.338000
 11
2.163040
 21
8.337560
  0
LINE
  8
0
 62
     0
  6
CONTINUOUS
 10
2.163040
 20
8.337560
 11
2.163920
 21
8.337560
  0
LINE
  8
0
 62
     0
  6
CONTINUOUS
 10
2.163920
 20
8.337560
 11
2.163040
 21
8.337560
  0
LINE
  8
0
 62
     0
  6
CONTINUOUS
 10
2.163040
 20
8.337560
 11
2.162600
 21
8.337560
  0
LINE
  8
0
 62
     0
  6
CONTINUOUS
 10
2.162600
 20
8.337560
 11
2.163480
 21
8.337560
  0
LINE
  8
0
 62
     0
  6
CONTINUOUS
 10
2.163480
 20
8.337560
 11
2.162600
 21
8.337560
  0
LINE
  8
0
 62
     0
  6
CONTINUOUS
 10
2.162600
 20
8.337560
 11
2.162600
 21
8.337120
  0
LINE
  8
0
 62
     0
  6
CONTINUOUS
 10
2.162600
 20
8.337120
 11
2.163480
 21
8.337120
  0
LINE
  8
0
 62
     0
  6
CONTINUOUS
 10
2.163480
 20
8.337120
 11
2.163040
 21
8.337120
  0
LINE
  8
0
 62
     0
  6
CONTINUOUS
 10
2.163040
 20
8.337120
 11
2.162160
 21
8.337120
  0
LINE
  8
0
 62
     0
  6
CONTINUOUS
 10
2.162160
 20
8.337120
 11
2.163040
 21
8.337120
  0
LINE
  8
0
 62
     0
  6
CONTINUOUS
 10
2.163040
 20
8.337120
 11
2.163040
 21
8.336680
  0
LINE
  8
0
 62
     0
  6
CONTINUOUS
 10
2.163040
 20
8.336680
 11
2.162160
 21
8.336680
  0
LINE
  8
0
 62
     0
  6
CONTINUOUS
 10
2.162160
 20
8.336680
 11
2.161720
 21
8.336680
  0
LINE
  8
0
 62
     0
  6
CONTINUOUS
 10
2.161720
 20
8.336680
 11
2.163040
 21
8.336680
  0
LINE
  8
0
 62
     0
  6
CONTINUOUS
 10
2.163040
 20
8.336680
 11
2.162600
 21
8.336680
  0
LINE
  8
0
 62
     0
  6
CONTINUOUS
 10
2.162600
 20
8.336680
 11
2.161720
 21
8.336680
  0
LINE
  8
0
 62
     0
  6
CONTINUOUS
 10
2.161720
 20
8.336680
 11
2.161720
 21
8.336240
  0
LINE
  8
0
 62
     0
  6
CONTINUOUS
 10
2.161720
 20
8.336240
 11
2.162600
 21
8.336240
  0
LINE
  8
0
 62
     0
  6
CONTINUOUS
 10
2.162600
 20
8.336240
 11
2.161720
 21
8.336240
  0
LINE
  8
0
 62
     0
  6
CONTINUOUS
 10
2.161720
 20
8.336240
 11
2.162160
 21
8.336240
  0
LINE
  8
0
 62
     0
  6
CONTINUOUS
 10
2.162160
 20
8.336240
 11
2.162160
 21
8.335800
  0
LINE
  8
0
 62
     0
  6
CONTINUOUS
 10
2.162160
 20
8.335800
 11
2.161720
 21
8.335800
  0
LINE
  8
0
 62
     0
  6
CONTINUOUS
 10
2.162160
 20
8.335800
 11
2.161720
 21
8.336240
  0
LINE
  8
0
 62
     0
  6
CONTINUOUS
 10
2.161720
 20
8.336240
 11
2.164800
 21
8.339320
  0
LINE
  8
0
 62
     0
  6
CONTINUOUS
 10
2.164800
 20
8.339320
 11
2.165240
 21
8.338880
  0
LINE
  8
0
 62
     0
  6
CONTINUOUS
 10
2.165240
 20
8.338880
 11
2.162160
 21
8.335800
  0
LINE
  8
0
 62
     0
  6
CONTINUOUS
 10
2.162160
 20
8.336240
 11
2.162160
 21
8.308080
  0
LINE
  8
0
 62
     0
  6
CONTINUOUS
 10
2.162160
 20
8.308080
 11
2.161280
 21
8.308080
  0
LINE
  8
0
 62
     0
  6
CONTINUOUS
 10
2.143680
 20
8.308080
 11
2.143240
 21
8.308080
  0
LINE
  8
0
 62
     0
  6
CONTINUOUS
 10
2.143240
 20
8.308080
 11
2.143240
 21
8.336240
  0
LINE
  8
0
 62
     0
  6
CONTINUOUS
 10
2.143240
 20
8.336240
 11
2.143240
 21
8.308080
  0
LINE
  8
0
 62
     0
  6
CONTINUOUS
 10
2.143240
 20
8.308080
 11
2.143240
 21
8.336240
  0
LINE
  8
0
 62
     0
  6
CONTINUOUS
 10
2.143240
 20
8.336240
 11
2.142800
 21
8.336240
  0
LINE
  8
0
 62
     0
  6
CONTINUOUS
 10
2.142800
 20
8.336240
 11
2.142800
 21
8.308080
  0
LINE
  8
0
 62
     0
  6
CONTINUOUS
 10
2.142800
 20
8.308080
 11
2.142800
 21
8.336240
  0
LINE
  8
0
 62
     0
  6
CONTINUOUS
 10
2.142800
 20
8.336240
 11
2.143680
 21
8.336240
  0
LINE
  8
0
 62
     0
  6
CONTINUOUS
 10
2.143680
 20
8.336240
 11
2.143680
 21
8.308080
  0
LINE
  8
0
 62
     0
  6
CONTINUOUS
 10
2.143680
 20
8.308080
 11
2.142800
 21
8.308080
  0
LINE
  8
0
 62
     0
  6
CONTINUOUS
 10
2.143680
 20
8.308080
 11
2.143680
 21
8.336240
  0
LINE
  8
0
 62
     0
  6
CONTINUOUS
 10
2.143240
 20
8.336240
 11
2.142800
 21
8.336240
  0
LINE
  8
0
 62
     0
  6
CONTINUOUS
 10
2.142800
 20
8.336240
 11
2.143240
 21
8.336240
  0
LINE
  8
0
 62
     0
  6
CONTINUOUS
 10
2.143240
 20
8.336240
 11
2.143240
 21
8.335800
  0
LINE
  8
0
 62
     0
  6
CONTINUOUS
 10
2.143240
 20
8.335800
 11
2.142800
 21
8.335800
  0
LINE
  8
0
 62
     0
  6
CONTINUOUS
 10
2.143240
 20
8.335800
 11
2.140160
 21
8.338880
  0
LINE
  8
0
 62
     0
  6
CONTINUOUS
 10
2.140160
 20
8.338880
 11
2.140160
 21
8.339320
  0
LINE
  8
0
 62
     0
  6
CONTINUOUS
 10
2.140160
 20
8.339320
 11
2.143680
 21
8.336240
  0
LINE
  8
0
 62
     0
  6
CONTINUOUS
 10
2.143680
 20
8.336240
 11
2.143240
 21
8.335800
  0
LINE
  8
0
 62
     0
  6
CONTINUOUS
 10
2.143240
 20
8.336680
 11
2.142360
 21
8.336680
  0
LINE
  8
0
 62
     0
  6
CONTINUOUS
 10
2.142360
 20
8.336680
 11
2.142360
 21
8.336240
  0
LINE
  8
0
 62
     0
  6
CONTINUOUS
 10
2.142360
 20
8.336240
 11
2.143240
 21
8.336240
  0
LINE
  8
0
 62
     0
  6
CONTINUOUS
 10
2.143240
 20
8.336680
 11
2.142360
 21
8.336680
  0
LINE
  8
0
 62
     0
  6
CONTINUOUS
 10
2.142360
 20
8.336680
 11
2.141920
 21
8.336680
  0
LINE
  8
0
 62
     0
  6
CONTINUOUS
 10
2.141920
 20
8.336680
 11
2.142800
 21
8.336680
  0
LINE
  8
0
 62
     0
  6
CONTINUOUS
 10
2.142800
 20
8.336680
 11
2.142800
 21
8.337120
  0
LINE
  8
0
 62
     0
  6
CONTINUOUS
 10
2.142800
 20
8.337120
 11
2.141920
 21
8.337120
  0
LINE
  8
0
 62
     0
  6
CONTINUOUS
 10
2.141920
 20
8.337120
 11
2.142800
 21
8.337120
  0
LINE
  8
0
 62
     0
  6
CONTINUOUS
 10
2.142800
 20
8.337120
 11
2.142360
 21
8.337120
  0
LINE
  8
0
 62
     0
  6
CONTINUOUS
 10
2.142360
 20
8.337120
 11
2.141480
 21
8.337120
  0
LINE
  8
0
 62
     0
  6
CONTINUOUS
 10
2.141480
 20
8.337120
 11
2.141480
 21
8.337560
  0
LINE
  8
0
 62
     0
  6
CONTINUOUS
 10
2.141480
 20
8.337560
 11
2.142360
 21
8.337560
  0
LINE
  8
0
 62
     0
  6
CONTINUOUS
 10
2.142360
 20
8.337560
 11
2.141480
 21
8.337560
  0
LINE
  8
0
 62
     0
  6
CONTINUOUS
 10
2.141480
 20
8.337560
 11
2.141040
 21
8.337560
  0
LINE
  8
0
 62
     0
  6
CONTINUOUS
 10
2.141040
 20
8.337560
 11
2.141920
 21
8.337560
  0
LINE
  8
0
 62
     0
  6
CONTINUOUS
 10
2.141920
 20
8.337560
 11
2.141040
 21
8.337560
  0
LINE
  8
0
 62
     0
  6
CONTINUOUS
 10
2.141040
 20
8.337560
 11
2.141040
 21
8.338000
  0
LINE
  8
0
 62
     0
  6
CONTINUOUS
 10
2.141040
 20
8.338000
 11
2.141920
 21
8.338000
  0
LINE
  8
0
 62
     0
  6
CONTINUOUS
 10
2.141920
 20
8.338000
 11
2.141480
 21
8.338000
  0
LINE
  8
0
 62
     0
  6
CONTINUOUS
 10
2.141480
 20
8.338000
 11
2.140600
 21
8.338000
  0
LINE
  8
0
 62
     0
  6
CONTINUOUS
 10
2.140600
 20
8.338000
 11
2.141480
 21
8.338000
  0
LINE
  8
0
 62
     0
  6
CONTINUOUS
 10
2.141480
 20
8.338000
 11
2.141480
 21
8.338440
  0
LINE
  8
0
 62
     0
  6
CONTINUOUS
 10
2.141480
 20
8.338440
 11
2.140600
 21
8.338440
  0
LINE
  8
0
 62
     0
  6
CONTINUOUS
 10
2.140600
 20
8.338440
 11
2.140160
 21
8.338440
  0
LINE
  8
0
 62
     0
  6
CONTINUOUS
 10
2.140160
 20
8.338440
 11
2.141040
 21
8.338440
  0
LINE
  8
0
 62
     0
  6
CONTINUOUS
 10
2.141040
 20
8.338440
 11
2.140160
 21
8.338440
  0
LINE
  8
0
 62
     0
  6
CONTINUOUS
 10
2.140160
 20
8.338440
 11
2.140160
 21
8.338880
  0
LINE
  8
0
 62
     0
  6
CONTINUOUS
 10
2.140160
 20
8.338880
 11
2.141040
 21
8.338880
  0
LINE
  8
0
 62
     0
  6
CONTINUOUS
 10
2.141040
 20
8.338880
 11
2.140600
 21
8.338880
  0
LINE
  8
0
 62
     0
  6
CONTINUOUS
 10
2.140600
 20
8.338880
 11
2.140160
 21
8.338880
  0
LINE
  8
0
 62
     0
  6
CONTINUOUS
 10
2.140160
 20
8.338880
 11
2.140600
 21
8.338880
  0
LINE
  8
0
 62
     0
  6
CONTINUOUS
 10
2.140600
 20
8.338880
 11
2.140600
 21
8.339320
  0
LINE
  8
0
 62
     0
  6
CONTINUOUS
 10
2.140600
 20
8.339320
 11
2.140160
 21
8.339320
  0
LINE
  8
0
 62
     0
  6
CONTINUOUS
 10
2.140160
 20
8.339320
 11
2.134000
 21
8.339320
  0
LINE
  8
0
 62
     0
  6
CONTINUOUS
 10
2.134000
 20
8.339320
 11
2.134000
 21
8.338880
  0
LINE
  8
0
 62
     0
  6
CONTINUOUS
 10
2.134000
 20
8.338880
 11
2.140160
 21
8.338880
  0
LINE
  8
0
 62
     0
  6
CONTINUOUS
 10
2.140160
 20
8.338880
 11
2.134000
 21
8.338880
  0
LINE
  8
0
 62
     0
  6
CONTINUOUS
 10
2.134000
 20
8.338880
 11
2.134000
 21
8.339320
  0
LINE
  8
0
 62
     0
  6
CONTINUOUS
 10
2.134000
 20
8.339320
 11
2.140160
 21
8.339320
  0
LINE
  8
0
 62
     0
  6
CONTINUOUS
 10
2.140160
 20
8.339320
 11
2.140160
 21
8.338880
  0
LINE
  8
0
 62
     0
  6
CONTINUOUS
 10
2.140160
 20
8.338880
 11
2.134000
 21
8.338880
  0
LINE
  8
0
 62
     0
  6
CONTINUOUS
 10
2.134000
 20
8.338880
 11
2.133120
 21
8.338880
  0
LINE
  8
0
 62
     0
  6
CONTINUOUS
 10
2.133120
 20
8.338880
 11
2.133120
 21
8.338440
  0
LINE
  8
0
 62
     0
  6
CONTINUOUS
 10
2.133120
 20
8.338440
 11
2.134000
 21
8.338440
  0
LINE
  8
0
 62
     0
  6
CONTINUOUS
 10
2.134000
 20
8.338440
 11
2.133120
 21
8.338440
  0
LINE
  8
0
 62
     0
  6
CONTINUOUS
 10
2.133120
 20
8.338440
 11
2.132680
 21
8.338440
  0
LINE
  8
0
 62
     0
  6
CONTINUOUS
 10
2.132680
 20
8.338440
 11
2.133560
 21
8.338440
  0
LINE
  8
0
 62
     0
  6
CONTINUOUS
 10
2.133560
 20
8.338440
 11
2.133560
 21
8.338000
  0
LINE
  8
0
 62
     0
  6
CONTINUOUS
 10
2.133560
 20
8.338000
 11
2.132680
 21
8.338000
  0
LINE
  8
0
 62
     0
  6
CONTINUOUS
 10
2.132680
 20
8.338000
 11
2.133560
 21
8.338000
  0
LINE
  8
0
 62
     0
  6
CONTINUOUS
 10
2.133560
 20
8.338000
 11
2.133120
 21
8.338000
  0
LINE
  8
0
 62
     0
  6
CONTINUOUS
 10
2.133120
 20
8.338000
 11
2.132240
 21
8.338000
  0
LINE
  8
0
 62
     0
  6
CONTINUOUS
 10
2.132240
 20
8.338000
 11
2.132240
 21
8.337560
  0
LINE
  8
0
 62
     0
  6
CONTINUOUS
 10
2.132240
 20
8.337560
 11
2.133120
 21
8.337560
  0
LINE
  8
0
 62
     0
  6
CONTINUOUS
 10
2.133120
 20
8.337560
 11
2.132240
 21
8.337560
  0
LINE
  8
0
 62
     0
  6
CONTINUOUS
 10
2.132240
 20
8.337560
 11
2.131800
 21
8.337560
  0
LINE
  8
0
 62
     0
  6
CONTINUOUS
 10
2.131800
 20
8.337560
 11
2.132680
 21
8.337560
  0
LINE
  8
0
 62
     0
  6
CONTINUOUS
 10
2.132680
 20
8.337560
 11
2.131800
 21
8.337560
  0
LINE
  8
0
 62
     0
  6
CONTINUOUS
 10
2.131800
 20
8.337560
 11
2.131800
 21
8.337120
  0
LINE
  8
0
 62
     0
  6
CONTINUOUS
 10
2.131800
 20
8.337120
 11
2.132680
 21
8.337120
  0
LINE
  8
0
 62
     0
  6
CONTINUOUS
 10
2.132680
 20
8.337120
 11
2.132240
 21
8.337120
  0
LINE
  8
0
 62
     0
  6
CONTINUOUS
 10
2.132240
 20
8.337120
 11
2.131360
 21
8.337120
  0
LINE
  8
0
 62
     0
  6
CONTINUOUS
 10
2.131360
 20
8.337120
 11
2.132240
 21
8.337120
  0
LINE
  8
0
 62
     0
  6
CONTINUOUS
 10
2.132240
 20
8.337120
 11
2.132240
 21
8.336680
  0
LINE
  8
0
 62
     0
  6
CONTINUOUS
 10
2.132240
 20
8.336680
 11
2.131360
 21
8.336680
  0
LINE
  8
0
 62
     0
  6
CONTINUOUS
 10
2.131360
 20
8.336680
 11
2.130920
 21
8.336680
  0
LINE
  8
0
 62
     0
  6
CONTINUOUS
 10
2.130920
 20
8.336680
 11
2.131800
 21
8.336680
  0
LINE
  8
0
 62
     0
  6
CONTINUOUS
 10
2.131800
 20
8.336680
 11
2.130920
 21
8.336680
  0
LINE
  8
0
 62
     0
  6
CONTINUOUS
 10
2.130920
 20
8.336680
 11
2.130920
 21
8.336240
  0
LINE
  8
0
 62
     0
  6
CONTINUOUS
 10
2.130920
 20
8.336240
 11
2.131800
 21
8.336240
  0
LINE
  8
0
 62
     0
  6
CONTINUOUS
 10
2.131800
 20
8.336240
 11
2.131360
 21
8.336240
  0
LINE
  8
0
 62
     0
  6
CONTINUOUS
 10
2.131360
 20
8.336240
 11
2.130920
 21
8.336240
  0
LINE
  8
0
 62
     0
  6
CONTINUOUS
 10
2.130920
 20
8.336240
 11
2.131360
 21
8.336240
  0
LINE
  8
0
 62
     0
  6
CONTINUOUS
 10
2.131360
 20
8.336240
 11
2.131360
 21
8.335800
  0
LINE
  8
0
 62
     0
  6
CONTINUOUS
 10
2.131360
 20
8.335800
 11
2.130920
 21
8.335800
  0
LINE
  8
0
 62
     0
  6
CONTINUOUS
 10
2.130920
 20
8.336240
 11
2.130920
 21
8.308080
  0
LINE
  8
0
 62
     0
  6
CONTINUOUS
 10
2.130920
 20
8.308080
 11
2.130920
 21
8.336240
  0
LINE
  8
0
 62
     0
  6
CONTINUOUS
 10
2.130920
 20
8.336240
 11
2.130480
 21
8.336240
  0
LINE
  8
0
 62
     0
  6
CONTINUOUS
 10
2.130480
 20
8.336240
 11
2.130480
 21
8.308080
  0
LINE
  8
0
 62
     0
  6
CONTINUOUS
 10
2.130480
 20
8.308080
 11
2.130480
 21
8.336240
  0
LINE
  8
0
 62
     0
  6
CONTINUOUS
 10
2.130480
 20
8.336240
 11
2.131360
 21
8.336240
  0
LINE
  8
0
 62
     0
  6
CONTINUOUS
 10
2.131360
 20
8.336240
 11
2.131360
 21
8.308080
  0
LINE
  8
0
 62
     0
  6
CONTINUOUS
 10
2.131360
 20
8.308080
 11
2.130920
 21
8.308080
  0
LINE
  8
0
 62
     0
  6
CONTINUOUS
 10
2.130920
 20
8.308080
 11
2.130920
 21
8.336240
  0
LINE
  8
0
 62
     0
  6
CONTINUOUS
 10
2.130920
 20
8.336240
 11
2.131360
 21
8.336240
  0
LINE
  8
0
 62
     0
  6
CONTINUOUS
 10
2.131360
 20
8.336240
 11
2.131360
 21
8.308080
  0
LINE
  8
0
 62
     0
  6
CONTINUOUS
 10
2.131360
 20
8.308080
 11
2.130480
 21
8.308080
  0
LINE
  8
0
 62
     0
  6
CONTINUOUS
 10
2.131360
 20
8.335800
 11
2.130920
 21
8.336240
  0
LINE
  8
0
 62
     0
  6
CONTINUOUS
 10
2.130920
 20
8.336240
 11
2.133560
 21
8.339320
  0
LINE
  8
0
 62
     0
  6
CONTINUOUS
 10
2.133560
 20
8.339320
 11
2.134440
 21
8.338880
  0
LINE
  8
0
 62
     0
  6
CONTINUOUS
 10
2.134440
 20
8.338880
 11
2.131360
 21
8.335800
  0
LINE
  8
0
 62
     0
  6
CONTINUOUS
 10
2.133120
 20
8.338880
 11
2.134440
 21
8.338880
  0
LINE
  8
0
 62
     0
  6
CONTINUOUS
 10
2.134000
 20
8.338880
 11
2.133560
 21
8.338880
  0
LINE
  8
0
 62
     0
  6
CONTINUOUS
 10
2.133560
 20
8.338880
 11
2.133120
 21
8.338880
  0
LINE
  8
0
 62
     0
  6
CONTINUOUS
 10
2.133560
 20
8.339320
 11
2.134000
 21
8.339320
  0
LINE
  8
0
 62
     0
  6
CONTINUOUS
 10
2.134000
 20
8.339320
 11
2.134000
 21
8.338880
  0
LINE
  8
0
 62
     0
  6
CONTINUOUS
 10
2.134000
 20
8.339320
 11
2.140160
 21
8.339320
  0
LINE
  8
0
 62
     0
  6
CONTINUOUS
 10
2.140160
 20
8.339320
 11
2.134000
 21
8.339320
  0
LINE
  8
0
 62
     0
  6
CONTINUOUS
 10
2.164360
 20
8.339320
 11
2.164800
 21
8.339320
  0
LINE
  8
0
 62
     0
  6
CONTINUOUS
 10
2.164800
 20
8.339320
 11
2.164800
 21
8.338880
  0
LINE
  8
0
 62
     0
  6
CONTINUOUS
 10
2.164800
 20
8.338880
 11
2.164360
 21
8.338880
  0
LINE
  8
0
 62
     0
  6
CONTINUOUS
 10
2.164360
 20
8.338880
 11
2.165240
 21
8.338880
  0
LINE
  8
0
 62
     0
  6
CONTINUOUS
 10
2.164800
 20
8.339320
 11
2.170960
 21
8.339320
  0
LINE
  8
0
 62
     0
  6
CONTINUOUS
 10
2.170960
 20
8.339320
 11
2.164800
 21
8.339320
  0
LINE
  8
0
 62
     0
  6
CONTINUOUS
 10
2.161720
 20
8.336240
 11
2.174040
 21
8.336240
  0
LINE
  8
0
 62
     0
  6
CONTINUOUS
 10
2.253680
 20
8.308520
 11
2.254560
 21
8.308520
  0
LINE
  8
0
 62
     0
  6
CONTINUOUS
 10
2.254560
 20
8.308520
 11
2.254560
 21
8.298840
  0
LINE
  8
0
 62
     0
  6
CONTINUOUS
 10
2.254560
 20
8.298840
 11
2.253680
 21
8.298840
  0
LINE
  8
0
 62
     0
  6
CONTINUOUS
 10
2.253680
 20
8.298840
 11
2.253680
 21
8.308520
  0
LINE
  8
0
 62
     0
  6
CONTINUOUS
 10
2.253680
 20
8.308520
 11
2.253680
 21
8.298840
  0
LINE
  8
0
 62
     0
  6
CONTINUOUS
 10
2.253680
 20
8.298840
 11
2.254120
 21
8.298840
  0
LINE
  8
0
 62
     0
  6
CONTINUOUS
 10
2.254120
 20
8.298840
 11
2.254120
 21
8.308520
  0
LINE
  8
0
 62
     0
  6
CONTINUOUS
 10
2.254120
 20
8.308520
 11
2.253680
 21
8.308520
  0
LINE
  8
0
 62
     0
  6
CONTINUOUS
 10
2.254120
 20
8.308520
 11
2.254120
 21
8.298840
  0
LINE
  8
0
 62
     0
  6
CONTINUOUS
 10
2.254120
 20
8.298840
 11
2.038520
 21
8.298840
  0
LINE
  8
0
 62
     0
  6
CONTINUOUS
 10
2.038520
 20
8.298840
 11
2.254120
 21
8.298840
  0
LINE
  8
0
 62
     0
  6
CONTINUOUS
 10
2.254120
 20
8.298840
 11
2.038520
 21
8.298840
  0
LINE
  8
0
 62
     0
  6
CONTINUOUS
 10
2.038520
 20
8.298840
 11
2.038520
 21
8.299280
  0
LINE
  8
0
 62
     0
  6
CONTINUOUS
 10
2.038520
 20
8.299280
 11
2.254120
 21
8.299280
  0
LINE
  8
0
 62
     0
  6
CONTINUOUS
 10
2.254120
 20
8.299280
 11
2.254120
 21
8.298840
  0
LINE
  8
0
 62
     0
  6
CONTINUOUS
 10
2.254120
 20
8.298840
 11
2.254120
 21
8.308520
  0
LINE
  8
0
 62
     0
  6
CONTINUOUS
 10
2.254560
 20
8.308520
 11
2.254560
 21
8.298840
  0
LINE
  8
0
 62
     0
  6
CONTINUOUS
 10
2.254560
 20
8.298840
 11
2.254120
 21
8.298840
  0
LINE
  8
0
 62
     0
  6
CONTINUOUS
 10
2.254120
 20
8.299280
 11
2.038520
 21
8.299280
  0
LINE
  8
0
 62
     0
  6
CONTINUOUS
 10
2.038520
 20
8.299280
 11
2.254120
 21
8.299280
  0
LINE
  8
0
 62
     0
  6
CONTINUOUS
 10
2.254120
 20
8.299280
 11
2.254120
 21
8.298840
  0
LINE
  8
0
 62
     0
  6
CONTINUOUS
 10
2.254120
 20
8.298840
 11
2.038520
 21
8.298840
  0
LINE
  8
0
 62
     0
  6
CONTINUOUS
 10
2.038520
 20
8.298840
 11
2.038080
 21
8.298840
  0
LINE
  8
0
 62
     0
  6
CONTINUOUS
 10
2.038080
 20
8.298840
 11
2.038080
 21
8.308960
  0
LINE
  8
0
 62
     0
  6
CONTINUOUS
 10
2.038080
 20
8.308960
 11
2.038080
 21
8.298840
  0
LINE
  8
0
 62
     0
  6
CONTINUOUS
 10
2.038080
 20
8.298840
 11
2.038080
 21
8.308960
  0
LINE
  8
0
 62
     0
  6
CONTINUOUS
 10
2.038080
 20
8.308960
 11
2.038520
 21
8.308960
  0
LINE
  8
0
 62
     0
  6
CONTINUOUS
 10
2.038520
 20
8.308960
 11
2.038520
 21
8.298840
  0
LINE
  8
0
 62
     0
  6
CONTINUOUS
 10
2.038520
 20
8.298840
 11
2.038080
 21
8.298840
  0
LINE
  8
0
 62
     0
  6
CONTINUOUS
 10
2.038520
 20
8.298840
 11
2.038520
 21
8.308960
  0
LINE
  8
0
 62
     0
  6
CONTINUOUS
 10
2.038520
 20
8.308960
 11
2.038520
 21
8.298840
  0
LINE
  8
0
 62
     0
  6
CONTINUOUS
 10
2.038520
 20
8.298840
 11
2.038520
 21
8.308960
  0
POLYLINE
  8
0
 62
     0
  6
CONTINUOUS
 66
     1
 40
0.000000
 41
0.000000
  0
VERTEX
  8
0
 62
     0
  6
CONTINUOUS
 10
2.097040
 20
8.373200
  0
VERTEX
  8
0
 62
     0
  6
CONTINUOUS
 10
2.097480
 20
8.375400
  0
VERTEX
  8
0
 62
     0
  6
CONTINUOUS
 10
2.098800
 20
8.382440
  0
VERTEX
  8
0
 62
     0
  6
CONTINUOUS
 10
2.101000
 20
8.392120
  0
VERTEX
  8
0
 62
     0
  6
CONTINUOUS
 10
2.103200
 20
8.403120
  0
VERTEX
  8
0
 62
     0
  6
CONTINUOUS
 10
2.105400
 20
8.413680
  0
VERTEX
  8
0
 62
     0
  6
CONTINUOUS
 10
2.107600
 20
8.423360
  0
VERTEX
  8
0
 62
     0
  6
CONTINUOUS
 10
2.108920
 20
8.430400
  0
VERTEX
  8
0
 62
     0
  6
CONTINUOUS
 10
2.109800
 20
8.433040
  0
SEQEND
  8
0
  0
POLYLINE
  8
0
 62
     0
  6
CONTINUOUS
 66
     1
 40
0.000000
 41
0.000000
  0
VERTEX
  8
0
 62
     0
  6
CONTINUOUS
 10
2.109800
 20
8.433040
  0
VERTEX
  8
0
 62
     0
  6
CONTINUOUS
 10
2.110680
 20
8.433040
  0
VERTEX
  8
0
 62
     0
  6
CONTINUOUS
 10
2.112000
 20
8.433040
  0
VERTEX
  8
0
 62
     0
  6
CONTINUOUS
 10
2.113760
 20
8.433040
  0
VERTEX
  8
0
 62
     0
  6
CONTINUOUS
 10
2.115080
 20
8.433040
  0
VERTEX
  8
0
 62
     0
  6
CONTINUOUS
 10
2.116400
 20
8.433040
  0
VERTEX
  8
0
 62
     0
  6
CONTINUOUS
 10
2.117280
 20
8.433040
  0
VERTEX
  8
0
 62
     0
  6
CONTINUOUS
 10
2.117720
 20
8.433040
  0
SEQEND
  8
0
  0
POLYLINE
  8
0
 62
     0
  6
CONTINUOUS
 66
     1
 40
0.000000
 41
0.000000
  0
VERTEX
  8
0
 62
     0
  6
CONTINUOUS
 10
2.117720
 20
8.433040
  0
VERTEX
  8
0
 62
     0
  6
CONTINUOUS
 10
2.117280
 20
8.431720
  0
VERTEX
  8
0
 62
     0
  6
CONTINUOUS
 10
2.116840
 20
8.429080
  0
VERTEX
  8
0
 62
     0
  6
CONTINUOUS
 10
2.115960
 20
8.424680
  0
VERTEX
  8
0
 62
     0
  6
CONTINUOUS
 10
2.115080
 20
8.420280
  0
VERTEX
  8
0
 62
     0
  6
CONTINUOUS
 10
2.113760
 20
8.415880
  0
VERTEX
  8
0
 62
     0
  6
CONTINUOUS
 10
2.112880
 20
8.411480
  0
VERTEX
  8
0
 62
     0
  6
CONTINUOUS
 10
2.112440
 20
8.408840
  0
VERTEX
  8
0
 62
     0
  6
CONTINUOUS
 10
2.112440
 20
8.407960
  0
SEQEND
  8
0
  0
POLYLINE
  8
0
 62
     0
  6
CONTINUOUS
 66
     1
 40
0.000000
 41
0.000000
  0
VERTEX
  8
0
 62
     0
  6
CONTINUOUS
 10
2.112440
 20
8.407960
  0
VERTEX
  8
0
 62
     0
  6
CONTINUOUS
 10
2.113760
 20
8.407960
  0
VERTEX
  8
0
 62
     0
  6
CONTINUOUS
 10
2.117280
 20
8.407960
  0
VERTEX
  8
0
 62
     0
  6
CONTINUOUS
 10
2.122120
 20
8.407960
  0
VERTEX
  8
0
 62
     0
  6
CONTINUOUS
 10
2.127840
 20
8.407960
  0
VERTEX
  8
0
 62
     0
  6
CONTINUOUS
 10
2.133560
 20
8.407960
  0
VERTEX
  8
0
 62
     0
  6
CONTINUOUS
 10
2.138400
 20
8.407960
  0
VERTEX
  8
0
 62
     0
  6
CONTINUOUS
 10
2.141920
 20
8.407960
  0
VERTEX
  8
0
 62
     0
  6
CONTINUOUS
 10
2.143680
 20
8.407960
  0
SEQEND
  8
0
  0
POLYLINE
  8
0
 62
     0
  6
CONTINUOUS
 66
     1
 40
0.000000
 41
0.000000
  0
VERTEX
  8
0
 62
     0
  6
CONTINUOUS
 10
2.143680
 20
8.407960
  0
VERTEX
  8
0
 62
     0
  6
CONTINUOUS
 10
2.143680
 20
8.408840
  0
VERTEX
  8
0
 62
     0
  6
CONTINUOUS
 10
2.144120
 20
8.411480
  0
VERTEX
  8
0
 62
     0
  6
CONTINUOUS
 10
2.145000
 20
8.415880
  0
VERTEX
  8
0
 62
     0
  6
CONTINUOUS
 10
2.145880
 20
8.420280
  0
VERTEX
  8
0
 62
     0
  6
CONTINUOUS
 10
2.146760
 20
8.424680
  0
VERTEX
  8
0
 62
     0
  6
CONTINUOUS
 10
2.147640
 20
8.429080
  0
VERTEX
  8
0
 62
     0
  6
CONTINUOUS
 10
2.148080
 20
8.431720
  0
VERTEX
  8
0
 62
     0
  6
CONTINUOUS
 10
2.148520
 20
8.433040
  0
SEQEND
  8
0
  0
POLYLINE
  8
0
 62
     0
  6
CONTINUOUS
 66
     1
 40
0.000000
 41
0.000000
  0
VERTEX
  8
0
 62
     0
  6
CONTINUOUS
 10
2.148520
 20
8.433040
  0
VERTEX
  8
0
 62
     0
  6
CONTINUOUS
 10
2.149400
 20
8.433040
  0
VERTEX
  8
0
 62
     0
  6
CONTINUOUS
 10
2.150720
 20
8.433040
  0
VERTEX
  8
0
 62
     0
  6
CONTINUOUS
 10
2.152480
 20
8.433040
  0
VERTEX
  8
0
 62
     0
  6
CONTINUOUS
 10
2.153800
 20
8.433040
  0
VERTEX
  8
0
 62
     0
  6
CONTINUOUS
 10
2.155120
 20
8.433040
  0
VERTEX
  8
0
 62
     0
  6
CONTINUOUS
 10
2.156000
 20
8.433040
  0
VERTEX
  8
0
 62
     0
  6
CONTINUOUS
 10
2.156440
 20
8.433040
  0
SEQEND
  8
0
  0
POLYLINE
  8
0
 62
     0
  6
CONTINUOUS
 66
     1
 40
0.000000
 41
0.000000
  0
VERTEX
  8
0
 62
     0
  6
CONTINUOUS
 10
2.156440
 20
8.433040
  0
VERTEX
  8
0
 62
     0
  6
CONTINUOUS
 10
2.155560
 20
8.430400
  0
VERTEX
  8
0
 62
     0
  6
CONTINUOUS
 10
2.154240
 20
8.423360
  0
VERTEX
  8
0
 62
     0
  6
CONTINUOUS
 10
2.152480
 20
8.413680
  0
VERTEX
  8
0
 62
     0
  6
CONTINUOUS
 10
2.150280
 20
8.403120
  0
VERTEX
  8
0
 62
     0
  6
CONTINUOUS
 10
2.147640
 20
8.392120
  0
VERTEX
  8
0
 62
     0
  6
CONTINUOUS
 10
2.145880
 20
8.382440
  0
VERTEX
  8
0
 62
     0
  6
CONTINUOUS
 10
2.144560
 20
8.375400
  0
VERTEX
  8
0
 62
     0
  6
CONTINUOUS
 10
2.144120
 20
8.373200
  0
SEQEND
  8
0
  0
POLYLINE
  8
0
 62
     0
  6
CONTINUOUS
 66
     1
 40
0.000000
 41
0.000000
  0
VERTEX
  8
0
 62
     0
  6
CONTINUOUS
 10
2.144120
 20
8.373200
  0
VERTEX
  8
0
 62
     0
  6
CONTINUOUS
 10
2.143680
 20
8.373200
  0
VERTEX
  8
0
 62
     0
  6
CONTINUOUS
 10
2.142800
 20
8.373200
  0
VERTEX
  8
0
 62
     0
  6
CONTINUOUS
 10
2.141480
 20
8.373200
  0
VERTEX
  8
0
 62
     0
  6
CONTINUOUS
 10
2.140160
 20
8.373200
  0
VERTEX
  8
0
 62
     0
  6
CONTINUOUS
 10
2.138400
 20
8.373200
  0
VERTEX
  8
0
 62
     0
  6
CONTINUOUS
 10
2.137080
 20
8.373200
  0
VERTEX
  8
0
 62
     0
  6
CONTINUOUS
 10
2.136200
 20
8.373200
  0
SEQEND
  8
0
  0
POLYLINE
  8
0
 62
     0
  6
CONTINUOUS
 66
     1
 40
0.000000
 41
0.000000
  0
VERTEX
  8
0
 62
     0
  6
CONTINUOUS
 10
2.136200
 20
8.373200
  0
VERTEX
  8
0
 62
     0
  6
CONTINUOUS
 10
2.136200
 20
8.374080
  0
VERTEX
  8
0
 62
     0
  6
CONTINUOUS
 10
2.137080
 20
8.377600
  0
VERTEX
  8
0
 62
     0
  6
CONTINUOUS
 10
2.137960
 20
8.382000
  0
VERTEX
  8
0
 62
     0
  6
CONTINUOUS
 10
2.139280
 20
8.387280
  0
VERTEX
  8
0
 62
     0
  6
CONTINUOUS
 10
2.140160
 20
8.392120
  0
VERTEX
  8
0
 62
     0
  6
CONTINUOUS
 10
2.141040
 20
8.396960
  0
VERTEX
  8
0
 62
     0
  6
CONTINUOUS
 10
2.141920
 20
8.400040
  0
VERTEX
  8
0
 62
     0
  6
CONTINUOUS
 10
2.142360
 20
8.401360
  0
SEQEND
  8
0
  0
POLYLINE
  8
0
 62
     0
  6
CONTINUOUS
 66
     1
 40
0.000000
 41
0.000000
  0
VERTEX
  8
0
 62
     0
  6
CONTINUOUS
 10
2.142360
 20
8.401360
  0
VERTEX
  8
0
 62
     0
  6
CONTINUOUS
 10
2.140600
 20
8.401360
  0
VERTEX
  8
0
 62
     0
  6
CONTINUOUS
 10
2.137080
 20
8.401360
  0
VERTEX
  8
0
 62
     0
  6
CONTINUOUS
 10
2.132240
 20
8.401360
  0
VERTEX
  8
0
 62
     0
  6
CONTINUOUS
 10
2.126520
 20
8.401360
  0
VERTEX
  8
0
 62
     0
  6
CONTINUOUS
 10
2.120800
 20
8.401360
  0
VERTEX
  8
0
 62
     0
  6
CONTINUOUS
 10
2.115960
 20
8.401360
  0
VERTEX
  8
0
 62
     0
  6
CONTINUOUS
 10
2.112440
 20
8.401360
  0
VERTEX
  8
0
 62
     0
  6
CONTINUOUS
 10
2.111120
 20
8.401360
  0
SEQEND
  8
0
  0
POLYLINE
  8
0
 62
     0
  6
CONTINUOUS
 66
     1
 40
0.000000
 41
0.000000
  0
VERTEX
  8
0
 62
     0
  6
CONTINUOUS
 10
2.111120
 20
8.401360
  0
VERTEX
  8
0
 62
     0
  6
CONTINUOUS
 10
2.110680
 20
8.400040
  0
VERTEX
  8
0
 62
     0
  6
CONTINUOUS
 10
2.109800
 20
8.396960
  0
VERTEX
  8
0
 62
     0
  6
CONTINUOUS
 10
2.108920
 20
8.392120
  0
VERTEX
  8
0
 62
     0
  6
CONTINUOUS
 10
2.108040
 20
8.387280
  0
VERTEX
  8
0
 62
     0
  6
CONTINUOUS
 10
2.106720
 20
8.382000
  0
VERTEX
  8
0
 62
     0
  6
CONTINUOUS
 10
2.105840
 20
8.377600
  0
VERTEX
  8
0
 62
     0
  6
CONTINUOUS
 10
2.104960
 20
8.374080
  0
VERTEX
  8
0
 62
     0
  6
CONTINUOUS
 10
2.104960
 20
8.373200
  0
SEQEND
  8
0
  0
POLYLINE
  8
0
 62
     0
  6
CONTINUOUS
 66
     1
 40
0.000000
 41
0.000000
  0
VERTEX
  8
0
 62
     0
  6
CONTINUOUS
 10
2.104960
 20
8.373200
  0
VERTEX
  8
0
 62
     0
  6
CONTINUOUS
 10
2.104520
 20
8.373200
  0
VERTEX
  8
0
 62
     0
  6
CONTINUOUS
 10
2.103640
 20
8.373200
  0
VERTEX
  8
0
 62
     0
  6
CONTINUOUS
 10
2.102320
 20
8.373200
  0
VERTEX
  8
0
 62
     0
  6
CONTINUOUS
 10
2.101000
 20
8.373200
  0
VERTEX
  8
0
 62
     0
  6
CONTINUOUS
 10
2.099240
 20
8.373200
  0
VERTEX
  8
0
 62
     0
  6
CONTINUOUS
 10
2.097920
 20
8.373200
  0
VERTEX
  8
0
 62
     0
  6
CONTINUOUS
 10
2.097040
 20
8.373200
  0
SEQEND
  8
0
  0
POLYLINE
  8
0
 62
     0
  6
CONTINUOUS
 66
     1
 40
0.000000
 41
0.000000
  0
VERTEX
  8
0
 62
     0
  6
CONTINUOUS
 10
2.149400
 20
8.372320
  0
VERTEX
  8
0
 62
     0
  6
CONTINUOUS
 10
2.150720
 20
8.374960
  0
VERTEX
  8
0
 62
     0
  6
CONTINUOUS
 10
2.154240
 20
8.381560
  0
VERTEX
  8
0
 62
     0
  6
CONTINUOUS
 10
2.159520
 20
8.391680
  0
VERTEX
  8
0
 62
     0
  6
CONTINUOUS
 10
2.165240
 20
8.403120
  0
VERTEX
  8
0
 62
     0
  6
CONTINUOUS
 10
2.170960
 20
8.414120
  0
VERTEX
  8
0
 62
     0
  6
CONTINUOUS
 10
2.176240
 20
8.424240
  0
VERTEX
  8
0
 62
     0
  6
CONTINUOUS
 10
2.179760
 20
8.430840
  0
VERTEX
  8
0
 62
     0
  6
CONTINUOUS
 10
2.181520
 20
8.433920
  0
SEQEND
  8
0
  0
POLYLINE
  8
0
 62
     0
  6
CONTINUOUS
 66
     1
 40
0.000000
 41
0.000000
  0
VERTEX
  8
0
 62
     0
  6
CONTINUOUS
 10
2.181520
 20
8.433920
  0
VERTEX
  8
0
 62
     0
  6
CONTINUOUS
 10
2.182400
 20
8.433920
  0
VERTEX
  8
0
 62
     0
  6
CONTINUOUS
 10
2.183280
 20
8.433920
  0
VERTEX
  8
0
 62
     0
  6
CONTINUOUS
 10
2.184600
 20
8.433920
  0
VERTEX
  8
0
 62
     0
  6
CONTINUOUS
 10
2.185480
 20
8.433920
  0
VERTEX
  8
0
 62
     0
  6
CONTINUOUS
 10
2.186360
 20
8.433920
  0
VERTEX
  8
0
 62
     0
  6
CONTINUOUS
 10
2.187240
 20
8.433920
  0
VERTEX
  8
0
 62
     0
  6
CONTINUOUS
 10
2.187680
 20
8.433920
  0
SEQEND
  8
0
  0
POLYLINE
  8
0
 62
     0
  6
CONTINUOUS
 66
     1
 40
0.000000
 41
0.000000
  0
VERTEX
  8
0
 62
     0
  6
CONTINUOUS
 10
2.187680
 20
8.433920
  0
VERTEX
  8
0
 62
     0
  6
CONTINUOUS
 10
2.185920
 20
8.430840
  0
VERTEX
  8
0
 62
     0
  6
CONTINUOUS
 10
2.182400
 20
8.424240
  0
VERTEX
  8
0
 62
     0
  6
CONTINUOUS
 10
2.177120
 20
8.414120
  0
VERTEX
  8
0
 62
     0
  6
CONTINUOUS
 10
2.171400
 20
8.403120
  0
VERTEX
  8
0
 62
     0
  6
CONTINUOUS
 10
2.165680
 20
8.391680
  0
VERTEX
  8
0
 62
     0
  6
CONTINUOUS
 10
2.160400
 20
8.381560
  0
VERTEX
  8
0
 62
     0
  6
CONTINUOUS
 10
2.156880
 20
8.374960
  0
VERTEX
  8
0
 62
     0
  6
CONTINUOUS
 10
2.155560
 20
8.372320
  0
SEQEND
  8
0
  0
POLYLINE
  8
0
 62
     0
  6
CONTINUOUS
 66
     1
 40
0.000000
 41
0.000000
  0
VERTEX
  8
0
 62
     0
  6
CONTINUOUS
 10
2.155560
 20
8.372320
  0
VERTEX
  8
0
 62
     0
  6
CONTINUOUS
 10
2.155120
 20
8.372320
  0
VERTEX
  8
0
 62
     0
  6
CONTINUOUS
 10
2.154240
 20
8.372320
  0
VERTEX
  8
0
 62
     0
  6
CONTINUOUS
 10
2.153360
 20
8.372320
  0
VERTEX
  8
0
 62
     0
  6
CONTINUOUS
 10
2.152480
 20
8.372320
  0
VERTEX
  8
0
 62
     0
  6
CONTINUOUS
 10
2.151160
 20
8.372320
  0
VERTEX
  8
0
 62
     0
  6
CONTINUOUS
 10
2.150280
 20
8.372320
  0
VERTEX
  8
0
 62
     0
  6
CONTINUOUS
 10
2.149400
 20
8.372320
  0
SEQEND
  8
0
  0
POLYLINE
  8
0
 62
     0
  6
CONTINUOUS
 66
     1
 40
0.000000
 41
0.000000
  0
VERTEX
  8
0
 62
     0
  6
CONTINUOUS
 10
2.180200
 20
8.373200
  0
VERTEX
  8
0
 62
     0
  6
CONTINUOUS
 10
2.180640
 20
8.375400
  0
VERTEX
  8
0
 62
     0
  6
CONTINUOUS
 10
2.181960
 20
8.382440
  0
VERTEX
  8
0
 62
     0
  6
CONTINUOUS
 10
2.183720
 20
8.392120
  0
VERTEX
  8
0
 62
     0
  6
CONTINUOUS
 10
2.186360
 20
8.403120
  0
VERTEX
  8
0
 62
     0
  6
CONTINUOUS
 10
2.188560
 20
8.413680
  0
VERTEX
  8
0
 62
     0
  6
CONTINUOUS
 10
2.190320
 20
8.423360
  0
VERTEX
  8
0
 62
     0
  6
CONTINUOUS
 10
2.191640
 20
8.430400
  0
VERTEX
  8
0
 62
     0
  6
CONTINUOUS
 10
2.192520
 20
8.433040
  0
SEQEND
  8
0
  0
POLYLINE
  8
0
 62
     0
  6
CONTINUOUS
 66
     1
 40
0.000000
 41
0.000000
  0
VERTEX
  8
0
 62
     0
  6
CONTINUOUS
 10
2.192520
 20
8.433040
  0
VERTEX
  8
0
 62
     0
  6
CONTINUOUS
 10
2.193400
 20
8.433040
  0
VERTEX
  8
0
 62
     0
  6
CONTINUOUS
 10
2.194720
 20
8.433040
  0
VERTEX
  8
0
 62
     0
  6
CONTINUOUS
 10
2.196480
 20
8.433040
  0
VERTEX
  8
0
 62
     0
  6
CONTINUOUS
 10
2.197800
 20
8.433040
  0
VERTEX
  8
0
 62
     0
  6
CONTINUOUS
 10
2.199120
 20
8.433040
  0
VERTEX
  8
0
 62
     0
  6
CONTINUOUS
 10
2.200000
 20
8.433040
  0
VERTEX
  8
0
 62
     0
  6
CONTINUOUS
 10
2.200440
 20
8.433040
  0
SEQEND
  8
0
  0
POLYLINE
  8
0
 62
     0
  6
CONTINUOUS
 66
     1
 40
0.000000
 41
0.000000
  0
VERTEX
  8
0
 62
     0
  6
CONTINUOUS
 10
2.200440
 20
8.433040
  0
VERTEX
  8
0
 62
     0
  6
CONTINUOUS
 10
2.199560
 20
8.430400
  0
VERTEX
  8
0
 62
     0
  6
CONTINUOUS
 10
2.198680
 20
8.424680
  0
VERTEX
  8
0
 62
     0
  6
CONTINUOUS
 10
2.196920
 20
8.415880
  0
VERTEX
  8
0
 62
     0
  6
CONTINUOUS
 10
2.194720
 20
8.406200
  0
VERTEX
  8
0
 62
     0
  6
CONTINUOUS
 10
2.192520
 20
8.396520
  0
VERTEX
  8
0
 62
     0
  6
CONTINUOUS
 10
2.190760
 20
8.387720
  0
VERTEX
  8
0
 62
     0
  6
CONTINUOUS
 10
2.189880
 20
8.382000
  0
VERTEX
  8
0
 62
     0
  6
CONTINUOUS
 10
2.189440
 20
8.379800
  0
SEQEND
  8
0
  0
POLYLINE
  8
0
 62
     0
  6
CONTINUOUS
 66
     1
 40
0.000000
 41
0.000000
  0
VERTEX
  8
0
 62
     0
  6
CONTINUOUS
 10
2.189440
 20
8.379800
  0
VERTEX
  8
0
 62
     0
  6
CONTINUOUS
 10
2.190760
 20
8.379800
  0
VERTEX
  8
0
 62
     0
  6
CONTINUOUS
 10
2.193840
 20
8.379800
  0
VERTEX
  8
0
 62
     0
  6
CONTINUOUS
 10
2.199120
 20
8.379800
  0
VERTEX
  8
0
 62
     0
  6
CONTINUOUS
 10
2.204840
 20
8.379800
  0
VERTEX
  8
0
 62
     0
  6
CONTINUOUS
 10
2.210120
 20
8.379800
  0
VERTEX
  8
0
 62
     0
  6
CONTINUOUS
 10
2.215400
 20
8.379800
  0
VERTEX
  8
0
 62
     0
  6
CONTINUOUS
 10
2.218480
 20
8.379800
  0
VERTEX
  8
0
 62
     0
  6
CONTINUOUS
 10
2.220240
 20
8.379800
  0
SEQEND
  8
0
  0
POLYLINE
  8
0
 62
     0
  6
CONTINUOUS
 66
     1
 40
0.000000
 41
0.000000
  0
VERTEX
  8
0
 62
     0
  6
CONTINUOUS
 10
2.220240
 20
8.379800
  0
VERTEX
  8
0
 62
     0
  6
CONTINUOUS
 10
2.219800
 20
8.379360
  0
VERTEX
  8
0
 62
     0
  6
CONTINUOUS
 10
2.219800
 20
8.378480
  0
VERTEX
  8
0
 62
     0
  6
CONTINUOUS
 10
2.219800
 20
8.377600
  0
VERTEX
  8
0
 62
     0
  6
CONTINUOUS
 10
2.219360
 20
8.376280
  0
VERTEX
  8
0
 62
     0
  6
CONTINUOUS
 10
2.218920
 20
8.374960
  0
VERTEX
  8
0
 62
     0
  6
CONTINUOUS
 10
2.218920
 20
8.374080
  0
VERTEX
  8
0
 62
     0
  6
CONTINUOUS
 10
2.218920
 20
8.373200
  0
SEQEND
  8
0
  0
POLYLINE
  8
0
 62
     0
  6
CONTINUOUS
 66
     1
 40
0.000000
 41
0.000000
  0
VERTEX
  8
0
 62
     0
  6
CONTINUOUS
 10
2.218920
 20
8.373200
  0
VERTEX
  8
0
 62
     0
  6
CONTINUOUS
 10
2.217160
 20
8.373200
  0
VERTEX
  8
0
 62
     0
  6
CONTINUOUS
 10
2.212760
 20
8.373200
  0
VERTEX
  8
0
 62
     0
  6
CONTINUOUS
 10
2.206600
 20
8.373200
  0
VERTEX
  8
0
 62
     0
  6
CONTINUOUS
 10
2.199560
 20
8.373200
  0
VERTEX
  8
0
 62
     0
  6
CONTINUOUS
 10
2.192080
 20
8.373200
  0
VERTEX
  8
0
 62
     0
  6
CONTINUOUS
 10
2.185920
 20
8.373200
  0
VERTEX
  8
0
 62
     0
  6
CONTINUOUS
 10
2.181520
 20
8.373200
  0
VERTEX
  8
0
 62
     0
  6
CONTINUOUS
 10
2.180200
 20
8.373200
  0
SEQEND
  8
0
  0
LINE
  8
0
 62
     0
  6
CONTINUOUS
 10
2.902680
 20
7.604080
 11
2.905760
 21
7.596600
  0
LINE
  8
0
 62
     0
  6
CONTINUOUS
 10
2.905760
 20
7.596600
 11
2.915000
 21
7.590000
  0
LINE
  8
0
 62
     0
  6
CONTINUOUS
 10
2.915000
 20
7.590000
 11
2.924240
 21
7.586920
  0
LINE
  8
0
 62
     0
  6
CONTINUOUS
 10
2.887280
 20
7.549960
 11
2.905760
 21
7.549960
  0
LINE
  8
0
 62
     0
  6
CONTINUOUS
 10
2.890360
 20
7.549960
 11
2.900920
 21
7.549960
  0
LINE
  8
0
 62
     0
  6
CONTINUOUS
 10
3.006080
 20
7.452280
 11
3.022360
 21
7.462840
  0
LINE
  8
0
 62
     0
  6
CONTINUOUS
 10
3.017960
 20
7.460200
 11
3.011360
 21
7.456240
  0
LINE
  8
0
 62
     0
  6
CONTINUOUS
 10
3.011360
 20
7.456240
 11
3.011360
 21
7.544680
  0
LINE
  8
0
 62
     0
  6
CONTINUOUS
 10
3.022360
 20
7.544680
 11
3.022360
 21
7.462840
  0
LINE
  8
0
 62
     0
  6
CONTINUOUS
 10
3.022360
 20
7.462840
 11
3.006080
 21
7.452280
  0
LINE
  8
0
 62
     0
  6
CONTINUOUS
 10
3.006080
 20
7.452280
 11
3.006080
 21
7.544680
  0
LINE
  8
0
 62
     0
  6
CONTINUOUS
 10
3.019720
 20
7.544680
 11
3.019720
 21
7.460200
  0
LINE
  8
0
 62
     0
  6
CONTINUOUS
 10
3.019720
 20
7.460200
 11
3.011360
 21
7.456240
  0
LINE
  8
0
 62
     0
  6
CONTINUOUS
 10
3.024120
 20
7.509480
 11
3.018400
 21
7.509480
  0
POLYLINE
  8
0
 62
     0
  6
CONTINUOUS
 66
     1
 40
0.002200
 41
0.002200
  0
VERTEX
  8
0
 62
     0
  6
CONTINUOUS
 10
1.994960
 20
7.897560
  0
VERTEX
  8
0
 62
     0
  6
CONTINUOUS
 10
1.616120
 20
8.275080
  0
SEQEND
  8
0
  0
POLYLINE
  8
0
 62
     0
  6
CONTINUOUS
 66
     1
 40
0.002200
 41
0.002200
  0
VERTEX
  8
0
 62
     0
  6
CONTINUOUS
 10
2.701600
 20
8.097320
  0
VERTEX
  8
0
 62
     0
  6
CONTINUOUS
 10
2.422640
 20
8.232400
  0
SEQEND
  8
0
  0
POLYLINE
  8
0
 62
     0
  6
CONTINUOUS
 66
     1
 40
0.002200
 41
0.002200
  0
VERTEX
  8
0
 62
     0
  6
CONTINUOUS
 10
2.422640
 20
8.114040
  0
VERTEX
  8
0
 62
     0
  6
CONTINUOUS
 10
2.701600
 20
7.978960
  0
SEQEND
  8
0
  0
POLYLINE
  8
0
 62
     0
  6
CONTINUOUS
 66
     1
 40
0.002200
 41
0.002200
  0
VERTEX
  8
0
 62
     0
  6
CONTINUOUS
 10
2.701600
 20
7.840360
  0
VERTEX
  8
0
 62
     0
  6
CONTINUOUS
 10
2.422640
 20
7.975440
  0
SEQEND
  8
0
  0
POLYLINE
  8
0
 62
     0
  6
CONTINUOUS
 66
     1
 40
0.002200
 41
0.002200
  0
VERTEX
  8
0
 62
     0
  6
CONTINUOUS
 10
2.422640
 20
7.831120
  0
VERTEX
  8
0
 62
     0
  6
CONTINUOUS
 10
2.701600
 20
7.696040
  0
SEQEND
  8
0
  0
POLYLINE
  8
0
 62
     0
  6
CONTINUOUS
 66
     1
 40
0.002200
 41
0.002200
  0
VERTEX
  8
0
 62
     0
  6
CONTINUOUS
 10
2.701600
 20
7.568440
  0
VERTEX
  8
0
 62
     0
  6
CONTINUOUS
 10
2.422640
 20
7.705280
  0
SEQEND
  8
0
  0
POLYLINE
  8
0
 62
     0
  6
CONTINUOUS
 66
     1
 40
0.002200
 41
0.002200
  0
VERTEX
  8
0
 62
     0
  6
CONTINUOUS
 10
2.557280
 20
7.738720
  0
VERTEX
  8
0
 62
     0
  6
CONTINUOUS
 10
2.574000
 20
7.753240
  0
SEQEND
  8
0
  0
POLYLINE
  8
0
 62
     0
  6
CONTINUOUS
 66
     1
 40
0.002200
 41
0.002200
  0
VERTEX
  8
0
 62
     0
  6
CONTINUOUS
 10
2.574000
 20
7.753240
  0
VERTEX
  8
0
 62
     0
  6
CONTINUOUS
 10
2.575760
 20
7.733000
  0
SEQEND
  8
0
  0
POLYLINE
  8
0
 62
     0
  6
CONTINUOUS
 66
     1
 40
0.002200
 41
0.002200
  0
VERTEX
  8
0
 62
     0
  6
CONTINUOUS
 10
2.575760
 20
7.733000
  0
VERTEX
  8
0
 62
     0
  6
CONTINUOUS
 10
2.570480
 20
7.733000
  0
SEQEND
  8
0
  0
POLYLINE
  8
0
 62
     0
  6
CONTINUOUS
 66
     1
 40
0.002200
 41
0.002200
  0
VERTEX
  8
0
 62
     0
  6
CONTINUOUS
 10
2.570480
 20
7.733000
  0
VERTEX
  8
0
 62
     0
  6
CONTINUOUS
 10
2.574000
 20
7.753240
  0
SEQEND
  8
0
  0
POLYLINE
  8
0
 62
     0
  6
CONTINUOUS
 66
     1
 40
0.002200
 41
0.002200
  0
VERTEX
  8
0
 62
     0
  6
CONTINUOUS
 10
2.574000
 20
7.753240
  0
VERTEX
  8
0
 62
     0
  6
CONTINUOUS
 10
2.587200
 20
7.738720
  0
SEQEND
  8
0
  0
POLYLINE
  8
0
 62
     0
  6
CONTINUOUS
 66
     1
 40
0.002200
 41
0.002200
  0
VERTEX
  8
0
 62
     0
  6
CONTINUOUS
 10
2.581480
 20
7.734760
  0
VERTEX
  8
0
 62
     0
  6
CONTINUOUS
 10
2.574000
 20
7.753240
  0
SEQEND
  8
0
  0
POLYLINE
  8
0
 62
     0
  6
CONTINUOUS
 66
     1
 40
0.002200
 41
0.002200
  0
VERTEX
  8
0
 62
     0
  6
CONTINUOUS
 10
2.574000
 20
7.753240
  0
VERTEX
  8
0
 62
     0
  6
CONTINUOUS
 10
2.592480
 20
7.749720
  0
SEQEND
  8
0
  0
POLYLINE
  8
0
 62
     0
  6
CONTINUOUS
 66
     1
 40
0.002200
 41
0.002200
  0
VERTEX
  8
0
 62
     0
  6
CONTINUOUS
 10
2.592480
 20
7.749720
  0
VERTEX
  8
0
 62
     0
  6
CONTINUOUS
 10
2.592480
 20
7.757200
  0
SEQEND
  8
0
  0
POLYLINE
  8
0
 62
     0
  6
CONTINUOUS
 66
     1
 40
0.002200
 41
0.002200
  0
VERTEX
  8
0
 62
     0
  6
CONTINUOUS
 10
2.592480
 20
7.757200
  0
VERTEX
  8
0
 62
     0
  6
CONTINUOUS
 10
2.574000
 20
7.753240
  0
SEQEND
  8
0
  0
POLYLINE
  8
0
 62
     0
  6
CONTINUOUS
 66
     1
 40
0.002200
 41
0.002200
  0
VERTEX
  8
0
 62
     0
  6
CONTINUOUS
 10
2.574000
 20
7.753240
  0
VERTEX
  8
0
 62
     0
  6
CONTINUOUS
 10
2.592480
 20
7.764240
  0
SEQEND
  8
0
  0
POLYLINE
  8
0
 62
     0
  6
CONTINUOUS
 66
     1
 40
0.002200
 41
0.002200
  0
VERTEX
  8
0
 62
     0
  6
CONTINUOUS
 10
2.587200
 20
7.768200
  0
VERTEX
  8
0
 62
     0
  6
CONTINUOUS
 10
2.574000
 20
7.753240
  0
SEQEND
  8
0
  0
POLYLINE
  8
0
 62
     0
  6
CONTINUOUS
 66
     1
 40
0.002200
 41
0.002200
  0
VERTEX
  8
0
 62
     0
  6
CONTINUOUS
 10
2.574000
 20
7.753240
  0
VERTEX
  8
0
 62
     0
  6
CONTINUOUS
 10
2.570480
 20
7.775680
  0
SEQEND
  8
0
  0
POLYLINE
  8
0
 62
     0
  6
CONTINUOUS
 66
     1
 40
0.002200
 41
0.002200
  0
VERTEX
  8
0
 62
     0
  6
CONTINUOUS
 10
2.570480
 20
7.775680
  0
VERTEX
  8
0
 62
     0
  6
CONTINUOUS
 10
2.575760
 20
7.775680
  0
SEQEND
  8
0
  0
POLYLINE
  8
0
 62
     0
  6
CONTINUOUS
 66
     1
 40
0.002200
 41
0.002200
  0
VERTEX
  8
0
 62
     0
  6
CONTINUOUS
 10
2.575760
 20
7.775680
  0
VERTEX
  8
0
 62
     0
  6
CONTINUOUS
 10
2.574000
 20
7.753240
  0
SEQEND
  8
0
  0
POLYLINE
  8
0
 62
     0
  6
CONTINUOUS
 66
     1
 40
0.002200
 41
0.002200
  0
VERTEX
  8
0
 62
     0
  6
CONTINUOUS
 10
2.574000
 20
7.753240
  0
VERTEX
  8
0
 62
     0
  6
CONTINUOUS
 10
2.557280
 20
7.768200
  0
SEQEND
  8
0
  0
POLYLINE
  8
0
 62
     0
  6
CONTINUOUS
 66
     1
 40
0.002200
 41
0.002200
  0
VERTEX
  8
0
 62
     0
  6
CONTINUOUS
 10
2.555520
 20
7.764240
  0
VERTEX
  8
0
 62
     0
  6
CONTINUOUS
 10
2.574000
 20
7.753240
  0
SEQEND
  8
0
  0
POLYLINE
  8
0
 62
     0
  6
CONTINUOUS
 66
     1
 40
0.002200
 41
0.002200
  0
VERTEX
  8
0
 62
     0
  6
CONTINUOUS
 10
2.574000
 20
7.753240
  0
VERTEX
  8
0
 62
     0
  6
CONTINUOUS
 10
2.552000
 20
7.757200
  0
SEQEND
  8
0
  0
POLYLINE
  8
0
 62
     0
  6
CONTINUOUS
 66
     1
 40
0.002200
 41
0.002200
  0
VERTEX
  8
0
 62
     0
  6
CONTINUOUS
 10
2.552000
 20
7.757200
  0
VERTEX
  8
0
 62
     0
  6
CONTINUOUS
 10
2.552000
 20
7.749720
  0
SEQEND
  8
0
  0
POLYLINE
  8
0
 62
     0
  6
CONTINUOUS
 66
     1
 40
0.002200
 41
0.002200
  0
VERTEX
  8
0
 62
     0
  6
CONTINUOUS
 10
2.552000
 20
7.749720
  0
VERTEX
  8
0
 62
     0
  6
CONTINUOUS
 10
2.574000
 20
7.753240
  0
SEQEND
  8
0
  0
POLYLINE
  8
0
 62
     0
  6
CONTINUOUS
 66
     1
 40
0.002200
 41
0.002200
  0
VERTEX
  8
0
 62
     0
  6
CONTINUOUS
 10
2.574000
 20
7.753240
  0
VERTEX
  8
0
 62
     0
  6
CONTINUOUS
 10
2.555520
 20
7.744000
  0
SEQEND
  8
0
  0
POLYLINE
  8
0
 62
     0
  6
CONTINUOUS
 66
     1
 40
0.002200
 41
0.002200
  0
VERTEX
  8
0
 62
     0
  6
CONTINUOUS
 10
2.563000
 20
7.734760
  0
VERTEX
  8
0
 62
     0
  6
CONTINUOUS
 10
2.574000
 20
7.753240
  0
SEQEND
  8
0
  0
POLYLINE
  8
0
 62
     0
  6
CONTINUOUS
 66
     1
 40
0.002200
 41
0.002200
  0
VERTEX
  8
0
 62
     0
  6
CONTINUOUS
 10
2.574000
 20
7.753240
  0
VERTEX
  8
0
 62
     0
  6
CONTINUOUS
 10
2.592480
 20
7.744000
  0
SEQEND
  8
0
  0
POLYLINE
  8
0
 62
     0
  6
CONTINUOUS
 66
     1
 40
0.002200
 41
0.002200
  0
VERTEX
  8
0
 62
     0
  6
CONTINUOUS
 10
2.574000
 20
7.753240
  0
VERTEX
  8
0
 62
     0
  6
CONTINUOUS
 10
2.581480
 20
7.771720
  0
SEQEND
  8
0
  0
POLYLINE
  8
0
 62
     0
  6
CONTINUOUS
 66
     1
 40
0.002200
 41
0.002200
  0
VERTEX
  8
0
 62
     0
  6
CONTINUOUS
 10
2.563000
 20
7.771720
  0
VERTEX
  8
0
 62
     0
  6
CONTINUOUS
 10
2.574000
 20
7.753240
  0
SEQEND
  8
0
  0
POLYLINE
  8
0
 62
     0
  6
CONTINUOUS
 66
     1
 40
0.002200
 41
0.002200
  0
VERTEX
  8
0
 62
     0
  6
CONTINUOUS
 10
2.575760
 20
7.649840
  0
VERTEX
  8
0
 62
     0
  6
CONTINUOUS
 10
2.574000
 20
7.629600
  0
SEQEND
  8
0
  0
POLYLINE
  8
0
 62
     0
  6
CONTINUOUS
 66
     1
 40
0.002200
 41
0.002200
  0
VERTEX
  8
0
 62
     0
  6
CONTINUOUS
 10
2.574000
 20
7.629600
  0
VERTEX
  8
0
 62
     0
  6
CONTINUOUS
 10
2.570480
 20
7.649840
  0
SEQEND
  8
0
  0
POLYLINE
  8
0
 62
     0
  6
CONTINUOUS
 66
     1
 40
0.002200
 41
0.002200
  0
VERTEX
  8
0
 62
     0
  6
CONTINUOUS
 10
2.563000
 20
7.645880
  0
VERTEX
  8
0
 62
     0
  6
CONTINUOUS
 10
2.574000
 20
7.629600
  0
SEQEND
  8
0
  0
POLYLINE
  8
0
 62
     0
  6
CONTINUOUS
 66
     1
 40
0.002200
 41
0.002200
  0
VERTEX
  8
0
 62
     0
  6
CONTINUOUS
 10
2.574000
 20
7.629600
  0
VERTEX
  8
0
 62
     0
  6
CONTINUOUS
 10
2.557280
 20
7.642360
  0
SEQEND
  8
0
  0
POLYLINE
  8
0
 62
     0
  6
CONTINUOUS
 66
     1
 40
0.002200
 41
0.002200
  0
VERTEX
  8
0
 62
     0
  6
CONTINUOUS
 10
2.555520
 20
7.638840
  0
VERTEX
  8
0
 62
     0
  6
CONTINUOUS
 10
2.574000
 20
7.629600
  0
SEQEND
  8
0
  0
POLYLINE
  8
0
 62
     0
  6
CONTINUOUS
 66
     1
 40
0.002200
 41
0.002200
  0
VERTEX
  8
0
 62
     0
  6
CONTINUOUS
 10
2.574000
 20
7.629600
  0
VERTEX
  8
0
 62
     0
  6
CONTINUOUS
 10
2.552000
 20
7.631360
  0
SEQEND
  8
0
  0
POLYLINE
  8
0
 62
     0
  6
CONTINUOUS
 66
     1
 40
0.002200
 41
0.002200
  0
VERTEX
  8
0
 62
     0
  6
CONTINUOUS
 10
2.552000
 20
7.631360
  0
VERTEX
  8
0
 62
     0
  6
CONTINUOUS
 10
2.552000
 20
7.623880
  0
SEQEND
  8
0
  0
POLYLINE
  8
0
 62
     0
  6
CONTINUOUS
 66
     1
 40
0.002200
 41
0.002200
  0
VERTEX
  8
0
 62
     0
  6
CONTINUOUS
 10
2.552000
 20
7.623880
  0
VERTEX
  8
0
 62
     0
  6
CONTINUOUS
 10
2.574000
 20
7.629600
  0
SEQEND
  8
0
  0
POLYLINE
  8
0
 62
     0
  6
CONTINUOUS
 66
     1
 40
0.002200
 41
0.002200
  0
VERTEX
  8
0
 62
     0
  6
CONTINUOUS
 10
2.574000
 20
7.629600
  0
VERTEX
  8
0
 62
     0
  6
CONTINUOUS
 10
2.555520
 20
7.618160
  0
SEQEND
  8
0
  0
POLYLINE
  8
0
 62
     0
  6
CONTINUOUS
 66
     1
 40
0.002200
 41
0.002200
  0
VERTEX
  8
0
 62
     0
  6
CONTINUOUS
 10
2.557280
 20
7.612880
  0
VERTEX
  8
0
 62
     0
  6
CONTINUOUS
 10
2.574000
 20
7.629600
  0
SEQEND
  8
0
  0
POLYLINE
  8
0
 62
     0
  6
CONTINUOUS
 66
     1
 40
0.002200
 41
0.002200
  0
VERTEX
  8
0
 62
     0
  6
CONTINUOUS
 10
2.574000
 20
7.629600
  0
VERTEX
  8
0
 62
     0
  6
CONTINUOUS
 10
2.575760
 20
7.607160
  0
SEQEND
  8
0
  0
POLYLINE
  8
0
 62
     0
  6
CONTINUOUS
 66
     1
 40
0.002200
 41
0.002200
  0
VERTEX
  8
0
 62
     0
  6
CONTINUOUS
 10
2.575760
 20
7.607160
  0
VERTEX
  8
0
 62
     0
  6
CONTINUOUS
 10
2.570480
 20
7.607160
  0
SEQEND
  8
0
  0
POLYLINE
  8
0
 62
     0
  6
CONTINUOUS
 66
     1
 40
0.002200
 41
0.002200
  0
VERTEX
  8
0
 62
     0
  6
CONTINUOUS
 10
2.570480
 20
7.607160
  0
VERTEX
  8
0
 62
     0
  6
CONTINUOUS
 10
2.574000
 20
7.629600
  0
SEQEND
  8
0
  0
POLYLINE
  8
0
 62
     0
  6
CONTINUOUS
 66
     1
 40
0.002200
 41
0.002200
  0
VERTEX
  8
0
 62
     0
  6
CONTINUOUS
 10
2.574000
 20
7.629600
  0
VERTEX
  8
0
 62
     0
  6
CONTINUOUS
 10
2.587200
 20
7.612880
  0
SEQEND
  8
0
  0
POLYLINE
  8
0
 62
     0
  6
CONTINUOUS
 66
     1
 40
0.002200
 41
0.002200
  0
VERTEX
  8
0
 62
     0
  6
CONTINUOUS
 10
2.592480
 20
7.618160
  0
VERTEX
  8
0
 62
     0
  6
CONTINUOUS
 10
2.574000
 20
7.629600
  0
SEQEND
  8
0
  0
POLYLINE
  8
0
 62
     0
  6
CONTINUOUS
 66
     1
 40
0.002200
 41
0.002200
  0
VERTEX
  8
0
 62
     0
  6
CONTINUOUS
 10
2.574000
 20
7.629600
  0
VERTEX
  8
0
 62
     0
  6
CONTINUOUS
 10
2.592480
 20
7.623880
  0
SEQEND
  8
0
  0
POLYLINE
  8
0
 62
     0
  6
CONTINUOUS
 66
     1
 40
0.002200
 41
0.002200
  0
VERTEX
  8
0
 62
     0
  6
CONTINUOUS
 10
2.592480
 20
7.623880
  0
VERTEX
  8
0
 62
     0
  6
CONTINUOUS
 10
2.592480
 20
7.631360
  0
SEQEND
  8
0
  0
POLYLINE
  8
0
 62
     0
  6
CONTINUOUS
 66
     1
 40
0.002200
 41
0.002200
  0
VERTEX
  8
0
 62
     0
  6
CONTINUOUS
 10
2.592480
 20
7.631360
  0
VERTEX
  8
0
 62
     0
  6
CONTINUOUS
 10
2.574000
 20
7.629600
  0
SEQEND
  8
0
  0
POLYLINE
  8
0
 62
     0
  6
CONTINUOUS
 66
     1
 40
0.002200
 41
0.002200
  0
VERTEX
  8
0
 62
     0
  6
CONTINUOUS
 10
2.574000
 20
7.629600
  0
VERTEX
  8
0
 62
     0
  6
CONTINUOUS
 10
2.592480
 20
7.638840
  0
SEQEND
  8
0
  0
POLYLINE
  8
0
 62
     0
  6
CONTINUOUS
 66
     1
 40
0.002200
 41
0.002200
  0
VERTEX
  8
0
 62
     0
  6
CONTINUOUS
 10
2.587200
 20
7.642360
  0
VERTEX
  8
0
 62
     0
  6
CONTINUOUS
 10
2.574000
 20
7.629600
  0
SEQEND
  8
0
  0
POLYLINE
  8
0
 62
     0
  6
CONTINUOUS
 66
     1
 40
0.002200
 41
0.002200
  0
VERTEX
  8
0
 62
     0
  6
CONTINUOUS
 10
2.574000
 20
7.629600
  0
VERTEX
  8
0
 62
     0
  6
CONTINUOUS
 10
2.581480
 20
7.645880
  0
SEQEND
  8
0
  0
POLYLINE
  8
0
 62
     0
  6
CONTINUOUS
 66
     1
 40
0.002200
 41
0.002200
  0
VERTEX
  8
0
 62
     0
  6
CONTINUOUS
 10
2.574000
 20
7.629600
  0
VERTEX
  8
0
 62
     0
  6
CONTINUOUS
 10
2.563000
 20
7.608920
  0
SEQEND
  8
0
  0
POLYLINE
  8
0
 62
     0
  6
CONTINUOUS
 66
     1
 40
0.002200
 41
0.002200
  0
VERTEX
  8
0
 62
     0
  6
CONTINUOUS
 10
2.581480
 20
7.608920
  0
VERTEX
  8
0
 62
     0
  6
CONTINUOUS
 10
2.574000
 20
7.629600
  0
SEQEND
  8
0
  0
POLYLINE
  8
0
 62
     0
  6
CONTINUOUS
 66
     1
 40
0.002200
 41
0.002200
  0
VERTEX
  8
0
 62
     0
  6
CONTINUOUS
 10
2.570480
 20
7.877320
  0
VERTEX
  8
0
 62
     0
  6
CONTINUOUS
 10
2.574000
 20
7.897560
  0
SEQEND
  8
0
  0
POLYLINE
  8
0
 62
     0
  6
CONTINUOUS
 66
     1
 40
0.002200
 41
0.002200
  0
VERTEX
  8
0
 62
     0
  6
CONTINUOUS
 10
2.574000
 20
7.897560
  0
VERTEX
  8
0
 62
     0
  6
CONTINUOUS
 10
2.575760
 20
7.877320
  0
SEQEND
  8
0
  0
POLYLINE
  8
0
 62
     0
  6
CONTINUOUS
 66
     1
 40
0.002200
 41
0.002200
  0
VERTEX
  8
0
 62
     0
  6
CONTINUOUS
 10
2.581480
 20
7.879080
  0
VERTEX
  8
0
 62
     0
  6
CONTINUOUS
 10
2.574000
 20
7.897560
  0
SEQEND
  8
0
  0
POLYLINE
  8
0
 62
     0
  6
CONTINUOUS
 66
     1
 40
0.002200
 41
0.002200
  0
VERTEX
  8
0
 62
     0
  6
CONTINUOUS
 10
2.574000
 20
7.897560
  0
VERTEX
  8
0
 62
     0
  6
CONTINUOUS
 10
2.587200
 20
7.882600
  0
SEQEND
  8
0
  0
POLYLINE
  8
0
 62
     0
  6
CONTINUOUS
 66
     1
 40
0.002200
 41
0.002200
  0
VERTEX
  8
0
 62
     0
  6
CONTINUOUS
 10
2.592480
 20
7.888320
  0
VERTEX
  8
0
 62
     0
  6
CONTINUOUS
 10
2.574000
 20
7.897560
  0
SEQEND
  8
0
  0
POLYLINE
  8
0
 62
     0
  6
CONTINUOUS
 66
     1
 40
0.002200
 41
0.002200
  0
VERTEX
  8
0
 62
     0
  6
CONTINUOUS
 10
2.574000
 20
7.897560
  0
VERTEX
  8
0
 62
     0
  6
CONTINUOUS
 10
2.592480
 20
7.895800
  0
SEQEND
  8
0
  0
POLYLINE
  8
0
 62
     0
  6
CONTINUOUS
 66
     1
 40
0.002200
 41
0.002200
  0
VERTEX
  8
0
 62
     0
  6
CONTINUOUS
 10
2.592480
 20
7.895800
  0
VERTEX
  8
0
 62
     0
  6
CONTINUOUS
 10
2.592480
 20
7.901080
  0
SEQEND
  8
0
  0
POLYLINE
  8
0
 62
     0
  6
CONTINUOUS
 66
     1
 40
0.002200
 41
0.002200
  0
VERTEX
  8
0
 62
     0
  6
CONTINUOUS
 10
2.592480
 20
7.901080
  0
VERTEX
  8
0
 62
     0
  6
CONTINUOUS
 10
2.574000
 20
7.897560
  0
SEQEND
  8
0
  0
POLYLINE
  8
0
 62
     0
  6
CONTINUOUS
 66
     1
 40
0.002200
 41
0.002200
  0
VERTEX
  8
0
 62
     0
  6
CONTINUOUS
 10
2.574000
 20
7.897560
  0
VERTEX
  8
0
 62
     0
  6
CONTINUOUS
 10
2.592480
 20
7.908560
  0
SEQEND
  8
0
  0
POLYLINE
  8
0
 62
     0
  6
CONTINUOUS
 66
     1
 40
0.002200
 41
0.002200
  0
VERTEX
  8
0
 62
     0
  6
CONTINUOUS
 10
2.587200
 20
7.912520
  0
VERTEX
  8
0
 62
     0
  6
CONTINUOUS
 10
2.574000
 20
7.897560
  0
SEQEND
  8
0
  0
POLYLINE
  8
0
 62
     0
  6
CONTINUOUS
 66
     1
 40
0.002200
 41
0.002200
  0
VERTEX
  8
0
 62
     0
  6
CONTINUOUS
 10
2.574000
 20
7.897560
  0
VERTEX
  8
0
 62
     0
  6
CONTINUOUS
 10
2.575760
 20
7.919560
  0
SEQEND
  8
0
  0
POLYLINE
  8
0
 62
     0
  6
CONTINUOUS
 66
     1
 40
0.002200
 41
0.002200
  0
VERTEX
  8
0
 62
     0
  6
CONTINUOUS
 10
2.575760
 20
7.919560
  0
VERTEX
  8
0
 62
     0
  6
CONTINUOUS
 10
2.570480
 20
7.919560
  0
SEQEND
  8
0
  0
POLYLINE
  8
0
 62
     0
  6
CONTINUOUS
 66
     1
 40
0.002200
 41
0.002200
  0
VERTEX
  8
0
 62
     0
  6
CONTINUOUS
 10
2.570480
 20
7.919560
  0
VERTEX
  8
0
 62
     0
  6
CONTINUOUS
 10
2.574000
 20
7.897560
  0
SEQEND
  8
0
  0
POLYLINE
  8
0
 62
     0
  6
CONTINUOUS
 66
     1
 40
0.002200
 41
0.002200
  0
VERTEX
  8
0
 62
     0
  6
CONTINUOUS
 10
2.574000
 20
7.897560
  0
VERTEX
  8
0
 62
     0
  6
CONTINUOUS
 10
2.557280
 20
7.912520
  0
SEQEND
  8
0
  0
POLYLINE
  8
0
 62
     0
  6
CONTINUOUS
 66
     1
 40
0.002200
 41
0.002200
  0
VERTEX
  8
0
 62
     0
  6
CONTINUOUS
 10
2.555520
 20
7.908560
  0
VERTEX
  8
0
 62
     0
  6
CONTINUOUS
 10
2.574000
 20
7.897560
  0
SEQEND
  8
0
  0
POLYLINE
  8
0
 62
     0
  6
CONTINUOUS
 66
     1
 40
0.002200
 41
0.002200
  0
VERTEX
  8
0
 62
     0
  6
CONTINUOUS
 10
2.574000
 20
7.897560
  0
VERTEX
  8
0
 62
     0
  6
CONTINUOUS
 10
2.552000
 20
7.901080
  0
SEQEND
  8
0
  0
POLYLINE
  8
0
 62
     0
  6
CONTINUOUS
 66
     1
 40
0.002200
 41
0.002200
  0
VERTEX
  8
0
 62
     0
  6
CONTINUOUS
 10
2.552000
 20
7.901080
  0
VERTEX
  8
0
 62
     0
  6
CONTINUOUS
 10
2.552000
 20
7.895800
  0
SEQEND
  8
0
  0
POLYLINE
  8
0
 62
     0
  6
CONTINUOUS
 66
     1
 40
0.002200
 41
0.002200
  0
VERTEX
  8
0
 62
     0
  6
CONTINUOUS
 10
2.552000
 20
7.895800
  0
VERTEX
  8
0
 62
     0
  6
CONTINUOUS
 10
2.574000
 20
7.897560
  0
SEQEND
  8
0
  0
POLYLINE
  8
0
 62
     0
  6
CONTINUOUS
 66
     1
 40
0.002200
 41
0.002200
  0
VERTEX
  8
0
 62
     0
  6
CONTINUOUS
 10
2.574000
 20
7.897560
  0
VERTEX
  8
0
 62
     0
  6
CONTINUOUS
 10
2.555520
 20
7.888320
  0
SEQEND
  8
0
  0
POLYLINE
  8
0
 62
     0
  6
CONTINUOUS
 66
     1
 40
0.002200
 41
0.002200
  0
VERTEX
  8
0
 62
     0
  6
CONTINUOUS
 10
2.557280
 20
7.882600
  0
VERTEX
  8
0
 62
     0
  6
CONTINUOUS
 10
2.574000
 20
7.897560
  0
SEQEND
  8
0
  0
POLYLINE
  8
0
 62
     0
  6
CONTINUOUS
 66
     1
 40
0.002200
 41
0.002200
  0
VERTEX
  8
0
 62
     0
  6
CONTINUOUS
 10
2.574000
 20
7.897560
  0
VERTEX
  8
0
 62
     0
  6
CONTINUOUS
 10
2.563000
 20
7.879080
  0
SEQEND
  8
0
  0
POLYLINE
  8
0
 62
     0
  6
CONTINUOUS
 66
     1
 40
0.002200
 41
0.002200
  0
VERTEX
  8
0
 62
     0
  6
CONTINUOUS
 10
2.574000
 20
7.897560
  0
VERTEX
  8
0
 62
     0
  6
CONTINUOUS
 10
2.581480
 20
7.917800
  0
SEQEND
  8
0
  0
POLYLINE
  8
0
 62
     0
  6
CONTINUOUS
 66
     1
 40
0.002200
 41
0.002200
  0
VERTEX
  8
0
 62
     0
  6
CONTINUOUS
 10
2.563000
 20
7.917800
  0
VERTEX
  8
0
 62
     0
  6
CONTINUOUS
 10
2.574000
 20
7.897560
  0
SEQEND
  8
0
  0
POLYLINE
  8
0
 62
     0
  6
CONTINUOUS
 66
     1
 40
0.002200
 41
0.002200
  0
VERTEX
  8
0
 62
     0
  6
CONTINUOUS
 10
2.575760
 20
8.015920
  0
VERTEX
  8
0
 62
     0
  6
CONTINUOUS
 10
2.574000
 20
8.038360
  0
SEQEND
  8
0
  0
POLYLINE
  8
0
 62
     0
  6
CONTINUOUS
 66
     1
 40
0.002200
 41
0.002200
  0
VERTEX
  8
0
 62
     0
  6
CONTINUOUS
 10
2.574000
 20
8.038360
  0
VERTEX
  8
0
 62
     0
  6
CONTINUOUS
 10
2.587200
 20
8.021640
  0
SEQEND
  8
0
  0
POLYLINE
  8
0
 62
     0
  6
CONTINUOUS
 66
     1
 40
0.002200
 41
0.002200
  0
VERTEX
  8
0
 62
     0
  6
CONTINUOUS
 10
2.592480
 20
8.026920
  0
VERTEX
  8
0
 62
     0
  6
CONTINUOUS
 10
2.574000
 20
8.038360
  0
SEQEND
  8
0
  0
POLYLINE
  8
0
 62
     0
  6
CONTINUOUS
 66
     1
 40
0.002200
 41
0.002200
  0
VERTEX
  8
0
 62
     0
  6
CONTINUOUS
 10
2.574000
 20
8.038360
  0
VERTEX
  8
0
 62
     0
  6
CONTINUOUS
 10
2.592480
 20
8.034400
  0
SEQEND
  8
0
  0
POLYLINE
  8
0
 62
     0
  6
CONTINUOUS
 66
     1
 40
0.002200
 41
0.002200
  0
VERTEX
  8
0
 62
     0
  6
CONTINUOUS
 10
2.592480
 20
8.034400
  0
VERTEX
  8
0
 62
     0
  6
CONTINUOUS
 10
2.592480
 20
8.040120
  0
SEQEND
  8
0
  0
POLYLINE
  8
0
 62
     0
  6
CONTINUOUS
 66
     1
 40
0.002200
 41
0.002200
  0
VERTEX
  8
0
 62
     0
  6
CONTINUOUS
 10
2.592480
 20
8.040120
  0
VERTEX
  8
0
 62
     0
  6
CONTINUOUS
 10
2.574000
 20
8.038360
  0
SEQEND
  8
0
  0
POLYLINE
  8
0
 62
     0
  6
CONTINUOUS
 66
     1
 40
0.002200
 41
0.002200
  0
VERTEX
  8
0
 62
     0
  6
CONTINUOUS
 10
2.574000
 20
8.038360
  0
VERTEX
  8
0
 62
     0
  6
CONTINUOUS
 10
2.592480
 20
8.047600
  0
SEQEND
  8
0
  0
POLYLINE
  8
0
 62
     0
  6
CONTINUOUS
 66
     1
 40
0.002200
 41
0.002200
  0
VERTEX
  8
0
 62
     0
  6
CONTINUOUS
 10
2.587200
 20
8.052880
  0
VERTEX
  8
0
 62
     0
  6
CONTINUOUS
 10
2.574000
 20
8.038360
  0
SEQEND
  8
0
  0
POLYLINE
  8
0
 62
     0
  6
CONTINUOUS
 66
     1
 40
0.002200
 41
0.002200
  0
VERTEX
  8
0
 62
     0
  6
CONTINUOUS
 10
2.574000
 20
8.038360
  0
VERTEX
  8
0
 62
     0
  6
CONTINUOUS
 10
2.575760
 20
8.060360
  0
SEQEND
  8
0
  0
POLYLINE
  8
0
 62
     0
  6
CONTINUOUS
 66
     1
 40
0.002200
 41
0.002200
  0
VERTEX
  8
0
 62
     0
  6
CONTINUOUS
 10
2.575760
 20
8.060360
  0
VERTEX
  8
0
 62
     0
  6
CONTINUOUS
 10
2.570480
 20
8.060360
  0
SEQEND
  8
0
  0
POLYLINE
  8
0
 62
     0
  6
CONTINUOUS
 66
     1
 40
0.002200
 41
0.002200
  0
VERTEX
  8
0
 62
     0
  6
CONTINUOUS
 10
2.570480
 20
8.060360
  0
VERTEX
  8
0
 62
     0
  6
CONTINUOUS
 10
2.574000
 20
8.038360
  0
SEQEND
  8
0
  0
POLYLINE
  8
0
 62
     0
  6
CONTINUOUS
 66
     1
 40
0.002200
 41
0.002200
  0
VERTEX
  8
0
 62
     0
  6
CONTINUOUS
 10
2.574000
 20
8.038360
  0
VERTEX
  8
0
 62
     0
  6
CONTINUOUS
 10
2.557280
 20
8.052880
  0
SEQEND
  8
0
  0
POLYLINE
  8
0
 62
     0
  6
CONTINUOUS
 66
     1
 40
0.002200
 41
0.002200
  0
VERTEX
  8
0
 62
     0
  6
CONTINUOUS
 10
2.555520
 20
8.047600
  0
VERTEX
  8
0
 62
     0
  6
CONTINUOUS
 10
2.574000
 20
8.038360
  0
SEQEND
  8
0
  0
POLYLINE
  8
0
 62
     0
  6
CONTINUOUS
 66
     1
 40
0.002200
 41
0.002200
  0
VERTEX
  8
0
 62
     0
  6
CONTINUOUS
 10
2.574000
 20
8.038360
  0
VERTEX
  8
0
 62
     0
  6
CONTINUOUS
 10
2.552000
 20
8.040120
  0
SEQEND
  8
0
  0
POLYLINE
  8
0
 62
     0
  6
CONTINUOUS
 66
     1
 40
0.002200
 41
0.002200
  0
VERTEX
  8
0
 62
     0
  6
CONTINUOUS
 10
2.552000
 20
8.040120
  0
VERTEX
  8
0
 62
     0
  6
CONTINUOUS
 10
2.552000
 20
8.034400
  0
SEQEND
  8
0
  0
POLYLINE
  8
0
 62
     0
  6
CONTINUOUS
 66
     1
 40
0.002200
 41
0.002200
  0
VERTEX
  8
0
 62
     0
  6
CONTINUOUS
 10
2.552000
 20
8.034400
  0
VERTEX
  8
0
 62
     0
  6
CONTINUOUS
 10
2.574000
 20
8.038360
  0
SEQEND
  8
0
  0
POLYLINE
  8
0
 62
     0
  6
CONTINUOUS
 66
     1
 40
0.002200
 41
0.002200
  0
VERTEX
  8
0
 62
     0
  6
CONTINUOUS
 10
2.574000
 20
8.038360
  0
VERTEX
  8
0
 62
     0
  6
CONTINUOUS
 10
2.555520
 20
8.026920
  0
SEQEND
  8
0
  0
POLYLINE
  8
0
 62
     0
  6
CONTINUOUS
 66
     1
 40
0.002200
 41
0.002200
  0
VERTEX
  8
0
 62
     0
  6
CONTINUOUS
 10
2.557280
 20
8.021640
  0
VERTEX
  8
0
 62
     0
  6
CONTINUOUS
 10
2.574000
 20
8.038360
  0
SEQEND
  8
0
  0
POLYLINE
  8
0
 62
     0
  6
CONTINUOUS
 66
     1
 40
0.002200
 41
0.002200
  0
VERTEX
  8
0
 62
     0
  6
CONTINUOUS
 10
2.574000
 20
8.038360
  0
VERTEX
  8
0
 62
     0
  6
CONTINUOUS
 10
2.570480
 20
8.015920
  0
SEQEND
  8
0
  0
POLYLINE
  8
0
 62
     0
  6
CONTINUOUS
 66
     1
 40
0.002200
 41
0.002200
  0
VERTEX
  8
0
 62
     0
  6
CONTINUOUS
 10
2.563000
 20
8.017680
  0
VERTEX
  8
0
 62
     0
  6
CONTINUOUS
 10
2.574000
 20
8.038360
  0
SEQEND
  8
0
  0
POLYLINE
  8
0
 62
     0
  6
CONTINUOUS
 66
     1
 40
0.002200
 41
0.002200
  0
VERTEX
  8
0
 62
     0
  6
CONTINUOUS
 10
2.574000
 20
8.038360
  0
VERTEX
  8
0
 62
     0
  6
CONTINUOUS
 10
2.581480
 20
8.017680
  0
SEQEND
  8
0
  0
POLYLINE
  8
0
 62
     0
  6
CONTINUOUS
 66
     1
 40
0.002200
 41
0.002200
  0
VERTEX
  8
0
 62
     0
  6
CONTINUOUS
 10
2.574000
 20
8.038360
  0
VERTEX
  8
0
 62
     0
  6
CONTINUOUS
 10
2.581480
 20
8.056840
  0
SEQEND
  8
0
  0
POLYLINE
  8
0
 62
     0
  6
CONTINUOUS
 66
     1
 40
0.002200
 41
0.002200
  0
VERTEX
  8
0
 62
     0
  6
CONTINUOUS
 10
2.563000
 20
8.056840
  0
VERTEX
  8
0
 62
     0
  6
CONTINUOUS
 10
2.574000
 20
8.038360
  0
SEQEND
  8
0
  0
POLYLINE
  8
0
 62
     0
  6
CONTINUOUS
 66
     1
 40
0.002200
 41
0.002200
  0
VERTEX
  8
0
 62
     0
  6
CONTINUOUS
 10
2.575760
 20
8.134280
  0
VERTEX
  8
0
 62
     0
  6
CONTINUOUS
 10
2.574000
 20
8.156720
  0
SEQEND
  8
0
  0
POLYLINE
  8
0
 62
     0
  6
CONTINUOUS
 66
     1
 40
0.002200
 41
0.002200
  0
VERTEX
  8
0
 62
     0
  6
CONTINUOUS
 10
2.574000
 20
8.156720
  0
VERTEX
  8
0
 62
     0
  6
CONTINUOUS
 10
2.587200
 20
8.141760
  0
SEQEND
  8
0
  0
POLYLINE
  8
0
 62
     0
  6
CONTINUOUS
 66
     1
 40
0.002200
 41
0.002200
  0
VERTEX
  8
0
 62
     0
  6
CONTINUOUS
 10
2.581480
 20
8.138240
  0
VERTEX
  8
0
 62
     0
  6
CONTINUOUS
 10
2.574000
 20
8.156720
  0
SEQEND
  8
0
  0
POLYLINE
  8
0
 62
     0
  6
CONTINUOUS
 66
     1
 40
0.002200
 41
0.002200
  0
VERTEX
  8
0
 62
     0
  6
CONTINUOUS
 10
2.574000
 20
8.156720
  0
VERTEX
  8
0
 62
     0
  6
CONTINUOUS
 10
2.592480
 20
8.152760
  0
SEQEND
  8
0
  0
POLYLINE
  8
0
 62
     0
  6
CONTINUOUS
 66
     1
 40
0.002200
 41
0.002200
  0
VERTEX
  8
0
 62
     0
  6
CONTINUOUS
 10
2.592480
 20
8.152760
  0
VERTEX
  8
0
 62
     0
  6
CONTINUOUS
 10
2.592480
 20
8.160240
  0
SEQEND
  8
0
  0
POLYLINE
  8
0
 62
     0
  6
CONTINUOUS
 66
     1
 40
0.002200
 41
0.002200
  0
VERTEX
  8
0
 62
     0
  6
CONTINUOUS
 10
2.592480
 20
8.160240
  0
VERTEX
  8
0
 62
     0
  6
CONTINUOUS
 10
2.574000
 20
8.156720
  0
SEQEND
  8
0
  0
POLYLINE
  8
0
 62
     0
  6
CONTINUOUS
 66
     1
 40
0.002200
 41
0.002200
  0
VERTEX
  8
0
 62
     0
  6
CONTINUOUS
 10
2.574000
 20
8.156720
  0
VERTEX
  8
0
 62
     0
  6
CONTINUOUS
 10
2.592480
 20
8.167720
  0
SEQEND
  8
0
  0
POLYLINE
  8
0
 62
     0
  6
CONTINUOUS
 66
     1
 40
0.002200
 41
0.002200
  0
VERTEX
  8
0
 62
     0
  6
CONTINUOUS
 10
2.587200
 20
8.171240
  0
VERTEX
  8
0
 62
     0
  6
CONTINUOUS
 10
2.574000
 20
8.156720
  0
SEQEND
  8
0
  0
POLYLINE
  8
0
 62
     0
  6
CONTINUOUS
 66
     1
 40
0.002200
 41
0.002200
  0
VERTEX
  8
0
 62
     0
  6
CONTINUOUS
 10
2.574000
 20
8.156720
  0
VERTEX
  8
0
 62
     0
  6
CONTINUOUS
 10
2.575760
 20
8.178720
  0
SEQEND
  8
0
  0
POLYLINE
  8
0
 62
     0
  6
CONTINUOUS
 66
     1
 40
0.002200
 41
0.002200
  0
VERTEX
  8
0
 62
     0
  6
CONTINUOUS
 10
2.575760
 20
8.178720
  0
VERTEX
  8
0
 62
     0
  6
CONTINUOUS
 10
2.570480
 20
8.178720
  0
SEQEND
  8
0
  0
POLYLINE
  8
0
 62
     0
  6
CONTINUOUS
 66
     1
 40
0.002200
 41
0.002200
  0
VERTEX
  8
0
 62
     0
  6
CONTINUOUS
 10
2.570480
 20
8.178720
  0
VERTEX
  8
0
 62
     0
  6
CONTINUOUS
 10
2.574000
 20
8.156720
  0
SEQEND
  8
0
  0
POLYLINE
  8
0
 62
     0
  6
CONTINUOUS
 66
     1
 40
0.002200
 41
0.002200
  0
VERTEX
  8
0
 62
     0
  6
CONTINUOUS
 10
2.574000
 20
8.156720
  0
VERTEX
  8
0
 62
     0
  6
CONTINUOUS
 10
2.557280
 20
8.171240
  0
SEQEND
  8
0
  0
POLYLINE
  8
0
 62
     0
  6
CONTINUOUS
 66
     1
 40
0.002200
 41
0.002200
  0
VERTEX
  8
0
 62
     0
  6
CONTINUOUS
 10
2.555520
 20
8.167720
  0
VERTEX
  8
0
 62
     0
  6
CONTINUOUS
 10
2.574000
 20
8.156720
  0
SEQEND
  8
0
  0
POLYLINE
  8
0
 62
     0
  6
CONTINUOUS
 66
     1
 40
0.002200
 41
0.002200
  0
VERTEX
  8
0
 62
     0
  6
CONTINUOUS
 10
2.574000
 20
8.156720
  0
VERTEX
  8
0
 62
     0
  6
CONTINUOUS
 10
2.552000
 20
8.160240
  0
SEQEND
  8
0
  0
POLYLINE
  8
0
 62
     0
  6
CONTINUOUS
 66
     1
 40
0.002200
 41
0.002200
  0
VERTEX
  8
0
 62
     0
  6
CONTINUOUS
 10
2.552000
 20
8.160240
  0
VERTEX
  8
0
 62
     0
  6
CONTINUOUS
 10
2.552000
 20
8.152760
  0
SEQEND
  8
0
  0
POLYLINE
  8
0
 62
     0
  6
CONTINUOUS
 66
     1
 40
0.002200
 41
0.002200
  0
VERTEX
  8
0
 62
     0
  6
CONTINUOUS
 10
2.552000
 20
8.152760
  0
VERTEX
  8
0
 62
     0
  6
CONTINUOUS
 10
2.574000
 20
8.156720
  0
SEQEND
  8
0
  0
POLYLINE
  8
0
 62
     0
  6
CONTINUOUS
 66
     1
 40
0.002200
 41
0.002200
  0
VERTEX
  8
0
 62
     0
  6
CONTINUOUS
 10
2.574000
 20
8.156720
  0
VERTEX
  8
0
 62
     0
  6
CONTINUOUS
 10
2.555520
 20
8.145280
  0
SEQEND
  8
0
  0
POLYLINE
  8
0
 62
     0
  6
CONTINUOUS
 66
     1
 40
0.002200
 41
0.002200
  0
VERTEX
  8
0
 62
     0
  6
CONTINUOUS
 10
2.557280
 20
8.141760
  0
VERTEX
  8
0
 62
     0
  6
CONTINUOUS
 10
2.574000
 20
8.156720
  0
SEQEND
  8
0
  0
POLYLINE
  8
0
 62
     0
  6
CONTINUOUS
 66
     1
 40
0.002200
 41
0.002200
  0
VERTEX
  8
0
 62
     0
  6
CONTINUOUS
 10
2.574000
 20
8.156720
  0
VERTEX
  8
0
 62
     0
  6
CONTINUOUS
 10
2.570480
 20
8.134280
  0
SEQEND
  8
0
  0
POLYLINE
  8
0
 62
     0
  6
CONTINUOUS
 66
     1
 40
0.002200
 41
0.002200
  0
VERTEX
  8
0
 62
     0
  6
CONTINUOUS
 10
2.563000
 20
8.138240
  0
VERTEX
  8
0
 62
     0
  6
CONTINUOUS
 10
2.574000
 20
8.156720
  0
SEQEND
  8
0
  0
POLYLINE
  8
0
 62
     0
  6
CONTINUOUS
 66
     1
 40
0.002200
 41
0.002200
  0
VERTEX
  8
0
 62
     0
  6
CONTINUOUS
 10
2.574000
 20
8.156720
  0
VERTEX
  8
0
 62
     0
  6
CONTINUOUS
 10
2.592480
 20
8.145280
  0
SEQEND
  8
0
  0
POLYLINE
  8
0
 62
     0
  6
CONTINUOUS
 66
     1
 40
0.002200
 41
0.002200
  0
VERTEX
  8
0
 62
     0
  6
CONTINUOUS
 10
2.574000
 20
8.156720
  0
VERTEX
  8
0
 62
     0
  6
CONTINUOUS
 10
2.581480
 20
8.176960
  0
SEQEND
  8
0
  0
POLYLINE
  8
0
 62
     0
  6
CONTINUOUS
 66
     1
 40
0.002200
 41
0.002200
  0
VERTEX
  8
0
 62
     0
  6
CONTINUOUS
 10
2.563000
 20
8.176960
  0
VERTEX
  8
0
 62
     0
  6
CONTINUOUS
 10
2.574000
 20
8.156720
  0
SEQEND
  8
0
  0
POLYLINE
  8
0
 62
     0
  6
CONTINUOUS
 66
     1
 40
0.002200
 41
0.002200
  0
VERTEX
  8
0
 62
     0
  6
CONTINUOUS
 10
4.609880
 20
7.543800
  0
VERTEX
  8
0
 62
     0
  6
CONTINUOUS
 10
1.617000
 20
7.543800
  0
SEQEND
  8
0
  0
POLYLINE
  8
0
 62
     0
  6
CONTINUOUS
 66
     1
 40
0.002200
 41
0.002200
  0
VERTEX
  8
0
 62
     0
  6
CONTINUOUS
 10
1.616120
 20
7.546000
  0
VERTEX
  8
0
 62
     0
  6
CONTINUOUS
 10
1.994960
 20
7.897560
  0
SEQEND
  8
0
  0
POLYLINE
  8
0
 62
     0
  6
CONTINUOUS
 66
     1
 40
0.002200
 41
0.002200
  0
VERTEX
  8
0
 62
     0
  6
CONTINUOUS
 10
2.572240
 20
7.749720
  0
VERTEX
  8
0
 62
     0
  6
CONTINUOUS
 10
2.572240
 20
7.524000
  0
SEQEND
  8
0
  0
POLYLINE
  8
0
 62
     0
  6
CONTINUOUS
 66
     1
 40
0.002200
 41
0.002200
  0
VERTEX
  8
0
 62
     0
  6
CONTINUOUS
 10
2.572240
 20
7.838600
  0
VERTEX
  8
0
 62
     0
  6
CONTINUOUS
 10
2.572240
 20
8.019880
  0
SEQEND
  8
0
  0
POLYLINE
  8
0
 62
     0
  6
CONTINUOUS
 66
     1
 40
0.002200
 41
0.002200
  0
VERTEX
  8
0
 62
     0
  6
CONTINUOUS
 10
2.572240
 20
8.110520
  0
VERTEX
  8
0
 62
     0
  6
CONTINUOUS
 10
2.572240
 20
8.291800
  0
SEQEND
  8
0
  0
POLYLINE
  8
0
 62
     0
  6
CONTINUOUS
 66
     1
 40
0.002200
 41
0.002200
  0
VERTEX
  8
0
 62
     0
  6
CONTINUOUS
 10
2.572680
 20
6.804600
  0
VERTEX
  8
0
 62
     0
  6
CONTINUOUS
 10
2.572680
 20
7.531480
  0
SEQEND
  8
0
  0
POLYLINE
  8
0
 62
     0
  6
CONTINUOUS
 66
     1
 40
0.002200
 41
0.002200
  0
VERTEX
  8
0
 62
     0
  6
CONTINUOUS
 10
3.120480
 20
6.741240
  0
VERTEX
  8
0
 62
     0
  6
CONTINUOUS
 10
3.116520
 20
6.730240
  0
VERTEX
  8
0
 62
     0
  6
CONTINUOUS
 10
3.127520
 20
6.730240
  0
VERTEX
  8
0
 62
     0
  6
CONTINUOUS
 10
3.144240
 20
6.684040
  0
VERTEX
  8
0
 62
     0
  6
CONTINUOUS
 10
3.111680
 20
6.684040
  0
VERTEX
  8
0
 62
     0
  6
CONTINUOUS
 10
3.125760
 20
6.724080
  0
VERTEX
  8
0
 62
     0
  6
CONTINUOUS
 10
3.127080
 20
6.730240
  0
VERTEX
  8
0
 62
     0
  6
CONTINUOUS
 10
3.116080
 20
6.730240
  0
VERTEX
  8
0
 62
     0
  6
CONTINUOUS
 10
3.083080
 20
6.644000
  0
VERTEX
  8
0
 62
     0
  6
CONTINUOUS
 10
3.097160
 20
6.644000
  0
VERTEX
  8
0
 62
     0
  6
CONTINUOUS
 10
3.107720
 20
6.673040
  0
VERTEX
  8
0
 62
     0
  6
CONTINUOUS
 10
3.162720
 20
6.673040
  0
VERTEX
  8
0
 62
     0
  6
CONTINUOUS
 10
3.135000
 20
6.741240
  0
VERTEX
  8
0
 62
     0
  6
CONTINUOUS
 10
3.120480
 20
6.741240
  0
SEQEND
  8
0
  0
SOLID
  8
0
 62
     0
 10
3.148200
 20
6.673040
 11
3.159640
 21
6.644000
 12
3.162720
 22
6.673040
 13
3.174600
 23
6.644000
  0
POLYLINE
  8
0
 62
     0
  6
CONTINUOUS
 66
     1
 40
0.002200
 41
0.002200
  0
VERTEX
  8
0
 62
     0
  6
CONTINUOUS
 10
3.148200
 20
6.673040
  0
VERTEX
  8
0
 62
     0
  6
CONTINUOUS
 10
3.159640
 20
6.644000
  0
VERTEX
  8
0
 62
     0
  6
CONTINUOUS
 10
3.174600
 20
6.644000
  0
VERTEX
  8
0
 62
     0
  6
CONTINUOUS
 10
3.162720
 20
6.673040
  0
VERTEX
  8
0
 62
     0
  6
CONTINUOUS
 10
3.148200
 20
6.673040
  0
SEQEND
  8
0
  0
POLYLINE
  8
0
 62
     0
  6
CONTINUOUS
 66
     1
 40
0.002200
 41
0.002200
  0
VERTEX
  8
0
 62
     0
  6
CONTINUOUS
 10
3.229160
 20
6.731560
  0
VERTEX
  8
0
 62
     0
  6
CONTINUOUS
 10
3.229160
 20
6.731120
  0
VERTEX
  8
0
 62
     0
  6
CONTINUOUS
 10
3.237520
 20
6.729800
  0
VERTEX
  8
0
 62
     0
  6
CONTINUOUS
 10
3.238400
 20
6.728920
  0
VERTEX
  8
0
 62
     0
  6
CONTINUOUS
 10
3.249400
 20
6.722320
  0
VERTEX
  8
0
 62
     0
  6
CONTINUOUS
 10
3.256440
 20
6.711320
  0
VERTEX
  8
0
 62
     0
  6
CONTINUOUS
 10
3.259080
 20
6.700320
  0
VERTEX
  8
0
 62
     0
  6
CONTINUOUS
 10
3.259080
 20
6.682280
  0
VERTEX
  8
0
 62
     0
  6
CONTINUOUS
 10
3.258640
 20
6.682280
  0
VERTEX
  8
0
 62
     0
  6
CONTINUOUS
 10
3.255120
 20
6.670840
  0
VERTEX
  8
0
 62
     0
  6
CONTINUOUS
 10
3.248080
 20
6.661600
  0
VERTEX
  8
0
 62
     0
  6
CONTINUOUS
 10
3.237520
 20
6.655000
  0
VERTEX
  8
0
 62
     0
  6
CONTINUOUS
 10
3.222560
 20
6.653680
  0
VERTEX
  8
0
 62
     0
  6
CONTINUOUS
 10
3.222560
 20
6.654120
  0
VERTEX
  8
0
 62
     0
  6
CONTINUOUS
 10
3.215520
 20
6.655000
  0
VERTEX
  8
0
 62
     0
  6
CONTINUOUS
 10
3.215520
 20
6.655440
  0
VERTEX
  8
0
 62
     0
  6
CONTINUOUS
 10
3.207160
 20
6.658960
  0
VERTEX
  8
0
 62
     0
  6
CONTINUOUS
 10
3.199240
 20
6.668200
  0
VERTEX
  8
0
 62
     0
  6
CONTINUOUS
 10
3.193960
 20
6.681400
  0
VERTEX
  8
0
 62
     0
  6
CONTINUOUS
 10
3.193960
 20
6.702080
  0
VERTEX
  8
0
 62
     0
  6
CONTINUOUS
 10
3.194400
 20
6.702080
  0
VERTEX
  8
0
 62
     0
  6
CONTINUOUS
 10
3.198360
 20
6.715280
  0
VERTEX
  8
0
 62
     0
  6
CONTINUOUS
 10
3.205840
 20
6.724080
  0
VERTEX
  8
0
 62
     0
  6
CONTINUOUS
 10
3.218600
 20
6.731120
  0
VERTEX
  8
0
 62
     0
  6
CONTINUOUS
 10
3.256880
 20
6.732000
  0
VERTEX
  8
0
 62
     0
  6
CONTINUOUS
 10
3.242360
 20
6.740360
  0
VERTEX
  8
0
 62
     0
  6
CONTINUOUS
 10
3.229600
 20
6.743000
  0
VERTEX
  8
0
 62
     0
  6
CONTINUOUS
 10
3.215960
 20
6.741680
  0
VERTEX
  8
0
 62
     0
  6
CONTINUOUS
 10
3.204080
 20
6.737280
  0
VERTEX
  8
0
 62
     0
  6
CONTINUOUS
 10
3.202320
 20
6.735960
  0
VERTEX
  8
0
 62
     0
  6
CONTINUOUS
 10
3.192200
 20
6.728480
  0
VERTEX
  8
0
 62
     0
  6
CONTINUOUS
 10
3.183840
 20
6.714400
  0
VERTEX
  8
0
 62
     0
  6
CONTINUOUS
 10
3.180320
 20
6.699880
  0
VERTEX
  8
0
 62
     0
  6
CONTINUOUS
 10
3.180320
 20
6.683600
  0
VERTEX
  8
0
 62
     0
  6
CONTINUOUS
 10
3.180760
 20
6.683600
  0
VERTEX
  8
0
 62
     0
  6
CONTINUOUS
 10
3.182960
 20
6.672160
  0
VERTEX
  8
0
 62
     0
  6
CONTINUOUS
 10
3.184280
 20
6.670400
  0
VERTEX
  8
0
 62
     0
  6
CONTINUOUS
 10
3.190440
 20
6.659840
  0
VERTEX
  8
0
 62
     0
  6
CONTINUOUS
 10
3.201880
 20
6.648840
  0
VERTEX
  8
0
 62
     0
  6
CONTINUOUS
 10
3.216840
 20
6.642680
  0
VERTEX
  8
0
 62
     0
  6
CONTINUOUS
 10
3.235320
 20
6.642680
  0
VERTEX
  8
0
 62
     0
  6
CONTINUOUS
 10
3.235320
 20
6.643120
  0
VERTEX
  8
0
 62
     0
  6
CONTINUOUS
 10
3.246760
 20
6.646200
  0
VERTEX
  8
0
 62
     0
  6
CONTINUOUS
 10
3.251160
 20
6.649280
  0
VERTEX
  8
0
 62
     0
  6
CONTINUOUS
 10
3.261280
 20
6.656320
  0
VERTEX
  8
0
 62
     0
  6
CONTINUOUS
 10
3.264800
 20
6.661600
  0
VERTEX
  8
0
 62
     0
  6
CONTINUOUS
 10
3.267440
 20
6.665560
  0
VERTEX
  8
0
 62
     0
  6
CONTINUOUS
 10
3.272280
 20
6.680080
  0
VERTEX
  8
0
 62
     0
  6
CONTINUOUS
 10
3.273160
 20
6.695480
  0
VERTEX
  8
0
 62
     0
  6
CONTINUOUS
 10
3.272720
 20
6.695480
  0
VERTEX
  8
0
 62
     0
  6
CONTINUOUS
 10
3.270960
 20
6.710000
  0
VERTEX
  8
0
 62
     0
  6
CONTINUOUS
 10
3.270520
 20
6.710000
  0
VERTEX
  8
0
 62
     0
  6
CONTINUOUS
 10
3.266560
 20
6.720560
  0
VERTEX
  8
0
 62
     0
  6
CONTINUOUS
 10
3.259520
 20
6.729800
  0
VERTEX
  8
0
 62
     0
  6
CONTINUOUS
 10
3.258640
 20
6.729800
  0
VERTEX
  8
0
 62
     0
  6
CONTINUOUS
 10
3.257320
 20
6.731560
  0
VERTEX
  8
0
 62
     0
  6
CONTINUOUS
 10
3.229160
 20
6.731560
  0
SEQEND
  8
0
  0
POLYLINE
  8
0
 62
     0
  6
CONTINUOUS
 66
     1
 40
0.002200
 41
0.002200
  0
VERTEX
  8
0
 62
     0
  6
CONTINUOUS
 10
3.346640
 20
6.655440
  0
VERTEX
  8
0
 62
     0
  6
CONTINUOUS
 10
3.346640
 20
6.644000
  0
VERTEX
  8
0
 62
     0
  6
CONTINUOUS
 10
3.282400
 20
6.644000
  0
VERTEX
  8
0
 62
     0
  6
CONTINUOUS
 10
3.283720
 20
6.652360
  0
VERTEX
  8
0
 62
     0
  6
CONTINUOUS
 10
3.291640
 20
6.665120
  0
VERTEX
  8
0
 62
     0
  6
CONTINUOUS
 10
3.329040
 20
6.700760
  0
VERTEX
  8
0
 62
     0
  6
CONTINUOUS
 10
3.333880
 20
6.711320
  0
VERTEX
  8
0
 62
     0
  6
CONTINUOUS
 10
3.333440
 20
6.721440
  0
VERTEX
  8
0
 62
     0
  6
CONTINUOUS
 10
3.326840
 20
6.728920
  0
VERTEX
  8
0
 62
     0
  6
CONTINUOUS
 10
3.320240
 20
6.731560
  0
VERTEX
  8
0
 62
     0
  6
CONTINUOUS
 10
3.311880
 20
6.731560
  0
VERTEX
  8
0
 62
     0
  6
CONTINUOUS
 10
3.302200
 20
6.726720
  0
VERTEX
  8
0
 62
     0
  6
CONTINUOUS
 10
3.298240
 20
6.720560
  0
VERTEX
  8
0
 62
     0
  6
CONTINUOUS
 10
3.296920
 20
6.712200
  0
VERTEX
  8
0
 62
     0
  6
CONTINUOUS
 10
3.284600
 20
6.713520
  0
VERTEX
  8
0
 62
     0
  6
CONTINUOUS
 10
3.287680
 20
6.725840
  0
VERTEX
  8
0
 62
     0
  6
CONTINUOUS
 10
3.294280
 20
6.734640
  0
VERTEX
  8
0
 62
     0
  6
CONTINUOUS
 10
3.303960
 20
6.739920
  0
VERTEX
  8
0
 62
     0
  6
CONTINUOUS
 10
3.316280
 20
6.741680
  0
VERTEX
  8
0
 62
     0
  6
CONTINUOUS
 10
3.329040
 20
6.739480
  0
VERTEX
  8
0
 62
     0
  6
CONTINUOUS
 10
3.338720
 20
6.733760
  0
VERTEX
  8
0
 62
     0
  6
CONTINUOUS
 10
3.344880
 20
6.725400
  0
VERTEX
  8
0
 62
     0
  6
CONTINUOUS
 10
3.346640
 20
6.714840
  0
VERTEX
  8
0
 62
     0
  6
CONTINUOUS
 10
3.346200
 20
6.708680
  0
VERTEX
  8
0
 62
     0
  6
CONTINUOUS
 10
3.340920
 20
6.697240
  0
VERTEX
  8
0
 62
     0
  6
CONTINUOUS
 10
3.323760
 20
6.679200
  0
VERTEX
  8
0
 62
     0
  6
CONTINUOUS
 10
3.303960
 20
6.662040
  0
VERTEX
  8
0
 62
     0
  6
CONTINUOUS
 10
3.299120
 20
6.655440
  0
VERTEX
  8
0
 62
     0
  6
CONTINUOUS
 10
3.346640
 20
6.655440
  0
SEQEND
  8
0
  0
POLYLINE
  8
0
 62
     0
  6
CONTINUOUS
 66
     1
 40
0.014080
 41
0.014080
  0
VERTEX
  8
0
 62
     0
  6
CONTINUOUS
 10
3.053600
 20
6.788320
  0
VERTEX
  8
0
 62
     0
  6
CONTINUOUS
 10
3.380080
 20
6.788320
  0
VERTEX
  8
0
 62
     0
  6
CONTINUOUS
 10
3.380080
 20
6.595600
  0
VERTEX
  8
0
 62
     0
  6
CONTINUOUS
 10
3.053600
 20
6.595600
  0
VERTEX
  8
0
 62
     0
  6
CONTINUOUS
 10
3.053600
 20
6.788320
  0
SEQEND
  8
0
  0
POLYLINE
  8
0
 62
     0
  6
CONTINUOUS
 66
     1
 40
0.014080
 41
0.014080
  0
VERTEX
  8
0
 62
     0
  6
CONTINUOUS
 10
2.437160
 20
6.730240
  0
VERTEX
  8
0
 62
     0
  6
CONTINUOUS
 10
2.404160
 20
6.644000
  0
VERTEX
  8
0
 62
     0
  6
CONTINUOUS
 10
2.418680
 20
6.644000
  0
VERTEX
  8
0
 62
     0
  6
CONTINUOUS
 10
2.429240
 20
6.673040
  0
VERTEX
  8
0
 62
     0
  6
CONTINUOUS
 10
2.484240
 20
6.673040
  0
VERTEX
  8
0
 62
     0
  6
CONTINUOUS
 10
2.456520
 20
6.741240
  0
VERTEX
  8
0
 62
     0
  6
CONTINUOUS
 10
2.441560
 20
6.741240
  0
VERTEX
  8
0
 62
     0
  6
CONTINUOUS
 10
2.437600
 20
6.730240
  0
VERTEX
  8
0
 62
     0
  6
CONTINUOUS
 10
2.449040
 20
6.730240
  0
VERTEX
  8
0
 62
     0
  6
CONTINUOUS
 10
2.460920
 20
6.695920
  0
VERTEX
  8
0
 62
     0
  6
CONTINUOUS
 10
2.461800
 20
6.695040
  0
VERTEX
  8
0
 62
     0
  6
CONTINUOUS
 10
2.465760
 20
6.684040
  0
VERTEX
  8
0
 62
     0
  6
CONTINUOUS
 10
2.432760
 20
6.684040
  0
VERTEX
  8
0
 62
     0
  6
CONTINUOUS
 10
2.446400
 20
6.721000
  0
VERTEX
  8
0
 62
     0
  6
CONTINUOUS
 10
2.448600
 20
6.730240
  0
VERTEX
  8
0
 62
     0
  6
CONTINUOUS
 10
2.437160
 20
6.730240
  0
SEQEND
  8
0
  0
SOLID
  8
0
 62
     0
 10
2.469720
 20
6.673040
 11
2.480720
 21
6.644000
 12
2.484240
 22
6.673040
 13
2.496120
 23
6.644000
  0
POLYLINE
  8
0
 62
     0
  6
CONTINUOUS
 66
     1
 40
0.014080
 41
0.014080
  0
VERTEX
  8
0
 62
     0
  6
CONTINUOUS
 10
2.469720
 20
6.673040
  0
VERTEX
  8
0
 62
     0
  6
CONTINUOUS
 10
2.480720
 20
6.644000
  0
VERTEX
  8
0
 62
     0
  6
CONTINUOUS
 10
2.496120
 20
6.644000
  0
VERTEX
  8
0
 62
     0
  6
CONTINUOUS
 10
2.484240
 20
6.673040
  0
VERTEX
  8
0
 62
     0
  6
CONTINUOUS
 10
2.469720
 20
6.673040
  0
SEQEND
  8
0
  0
POLYLINE
  8
0
 62
     0
  6
CONTINUOUS
 66
     1
 40
0.014080
 41
0.014080
  0
VERTEX
  8
0
 62
     0
  6
CONTINUOUS
 10
2.550240
 20
6.731560
  0
VERTEX
  8
0
 62
     0
  6
CONTINUOUS
 10
2.550240
 20
6.731120
  0
VERTEX
  8
0
 62
     0
  6
CONTINUOUS
 10
2.557720
 20
6.730240
  0
VERTEX
  8
0
 62
     0
  6
CONTINUOUS
 10
2.557720
 20
6.729800
  0
VERTEX
  8
0
 62
     0
  6
CONTINUOUS
 10
2.568720
 20
6.724080
  0
VERTEX
  8
0
 62
     0
  6
CONTINUOUS
 10
2.576200
 20
6.714400
  0
VERTEX
  8
0
 62
     0
  6
CONTINUOUS
 10
2.580160
 20
6.704280
  0
VERTEX
  8
0
 62
     0
  6
CONTINUOUS
 10
2.581040
 20
6.687560
  0
VERTEX
  8
0
 62
     0
  6
CONTINUOUS
 10
2.580600
 20
6.687560
  0
VERTEX
  8
0
 62
     0
  6
CONTINUOUS
 10
2.579720
 20
6.678760
  0
VERTEX
  8
0
 62
     0
  6
CONTINUOUS
 10
2.579280
 20
6.678760
  0
VERTEX
  8
0
 62
     0
  6
CONTINUOUS
 10
2.575760
 20
6.669080
  0
VERTEX
  8
0
 62
     0
  6
CONTINUOUS
 10
2.566080
 20
6.658960
  0
VERTEX
  8
0
 62
     0
  6
CONTINUOUS
 10
2.557280
 20
6.654560
  0
VERTEX
  8
0
 62
     0
  6
CONTINUOUS
 10
2.544080
 20
6.653680
  0
VERTEX
  8
0
 62
     0
  6
CONTINUOUS
 10
2.544080
 20
6.654120
  0
VERTEX
  8
0
 62
     0
  6
CONTINUOUS
 10
2.537040
 20
6.655000
  0
VERTEX
  8
0
 62
     0
  6
CONTINUOUS
 10
2.537040
 20
6.655440
  0
VERTEX
  8
0
 62
     0
  6
CONTINUOUS
 10
2.528680
 20
6.658960
  0
VERTEX
  8
0
 62
     0
  6
CONTINUOUS
 10
2.520760
 20
6.667760
  0
VERTEX
  8
0
 62
     0
  6
CONTINUOUS
 10
2.515480
 20
6.681400
  0
VERTEX
  8
0
 62
     0
  6
CONTINUOUS
 10
2.515480
 20
6.702080
  0
VERTEX
  8
0
 62
     0
  6
CONTINUOUS
 10
2.515920
 20
6.702080
  0
VERTEX
  8
0
 62
     0
  6
CONTINUOUS
 10
2.519000
 20
6.714400
  0
VERTEX
  8
0
 62
     0
  6
CONTINUOUS
 10
2.526920
 20
6.724080
  0
VERTEX
  8
0
 62
     0
  6
CONTINUOUS
 10
2.540120
 20
6.731120
  0
VERTEX
  8
0
 62
     0
  6
CONTINUOUS
 10
2.577960
 20
6.731560
  0
VERTEX
  8
0
 62
     0
  6
CONTINUOUS
 10
2.566960
 20
6.739480
  0
VERTEX
  8
0
 62
     0
  6
CONTINUOUS
 10
2.550680
 20
6.743000
  0
VERTEX
  8
0
 62
     0
  6
CONTINUOUS
 10
2.537040
 20
6.741680
  0
VERTEX
  8
0
 62
     0
  6
CONTINUOUS
 10
2.525160
 20
6.737280
  0
VERTEX
  8
0
 62
     0
  6
CONTINUOUS
 10
2.523400
 20
6.735960
  0
VERTEX
  8
0
 62
     0
  6
CONTINUOUS
 10
2.513280
 20
6.728480
  0
VERTEX
  8
0
 62
     0
  6
CONTINUOUS
 10
2.504480
 20
6.713520
  0
VERTEX
  8
0
 62
     0
  6
CONTINUOUS
 10
2.501400
 20
6.694160
  0
VERTEX
  8
0
 62
     0
  6
CONTINUOUS
 10
2.503160
 20
6.676560
  0
VERTEX
  8
0
 62
     0
  6
CONTINUOUS
 10
2.503600
 20
6.676560
  0
VERTEX
  8
0
 62
     0
  6
CONTINUOUS
 10
2.508000
 20
6.665120
  0
VERTEX
  8
0
 62
     0
  6
CONTINUOUS
 10
2.518560
 20
6.651920
  0
VERTEX
  8
0
 62
     0
  6
CONTINUOUS
 10
2.532200
 20
6.644440
  0
VERTEX
  8
0
 62
     0
  6
CONTINUOUS
 10
2.539680
 20
6.642240
  0
VERTEX
  8
0
 62
     0
  6
CONTINUOUS
 10
2.556400
 20
6.642680
  0
VERTEX
  8
0
 62
     0
  6
CONTINUOUS
 10
2.556400
 20
6.643120
  0
VERTEX
  8
0
 62
     0
  6
CONTINUOUS
 10
2.567840
 20
6.646200
  0
VERTEX
  8
0
 62
     0
  6
CONTINUOUS
 10
2.569600
 20
6.647520
  0
VERTEX
  8
0
 62
     0
  6
CONTINUOUS
 10
2.582360
 20
6.656320
  0
VERTEX
  8
0
 62
     0
  6
CONTINUOUS
 10
2.585880
 20
6.661600
  0
VERTEX
  8
0
 62
     0
  6
CONTINUOUS
 10
2.588520
 20
6.665560
  0
VERTEX
  8
0
 62
     0
  6
CONTINUOUS
 10
2.593800
 20
6.681840
  0
VERTEX
  8
0
 62
     0
  6
CONTINUOUS
 10
2.594680
 20
6.695480
  0
VERTEX
  8
0
 62
     0
  6
CONTINUOUS
 10
2.594240
 20
6.695480
  0
VERTEX
  8
0
 62
     0
  6
CONTINUOUS
 10
2.592480
 20
6.710000
  0
VERTEX
  8
0
 62
     0
  6
CONTINUOUS
 10
2.592040
 20
6.710000
  0
VERTEX
  8
0
 62
     0
  6
CONTINUOUS
 10
2.588080
 20
6.720560
  0
VERTEX
  8
0
 62
     0
  6
CONTINUOUS
 10
2.578400
 20
6.731560
  0
VERTEX
  8
0
 62
     0
  6
CONTINUOUS
 10
2.550240
 20
6.731560
  0
SEQEND
  8
0
  0
POLYLINE
  8
0
 62
     0
  6
CONTINUOUS
 66
     1
 40
0.014080
 41
0.014080
  0
VERTEX
  8
0
 62
     0
  6
CONTINUOUS
 10
2.650120
 20
6.644000
  0
VERTEX
  8
0
 62
     0
  6
CONTINUOUS
 10
2.649240
 20
6.644000
  0
VERTEX
  8
0
 62
     0
  6
CONTINUOUS
 10
2.647920
 20
6.644000
  0
VERTEX
  8
0
 62
     0
  6
CONTINUOUS
 10
2.646160
 20
6.644000
  0
VERTEX
  8
0
 62
     0
  6
CONTINUOUS
 10
2.643960
 20
6.644000
  0
VERTEX
  8
0
 62
     0
  6
CONTINUOUS
 10
2.641760
 20
6.644000
  0
VERTEX
  8
0
 62
     0
  6
CONTINUOUS
 10
2.640000
 20
6.644000
  0
VERTEX
  8
0
 62
     0
  6
CONTINUOUS
 10
2.638680
 20
6.644000
  0
VERTEX
  8
0
 62
     0
  6
CONTINUOUS
 10
2.638240
 20
6.644000
  0
SEQEND
  8
0
  0
POLYLINE
  8
0
 62
     0
  6
CONTINUOUS
 66
     1
 40
0.014080
 41
0.014080
  0
VERTEX
  8
0
 62
     0
  6
CONTINUOUS
 10
2.638240
 20
6.644000
  0
VERTEX
  8
0
 62
     0
  6
CONTINUOUS
 10
2.638240
 20
6.647080
  0
VERTEX
  8
0
 62
     0
  6
CONTINUOUS
 10
2.638240
 20
6.655880
  0
VERTEX
  8
0
 62
     0
  6
CONTINUOUS
 10
2.638240
 20
6.667760
  0
VERTEX
  8
0
 62
     0
  6
CONTINUOUS
 10
2.638240
 20
6.681840
  0
VERTEX
  8
0
 62
     0
  6
CONTINUOUS
 10
2.638240
 20
6.695920
  0
VERTEX
  8
0
 62
     0
  6
CONTINUOUS
 10
2.638240
 20
6.707800
  0
VERTEX
  8
0
 62
     0
  6
CONTINUOUS
 10
2.638240
 20
6.716600
  0
VERTEX
  8
0
 62
     0
  6
CONTINUOUS
 10
2.638240
 20
6.720120
  0
SEQEND
  8
0
  0
POLYLINE
  8
0
 62
     0
  6
CONTINUOUS
 66
     1
 40
0.014080
 41
0.014080
  0
VERTEX
  8
0
 62
     0
  6
CONTINUOUS
 10
2.638240
 20
6.720120
  0
VERTEX
  8
0
 62
     0
  6
CONTINUOUS
 10
2.636920
 20
6.718800
  0
VERTEX
  8
0
 62
     0
  6
CONTINUOUS
 10
2.635600
 20
6.717920
  0
VERTEX
  8
0
 62
     0
  6
CONTINUOUS
 10
2.634720
 20
6.717040
  0
VERTEX
  8
0
 62
     0
  6
CONTINUOUS
 10
2.633400
 20
6.716160
  0
VERTEX
  8
0
 62
     0
  6
CONTINUOUS
 10
2.631640
 20
6.714840
  0
VERTEX
  8
0
 62
     0
  6
CONTINUOUS
 10
2.630320
 20
6.713960
  0
VERTEX
  8
0
 62
     0
  6
CONTINUOUS
 10
2.628560
 20
6.713080
  0
VERTEX
  8
0
 62
     0
  6
CONTINUOUS
 10
2.627240
 20
6.712200
  0
SEQEND
  8
0
  0
POLYLINE
  8
0
 62
     0
  6
CONTINUOUS
 66
     1
 40
0.014080
 41
0.014080
  0
VERTEX
  8
0
 62
     0
  6
CONTINUOUS
 10
2.627240
 20
6.712200
  0
VERTEX
  8
0
 62
     0
  6
CONTINUOUS
 10
2.625040
 20
6.710880
  0
VERTEX
  8
0
 62
     0
  6
CONTINUOUS
 10
2.623280
 20
6.710000
  0
VERTEX
  8
0
 62
     0
  6
CONTINUOUS
 10
2.621960
 20
6.708680
  0
VERTEX
  8
0
 62
     0
  6
CONTINUOUS
 10
2.620200
 20
6.708240
  0
VERTEX
  8
0
 62
     0
  6
CONTINUOUS
 10
2.618440
 20
6.707360
  0
VERTEX
  8
0
 62
     0
  6
CONTINUOUS
 10
2.617120
 20
6.706480
  0
VERTEX
  8
0
 62
     0
  6
CONTINUOUS
 10
2.615800
 20
6.706040
  0
VERTEX
  8
0
 62
     0
  6
CONTINUOUS
 10
2.614480
 20
6.705600
  0
SEQEND
  8
0
  0
POLYLINE
  8
0
 62
     0
  6
CONTINUOUS
 66
     1
 40
0.014080
 41
0.014080
  0
VERTEX
  8
0
 62
     0
  6
CONTINUOUS
 10
2.614480
 20
6.705600
  0
VERTEX
  8
0
 62
     0
  6
CONTINUOUS
 10
2.614480
 20
6.706040
  0
VERTEX
  8
0
 62
     0
  6
CONTINUOUS
 10
2.614480
 20
6.707360
  0
VERTEX
  8
0
 62
     0
  6
CONTINUOUS
 10
2.614480
 20
6.709120
  0
VERTEX
  8
0
 62
     0
  6
CONTINUOUS
 10
2.614480
 20
6.711320
  0
VERTEX
  8
0
 62
     0
  6
CONTINUOUS
 10
2.614480
 20
6.713520
  0
VERTEX
  8
0
 62
     0
  6
CONTINUOUS
 10
2.614480
 20
6.715280
  0
VERTEX
  8
0
 62
     0
  6
CONTINUOUS
 10
2.614480
 20
6.716600
  0
VERTEX
  8
0
 62
     0
  6
CONTINUOUS
 10
2.614480
 20
6.717480
  0
SEQEND
  8
0
  0
POLYLINE
  8
0
 62
     0
  6
CONTINUOUS
 66
     1
 40
0.014080
 41
0.014080
  0
VERTEX
  8
0
 62
     0
  6
CONTINUOUS
 10
2.614480
 20
6.717480
  0
VERTEX
  8
0
 62
     0
  6
CONTINUOUS
 10
2.616680
 20
6.718360
  0
VERTEX
  8
0
 62
     0
  6
CONTINUOUS
 10
2.618880
 20
6.719680
  0
VERTEX
  8
0
 62
     0
  6
CONTINUOUS
 10
2.621520
 20
6.721000
  0
VERTEX
  8
0
 62
     0
  6
CONTINUOUS
 10
2.623720
 20
6.722320
  0
VERTEX
  8
0
 62
     0
  6
CONTINUOUS
 10
2.625920
 20
6.723640
  0
VERTEX
  8
0
 62
     0
  6
CONTINUOUS
 10
2.627680
 20
6.724960
  0
VERTEX
  8
0
 62
     0
  6
CONTINUOUS
 10
2.629880
 20
6.726720
  0
VERTEX
  8
0
 62
     0
  6
CONTINUOUS
 10
2.632080
 20
6.728480
  0
SEQEND
  8
0
  0
POLYLINE
  8
0
 62
     0
  6
CONTINUOUS
 66
     1
 40
0.014080
 41
0.014080
  0
VERTEX
  8
0
 62
     0
  6
CONTINUOUS
 10
2.632080
 20
6.728480
  0
VERTEX
  8
0
 62
     0
  6
CONTINUOUS
 10
2.633400
 20
6.730240
  0
VERTEX
  8
0
 62
     0
  6
CONTINUOUS
 10
2.635160
 20
6.731560
  0
VERTEX
  8
0
 62
     0
  6
CONTINUOUS
 10
2.636920
 20
6.733320
  0
VERTEX
  8
0
 62
     0
  6
CONTINUOUS
 10
2.638240
 20
6.735080
  0
VERTEX
  8
0
 62
     0
  6
CONTINUOUS
 10
2.639560
 20
6.736840
  0
VERTEX
  8
0
 62
     0
  6
CONTINUOUS
 10
2.640440
 20
6.738160
  0
VERTEX
  8
0
 62
     0
  6
CONTINUOUS
 10
2.641320
 20
6.739920
  0
VERTEX
  8
0
 62
     0
  6
CONTINUOUS
 10
2.642640
 20
6.741680
  0
SEQEND
  8
0
  0
POLYLINE
  8
0
 62
     0
  6
CONTINUOUS
 66
     1
 40
0.014080
 41
0.014080
  0
VERTEX
  8
0
 62
     0
  6
CONTINUOUS
 10
2.642640
 20
6.741680
  0
VERTEX
  8
0
 62
     0
  6
CONTINUOUS
 10
2.643520
 20
6.741680
  0
VERTEX
  8
0
 62
     0
  6
CONTINUOUS
 10
2.644840
 20
6.741680
  0
VERTEX
  8
0
 62
     0
  6
CONTINUOUS
 10
2.646160
 20
6.741680
  0
VERTEX
  8
0
 62
     0
  6
CONTINUOUS
 10
2.647480
 20
6.741680
  0
VERTEX
  8
0
 62
     0
  6
CONTINUOUS
 10
2.648800
 20
6.741680
  0
VERTEX
  8
0
 62
     0
  6
CONTINUOUS
 10
2.649680
 20
6.741680
  0
VERTEX
  8
0
 62
     0
  6
CONTINUOUS
 10
2.650120
 20
6.741680
  0
SEQEND
  8
0
  0
POLYLINE
  8
0
 62
     0
  6
CONTINUOUS
 66
     1
 40
0.014080
 41
0.014080
  0
VERTEX
  8
0
 62
     0
  6
CONTINUOUS
 10
2.650120
 20
6.741680
  0
VERTEX
  8
0
 62
     0
  6
CONTINUOUS
 10
2.650120
 20
6.737280
  0
VERTEX
  8
0
 62
     0
  6
CONTINUOUS
 10
2.650120
 20
6.726280
  0
VERTEX
  8
0
 62
     0
  6
CONTINUOUS
 10
2.650120
 20
6.710440
  0
VERTEX
  8
0
 62
     0
  6
CONTINUOUS
 10
2.650120
 20
6.692840
  0
VERTEX
  8
0
 62
     0
  6
CONTINUOUS
 10
2.650120
 20
6.674800
  0
VERTEX
  8
0
 62
     0
  6
CONTINUOUS
 10
2.650120
 20
6.658960
  0
VERTEX
  8
0
 62
     0
  6
CONTINUOUS
 10
2.650120
 20
6.647960
  0
VERTEX
  8
0
 62
     0
  6
CONTINUOUS
 10
2.650120
 20
6.644000
  0
SEQEND
  8
0
  0
POLYLINE
  8
0
 62
     0
  6
CONTINUOUS
 66
     1
 40
0.014080
 41
0.014080
  0
VERTEX
  8
0
 62
     0
  6
CONTINUOUS
 10
2.375120
 20
6.788320
  0
VERTEX
  8
0
 62
     0
  6
CONTINUOUS
 10
2.701160
 20
6.788320
  0
VERTEX
  8
0
 62
     0
  6
CONTINUOUS
 10
2.701160
 20
6.595600
  0
VERTEX
  8
0
 62
     0
  6
CONTINUOUS
 10
2.375120
 20
6.595600
  0
VERTEX
  8
0
 62
     0
  6
CONTINUOUS
 10
2.375120
 20
6.788320
  0
SEQEND
  8
0
  0
LINE
  8
0
 62
     0
  6
CONTINUOUS
 10
3.082200
 20
7.366480
 11
3.073840
 21
7.362520
  0
LINE
  8
0
 62
     0
  6
CONTINUOUS
 10
3.073840
 20
7.362520
 11
3.071200
 21
7.357240
  0
LINE
  8
0
 62
     0
  6
CONTINUOUS
 10
3.071200
 20
7.357240
 11
3.071200
 21
7.350200
  0
LINE
  8
0
 62
     0
  6
CONTINUOUS
 10
3.071200
 20
7.350200
 11
3.071200
 21
7.098520
  0
LINE
  8
0
 62
     0
  6
CONTINUOUS
 10
3.071200
 20
7.098520
 11
3.286360
 21
7.098520
  0
LINE
  8
0
 62
     0
  6
CONTINUOUS
 10
3.286360
 20
7.098520
 11
3.286360
 21
7.106880
  0
LINE
  8
0
 62
     0
  6
CONTINUOUS
 10
3.286360
 20
7.106880
 11
3.071200
 21
7.106880
  0
LINE
  8
0
 62
     0
  6
CONTINUOUS
 10
3.127080
 20
7.098520
 11
3.136760
 21
7.084880
  0
LINE
  8
0
 62
     0
  6
CONTINUOUS
 10
3.136760
 20
7.084880
 11
3.136760
 21
7.083560
  0
LINE
  8
0
 62
     0
  6
CONTINUOUS
 10
3.136760
 20
7.083560
 11
3.245440
 21
7.083560
  0
LINE
  8
0
 62
     0
  6
CONTINUOUS
 10
3.245440
 20
7.083560
 11
3.249400
 21
7.084880
  0
LINE
  8
0
 62
     0
  6
CONTINUOUS
 10
3.249400
 20
7.084880
 11
3.253800
 21
7.098520
  0
LINE
  8
0
 62
     0
  6
CONTINUOUS
 10
3.237080
 20
7.083560
 11
3.234440
 21
7.073880
  0
LINE
  8
0
 62
     0
  6
CONTINUOUS
 10
3.234440
 20
7.073880
 11
3.234440
 21
7.071240
  0
LINE
  8
0
 62
     0
  6
CONTINUOUS
 10
3.234440
 20
7.071240
 11
3.151720
 21
7.071240
  0
LINE
  8
0
 62
     0
  6
CONTINUOUS
 10
3.151720
 20
7.071240
 11
3.148640
 21
7.071240
  0
LINE
  8
0
 62
     0
  6
CONTINUOUS
 10
3.148640
 20
7.071240
 11
3.147320
 21
7.073880
  0
LINE
  8
0
 62
     0
  6
CONTINUOUS
 10
3.147320
 20
7.073880
 11
3.143360
 21
7.083560
  0
LINE
  8
0
 62
     0
  6
CONTINUOUS
 10
3.148640
 20
7.071240
 11
3.234440
 21
7.071240
  0
LINE
  8
0
 62
     0
  6
CONTINUOUS
 10
3.216840
 20
7.051000
 11
3.169320
 21
7.051000
  0
LINE
  8
0
 62
     0
  6
CONTINUOUS
 10
3.169320
 20
7.006120
 11
3.169320
 21
6.950240
  0
LINE
  8
0
 62
     0
  6
CONTINUOUS
 10
3.169320
 20
6.950240
 11
3.185600
 21
6.947600
  0
LINE
  8
0
 62
     0
  6
CONTINUOUS
 10
3.185600
 20
6.947600
 11
3.201880
 21
6.947600
  0
LINE
  8
0
 62
     0
  6
CONTINUOUS
 10
3.201880
 20
6.947600
 11
3.216840
 21
6.950240
  0
LINE
  8
0
 62
     0
  6
CONTINUOUS
 10
3.216840
 20
6.950240
 11
3.216840
 21
7.007440
  0
LINE
  8
0
 62
     0
  6
CONTINUOUS
 10
3.216840
 20
7.007440
 11
3.223440
 21
7.007440
  0
LINE
  8
0
 62
     0
  6
CONTINUOUS
 10
3.223440
 20
7.007440
 11
3.241480
 21
7.010080
  0
LINE
  8
0
 62
     0
  6
CONTINUOUS
 10
3.233120
 20
7.010080
 11
3.153040
 21
7.010080
  0
LINE
  8
0
 62
     0
  6
CONTINUOUS
 10
3.153040
 20
7.018440
 11
3.233120
 21
7.018440
  0
LINE
  8
0
 62
     0
  6
CONTINUOUS
 10
3.223440
 20
7.007440
 11
3.223440
 21
6.950240
  0
LINE
  8
0
 62
     0
  6
CONTINUOUS
 10
3.223440
 20
6.950240
 11
3.234440
 21
6.947600
  0
LINE
  8
0
 62
     0
  6
CONTINUOUS
 10
3.234440
 20
6.947600
 11
3.249400
 21
6.946280
  0
LINE
  8
0
 62
     0
  6
CONTINUOUS
 10
3.256440
 20
6.946280
 11
3.128400
 21
6.946280
  0
LINE
  8
0
 62
     0
  6
CONTINUOUS
 10
3.136760
 20
6.946280
 11
3.148640
 21
6.947600
  0
LINE
  8
0
 62
     0
  6
CONTINUOUS
 10
3.148640
 20
6.947600
 11
3.159640
 21
6.950240
  0
LINE
  8
0
 62
     0
  6
CONTINUOUS
 10
3.159640
 20
6.950240
 11
3.159640
 21
7.006120
  0
LINE
  8
0
 62
     0
  6
CONTINUOUS
 10
3.159640
 20
7.006120
 11
3.143360
 21
7.010080
  0
LINE
  8
0
 62
     0
  6
CONTINUOUS
 10
3.159640
 20
7.006120
 11
3.169320
 21
7.006120
  0
LINE
  8
0
 62
     0
  6
CONTINUOUS
 10
3.169320
 20
7.006120
 11
3.185600
 21
7.010080
  0
LINE
  8
0
 62
     0
  6
CONTINUOUS
 10
3.185600
 20
7.010080
 11
3.201880
 21
7.010080
  0
LINE
  8
0
 62
     0
  6
CONTINUOUS
 10
3.201880
 20
7.010080
 11
3.216840
 21
7.007440
  0
LINE
  8
0
 62
     0
  6
CONTINUOUS
 10
3.216840
 20
7.007440
 11
3.216840
 21
6.950240
  0
LINE
  8
0
 62
     0
  6
CONTINUOUS
 10
3.216840
 20
6.950240
 11
3.223440
 21
6.950240
  0
LINE
  8
0
 62
     0
  6
CONTINUOUS
 10
3.214200
 20
6.931320
 11
3.210240
 21
6.932640
  0
LINE
  8
0
 62
     0
  6
CONTINUOUS
 10
3.210240
 20
6.932640
 11
3.171960
 21
6.932640
  0
LINE
  8
0
 62
     0
  6
CONTINUOUS
 10
3.171960
 20
6.932640
 11
3.169320
 21
6.931320
  0
LINE
  8
0
 62
     0
  6
CONTINUOUS
 10
3.169320
 20
6.931320
 11
3.169320
 21
6.928680
  0
LINE
  8
0
 62
     0
  6
CONTINUOUS
 10
3.169320
 20
6.928680
 11
3.169320
 21
6.880720
  0
LINE
  8
0
 62
     0
  6
CONTINUOUS
 10
3.169320
 20
6.880720
 11
3.169320
 21
6.879400
  0
LINE
  8
0
 62
     0
  6
CONTINUOUS
 10
3.169320
 20
6.879400
 11
3.216840
 21
6.879400
  0
LINE
  8
0
 62
     0
  6
CONTINUOUS
 10
3.216840
 20
6.879400
 11
3.267000
 21
6.879400
  0
LINE
  8
0
 62
     0
  6
CONTINUOUS
 10
3.267000
 20
6.879400
 11
3.286360
 21
6.879400
  0
LINE
  8
0
 62
     0
  6
CONTINUOUS
 10
3.286360
 20
6.879400
 11
3.286360
 21
6.910640
  0
LINE
  8
0
 62
     0
  6
CONTINUOUS
 10
3.286360
 20
6.910640
 11
3.267000
 21
6.910640
  0
LINE
  8
0
 62
     0
  6
CONTINUOUS
 10
3.267000
 20
6.910640
 11
3.267000
 21
6.879400
  0
LINE
  8
0
 62
     0
  6
CONTINUOUS
 10
3.270080
 20
6.875440
 11
3.270080
 21
6.915040
  0
LINE
  8
0
 62
     0
  6
CONTINUOUS
 10
3.283720
 20
6.915040
 11
3.283720
 21
6.875440
  0
LINE
  8
0
 62
     0
  6
CONTINUOUS
 10
3.248080
 20
6.893040
 11
3.248080
 21
6.895680
  0
LINE
  8
0
 62
     0
  6
CONTINUOUS
 10
3.248080
 20
6.895680
 11
3.248080
 21
6.910640
  0
LINE
  8
0
 62
     0
  6
CONTINUOUS
 10
3.248080
 20
6.893040
 11
3.245440
 21
6.891720
  0
LINE
  8
0
 62
     0
  6
CONTINUOUS
 10
3.245440
 20
6.891720
 11
3.215520
 21
6.889080
  0
LINE
  8
0
 62
     0
  6
CONTINUOUS
 10
3.215520
 20
6.879400
 11
3.215520
 21
6.928680
  0
LINE
  8
0
 62
     0
  6
CONTINUOUS
 10
3.215520
 20
6.928680
 11
3.214200
 21
6.931320
  0
LINE
  8
0
 62
     0
  6
CONTINUOUS
 10
3.249400
 20
6.937920
 11
3.136760
 21
6.937920
  0
LINE
  8
0
 62
     0
  6
CONTINUOUS
 10
3.136760
 20
6.937920
 11
3.128400
 21
6.937920
  0
LINE
  8
0
 62
     0
  6
CONTINUOUS
 10
3.128400
 20
6.937920
 11
3.128400
 21
6.946280
  0
LINE
  8
0
 62
     0
  6
CONTINUOUS
 10
3.128400
 20
6.946280
 11
3.112120
 21
6.954200
  0
LINE
  8
0
 62
     0
  6
CONTINUOUS
 10
3.112120
 20
6.954200
 11
3.112120
 21
6.993800
  0
LINE
  8
0
 62
     0
  6
CONTINUOUS
 10
3.112120
 20
6.993800
 11
3.143360
 21
7.010080
  0
LINE
  8
0
 62
     0
  6
CONTINUOUS
 10
3.143360
 20
7.010080
 11
3.153040
 21
7.010080
  0
LINE
  8
0
 62
     0
  6
CONTINUOUS
 10
3.153040
 20
7.010080
 11
3.153040
 21
7.018440
  0
LINE
  8
0
 62
     0
  6
CONTINUOUS
 10
3.153040
 20
7.018440
 11
3.143360
 21
7.018440
  0
LINE
  8
0
 62
     0
  6
CONTINUOUS
 10
3.143360
 20
7.018440
 11
3.143360
 21
7.041320
  0
LINE
  8
0
 62
     0
  6
CONTINUOUS
 10
3.143360
 20
7.041320
 11
3.147320
 21
7.047040
  0
LINE
  8
0
 62
     0
  6
CONTINUOUS
 10
3.147320
 20
7.047040
 11
3.148640
 21
7.049680
  0
LINE
  8
0
 62
     0
  6
CONTINUOUS
 10
3.148640
 20
7.049680
 11
3.153040
 21
7.049680
  0
LINE
  8
0
 62
     0
  6
CONTINUOUS
 10
3.153040
 20
7.049680
 11
3.169320
 21
7.049680
  0
LINE
  8
0
 62
     0
  6
CONTINUOUS
 10
3.169320
 20
7.049680
 11
3.169320
 21
7.051000
  0
LINE
  8
0
 62
     0
  6
CONTINUOUS
 10
3.169320
 20
7.051000
 11
3.169320
 21
7.071240
  0
LINE
  8
0
 62
     0
  6
CONTINUOUS
 10
3.216840
 20
7.071240
 11
3.216840
 21
7.049680
  0
LINE
  8
0
 62
     0
  6
CONTINUOUS
 10
3.216840
 20
7.049680
 11
3.215520
 21
7.049680
  0
LINE
  8
0
 62
     0
  6
CONTINUOUS
 10
3.215520
 20
7.049680
 11
3.231800
 21
7.049680
  0
LINE
  8
0
 62
     0
  6
CONTINUOUS
 10
3.231800
 20
7.049680
 11
3.234440
 21
7.049680
  0
LINE
  8
0
 62
     0
  6
CONTINUOUS
 10
3.234440
 20
7.049680
 11
3.237080
 21
7.047040
  0
LINE
  8
0
 62
     0
  6
CONTINUOUS
 10
3.237080
 20
7.047040
 11
3.237080
 21
7.041320
  0
LINE
  8
0
 62
     0
  6
CONTINUOUS
 10
3.237080
 20
7.041320
 11
3.237080
 21
7.018440
  0
LINE
  8
0
 62
     0
  6
CONTINUOUS
 10
3.237080
 20
7.018440
 11
3.231800
 21
7.018440
  0
LINE
  8
0
 62
     0
  6
CONTINUOUS
 10
3.231800
 20
7.018440
 11
3.231800
 21
7.010080
  0
LINE
  8
0
 62
     0
  6
CONTINUOUS
 10
3.231800
 20
7.010080
 11
3.237080
 21
7.010080
  0
LINE
  8
0
 62
     0
  6
CONTINUOUS
 10
3.237080
 20
7.010080
 11
3.270080
 21
6.993800
  0
LINE
  8
0
 62
     0
  6
CONTINUOUS
 10
3.270080
 20
6.993800
 11
3.270080
 21
6.954200
  0
LINE
  8
0
 62
     0
  6
CONTINUOUS
 10
3.270080
 20
6.954200
 11
3.253800
 21
6.946280
  0
LINE
  8
0
 62
     0
  6
CONTINUOUS
 10
3.253800
 20
6.946280
 11
3.253800
 21
6.937920
  0
LINE
  8
0
 62
     0
  6
CONTINUOUS
 10
3.253800
 20
6.937920
 11
3.248080
 21
6.937920
  0
LINE
  8
0
 62
     0
  6
CONTINUOUS
 10
3.248080
 20
6.937920
 11
3.248080
 21
6.919000
  0
LINE
  8
0
 62
     0
  6
CONTINUOUS
 10
3.248080
 20
6.919000
 11
3.248080
 21
6.910640
  0
LINE
  8
0
 62
     0
  6
CONTINUOUS
 10
3.248080
 20
6.910640
 11
3.267000
 21
6.910640
  0
LINE
  8
0
 62
     0
  6
CONTINUOUS
 10
3.267000
 20
6.910640
 11
3.270080
 21
6.915040
  0
LINE
  8
0
 62
     0
  6
CONTINUOUS
 10
3.270080
 20
6.915040
 11
3.283720
 21
6.915040
  0
LINE
  8
0
 62
     0
  6
CONTINUOUS
 10
3.283720
 20
6.915040
 11
3.286360
 21
6.910640
  0
LINE
  8
0
 62
     0
  6
CONTINUOUS
 10
3.286360
 20
6.910640
 11
3.286360
 21
6.879400
  0
LINE
  8
0
 62
     0
  6
CONTINUOUS
 10
3.286360
 20
6.879400
 11
3.283720
 21
6.875440
  0
LINE
  8
0
 62
     0
  6
CONTINUOUS
 10
3.283720
 20
6.875440
 11
3.270080
 21
6.875440
  0
LINE
  8
0
 62
     0
  6
CONTINUOUS
 10
3.270080
 20
6.875440
 11
3.267000
 21
6.879400
  0
LINE
  8
0
 62
     0
  6
CONTINUOUS
 10
3.286360
 20
6.889080
 11
3.424960
 21
6.889080
  0
LINE
  8
0
 62
     0
  6
CONTINUOUS
 10
3.424960
 20
6.889080
 11
3.424960
 21
6.895680
  0
LINE
  8
0
 62
     0
  6
CONTINUOUS
 10
3.424960
 20
6.895680
 11
3.286360
 21
6.895680
  0
LINE
  8
0
 62
     0
  6
CONTINUOUS
 10
3.286360
 20
6.895680
 11
3.286360
 21
6.902720
  0
LINE
  8
0
 62
     0
  6
CONTINUOUS
 10
3.286360
 20
6.902720
 11
3.424960
 21
6.902720
  0
LINE
  8
0
 62
     0
  6
CONTINUOUS
 10
3.424960
 20
6.902720
 11
3.424960
 21
6.886440
  0
LINE
  8
0
 62
     0
  6
CONTINUOUS
 10
3.424960
 20
6.886440
 11
3.286360
 21
6.886440
  0
LINE
  8
0
 62
     0
  6
CONTINUOUS
 10
3.286360
 20
6.886440
 11
3.286360
 21
6.902720
  0
LINE
  8
0
 62
     0
  6
CONTINUOUS
 10
3.286360
 20
6.902720
 11
3.424960
 21
6.902720
  0
LINE
  8
0
 62
     0
  6
CONTINUOUS
 10
3.169320
 20
6.889080
 11
3.138080
 21
6.891720
  0
LINE
  8
0
 62
     0
  6
CONTINUOUS
 10
3.138080
 20
6.891720
 11
3.136760
 21
6.893040
  0
LINE
  8
0
 62
     0
  6
CONTINUOUS
 10
3.136760
 20
6.893040
 11
3.136760
 21
6.895680
  0
LINE
  8
0
 62
     0
  6
CONTINUOUS
 10
3.136760
 20
6.895680
 11
3.136760
 21
6.910640
  0
LINE
  8
0
 62
     0
  6
CONTINUOUS
 10
3.136760
 20
6.910640
 11
3.136760
 21
6.919000
  0
LINE
  8
0
 62
     0
  6
CONTINUOUS
 10
3.136760
 20
6.919000
 11
3.136760
 21
6.937920
  0
LINE
  8
0
 62
     0
  6
CONTINUOUS
 10
3.136760
 20
6.910640
 11
3.117400
 21
6.910640
  0
LINE
  8
0
 62
     0
  6
CONTINUOUS
 10
3.117400
 20
6.910640
 11
3.117400
 21
6.879400
  0
LINE
  8
0
 62
     0
  6
CONTINUOUS
 10
3.117400
 20
6.879400
 11
3.169320
 21
6.879400
  0
LINE
  8
0
 62
     0
  6
CONTINUOUS
 10
3.117400
 20
6.879400
 11
3.112120
 21
6.875440
  0
LINE
  8
0
 62
     0
  6
CONTINUOUS
 10
3.112120
 20
6.875440
 11
3.112120
 21
6.915040
  0
LINE
  8
0
 62
     0
  6
CONTINUOUS
 10
3.112120
 20
6.915040
 11
3.117400
 21
6.910640
  0
LINE
  8
0
 62
     0
  6
CONTINUOUS
 10
3.117400
 20
6.910640
 11
3.095840
 21
6.910640
  0
LINE
  8
0
 62
     0
  6
CONTINUOUS
 10
3.095840
 20
6.910640
 11
3.101120
 21
6.915040
  0
LINE
  8
0
 62
     0
  6
CONTINUOUS
 10
3.101120
 20
6.915040
 11
3.101120
 21
6.875440
  0
LINE
  8
0
 62
     0
  6
CONTINUOUS
 10
3.101120
 20
6.875440
 11
3.112120
 21
6.875440
  0
LINE
  8
0
 62
     0
  6
CONTINUOUS
 10
3.117400
 20
6.879400
 11
3.095840
 21
6.879400
  0
LINE
  8
0
 62
     0
  6
CONTINUOUS
 10
3.095840
 20
6.879400
 11
3.095840
 21
6.910640
  0
LINE
  8
0
 62
     0
  6
CONTINUOUS
 10
3.095840
 20
6.910640
 11
3.095840
 21
6.879400
  0
LINE
  8
0
 62
     0
  6
CONTINUOUS
 10
3.095840
 20
6.879400
 11
3.101120
 21
6.875440
  0
LINE
  8
0
 62
     0
  6
CONTINUOUS
 10
3.095840
 20
6.886440
 11
2.891680
 21
6.886440
  0
LINE
  8
0
 62
     0
  6
CONTINUOUS
 10
2.891680
 20
6.886440
 11
2.907960
 21
6.902720
  0
LINE
  8
0
 62
     0
  6
CONTINUOUS
 10
2.907960
 20
6.902720
 11
3.095840
 21
6.902720
  0
LINE
  8
0
 62
     0
  6
CONTINUOUS
 10
3.095840
 20
6.902720
 11
3.095840
 21
6.886440
  0
LINE
  8
0
 62
     0
  6
CONTINUOUS
 10
3.095840
 20
6.886440
 11
3.095840
 21
6.889080
  0
LINE
  8
0
 62
     0
  6
CONTINUOUS
 10
3.095840
 20
6.889080
 11
2.891680
 21
6.889080
  0
LINE
  8
0
 62
     0
  6
CONTINUOUS
 10
2.891680
 20
6.889080
 11
2.891680
 21
6.886440
  0
LINE
  8
0
 62
     0
  6
CONTINUOUS
 10
2.891680
 20
6.886440
 11
2.891680
 21
7.543800
  0
LINE
  8
0
 62
     0
  6
CONTINUOUS
 10
2.907960
 20
7.545120
 11
2.907960
 21
6.902720
  0
LINE
  8
0
 62
     0
  6
CONTINUOUS
 10
2.907960
 20
6.902720
 11
2.891680
 21
6.886440
  0
LINE
  8
0
 62
     0
  6
CONTINUOUS
 10
2.894320
 20
6.886440
 11
2.894320
 21
7.544240
  0
LINE
  8
0
 62
     0
  6
CONTINUOUS
 10
2.904000
 20
7.545120
 11
2.904000
 21
6.898320
  0
LINE
  8
0
 62
     0
  6
CONTINUOUS
 10
2.904000
 20
6.898320
 11
2.894320
 21
6.891720
  0
LINE
  8
0
 62
     0
  6
CONTINUOUS
 10
2.894320
 20
6.891720
 11
2.899600
 21
6.895680
  0
LINE
  8
0
 62
     0
  6
CONTINUOUS
 10
2.899600
 20
6.895680
 11
3.095840
 21
6.895680
  0
LINE
  8
0
 62
     0
  6
CONTINUOUS
 10
3.095840
 20
6.895680
 11
3.095840
 21
6.889080
  0
LINE
  8
0
 62
     0
  6
CONTINUOUS
 10
3.095840
 20
6.902720
 11
2.907960
 21
6.902720
  0
LINE
  8
0
 62
     0
  6
CONTINUOUS
 10
2.907960
 20
6.902720
 11
2.899600
 21
6.895680
  0
LINE
  8
0
 62
     0
  6
CONTINUOUS
 10
3.101120
 20
6.915040
 11
3.112120
 21
6.915040
  0
LINE
  8
0
 62
     0
  6
CONTINUOUS
 10
3.159640
 20
6.950240
 11
3.169320
 21
6.950240
  0
LINE
  8
0
 62
     0
  6
CONTINUOUS
 10
3.153040
 20
7.109520
 11
3.155680
 21
7.112160
  0
LINE
  8
0
 62
     0
  6
CONTINUOUS
 10
3.155680
 20
7.112160
 11
3.158320
 21
7.114800
  0
LINE
  8
0
 62
     0
  6
CONTINUOUS
 10
3.158320
 20
7.114800
 11
3.155680
 21
7.119200
  0
LINE
  8
0
 62
     0
  6
CONTINUOUS
 10
3.155680
 20
7.119200
 11
3.153040
 21
7.121840
  0
LINE
  8
0
 62
     0
  6
CONTINUOUS
 10
3.153040
 20
7.121840
 11
3.148640
 21
7.121840
  0
LINE
  8
0
 62
     0
  6
CONTINUOUS
 10
3.148640
 20
7.121840
 11
3.147320
 21
7.119200
  0
LINE
  8
0
 62
     0
  6
CONTINUOUS
 10
3.147320
 20
7.119200
 11
3.144680
 21
7.114800
  0
LINE
  8
0
 62
     0
  6
CONTINUOUS
 10
3.144680
 20
7.114800
 11
3.147320
 21
7.112160
  0
LINE
  8
0
 62
     0
  6
CONTINUOUS
 10
3.147320
 20
7.112160
 11
3.148640
 21
7.109520
  0
LINE
  8
0
 62
     0
  6
CONTINUOUS
 10
3.148640
 20
7.109520
 11
3.153040
 21
7.108200
  0
LINE
  8
0
 62
     0
  6
CONTINUOUS
 10
3.153040
 20
7.108200
 11
3.153040
 21
7.109520
  0
LINE
  8
0
 62
     0
  6
CONTINUOUS
 10
3.153040
 20
7.109520
 11
3.153040
 21
7.110840
  0
LINE
  8
0
 62
     0
  6
CONTINUOUS
 10
3.153040
 20
7.110840
 11
3.153040
 21
7.114800
  0
LINE
  8
0
 62
     0
  6
CONTINUOUS
 10
3.153040
 20
7.114800
 11
3.154360
 21
7.114800
  0
LINE
  8
0
 62
     0
  6
CONTINUOUS
 10
3.154360
 20
7.114800
 11
3.154360
 21
7.116120
  0
LINE
  8
0
 62
     0
  6
CONTINUOUS
 10
3.154360
 20
7.116120
 11
3.153040
 21
7.116120
  0
LINE
  8
0
 62
     0
  6
CONTINUOUS
 10
3.153040
 20
7.116120
 11
3.153040
 21
7.120520
  0
LINE
  8
0
 62
     0
  6
CONTINUOUS
 10
3.153040
 20
7.120520
 11
3.151720
 21
7.120520
  0
LINE
  8
0
 62
     0
  6
CONTINUOUS
 10
3.151720
 20
7.120520
 11
3.151720
 21
7.116120
  0
LINE
  8
0
 62
     0
  6
CONTINUOUS
 10
3.151720
 20
7.116120
 11
3.148640
 21
7.116120
  0
LINE
  8
0
 62
     0
  6
CONTINUOUS
 10
3.148640
 20
7.116120
 11
3.148640
 21
7.114800
  0
LINE
  8
0
 62
     0
  6
CONTINUOUS
 10
3.148640
 20
7.114800
 11
3.151720
 21
7.114800
  0
LINE
  8
0
 62
     0
  6
CONTINUOUS
 10
3.151720
 20
7.114800
 11
3.151720
 21
7.110840
  0
LINE
  8
0
 62
     0
  6
CONTINUOUS
 10
3.151720
 20
7.110840
 11
3.153040
 21
7.110840
  0
LINE
  8
0
 62
     0
  6
CONTINUOUS
 10
3.237080
 20
7.139440
 11
3.286360
 21
7.139440
  0
LINE
  8
0
 62
     0
  6
CONTINUOUS
 10
3.286360
 20
7.139440
 11
3.286360
 21
7.166720
  0
LINE
  8
0
 62
     0
  6
CONTINUOUS
 10
3.286360
 20
7.166720
 11
3.264360
 21
7.166720
  0
LINE
  8
0
 62
     0
  6
CONTINUOUS
 10
3.264360
 20
7.166720
 11
3.264360
 21
7.164080
  0
LINE
  8
0
 62
     0
  6
CONTINUOUS
 10
3.264360
 20
7.164080
 11
3.286360
 21
7.164080
  0
LINE
  8
0
 62
     0
  6
CONTINUOUS
 10
3.286360
 20
7.164080
 11
3.286360
 21
7.158360
  0
LINE
  8
0
 62
     0
  6
CONTINUOUS
 10
3.286360
 20
7.158360
 11
3.264360
 21
7.158360
  0
LINE
  8
0
 62
     0
  6
CONTINUOUS
 10
3.264360
 20
7.158360
 11
3.264360
 21
7.155720
  0
LINE
  8
0
 62
     0
  6
CONTINUOUS
 10
3.264360
 20
7.155720
 11
3.286360
 21
7.155720
  0
LINE
  8
0
 62
     0
  6
CONTINUOUS
 10
3.286360
 20
7.155720
 11
3.286360
 21
7.150440
  0
LINE
  8
0
 62
     0
  6
CONTINUOUS
 10
3.286360
 20
7.150440
 11
3.294280
 21
7.150440
  0
LINE
  8
0
 62
     0
  6
CONTINUOUS
 10
3.294280
 20
7.150440
 11
3.297360
 21
7.142080
  0
LINE
  8
0
 62
     0
  6
CONTINUOUS
 10
3.297360
 20
7.142080
 11
3.297360
 21
7.121840
  0
LINE
  8
0
 62
     0
  6
CONTINUOUS
 10
3.297360
 20
7.121840
 11
3.294280
 21
7.131080
  0
LINE
  8
0
 62
     0
  6
CONTINUOUS
 10
3.294280
 20
7.131080
 11
3.286360
 21
7.131080
  0
LINE
  8
0
 62
     0
  6
CONTINUOUS
 10
3.294280
 20
7.131080
 11
3.297360
 21
7.142080
  0
LINE
  8
0
 62
     0
  6
CONTINUOUS
 10
3.286360
 20
7.143400
 11
3.264360
 21
7.143400
  0
LINE
  8
0
 62
     0
  6
CONTINUOUS
 10
3.264360
 20
7.143400
 11
3.264360
 21
7.147360
  0
LINE
  8
0
 62
     0
  6
CONTINUOUS
 10
3.264360
 20
7.147360
 11
3.286360
 21
7.147360
  0
LINE
  8
0
 62
     0
  6
CONTINUOUS
 10
3.286360
 20
7.147360
 11
3.286360
 21
7.150440
  0
LINE
  8
0
 62
     0
  6
CONTINUOUS
 10
3.286360
 20
7.150440
 11
3.264360
 21
7.150440
  0
LINE
  8
0
 62
     0
  6
CONTINUOUS
 10
3.264360
 20
7.139440
 11
3.264360
 21
7.350200
  0
LINE
  8
0
 62
     0
  6
CONTINUOUS
 10
3.264360
 20
7.350200
 11
3.263040
 21
7.357240
  0
LINE
  8
0
 62
     0
  6
CONTINUOUS
 10
3.263040
 20
7.357240
 11
3.259080
 21
7.362520
  0
LINE
  8
0
 62
     0
  6
CONTINUOUS
 10
3.259080
 20
7.362520
 11
3.253800
 21
7.366480
  0
LINE
  8
0
 62
     0
  6
CONTINUOUS
 10
3.253800
 20
7.366480
 11
3.250720
 21
7.369560
  0
LINE
  8
0
 62
     0
  6
CONTINUOUS
 10
3.250720
 20
7.369560
 11
3.245440
 21
7.370880
  0
LINE
  8
0
 62
     0
  6
CONTINUOUS
 10
3.245440
 20
7.370880
 11
3.090120
 21
7.370880
  0
LINE
  8
0
 62
     0
  6
CONTINUOUS
 10
3.090120
 20
7.370880
 11
3.087480
 21
7.369560
  0
LINE
  8
0
 62
     0
  6
CONTINUOUS
 10
3.087480
 20
7.369560
 11
3.082200
 21
7.366480
  0
LINE
  8
0
 62
     0
  6
CONTINUOUS
 10
3.011360
 20
7.459320
 11
3.424960
 21
7.459320
  0
LINE
  8
0
 62
     0
  6
CONTINUOUS
 10
3.424960
 20
7.459320
 11
3.424960
 21
7.452280
  0
LINE
  8
0
 62
     0
  6
CONTINUOUS
 10
3.424960
 20
7.452280
 11
3.006080
 21
7.452280
  0
LINE
  8
0
 62
     0
  6
CONTINUOUS
 10
3.022360
 20
7.470320
 11
3.424960
 21
7.470320
  0
LINE
  8
0
 62
     0
  6
CONTINUOUS
 10
3.424960
 20
7.470320
 11
3.424960
 21
7.452280
  0
LINE
  8
0
 62
     0
  6
CONTINUOUS
 10
3.424960
 20
7.465920
 11
3.017960
 21
7.465920
  0
LINE
  8
0
 62
     0
  6
CONTINUOUS
 10
3.469840
 20
7.460640
 11
3.509440
 21
7.460640
  0
LINE
  8
0
 62
     0
  6
CONTINUOUS
 10
3.513400
 20
7.487920
 11
3.498440
 21
7.430720
  0
LINE
  8
0
 62
     0
  6
CONTINUOUS
 10
3.528360
 20
7.430720
 11
3.529680
 21
7.487920
  0
LINE
  8
0
 62
     0
  6
CONTINUOUS
 10
3.560040
 20
7.487920
 11
3.528360
 21
7.430720
  0
LINE
  8
0
 62
     0
  6
CONTINUOUS
 10
3.558280
 20
7.430720
 11
3.560040
 21
7.487920
  0
LINE
  8
0
 62
     0
  6
CONTINUOUS
 10
3.585560
 20
7.487920
 11
3.558280
 21
7.430720
  0
LINE
  8
0
 62
     0
  6
CONTINUOUS
 10
3.588200
 20
7.430720
 11
3.600520
 21
7.487920
  0
LINE
  8
0
 62
     0
  6
CONTINUOUS
 10
3.600520
 20
7.487920
 11
3.626480
 21
7.487920
  0
LINE
  8
0
 62
     0
  6
CONTINUOUS
 10
3.626480
 20
7.487920
 11
3.633080
 21
7.485280
  0
LINE
  8
0
 62
     0
  6
CONTINUOUS
 10
3.633080
 20
7.485280
 11
3.637480
 21
7.482200
  0
LINE
  8
0
 62
     0
  6
CONTINUOUS
 10
3.637480
 20
7.482200
 11
3.637480
 21
7.476920
  0
LINE
  8
0
 62
     0
  6
CONTINUOUS
 10
3.637480
 20
7.476920
 11
3.637480
 21
7.471640
  0
LINE
  8
0
 62
     0
  6
CONTINUOUS
 10
3.637480
 20
7.471640
 11
3.629120
 21
7.465920
  0
LINE
  8
0
 62
     0
  6
CONTINUOUS
 10
3.629120
 20
7.465920
 11
3.626480
 21
7.463280
  0
LINE
  8
0
 62
     0
  6
CONTINUOUS
 10
3.626480
 20
7.463280
 11
3.618120
 21
7.460640
  0
LINE
  8
0
 62
     0
  6
CONTINUOUS
 10
3.618120
 20
7.460640
 11
3.593920
 21
7.460640
  0
LINE
  8
0
 62
     0
  6
CONTINUOUS
 10
3.612840
 20
7.460640
 11
3.626480
 21
7.430720
  0
LINE
  8
0
 62
     0
  6
CONTINUOUS
 10
3.463240
 20
7.430720
 11
3.478200
 21
7.487920
  0
LINE
  8
0
 62
     0
  6
CONTINUOUS
 10
3.275360
 20
7.206320
 11
3.270080
 21
7.207640
  0
LINE
  8
0
 62
     0
  6
CONTINUOUS
 10
3.270080
 20
7.207640
 11
3.264360
 21
7.207640
  0
LINE
  8
0
 62
     0
  6
CONTINUOUS
 10
3.275360
 20
7.206320
 11
3.279320
 21
7.201920
  0
LINE
  8
0
 62
     0
  6
CONTINUOUS
 10
3.279320
 20
7.201920
 11
3.280640
 21
7.199280
  0
LINE
  8
0
 62
     0
  6
CONTINUOUS
 10
3.280640
 20
7.199280
 11
3.280640
 21
7.166720
  0
LINE
  8
0
 62
     0
  6
CONTINUOUS
 10
3.286360
 20
7.139440
 11
3.286360
 21
7.106880
  0
LINE
  8
0
 62
     0
  6
CONTINUOUS
 10
3.286360
 20
7.106880
 11
3.286360
 21
7.110840
  0
LINE
  8
0
 62
     0
  6
CONTINUOUS
 10
3.286360
 20
7.110840
 11
3.294280
 21
7.110840
  0
LINE
  8
0
 62
     0
  6
CONTINUOUS
 10
3.294280
 20
7.110840
 11
3.297360
 21
7.121840
  0
LINE
  8
0
 62
     0
  6
CONTINUOUS
 10
3.478200
 20
6.921640
 11
3.463240
 21
6.864440
  0
LINE
  8
0
 62
     0
  6
CONTINUOUS
 10
3.469840
 20
6.894360
 11
3.509440
 21
6.894360
  0
LINE
  8
0
 62
     0
  6
CONTINUOUS
 10
3.513400
 20
6.921640
 11
3.498440
 21
6.864440
  0
LINE
  8
0
 62
     0
  6
CONTINUOUS
 10
3.528360
 20
6.864440
 11
3.529680
 21
6.921640
  0
LINE
  8
0
 62
     0
  6
CONTINUOUS
 10
3.560040
 20
6.921640
 11
3.528360
 21
6.864440
  0
LINE
  8
0
 62
     0
  6
CONTINUOUS
 10
3.558280
 20
6.864440
 11
3.560040
 21
6.921640
  0
LINE
  8
0
 62
     0
  6
CONTINUOUS
 10
3.585560
 20
6.921640
 11
3.558280
 21
6.864440
  0
LINE
  8
0
 62
     0
  6
CONTINUOUS
 10
3.591280
 20
6.867080
 11
3.585560
 21
6.872800
  0
LINE
  8
0
 62
     0
  6
CONTINUOUS
 10
3.591280
 20
6.867080
 11
3.595240
 21
6.864440
  0
LINE
  8
0
 62
     0
  6
CONTINUOUS
 10
3.595240
 20
6.864440
 11
3.608880
 21
6.864440
  0
LINE
  8
0
 62
     0
  6
CONTINUOUS
 10
3.608880
 20
6.864440
 11
3.616800
 21
6.867080
  0
LINE
  8
0
 62
     0
  6
CONTINUOUS
 10
3.616800
 20
6.867080
 11
3.625160
 21
6.872800
  0
LINE
  8
0
 62
     0
  6
CONTINUOUS
 10
3.625160
 20
6.872800
 11
3.626480
 21
6.880720
  0
LINE
  8
0
 62
     0
  6
CONTINUOUS
 10
3.626480
 20
6.880720
 11
3.626480
 21
6.886440
  0
LINE
  8
0
 62
     0
  6
CONTINUOUS
 10
3.626480
 20
6.886440
 11
3.623840
 21
6.889080
  0
LINE
  8
0
 62
     0
  6
CONTINUOUS
 10
3.623840
 20
6.889080
 11
3.618120
 21
6.891720
  0
LINE
  8
0
 62
     0
  6
CONTINUOUS
 10
3.618120
 20
6.891720
 11
3.604920
 21
6.897000
  0
LINE
  8
0
 62
     0
  6
CONTINUOUS
 10
3.604920
 20
6.897000
 11
3.596560
 21
6.900080
  0
LINE
  8
0
 62
     0
  6
CONTINUOUS
 10
3.596560
 20
6.900080
 11
3.595240
 21
6.902720
  0
LINE
  8
0
 62
     0
  6
CONTINUOUS
 10
3.595240
 20
6.902720
 11
3.593920
 21
6.908000
  0
LINE
  8
0
 62
     0
  6
CONTINUOUS
 10
3.593920
 20
6.908000
 11
3.595240
 21
6.913280
  0
LINE
  8
0
 62
     0
  6
CONTINUOUS
 10
3.595240
 20
6.913280
 11
3.604920
 21
6.919000
  0
LINE
  8
0
 62
     0
  6
CONTINUOUS
 10
3.604920
 20
6.919000
 11
3.610200
 21
6.921640
  0
LINE
  8
0
 62
     0
  6
CONTINUOUS
 10
3.610200
 20
6.921640
 11
3.623840
 21
6.921640
  0
LINE
  8
0
 62
     0
  6
CONTINUOUS
 10
3.623840
 20
6.921640
 11
3.629120
 21
6.919000
  0
LINE
  8
0
 62
     0
  6
CONTINUOUS
 10
3.629120
 20
6.919000
 11
3.634840
 21
6.913280
  0
LINE
  8
0
 62
     0
  6
CONTINUOUS
 10
3.012680
 20
8.409280
 11
3.019720
 21
8.404000
  0
LINE
  8
0
 62
     0
  6
CONTINUOUS
 10
3.019720
 20
8.404000
 11
3.019720
 21
8.398720
  0
LINE
  8
0
 62
     0
  6
CONTINUOUS
 10
3.019720
 20
8.398720
 11
3.021040
 21
8.390360
  0
LINE
  8
0
 62
     0
  6
CONTINUOUS
 10
3.021040
 20
8.390360
 11
3.016640
 21
8.376720
  0
LINE
  8
0
 62
     0
  6
CONTINUOUS
 10
3.016640
 20
8.376720
 11
3.008720
 21
8.368800
  0
LINE
  8
0
 62
     0
  6
CONTINUOUS
 10
3.008720
 20
8.368800
 11
3.006080
 21
8.363080
  0
LINE
  8
0
 62
     0
  6
CONTINUOUS
 10
3.006080
 20
8.363080
 11
3.000360
 21
8.357800
  0
LINE
  8
0
 62
     0
  6
CONTINUOUS
 10
3.000360
 20
8.357800
 11
2.989800
 21
8.355160
  0
LINE
  8
0
 62
     0
  6
CONTINUOUS
 10
2.989800
 20
8.355160
 11
2.973080
 21
8.355160
  0
LINE
  8
0
 62
     0
  6
CONTINUOUS
 10
2.973080
 20
8.355160
 11
2.988040
 21
8.410600
  0
LINE
  8
0
 62
     0
  6
CONTINUOUS
 10
2.988040
 20
8.410600
 11
3.006080
 21
8.410600
  0
LINE
  8
0
 62
     0
  6
CONTINUOUS
 10
3.006080
 20
8.410600
 11
3.012680
 21
8.409280
  0
LINE
  8
0
 62
     0
  6
CONTINUOUS
 10
2.956800
 20
8.409280
 11
2.952840
 21
8.410600
  0
LINE
  8
0
 62
     0
  6
CONTINUOUS
 10
2.952840
 20
8.410600
 11
2.940520
 21
8.410600
  0
LINE
  8
0
 62
     0
  6
CONTINUOUS
 10
2.940520
 20
8.410600
 11
2.936560
 21
8.409280
  0
LINE
  8
0
 62
     0
  6
CONTINUOUS
 10
2.936560
 20
8.409280
 11
2.926880
 21
8.404000
  0
LINE
  8
0
 62
     0
  6
CONTINUOUS
 10
2.926880
 20
8.404000
 11
2.924240
 21
8.398720
  0
LINE
  8
0
 62
     0
  6
CONTINUOUS
 10
2.924240
 20
8.398720
 11
2.920280
 21
8.390360
  0
LINE
  8
0
 62
     0
  6
CONTINUOUS
 10
2.920280
 20
8.390360
 11
2.915880
 21
8.376720
  0
LINE
  8
0
 62
     0
  6
CONTINUOUS
 10
2.915880
 20
8.376720
 11
2.915880
 21
8.368800
  0
LINE
  8
0
 62
     0
  6
CONTINUOUS
 10
2.915880
 20
8.368800
 11
2.918960
 21
8.363080
  0
LINE
  8
0
 62
     0
  6
CONTINUOUS
 10
2.918960
 20
8.363080
 11
2.922920
 21
8.357800
  0
LINE
  8
0
 62
     0
  6
CONTINUOUS
 10
2.922920
 20
8.357800
 11
2.924240
 21
8.355160
  0
LINE
  8
0
 62
     0
  6
CONTINUOUS
 10
2.924240
 20
8.355160
 11
2.937880
 21
8.355160
  0
LINE
  8
0
 62
     0
  6
CONTINUOUS
 10
2.937880
 20
8.355160
 11
2.941840
 21
8.357800
  0
LINE
  8
0
 62
     0
  6
CONTINUOUS
 10
2.941840
 20
8.357800
 11
2.951520
 21
8.363080
  0
LINE
  8
0
 62
     0
  6
CONTINUOUS
 10
2.951520
 20
8.363080
 11
2.955480
 21
8.368800
  0
LINE
  8
0
 62
     0
  6
CONTINUOUS
 10
2.955480
 20
8.368800
 11
2.956800
 21
8.376720
  0
LINE
  8
0
 62
     0
  6
CONTINUOUS
 10
2.956800
 20
8.376720
 11
2.962520
 21
8.390360
  0
LINE
  8
0
 62
     0
  6
CONTINUOUS
 10
2.962520
 20
8.390360
 11
2.962520
 21
8.398720
  0
LINE
  8
0
 62
     0
  6
CONTINUOUS
 10
2.962520
 20
8.398720
 11
2.959440
 21
8.404000
  0
LINE
  8
0
 62
     0
  6
CONTINUOUS
 10
2.959440
 20
8.404000
 11
2.956800
 21
8.409280
  0
LINE
  8
0
 62
     0
  6
CONTINUOUS
 10
2.907960
 20
8.410600
 11
2.869680
 21
8.355160
  0
LINE
  8
0
 62
     0
  6
CONTINUOUS
 10
2.869680
 20
8.355160
 11
2.861760
 21
8.410600
  0
LINE
  8
0
 62
     0
  6
CONTINUOUS
 10
2.861760
 20
8.410600
 11
2.845480
 21
8.355160
  0
LINE
  8
0
 62
     0
  6
CONTINUOUS
 10
2.861760
 20
8.341520
 11
2.845480
 21
8.284320
  0
LINE
  8
0
 62
     0
  6
CONTINUOUS
 10
2.857360
 20
8.314240
 11
2.891680
 21
8.314240
  0
LINE
  8
0
 62
     0
  6
CONTINUOUS
 10
2.914560
 20
8.314240
 11
2.937880
 21
8.314240
  0
LINE
  8
0
 62
     0
  6
CONTINUOUS
 10
2.907960
 20
8.284320
 11
2.924240
 21
8.341520
  0
LINE
  8
0
 62
     0
  6
CONTINUOUS
 10
2.924240
 20
8.341520
 11
2.956800
 21
8.341520
  0
LINE
  8
0
 62
     0
  6
CONTINUOUS
 10
2.988040
 20
8.341520
 11
2.951520
 21
8.284320
  0
LINE
  8
0
 62
     0
  6
CONTINUOUS
 10
2.963840
 20
8.303240
 11
2.989800
 21
8.303240
  0
LINE
  8
0
 62
     0
  6
CONTINUOUS
 10
2.992440
 20
8.284320
 11
2.988040
 21
8.341520
  0
LINE
  8
0
 62
     0
  6
CONTINUOUS
 10
3.014000
 20
8.341520
 11
3.053600
 21
8.341520
  0
LINE
  8
0
 62
     0
  6
CONTINUOUS
 10
3.034680
 20
8.341520
 11
3.019720
 21
8.284320
  0
LINE
  8
0
 62
     0
  6
CONTINUOUS
 10
3.032920
 20
8.355160
 11
3.036000
 21
8.357800
  0
LINE
  8
0
 62
     0
  6
CONTINUOUS
 10
3.036000
 20
8.357800
 11
3.034680
 21
8.360440
  0
LINE
  8
0
 62
     0
  6
CONTINUOUS
 10
3.034680
 20
8.360440
 11
3.028960
 21
8.357800
  0
LINE
  8
0
 62
     0
  6
CONTINUOUS
 10
3.028960
 20
8.357800
 11
3.032920
 21
8.355160
  0
LINE
  8
0
 62
     0
  6
CONTINUOUS
 10
2.891680
 20
8.355160
 11
2.907960
 21
8.410600
  0
LINE
  8
0
 62
     0
  6
CONTINUOUS
 10
2.902680
 20
8.341520
 11
2.887720
 21
8.284320
  0
LINE
  8
0
 62
     0
  6
CONTINUOUS
 10
3.196160
 20
6.883360
 11
3.196160
 21
6.792280
  0
LINE
  8
0
 62
     0
  6
CONTINUOUS
 10
2.862640
 20
7.549960
 11
2.862640
 21
8.047160
  0
LINE
  8
0
 62
     0
  6
CONTINUOUS
 10
2.962960
 20
7.993480
 11
2.967360
 21
7.984240
  0
LINE
  8
0
 62
     0
  6
CONTINUOUS
 10
2.967360
 20
7.984240
 11
2.969120
 21
7.974560
  0
LINE
  8
0
 62
     0
  6
CONTINUOUS
 10
2.962960
 20
7.993480
 11
2.961200
 21
8.000960
  0
LINE
  8
0
 62
     0
  6
CONTINUOUS
 10
2.961200
 20
8.000960
 11
2.950640
 21
8.007120
  0
LINE
  8
0
 62
     0
  6
CONTINUOUS
 10
2.950640
 20
8.007120
 11
2.942720
 21
8.010200
  0
LINE
  8
0
 62
     0
  6
CONTINUOUS
 10
2.942720
 20
8.010200
 11
2.933480
 21
8.011960
  0
LINE
  8
0
 62
     0
  6
CONTINUOUS
 10
2.933480
 20
8.011960
 11
2.924240
 21
8.010200
  0
LINE
  8
0
 62
     0
  6
CONTINUOUS
 10
2.924240
 20
8.010200
 11
2.915000
 21
8.007120
  0
LINE
  8
0
 62
     0
  6
CONTINUOUS
 10
2.915000
 20
8.007120
 11
2.905760
 21
8.000960
  0
LINE
  8
0
 62
     0
  6
CONTINUOUS
 10
2.905760
 20
8.000960
 11
2.902680
 21
7.993480
  0
LINE
  8
0
 62
     0
  6
CONTINUOUS
 10
2.902680
 20
7.993480
 11
2.899600
 21
7.984240
  0
LINE
  8
0
 62
     0
  6
CONTINUOUS
 10
2.899600
 20
7.984240
 11
2.896520
 21
7.974560
  0
LINE
  8
0
 62
     0
  6
CONTINUOUS
 10
2.896520
 20
7.974560
 11
2.899600
 21
7.965320
  0
LINE
  8
0
 62
     0
  6
CONTINUOUS
 10
2.899600
 20
7.965320
 11
2.902680
 21
7.957840
  0
LINE
  8
0
 62
     0
  6
CONTINUOUS
 10
2.902680
 20
7.957840
 11
2.905760
 21
7.948600
  0
LINE
  8
0
 62
     0
  6
CONTINUOUS
 10
2.905760
 20
7.948600
 11
2.915000
 21
7.942440
  0
LINE
  8
0
 62
     0
  6
CONTINUOUS
 10
2.915000
 20
7.942440
 11
2.924240
 21
7.939360
  0
LINE
  8
0
 62
     0
  6
CONTINUOUS
 10
2.924240
 20
7.939360
 11
2.933480
 21
7.939360
  0
LINE
  8
0
 62
     0
  6
CONTINUOUS
 10
2.933480
 20
7.939360
 11
2.942720
 21
7.939360
  0
LINE
  8
0
 62
     0
  6
CONTINUOUS
 10
2.942720
 20
7.939360
 11
2.950640
 21
7.942440
  0
LINE
  8
0
 62
     0
  6
CONTINUOUS
 10
2.950640
 20
7.942440
 11
2.961200
 21
7.948600
  0
LINE
  8
0
 62
     0
  6
CONTINUOUS
 10
2.961200
 20
7.948600
 11
2.962960
 21
7.957840
  0
LINE
  8
0
 62
     0
  6
CONTINUOUS
 10
2.962960
 20
7.957840
 11
2.967360
 21
7.965320
  0
LINE
  8
0
 62
     0
  6
CONTINUOUS
 10
2.967360
 20
7.965320
 11
2.969120
 21
7.974560
  0
LINE
  8
0
 62
     0
  6
CONTINUOUS
 10
2.979680
 20
7.914720
 11
2.976600
 21
7.908560
  0
LINE
  8
0
 62
     0
  6
CONTINUOUS
 10
2.976600
 20
7.908560
 11
2.970440
 21
7.898880
  0
LINE
  8
0
 62
     0
  6
CONTINUOUS
 10
2.970440
 20
7.898880
 11
2.969120
 21
7.889640
  0
LINE
  8
0
 62
     0
  6
CONTINUOUS
 10
2.969120
 20
7.889640
 11
2.970440
 21
7.880400
  0
LINE
  8
0
 62
     0
  6
CONTINUOUS
 10
2.970440
 20
7.880400
 11
2.976600
 21
7.871160
  0
LINE
  8
0
 62
     0
  6
CONTINUOUS
 10
2.976600
 20
7.871160
 11
2.979680
 21
7.863680
  0
LINE
  8
0
 62
     0
  6
CONTINUOUS
 10
2.979680
 20
7.863680
 11
2.987600
 21
7.858840
  0
LINE
  8
0
 62
     0
  6
CONTINUOUS
 10
2.987600
 20
7.858840
 11
2.998600
 21
7.854440
  0
LINE
  8
0
 62
     0
  6
CONTINUOUS
 10
2.998600
 20
7.854440
 11
3.006080
 21
7.852680
  0
LINE
  8
0
 62
     0
  6
CONTINUOUS
 10
3.006080
 20
7.852680
 11
3.017080
 21
7.854440
  0
LINE
  8
0
 62
     0
  6
CONTINUOUS
 10
3.017080
 20
7.854440
 11
3.024560
 21
7.858840
  0
LINE
  8
0
 62
     0
  6
CONTINUOUS
 10
3.024560
 20
7.858840
 11
3.033800
 21
7.863680
  0
LINE
  8
0
 62
     0
  6
CONTINUOUS
 10
3.033800
 20
7.863680
 11
3.035560
 21
7.871160
  0
LINE
  8
0
 62
     0
  6
CONTINUOUS
 10
3.035560
 20
7.871160
 11
3.041720
 21
7.880400
  0
LINE
  8
0
 62
     0
  6
CONTINUOUS
 10
3.041720
 20
7.880400
 11
3.043040
 21
7.889640
  0
LINE
  8
0
 62
     0
  6
CONTINUOUS
 10
3.043040
 20
7.889640
 11
3.041720
 21
7.898880
  0
LINE
  8
0
 62
     0
  6
CONTINUOUS
 10
3.041720
 20
7.898880
 11
3.035560
 21
7.908560
  0
LINE
  8
0
 62
     0
  6
CONTINUOUS
 10
3.035560
 20
7.908560
 11
3.033800
 21
7.914720
  0
LINE
  8
0
 62
     0
  6
CONTINUOUS
 10
3.033800
 20
7.914720
 11
3.024560
 21
7.920880
  0
LINE
  8
0
 62
     0
  6
CONTINUOUS
 10
3.024560
 20
7.920880
 11
3.017080
 21
7.925280
  0
LINE
  8
0
 62
     0
  6
CONTINUOUS
 10
3.017080
 20
7.925280
 11
3.006080
 21
7.927040
  0
LINE
  8
0
 62
     0
  6
CONTINUOUS
 10
3.006080
 20
7.927040
 11
2.998600
 21
7.925280
  0
LINE
  8
0
 62
     0
  6
CONTINUOUS
 10
2.998600
 20
7.925280
 11
2.987600
 21
7.920880
  0
LINE
  8
0
 62
     0
  6
CONTINUOUS
 10
2.987600
 20
7.920880
 11
2.979680
 21
7.914720
  0
LINE
  8
0
 62
     0
  6
CONTINUOUS
 10
2.979680
 20
8.024280
 11
2.987600
 21
8.018120
  0
LINE
  8
0
 62
     0
  6
CONTINUOUS
 10
2.987600
 20
8.018120
 11
2.998600
 21
8.013280
  0
LINE
  8
0
 62
     0
  6
CONTINUOUS
 10
2.998600
 20
8.013280
 11
3.006080
 21
8.013280
  0
LINE
  8
0
 62
     0
  6
CONTINUOUS
 10
3.006080
 20
8.013280
 11
3.017080
 21
8.013280
  0
LINE
  8
0
 62
     0
  6
CONTINUOUS
 10
3.017080
 20
8.013280
 11
3.024560
 21
8.018120
  0
LINE
  8
0
 62
     0
  6
CONTINUOUS
 10
3.024560
 20
8.018120
 11
3.033800
 21
8.024280
  0
LINE
  8
0
 62
     0
  6
CONTINUOUS
 10
3.033800
 20
8.024280
 11
3.035560
 21
8.031760
  0
LINE
  8
0
 62
     0
  6
CONTINUOUS
 10
3.035560
 20
8.031760
 11
3.041720
 21
8.039680
  0
LINE
  8
0
 62
     0
  6
CONTINUOUS
 10
3.041720
 20
8.039680
 11
3.043040
 21
8.048920
  0
LINE
  8
0
 62
     0
  6
CONTINUOUS
 10
3.043040
 20
8.048920
 11
3.041720
 21
8.058160
  0
LINE
  8
0
 62
     0
  6
CONTINUOUS
 10
3.041720
 20
8.058160
 11
3.035560
 21
8.067400
  0
LINE
  8
0
 62
     0
  6
CONTINUOUS
 10
3.035560
 20
8.067400
 11
3.033800
 21
8.075320
  0
LINE
  8
0
 62
     0
  6
CONTINUOUS
 10
3.033800
 20
8.075320
 11
3.024560
 21
8.081480
  0
LINE
  8
0
 62
     0
  6
CONTINUOUS
 10
3.024560
 20
8.081480
 11
3.017080
 21
8.084560
  0
LINE
  8
0
 62
     0
  6
CONTINUOUS
 10
3.017080
 20
8.084560
 11
3.006080
 21
8.085880
  0
LINE
  8
0
 62
     0
  6
CONTINUOUS
 10
3.006080
 20
8.085880
 11
2.998600
 21
8.084560
  0
LINE
  8
0
 62
     0
  6
CONTINUOUS
 10
2.998600
 20
8.084560
 11
2.987600
 21
8.081480
  0
LINE
  8
0
 62
     0
  6
CONTINUOUS
 10
2.987600
 20
8.081480
 11
2.979680
 21
8.075320
  0
LINE
  8
0
 62
     0
  6
CONTINUOUS
 10
2.979680
 20
8.075320
 11
2.976600
 21
8.067400
  0
LINE
  8
0
 62
     0
  6
CONTINUOUS
 10
2.976600
 20
8.067400
 11
2.970440
 21
8.058160
  0
LINE
  8
0
 62
     0
  6
CONTINUOUS
 10
2.970440
 20
8.058160
 11
2.969120
 21
8.048920
  0
LINE
  8
0
 62
     0
  6
CONTINUOUS
 10
2.969120
 20
8.048920
 11
2.970440
 21
8.039680
  0
LINE
  8
0
 62
     0
  6
CONTINUOUS
 10
2.970440
 20
8.039680
 11
2.976600
 21
8.031760
  0
LINE
  8
0
 62
     0
  6
CONTINUOUS
 10
2.976600
 20
8.031760
 11
2.979680
 21
8.024280
  0
LINE
  8
0
 62
     0
  6
CONTINUOUS
 10
3.054040
 20
8.047160
 11
3.054040
 21
7.549960
  0
LINE
  8
0
 62
     0
  6
CONTINUOUS
 10
2.961200
 20
7.596600
 11
2.962960
 21
7.604080
  0
LINE
  8
0
 62
     0
  6
CONTINUOUS
 10
2.962960
 20
7.604080
 11
2.967360
 21
7.613320
  0
LINE
  8
0
 62
     0
  6
CONTINUOUS
 10
2.967360
 20
7.613320
 11
2.969120
 21
7.622560
  0
LINE
  8
0
 62
     0
  6
CONTINUOUS
 10
2.969120
 20
7.622560
 11
2.967360
 21
7.631800
  0
LINE
  8
0
 62
     0
  6
CONTINUOUS
 10
2.967360
 20
7.631800
 11
2.962960
 21
7.641040
  0
LINE
  8
0
 62
     0
  6
CONTINUOUS
 10
2.962960
 20
7.641040
 11
2.961200
 21
7.648960
  0
LINE
  8
0
 62
     0
  6
CONTINUOUS
 10
2.961200
 20
7.648960
 11
2.950640
 21
7.653360
  0
LINE
  8
0
 62
     0
  6
CONTINUOUS
 10
2.950640
 20
7.653360
 11
2.942720
 21
7.658200
  0
LINE
  8
0
 62
     0
  6
CONTINUOUS
 10
2.942720
 20
7.658200
 11
2.933480
 21
7.658200
  0
LINE
  8
0
 62
     0
  6
CONTINUOUS
 10
2.933480
 20
7.658200
 11
2.924240
 21
7.658200
  0
LINE
  8
0
 62
     0
  6
CONTINUOUS
 10
2.924240
 20
7.658200
 11
2.915000
 21
7.653360
  0
LINE
  8
0
 62
     0
  6
CONTINUOUS
 10
2.915000
 20
7.653360
 11
2.905760
 21
7.648960
  0
LINE
  8
0
 62
     0
  6
CONTINUOUS
 10
2.905760
 20
7.648960
 11
2.902680
 21
7.641040
  0
LINE
  8
0
 62
     0
  6
CONTINUOUS
 10
2.902680
 20
7.641040
 11
2.899600
 21
7.631800
  0
LINE
  8
0
 62
     0
  6
CONTINUOUS
 10
2.899600
 20
7.631800
 11
2.896520
 21
7.622560
  0
LINE
  8
0
 62
     0
  6
CONTINUOUS
 10
2.896520
 20
7.622560
 11
2.899600
 21
7.613320
  0
LINE
  8
0
 62
     0
  6
CONTINUOUS
 10
2.899600
 20
7.613320
 11
2.902680
 21
7.604080
  0
LINE
  8
0
 62
     0
  6
CONTINUOUS
 10
2.924240
 20
7.586920
 11
2.933480
 21
7.586920
  0
LINE
  8
0
 62
     0
  6
CONTINUOUS
 10
2.933480
 20
7.586920
 11
2.942720
 21
7.586920
  0
LINE
  8
0
 62
     0
  6
CONTINUOUS
 10
2.942720
 20
7.586920
 11
2.950640
 21
7.590000
  0
LINE
  8
0
 62
     0
  6
CONTINUOUS
 10
2.950640
 20
7.590000
 11
2.961200
 21
7.596600
  0
LINE
  8
0
 62
     0
  6
CONTINUOUS
 10
2.979680
 20
7.693840
 11
2.987600
 21
7.687680
  0
LINE
  8
0
 62
     0
  6
CONTINUOUS
 10
2.987600
 20
7.687680
 11
2.998600
 21
7.684600
  0
LINE
  8
0
 62
     0
  6
CONTINUOUS
 10
2.998600
 20
7.684600
 11
3.006080
 21
7.682840
  0
LINE
  8
0
 62
     0
  6
CONTINUOUS
 10
3.006080
 20
7.682840
 11
3.017080
 21
7.684600
  0
LINE
  8
0
 62
     0
  6
CONTINUOUS
 10
3.017080
 20
7.684600
 11
3.024560
 21
7.687680
  0
LINE
  8
0
 62
     0
  6
CONTINUOUS
 10
3.024560
 20
7.687680
 11
3.033800
 21
7.693840
  0
LINE
  8
0
 62
     0
  6
CONTINUOUS
 10
3.033800
 20
7.693840
 11
3.035560
 21
7.701320
  0
LINE
  8
0
 62
     0
  6
CONTINUOUS
 10
3.035560
 20
7.701320
 11
3.041720
 21
7.710560
  0
LINE
  8
0
 62
     0
  6
CONTINUOUS
 10
3.041720
 20
7.710560
 11
3.043040
 21
7.719800
  0
LINE
  8
0
 62
     0
  6
CONTINUOUS
 10
3.043040
 20
7.719800
 11
3.041720
 21
7.729040
  0
LINE
  8
0
 62
     0
  6
CONTINUOUS
 10
3.041720
 20
7.729040
 11
3.035560
 21
7.738280
  0
LINE
  8
0
 62
     0
  6
CONTINUOUS
 10
3.035560
 20
7.738280
 11
3.033800
 21
7.744440
  0
LINE
  8
0
 62
     0
  6
CONTINUOUS
 10
3.033800
 20
7.744440
 11
3.024560
 21
7.750600
  0
LINE
  8
0
 62
     0
  6
CONTINUOUS
 10
3.024560
 20
7.750600
 11
3.017080
 21
7.754120
  0
LINE
  8
0
 62
     0
  6
CONTINUOUS
 10
3.017080
 20
7.754120
 11
3.006080
 21
7.757200
  0
LINE
  8
0
 62
     0
  6
CONTINUOUS
 10
3.006080
 20
7.757200
 11
2.998600
 21
7.754120
  0
LINE
  8
0
 62
     0
  6
CONTINUOUS
 10
2.998600
 20
7.754120
 11
2.987600
 21
7.750600
  0
LINE
  8
0
 62
     0
  6
CONTINUOUS
 10
2.987600
 20
7.750600
 11
2.979680
 21
7.744440
  0
LINE
  8
0
 62
     0
  6
CONTINUOUS
 10
2.979680
 20
7.744440
 11
2.976600
 21
7.738280
  0
LINE
  8
0
 62
     0
  6
CONTINUOUS
 10
2.976600
 20
7.738280
 11
2.970440
 21
7.729040
  0
LINE
  8
0
 62
     0
  6
CONTINUOUS
 10
2.970440
 20
7.729040
 11
2.969120
 21
7.719800
  0
LINE
  8
0
 62
     0
  6
CONTINUOUS
 10
2.969120
 20
7.719800
 11
2.970440
 21
7.710560
  0
LINE
  8
0
 62
     0
  6
CONTINUOUS
 10
2.970440
 20
7.710560
 11
2.976600
 21
7.701320
  0
LINE
  8
0
 62
     0
  6
CONTINUOUS
 10
2.976600
 20
7.701320
 11
2.979680
 21
7.693840
  0
LINE
  8
0
 62
     0
  6
CONTINUOUS
 10
2.961200
 20
7.766440
 11
2.962960
 21
7.773920
  0
LINE
  8
0
 62
     0
  6
CONTINUOUS
 10
2.962960
 20
7.773920
 11
2.967360
 21
7.783160
  0
LINE
  8
0
 62
     0
  6
CONTINUOUS
 10
2.967360
 20
7.783160
 11
2.969120
 21
7.792400
  0
LINE
  8
0
 62
     0
  6
CONTINUOUS
 10
2.969120
 20
7.792400
 11
2.967360
 21
7.801640
  0
LINE
  8
0
 62
     0
  6
CONTINUOUS
 10
2.967360
 20
7.801640
 11
2.962960
 21
7.810880
  0
LINE
  8
0
 62
     0
  6
CONTINUOUS
 10
2.962960
 20
7.810880
 11
2.961200
 21
7.818800
  0
LINE
  8
0
 62
     0
  6
CONTINUOUS
 10
2.961200
 20
7.818800
 11
2.950640
 21
7.823200
  0
LINE
  8
0
 62
     0
  6
CONTINUOUS
 10
2.950640
 20
7.823200
 11
2.942720
 21
7.828040
  0
LINE
  8
0
 62
     0
  6
CONTINUOUS
 10
2.942720
 20
7.828040
 11
2.933480
 21
7.828040
  0
LINE
  8
0
 62
     0
  6
CONTINUOUS
 10
2.933480
 20
7.828040
 11
2.924240
 21
7.828040
  0
LINE
  8
0
 62
     0
  6
CONTINUOUS
 10
2.924240
 20
7.828040
 11
2.915000
 21
7.823200
  0
LINE
  8
0
 62
     0
  6
CONTINUOUS
 10
2.915000
 20
7.823200
 11
2.905760
 21
7.818800
  0
LINE
  8
0
 62
     0
  6
CONTINUOUS
 10
2.905760
 20
7.818800
 11
2.902680
 21
7.810880
  0
LINE
  8
0
 62
     0
  6
CONTINUOUS
 10
2.902680
 20
7.810880
 11
2.899600
 21
7.801640
  0
LINE
  8
0
 62
     0
  6
CONTINUOUS
 10
2.899600
 20
7.801640
 11
2.896520
 21
7.792400
  0
LINE
  8
0
 62
     0
  6
CONTINUOUS
 10
2.896520
 20
7.792400
 11
2.899600
 21
7.783160
  0
LINE
  8
0
 62
     0
  6
CONTINUOUS
 10
2.899600
 20
7.783160
 11
2.902680
 21
7.773920
  0
LINE
  8
0
 62
     0
  6
CONTINUOUS
 10
2.902680
 20
7.773920
 11
2.905760
 21
7.766440
  0
LINE
  8
0
 62
     0
  6
CONTINUOUS
 10
2.905760
 20
7.766440
 11
2.915000
 21
7.760280
  0
LINE
  8
0
 62
     0
  6
CONTINUOUS
 10
2.915000
 20
7.760280
 11
2.924240
 21
7.757200
  0
LINE
  8
0
 62
     0
  6
CONTINUOUS
 10
2.924240
 20
7.757200
 11
2.933480
 21
7.757200
  0
LINE
  8
0
 62
     0
  6
CONTINUOUS
 10
2.933480
 20
7.757200
 11
2.942720
 21
7.757200
  0
LINE
  8
0
 62
     0
  6
CONTINUOUS
 10
2.942720
 20
7.757200
 11
2.950640
 21
7.760280
  0
LINE
  8
0
 62
     0
  6
CONTINUOUS
 10
2.950640
 20
7.760280
 11
2.961200
 21
7.766440
  0
LINE
  8
0
 62
     0
  6
CONTINUOUS
 10
3.054040
 20
7.549960
 11
2.862640
 21
7.549960
  0
LINE
  8
0
 62
     0
  6
CONTINUOUS
 10
2.862640
 20
8.047160
 11
2.862640
 21
8.272880
  0
LINE
  8
0
 62
     0
  6
CONTINUOUS
 10
2.862640
 20
8.287840
 11
3.054040
 21
8.287840
  0
LINE
  8
0
 62
     0
  6
CONTINUOUS
 10
3.054040
 20
8.272880
 11
3.054040
 21
8.047160
  0
LINE
  8
0
 62
     0
  6
CONTINUOUS
 10
2.961200
 20
8.095120
 11
2.962960
 21
8.103040
  0
LINE
  8
0
 62
     0
  6
CONTINUOUS
 10
2.962960
 20
8.103040
 11
2.967360
 21
8.112280
  0
LINE
  8
0
 62
     0
  6
CONTINUOUS
 10
2.967360
 20
8.112280
 11
2.969120
 21
8.121520
  0
LINE
  8
0
 62
     0
  6
CONTINUOUS
 10
2.969120
 20
8.121520
 11
2.967360
 21
8.130760
  0
LINE
  8
0
 62
     0
  6
CONTINUOUS
 10
2.967360
 20
8.130760
 11
2.962960
 21
8.140000
  0
LINE
  8
0
 62
     0
  6
CONTINUOUS
 10
2.962960
 20
8.140000
 11
2.961200
 21
8.147920
  0
LINE
  8
0
 62
     0
  6
CONTINUOUS
 10
2.961200
 20
8.147920
 11
2.950640
 21
8.152320
  0
LINE
  8
0
 62
     0
  6
CONTINUOUS
 10
2.950640
 20
8.152320
 11
2.942720
 21
8.157160
  0
LINE
  8
0
 62
     0
  6
CONTINUOUS
 10
2.942720
 20
8.157160
 11
2.933480
 21
8.158480
  0
LINE
  8
0
 62
     0
  6
CONTINUOUS
 10
2.933480
 20
8.158480
 11
2.924240
 21
8.157160
  0
LINE
  8
0
 62
     0
  6
CONTINUOUS
 10
2.924240
 20
8.157160
 11
2.915000
 21
8.152320
  0
LINE
  8
0
 62
     0
  6
CONTINUOUS
 10
2.915000
 20
8.152320
 11
2.905760
 21
8.147920
  0
LINE
  8
0
 62
     0
  6
CONTINUOUS
 10
2.905760
 20
8.147920
 11
2.902680
 21
8.140000
  0
LINE
  8
0
 62
     0
  6
CONTINUOUS
 10
2.902680
 20
8.140000
 11
2.899600
 21
8.130760
  0
LINE
  8
0
 62
     0
  6
CONTINUOUS
 10
2.899600
 20
8.130760
 11
2.896520
 21
8.121520
  0
LINE
  8
0
 62
     0
  6
CONTINUOUS
 10
2.896520
 20
8.121520
 11
2.899600
 21
8.112280
  0
LINE
  8
0
 62
     0
  6
CONTINUOUS
 10
2.899600
 20
8.112280
 11
2.902680
 21
8.103040
  0
LINE
  8
0
 62
     0
  6
CONTINUOUS
 10
2.902680
 20
8.103040
 11
2.905760
 21
8.095120
  0
LINE
  8
0
 62
     0
  6
CONTINUOUS
 10
2.905760
 20
8.095120
 11
2.915000
 21
8.090720
  0
LINE
  8
0
 62
     0
  6
CONTINUOUS
 10
2.915000
 20
8.090720
 11
2.924240
 21
8.085880
  0
LINE
  8
0
 62
     0
  6
CONTINUOUS
 10
2.924240
 20
8.085880
 11
2.933480
 21
8.084560
  0
LINE
  8
0
 62
     0
  6
CONTINUOUS
 10
2.933480
 20
8.084560
 11
2.942720
 21
8.085880
  0
LINE
  8
0
 62
     0
  6
CONTINUOUS
 10
2.942720
 20
8.085880
 11
2.950640
 21
8.090720
  0
LINE
  8
0
 62
     0
  6
CONTINUOUS
 10
2.950640
 20
8.090720
 11
2.961200
 21
8.095120
  0
LINE
  8
0
 62
     0
  6
CONTINUOUS
 10
2.979680
 20
8.183120
 11
2.987600
 21
8.176960
  0
LINE
  8
0
 62
     0
  6
CONTINUOUS
 10
2.987600
 20
8.176960
 11
2.998600
 21
8.173880
  0
LINE
  8
0
 62
     0
  6
CONTINUOUS
 10
2.998600
 20
8.173880
 11
3.006080
 21
8.172560
  0
LINE
  8
0
 62
     0
  6
CONTINUOUS
 10
3.006080
 20
8.172560
 11
3.017080
 21
8.173880
  0
LINE
  8
0
 62
     0
  6
CONTINUOUS
 10
3.017080
 20
8.173880
 11
3.024560
 21
8.176960
  0
LINE
  8
0
 62
     0
  6
CONTINUOUS
 10
3.024560
 20
8.176960
 11
3.033800
 21
8.183120
  0
LINE
  8
0
 62
     0
  6
CONTINUOUS
 10
3.033800
 20
8.183120
 11
3.035560
 21
8.191040
  0
LINE
  8
0
 62
     0
  6
CONTINUOUS
 10
3.035560
 20
8.191040
 11
3.041720
 21
8.198520
  0
LINE
  8
0
 62
     0
  6
CONTINUOUS
 10
3.041720
 20
8.198520
 11
3.043040
 21
8.209520
  0
LINE
  8
0
 62
     0
  6
CONTINUOUS
 10
3.043040
 20
8.209520
 11
3.041720
 21
8.218760
  0
LINE
  8
0
 62
     0
  6
CONTINUOUS
 10
3.041720
 20
8.218760
 11
3.035560
 21
8.226680
  0
LINE
  8
0
 62
     0
  6
CONTINUOUS
 10
3.035560
 20
8.226680
 11
3.033800
 21
8.235920
  0
LINE
  8
0
 62
     0
  6
CONTINUOUS
 10
3.033800
 20
8.235920
 11
3.024560
 21
8.242080
  0
LINE
  8
0
 62
     0
  6
CONTINUOUS
 10
3.024560
 20
8.242080
 11
3.017080
 21
8.245160
  0
LINE
  8
0
 62
     0
  6
CONTINUOUS
 10
3.017080
 20
8.245160
 11
3.006080
 21
8.245160
  0
LINE
  8
0
 62
     0
  6
CONTINUOUS
 10
3.006080
 20
8.245160
 11
2.998600
 21
8.245160
  0
LINE
  8
0
 62
     0
  6
CONTINUOUS
 10
2.998600
 20
8.245160
 11
2.987600
 21
8.242080
  0
LINE
  8
0
 62
     0
  6
CONTINUOUS
 10
2.987600
 20
8.242080
 11
2.979680
 21
8.235920
  0
LINE
  8
0
 62
     0
  6
CONTINUOUS
 10
2.979680
 20
8.235920
 11
2.976600
 21
8.226680
  0
LINE
  8
0
 62
     0
  6
CONTINUOUS
 10
2.976600
 20
8.226680
 11
2.970440
 21
8.218760
  0
LINE
  8
0
 62
     0
  6
CONTINUOUS
 10
2.970440
 20
8.218760
 11
2.969120
 21
8.209520
  0
LINE
  8
0
 62
     0
  6
CONTINUOUS
 10
2.969120
 20
8.209520
 11
2.970440
 21
8.198520
  0
LINE
  8
0
 62
     0
  6
CONTINUOUS
 10
2.970440
 20
8.198520
 11
2.976600
 21
8.191040
  0
LINE
  8
0
 62
     0
  6
CONTINUOUS
 10
2.976600
 20
8.191040
 11
2.979680
 21
8.183120
  0
LINE
  8
0
 62
     0
  6
CONTINUOUS
 10
2.947120
 20
8.284320
 11
2.911480
 21
8.284320
  0
POLYLINE
  8
0
 62
     0
  6
CONTINUOUS
 66
     1
 40
0.002200
 41
0.002200
  0
VERTEX
  8
0
 62
     0
  6
CONTINUOUS
 10
1.339360
 20
6.804600
  0
VERTEX
  8
0
 62
     0
  6
CONTINUOUS
 10
1.339360
 20
7.531480
  0
VERTEX
  8
0
 62
     0
  6
CONTINUOUS
 10
1.339360
 20
9.173560
  0
VERTEX
  8
0
 62
     0
  6
CONTINUOUS
 10
3.940200
 20
9.173560
  0
VERTEX
  8
0
 62
     0
  6
CONTINUOUS
 10
3.940200
 20
8.971160
  0
SEQEND
  8
0
  0
POLYLINE
  8
0
 62
     0
  6
CONTINUOUS
 66
     1
 40
0.002200
 41
0.002200
  0
VERTEX
  8
0
 62
     0
  6
CONTINUOUS
 10
1.181840
 20
6.729360
  0
VERTEX
  8
0
 62
     0
  6
CONTINUOUS
 10
1.181840
 20
6.644000
  0
VERTEX
  8
0
 62
     0
  6
CONTINUOUS
 10
1.228480
 20
6.644440
  0
VERTEX
  8
0
 62
     0
  6
CONTINUOUS
 10
1.228480
 20
6.644880
  0
VERTEX
  8
0
 62
     0
  6
CONTINUOUS
 10
1.239480
 20
6.647520
  0
VERTEX
  8
0
 62
     0
  6
CONTINUOUS
 10
1.251360
 20
6.656320
  0
VERTEX
  8
0
 62
     0
  6
CONTINUOUS
 10
1.254000
 20
6.660280
  0
VERTEX
  8
0
 62
     0
  6
CONTINUOUS
 10
1.256640
 20
6.664240
  0
VERTEX
  8
0
 62
     0
  6
CONTINUOUS
 10
1.262360
 20
6.681400
  0
VERTEX
  8
0
 62
     0
  6
CONTINUOUS
 10
1.262360
 20
6.702080
  0
VERTEX
  8
0
 62
     0
  6
CONTINUOUS
 10
1.261920
 20
6.702080
  0
VERTEX
  8
0
 62
     0
  6
CONTINUOUS
 10
1.260600
 20
6.710440
  0
VERTEX
  8
0
 62
     0
  6
CONTINUOUS
 10
1.260160
 20
6.710440
  0
VERTEX
  8
0
 62
     0
  6
CONTINUOUS
 10
1.255760
 20
6.722760
  0
VERTEX
  8
0
 62
     0
  6
CONTINUOUS
 10
1.245200
 20
6.734200
  0
VERTEX
  8
0
 62
     0
  6
CONTINUOUS
 10
1.233760
 20
6.739920
  0
VERTEX
  8
0
 62
     0
  6
CONTINUOUS
 10
1.220120
 20
6.741240
  0
VERTEX
  8
0
 62
     0
  6
CONTINUOUS
 10
1.181840
 20
6.741240
  0
VERTEX
  8
0
 62
     0
  6
CONTINUOUS
 10
1.181840
 20
6.729360
  0
VERTEX
  8
0
 62
     0
  6
CONTINUOUS
 10
1.227160
 20
6.728920
  0
VERTEX
  8
0
 62
     0
  6
CONTINUOUS
 10
1.227160
 20
6.728480
  0
VERTEX
  8
0
 62
     0
  6
CONTINUOUS
 10
1.232880
 20
6.727600
  0
VERTEX
  8
0
 62
     0
  6
CONTINUOUS
 10
1.242120
 20
6.719240
  0
VERTEX
  8
0
 62
     0
  6
CONTINUOUS
 10
1.248280
 20
6.705160
  0
VERTEX
  8
0
 62
     0
  6
CONTINUOUS
 10
1.249160
 20
6.688000
  0
VERTEX
  8
0
 62
     0
  6
CONTINUOUS
 10
1.248720
 20
6.688000
  0
VERTEX
  8
0
 62
     0
  6
CONTINUOUS
 10
1.247840
 20
6.677880
  0
VERTEX
  8
0
 62
     0
  6
CONTINUOUS
 10
1.246960
 20
6.676560
  0
VERTEX
  8
0
 62
     0
  6
CONTINUOUS
 10
1.241680
 20
6.664680
  0
VERTEX
  8
0
 62
     0
  6
CONTINUOUS
 10
1.233320
 20
6.658080
  0
VERTEX
  8
0
 62
     0
  6
CONTINUOUS
 10
1.220120
 20
6.655440
  0
VERTEX
  8
0
 62
     0
  6
CONTINUOUS
 10
1.195040
 20
6.655440
  0
VERTEX
  8
0
 62
     0
  6
CONTINUOUS
 10
1.195040
 20
6.729360
  0
VERTEX
  8
0
 62
     0
  6
CONTINUOUS
 10
1.181840
 20
6.729360
  0
SEQEND
  8
0
  0
POLYLINE
  8
0
 62
     0
  6
CONTINUOUS
 66
     1
 40
0.002200
 41
0.002200
  0
VERTEX
  8
0
 62
     0
  6
CONTINUOUS
 10
1.324840
 20
6.731560
  0
VERTEX
  8
0
 62
     0
  6
CONTINUOUS
 10
1.324840
 20
6.731120
  0
VERTEX
  8
0
 62
     0
  6
CONTINUOUS
 10
1.331880
 20
6.730240
  0
VERTEX
  8
0
 62
     0
  6
CONTINUOUS
 10
1.331880
 20
6.729800
  0
VERTEX
  8
0
 62
     0
  6
CONTINUOUS
 10
1.342880
 20
6.724080
  0
VERTEX
  8
0
 62
     0
  6
CONTINUOUS
 10
1.351240
 20
6.713520
  0
VERTEX
  8
0
 62
     0
  6
CONTINUOUS
 10
1.354760
 20
6.700320
  0
VERTEX
  8
0
 62
     0
  6
CONTINUOUS
 10
1.354760
 20
6.682280
  0
VERTEX
  8
0
 62
     0
  6
CONTINUOUS
 10
1.354320
 20
6.682280
  0
VERTEX
  8
0
 62
     0
  6
CONTINUOUS
 10
1.350800
 20
6.670840
  0
VERTEX
  8
0
 62
     0
  6
CONTINUOUS
 10
1.344640
 20
6.662480
  0
VERTEX
  8
0
 62
     0
  6
CONTINUOUS
 10
1.334080
 20
6.655440
  0
VERTEX
  8
0
 62
     0
  6
CONTINUOUS
 10
1.325720
 20
6.653680
  0
VERTEX
  8
0
 62
     0
  6
CONTINUOUS
 10
1.312520
 20
6.654560
  0
VERTEX
  8
0
 62
     0
  6
CONTINUOUS
 10
1.311200
 20
6.655440
  0
VERTEX
  8
0
 62
     0
  6
CONTINUOUS
 10
1.302840
 20
6.658960
  0
VERTEX
  8
0
 62
     0
  6
CONTINUOUS
 10
1.294920
 20
6.668200
  0
VERTEX
  8
0
 62
     0
  6
CONTINUOUS
 10
1.289640
 20
6.681400
  0
VERTEX
  8
0
 62
     0
  6
CONTINUOUS
 10
1.289640
 20
6.702080
  0
VERTEX
  8
0
 62
     0
  6
CONTINUOUS
 10
1.290080
 20
6.702080
  0
VERTEX
  8
0
 62
     0
  6
CONTINUOUS
 10
1.293160
 20
6.714400
  0
VERTEX
  8
0
 62
     0
  6
CONTINUOUS
 10
1.301080
 20
6.724080
  0
VERTEX
  8
0
 62
     0
  6
CONTINUOUS
 10
1.314280
 20
6.731120
  0
VERTEX
  8
0
 62
     0
  6
CONTINUOUS
 10
1.352560
 20
6.732000
  0
VERTEX
  8
0
 62
     0
  6
CONTINUOUS
 10
1.338040
 20
6.740360
  0
VERTEX
  8
0
 62
     0
  6
CONTINUOUS
 10
1.325280
 20
6.743000
  0
VERTEX
  8
0
 62
     0
  6
CONTINUOUS
 10
1.311640
 20
6.741680
  0
VERTEX
  8
0
 62
     0
  6
CONTINUOUS
 10
1.302840
 20
6.739040
  0
VERTEX
  8
0
 62
     0
  6
CONTINUOUS
 10
1.291400
 20
6.731560
  0
VERTEX
  8
0
 62
     0
  6
CONTINUOUS
 10
1.282600
 20
6.721880
  0
VERTEX
  8
0
 62
     0
  6
CONTINUOUS
 10
1.277320
 20
6.707800
  0
VERTEX
  8
0
 62
     0
  6
CONTINUOUS
 10
1.275560
 20
6.688440
  0
VERTEX
  8
0
 62
     0
  6
CONTINUOUS
 10
1.276000
 20
6.688440
  0
VERTEX
  8
0
 62
     0
  6
CONTINUOUS
 10
1.277760
 20
6.675240
  0
VERTEX
  8
0
 62
     0
  6
CONTINUOUS
 10
1.278200
 20
6.675240
  0
VERTEX
  8
0
 62
     0
  6
CONTINUOUS
 10
1.281280
 20
6.666880
  0
VERTEX
  8
0
 62
     0
  6
CONTINUOUS
 10
1.290080
 20
6.655440
  0
VERTEX
  8
0
 62
     0
  6
CONTINUOUS
 10
1.301520
 20
6.646640
  0
VERTEX
  8
0
 62
     0
  6
CONTINUOUS
 10
1.314280
 20
6.642240
  0
VERTEX
  8
0
 62
     0
  6
CONTINUOUS
 10
1.331000
 20
6.642680
  0
VERTEX
  8
0
 62
     0
  6
CONTINUOUS
 10
1.331000
 20
6.643120
  0
VERTEX
  8
0
 62
     0
  6
CONTINUOUS
 10
1.342440
 20
6.646200
  0
VERTEX
  8
0
 62
     0
  6
CONTINUOUS
 10
1.346840
 20
6.649280
  0
VERTEX
  8
0
 62
     0
  6
CONTINUOUS
 10
1.356960
 20
6.656320
  0
VERTEX
  8
0
 62
     0
  6
CONTINUOUS
 10
1.360480
 20
6.661600
  0
VERTEX
  8
0
 62
     0
  6
CONTINUOUS
 10
1.363120
 20
6.665560
  0
VERTEX
  8
0
 62
     0
  6
CONTINUOUS
 10
1.367960
 20
6.680080
  0
VERTEX
  8
0
 62
     0
  6
CONTINUOUS
 10
1.368840
 20
6.695480
  0
VERTEX
  8
0
 62
     0
  6
CONTINUOUS
 10
1.368400
 20
6.695480
  0
VERTEX
  8
0
 62
     0
  6
CONTINUOUS
 10
1.366640
 20
6.710000
  0
VERTEX
  8
0
 62
     0
  6
CONTINUOUS
 10
1.366200
 20
6.710000
  0
VERTEX
  8
0
 62
     0
  6
CONTINUOUS
 10
1.362240
 20
6.720560
  0
VERTEX
  8
0
 62
     0
  6
CONTINUOUS
 10
1.355200
 20
6.729800
  0
VERTEX
  8
0
 62
     0
  6
CONTINUOUS
 10
1.354320
 20
6.729800
  0
VERTEX
  8
0
 62
     0
  6
CONTINUOUS
 10
1.353000
 20
6.731560
  0
VERTEX
  8
0
 62
     0
  6
CONTINUOUS
 10
1.324840
 20
6.731560
  0
SEQEND
  8
0
  0
POLYLINE
  8
0
 62
     0
  6
CONTINUOUS
 66
     1
 40
0.002200
 41
0.002200
  0
VERTEX
  8
0
 62
     0
  6
CONTINUOUS
 10
1.424720
 20
6.644000
  0
VERTEX
  8
0
 62
     0
  6
CONTINUOUS
 10
1.423840
 20
6.644000
  0
VERTEX
  8
0
 62
     0
  6
CONTINUOUS
 10
1.422520
 20
6.644000
  0
VERTEX
  8
0
 62
     0
  6
CONTINUOUS
 10
1.420760
 20
6.644000
  0
VERTEX
  8
0
 62
     0
  6
CONTINUOUS
 10
1.418560
 20
6.644000
  0
VERTEX
  8
0
 62
     0
  6
CONTINUOUS
 10
1.416360
 20
6.644000
  0
VERTEX
  8
0
 62
     0
  6
CONTINUOUS
 10
1.414600
 20
6.644000
  0
VERTEX
  8
0
 62
     0
  6
CONTINUOUS
 10
1.413280
 20
6.644000
  0
VERTEX
  8
0
 62
     0
  6
CONTINUOUS
 10
1.412840
 20
6.644000
  0
SEQEND
  8
0
  0
POLYLINE
  8
0
 62
     0
  6
CONTINUOUS
 66
     1
 40
0.002200
 41
0.002200
  0
VERTEX
  8
0
 62
     0
  6
CONTINUOUS
 10
1.412840
 20
6.644000
  0
VERTEX
  8
0
 62
     0
  6
CONTINUOUS
 10
1.412840
 20
6.647080
  0
VERTEX
  8
0
 62
     0
  6
CONTINUOUS
 10
1.412840
 20
6.655880
  0
VERTEX
  8
0
 62
     0
  6
CONTINUOUS
 10
1.412840
 20
6.667760
  0
VERTEX
  8
0
 62
     0
  6
CONTINUOUS
 10
1.412840
 20
6.681840
  0
VERTEX
  8
0
 62
     0
  6
CONTINUOUS
 10
1.412840
 20
6.695920
  0
VERTEX
  8
0
 62
     0
  6
CONTINUOUS
 10
1.412840
 20
6.707800
  0
VERTEX
  8
0
 62
     0
  6
CONTINUOUS
 10
1.412840
 20
6.716600
  0
VERTEX
  8
0
 62
     0
  6
CONTINUOUS
 10
1.412840
 20
6.720120
  0
SEQEND
  8
0
  0
POLYLINE
  8
0
 62
     0
  6
CONTINUOUS
 66
     1
 40
0.002200
 41
0.002200
  0
VERTEX
  8
0
 62
     0
  6
CONTINUOUS
 10
1.412840
 20
6.720120
  0
VERTEX
  8
0
 62
     0
  6
CONTINUOUS
 10
1.411520
 20
6.718800
  0
VERTEX
  8
0
 62
     0
  6
CONTINUOUS
 10
1.410200
 20
6.717920
  0
VERTEX
  8
0
 62
     0
  6
CONTINUOUS
 10
1.408880
 20
6.717040
  0
VERTEX
  8
0
 62
     0
  6
CONTINUOUS
 10
1.407560
 20
6.716160
  0
VERTEX
  8
0
 62
     0
  6
CONTINUOUS
 10
1.405800
 20
6.714840
  0
VERTEX
  8
0
 62
     0
  6
CONTINUOUS
 10
1.404480
 20
6.713960
  0
VERTEX
  8
0
 62
     0
  6
CONTINUOUS
 10
1.402720
 20
6.713080
  0
VERTEX
  8
0
 62
     0
  6
CONTINUOUS
 10
1.401400
 20
6.712200
  0
SEQEND
  8
0
  0
POLYLINE
  8
0
 62
     0
  6
CONTINUOUS
 66
     1
 40
0.002200
 41
0.002200
  0
VERTEX
  8
0
 62
     0
  6
CONTINUOUS
 10
1.401400
 20
6.712200
  0
VERTEX
  8
0
 62
     0
  6
CONTINUOUS
 10
1.399200
 20
6.710880
  0
VERTEX
  8
0
 62
     0
  6
CONTINUOUS
 10
1.397880
 20
6.710000
  0
VERTEX
  8
0
 62
     0
  6
CONTINUOUS
 10
1.396120
 20
6.708680
  0
VERTEX
  8
0
 62
     0
  6
CONTINUOUS
 10
1.394360
 20
6.708240
  0
VERTEX
  8
0
 62
     0
  6
CONTINUOUS
 10
1.393040
 20
6.707360
  0
VERTEX
  8
0
 62
     0
  6
CONTINUOUS
 10
1.391280
 20
6.706480
  0
VERTEX
  8
0
 62
     0
  6
CONTINUOUS
 10
1.389960
 20
6.706040
  0
VERTEX
  8
0
 62
     0
  6
CONTINUOUS
 10
1.388640
 20
6.705600
  0
SEQEND
  8
0
  0
POLYLINE
  8
0
 62
     0
  6
CONTINUOUS
 66
     1
 40
0.002200
 41
0.002200
  0
VERTEX
  8
0
 62
     0
  6
CONTINUOUS
 10
1.388640
 20
6.705600
  0
VERTEX
  8
0
 62
     0
  6
CONTINUOUS
 10
1.388640
 20
6.706040
  0
VERTEX
  8
0
 62
     0
  6
CONTINUOUS
 10
1.388640
 20
6.707360
  0
VERTEX
  8
0
 62
     0
  6
CONTINUOUS
 10
1.388640
 20
6.709120
  0
VERTEX
  8
0
 62
     0
  6
CONTINUOUS
 10
1.388640
 20
6.711320
  0
VERTEX
  8
0
 62
     0
  6
CONTINUOUS
 10
1.388640
 20
6.713520
  0
VERTEX
  8
0
 62
     0
  6
CONTINUOUS
 10
1.388640
 20
6.715280
  0
VERTEX
  8
0
 62
     0
  6
CONTINUOUS
 10
1.388640
 20
6.716600
  0
VERTEX
  8
0
 62
     0
  6
CONTINUOUS
 10
1.388640
 20
6.717480
  0
SEQEND
  8
0
  0
POLYLINE
  8
0
 62
     0
  6
CONTINUOUS
 66
     1
 40
0.002200
 41
0.002200
  0
VERTEX
  8
0
 62
     0
  6
CONTINUOUS
 10
1.388640
 20
6.717480
  0
VERTEX
  8
0
 62
     0
  6
CONTINUOUS
 10
1.390840
 20
6.718360
  0
VERTEX
  8
0
 62
     0
  6
CONTINUOUS
 10
1.393480
 20
6.719680
  0
VERTEX
  8
0
 62
     0
  6
CONTINUOUS
 10
1.395680
 20
6.721000
  0
VERTEX
  8
0
 62
     0
  6
CONTINUOUS
 10
1.397880
 20
6.722320
  0
VERTEX
  8
0
 62
     0
  6
CONTINUOUS
 10
1.400080
 20
6.723640
  0
VERTEX
  8
0
 62
     0
  6
CONTINUOUS
 10
1.402280
 20
6.724960
  0
VERTEX
  8
0
 62
     0
  6
CONTINUOUS
 10
1.404040
 20
6.726720
  0
VERTEX
  8
0
 62
     0
  6
CONTINUOUS
 10
1.406240
 20
6.728480
  0
SEQEND
  8
0
  0
POLYLINE
  8
0
 62
     0
  6
CONTINUOUS
 66
     1
 40
0.002200
 41
0.002200
  0
VERTEX
  8
0
 62
     0
  6
CONTINUOUS
 10
1.406240
 20
6.728480
  0
VERTEX
  8
0
 62
     0
  6
CONTINUOUS
 10
1.407560
 20
6.730240
  0
VERTEX
  8
0
 62
     0
  6
CONTINUOUS
 10
1.409320
 20
6.731560
  0
VERTEX
  8
0
 62
     0
  6
CONTINUOUS
 10
1.411080
 20
6.733320
  0
VERTEX
  8
0
 62
     0
  6
CONTINUOUS
 10
1.412400
 20
6.735080
  0
VERTEX
  8
0
 62
     0
  6
CONTINUOUS
 10
1.413720
 20
6.736840
  0
VERTEX
  8
0
 62
     0
  6
CONTINUOUS
 10
1.414600
 20
6.738160
  0
VERTEX
  8
0
 62
     0
  6
CONTINUOUS
 10
1.415480
 20
6.739920
  0
VERTEX
  8
0
 62
     0
  6
CONTINUOUS
 10
1.416800
 20
6.741680
  0
SEQEND
  8
0
  0
POLYLINE
  8
0
 62
     0
  6
CONTINUOUS
 66
     1
 40
0.002200
 41
0.002200
  0
VERTEX
  8
0
 62
     0
  6
CONTINUOUS
 10
1.416800
 20
6.741680
  0
VERTEX
  8
0
 62
     0
  6
CONTINUOUS
 10
1.417680
 20
6.741680
  0
VERTEX
  8
0
 62
     0
  6
CONTINUOUS
 10
1.419000
 20
6.741680
  0
VERTEX
  8
0
 62
     0
  6
CONTINUOUS
 10
1.420760
 20
6.741680
  0
VERTEX
  8
0
 62
     0
  6
CONTINUOUS
 10
1.422080
 20
6.741680
  0
VERTEX
  8
0
 62
     0
  6
CONTINUOUS
 10
1.423400
 20
6.741680
  0
VERTEX
  8
0
 62
     0
  6
CONTINUOUS
 10
1.424280
 20
6.741680
  0
VERTEX
  8
0
 62
     0
  6
CONTINUOUS
 10
1.424720
 20
6.741680
  0
SEQEND
  8
0
  0
POLYLINE
  8
0
 62
     0
  6
CONTINUOUS
 66
     1
 40
0.002200
 41
0.002200
  0
VERTEX
  8
0
 62
     0
  6
CONTINUOUS
 10
1.424720
 20
6.741680
  0
VERTEX
  8
0
 62
     0
  6
CONTINUOUS
 10
1.424720
 20
6.737280
  0
VERTEX
  8
0
 62
     0
  6
CONTINUOUS
 10
1.424720
 20
6.726280
  0
VERTEX
  8
0
 62
     0
  6
CONTINUOUS
 10
1.424720
 20
6.710440
  0
VERTEX
  8
0
 62
     0
  6
CONTINUOUS
 10
1.424720
 20
6.692840
  0
VERTEX
  8
0
 62
     0
  6
CONTINUOUS
 10
1.424720
 20
6.674800
  0
VERTEX
  8
0
 62
     0
  6
CONTINUOUS
 10
1.424720
 20
6.658960
  0
VERTEX
  8
0
 62
     0
  6
CONTINUOUS
 10
1.424720
 20
6.647960
  0
VERTEX
  8
0
 62
     0
  6
CONTINUOUS
 10
1.424720
 20
6.644000
  0
SEQEND
  8
0
  0
POLYLINE
  8
0
 62
     0
  6
CONTINUOUS
 66
     1
 40
0.014080
 41
0.014080
  0
VERTEX
  8
0
 62
     0
  6
CONTINUOUS
 10
1.141800
 20
6.788320
  0
VERTEX
  8
0
 62
     0
  6
CONTINUOUS
 10
1.467840
 20
6.788320
  0
VERTEX
  8
0
 62
     0
  6
CONTINUOUS
 10
1.467840
 20
6.595600
  0
VERTEX
  8
0
 62
     0
  6
CONTINUOUS
 10
1.141800
 20
6.595600
  0
VERTEX
  8
0
 62
     0
  6
CONTINUOUS
 10
1.141800
 20
6.788320
  0
SEQEND
  8
0
  0
LINE
  8
0
 62
     0
  6
CONTINUOUS
 10
1.632840
 20
8.283440
 11
3.161840
 21
8.283440
  0
POLYLINE
  8
0
 62
     0
  6
CONTINUOUS
 66
     1
 40
0.002200
 41
0.002200
  0
VERTEX
  8
0
 62
     0
  6
CONTINUOUS
 10
3.541120
 20
8.644680
  0
VERTEX
  8
0
 62
     0
  6
CONTINUOUS
 10
3.162280
 20
9.022200
  0
SEQEND
  8
0
  0
POLYLINE
  8
0
 62
     0
  6
CONTINUOUS
 66
     1
 40
0.002200
 41
0.002200
  0
VERTEX
  8
0
 62
     0
  6
CONTINUOUS
 10
3.162280
 20
8.293120
  0
VERTEX
  8
0
 62
     0
  6
CONTINUOUS
 10
3.541120
 20
8.644680
  0
SEQEND
  8
0
  0
POLYLINE
  8
0
 62
     0
  6
CONTINUOUS
 66
     1
 40
0.002200
 41
0.002200
  0
VERTEX
  8
0
 62
     0
  6
CONTINUOUS
 10
3.681040
 20
8.710240
  0
VERTEX
  8
0
 62
     0
  6
CONTINUOUS
 10
3.710960
 20
8.710240
  0
SEQEND
  8
0
  0
POLYLINE
  8
0
 62
     0
  6
CONTINUOUS
 66
     1
 40
0.002200
 41
0.002200
  0
VERTEX
  8
0
 62
     0
  6
CONTINUOUS
 10
3.710960
 20
8.718160
  0
VERTEX
  8
0
 62
     0
  6
CONTINUOUS
 10
3.710960
 20
8.700560
  0
SEQEND
  8
0
  0
POLYLINE
  8
0
 62
     0
  6
CONTINUOUS
 66
     1
 40
0.002200
 41
0.002200
  0
VERTEX
  8
0
 62
     0
  6
CONTINUOUS
 10
3.710960
 20
8.700560
  0
VERTEX
  8
0
 62
     0
  6
CONTINUOUS
 10
3.710960
 20
8.681640
  0
SEQEND
  8
0
  0
POLYLINE
  8
0
 62
     0
  6
CONTINUOUS
 66
     1
 40
0.002200
 41
0.002200
  0
VERTEX
  8
0
 62
     0
  6
CONTINUOUS
 10
3.710960
 20
8.681640
  0
VERTEX
  8
0
 62
     0
  6
CONTINUOUS
 10
3.714040
 20
8.664480
  0
SEQEND
  8
0
  0
POLYLINE
  8
0
 62
     0
  6
CONTINUOUS
 66
     1
 40
0.002200
 41
0.002200
  0
VERTEX
  8
0
 62
     0
  6
CONTINUOUS
 10
3.714040
 20
8.664480
  0
VERTEX
  8
0
 62
     0
  6
CONTINUOUS
 10
3.720640
 20
8.645120
  0
SEQEND
  8
0
  0
POLYLINE
  8
0
 62
     0
  6
CONTINUOUS
 66
     1
 40
0.002200
 41
0.002200
  0
VERTEX
  8
0
 62
     0
  6
CONTINUOUS
 10
3.720640
 20
8.645120
  0
VERTEX
  8
0
 62
     0
  6
CONTINUOUS
 10
3.728560
 20
8.629720
  0
SEQEND
  8
0
  0
POLYLINE
  8
0
 62
     0
  6
CONTINUOUS
 66
     1
 40
0.002200
 41
0.002200
  0
VERTEX
  8
0
 62
     0
  6
CONTINUOUS
 10
3.728560
 20
8.629720
  0
VERTEX
  8
0
 62
     0
  6
CONTINUOUS
 10
3.737800
 20
8.613880
  0
SEQEND
  8
0
  0
POLYLINE
  8
0
 62
     0
  6
CONTINUOUS
 66
     1
 40
0.002200
 41
0.002200
  0
VERTEX
  8
0
 62
     0
  6
CONTINUOUS
 10
3.737800
 20
8.613880
  0
VERTEX
  8
0
 62
     0
  6
CONTINUOUS
 10
3.747480
 20
8.599360
  0
SEQEND
  8
0
  0
POLYLINE
  8
0
 62
     0
  6
CONTINUOUS
 66
     1
 40
0.002200
 41
0.002200
  0
VERTEX
  8
0
 62
     0
  6
CONTINUOUS
 10
3.747480
 20
8.599360
  0
VERTEX
  8
0
 62
     0
  6
CONTINUOUS
 10
3.760240
 20
8.587040
  0
SEQEND
  8
0
  0
POLYLINE
  8
0
 62
     0
  6
CONTINUOUS
 66
     1
 40
0.002200
 41
0.002200
  0
VERTEX
  8
0
 62
     0
  6
CONTINUOUS
 10
3.760240
 20
8.587040
  0
VERTEX
  8
0
 62
     0
  6
CONTINUOUS
 10
3.775640
 20
8.574280
  0
SEQEND
  8
0
  0
POLYLINE
  8
0
 62
     0
  6
CONTINUOUS
 66
     1
 40
0.002200
 41
0.002200
  0
VERTEX
  8
0
 62
     0
  6
CONTINUOUS
 10
3.775640
 20
8.574280
  0
VERTEX
  8
0
 62
     0
  6
CONTINUOUS
 10
3.791480
 20
8.564600
  0
SEQEND
  8
0
  0
POLYLINE
  8
0
 62
     0
  6
CONTINUOUS
 66
     1
 40
0.002200
 41
0.002200
  0
VERTEX
  8
0
 62
     0
  6
CONTINUOUS
 10
3.791480
 20
8.564600
  0
VERTEX
  8
0
 62
     0
  6
CONTINUOUS
 10
3.809080
 20
8.558440
  0
SEQEND
  8
0
  0
POLYLINE
  8
0
 62
     0
  6
CONTINUOUS
 66
     1
 40
0.002200
 41
0.002200
  0
VERTEX
  8
0
 62
     0
  6
CONTINUOUS
 10
3.809080
 20
8.558440
  0
VERTEX
  8
0
 62
     0
  6
CONTINUOUS
 10
3.826240
 20
8.552280
  0
SEQEND
  8
0
  0
POLYLINE
  8
0
 62
     0
  6
CONTINUOUS
 66
     1
 40
0.002200
 41
0.002200
  0
VERTEX
  8
0
 62
     0
  6
CONTINUOUS
 10
3.826240
 20
8.552280
  0
VERTEX
  8
0
 62
     0
  6
CONTINUOUS
 10
3.842080
 20
8.548760
  0
SEQEND
  8
0
  0
POLYLINE
  8
0
 62
     0
  6
CONTINUOUS
 66
     1
 40
0.002200
 41
0.002200
  0
VERTEX
  8
0
 62
     0
  6
CONTINUOUS
 10
3.842080
 20
8.548760
  0
VERTEX
  8
0
 62
     0
  6
CONTINUOUS
 10
3.861000
 20
8.547440
  0
SEQEND
  8
0
  0
POLYLINE
  8
0
 62
     0
  6
CONTINUOUS
 66
     1
 40
0.002200
 41
0.002200
  0
VERTEX
  8
0
 62
     0
  6
CONTINUOUS
 10
3.861000
 20
8.547440
  0
VERTEX
  8
0
 62
     0
  6
CONTINUOUS
 10
3.879920
 20
8.548760
  0
SEQEND
  8
0
  0
POLYLINE
  8
0
 62
     0
  6
CONTINUOUS
 66
     1
 40
0.002200
 41
0.002200
  0
VERTEX
  8
0
 62
     0
  6
CONTINUOUS
 10
3.879920
 20
8.548760
  0
VERTEX
  8
0
 62
     0
  6
CONTINUOUS
 10
3.898840
 20
8.552280
  0
SEQEND
  8
0
  0
POLYLINE
  8
0
 62
     0
  6
CONTINUOUS
 66
     1
 40
0.002200
 41
0.002200
  0
VERTEX
  8
0
 62
     0
  6
CONTINUOUS
 10
3.898840
 20
8.552280
  0
VERTEX
  8
0
 62
     0
  6
CONTINUOUS
 10
3.916440
 20
8.558440
  0
SEQEND
  8
0
  0
POLYLINE
  8
0
 62
     0
  6
CONTINUOUS
 66
     1
 40
0.002200
 41
0.002200
  0
VERTEX
  8
0
 62
     0
  6
CONTINUOUS
 10
3.916440
 20
8.558440
  0
VERTEX
  8
0
 62
     0
  6
CONTINUOUS
 10
3.932280
 20
8.564600
  0
SEQEND
  8
0
  0
POLYLINE
  8
0
 62
     0
  6
CONTINUOUS
 66
     1
 40
0.002200
 41
0.002200
  0
VERTEX
  8
0
 62
     0
  6
CONTINUOUS
 10
3.932280
 20
8.564600
  0
VERTEX
  8
0
 62
     0
  6
CONTINUOUS
 10
3.948120
 20
8.574280
  0
SEQEND
  8
0
  0
POLYLINE
  8
0
 62
     0
  6
CONTINUOUS
 66
     1
 40
0.002200
 41
0.002200
  0
VERTEX
  8
0
 62
     0
  6
CONTINUOUS
 10
3.948120
 20
8.574280
  0
VERTEX
  8
0
 62
     0
  6
CONTINUOUS
 10
3.962200
 20
8.587040
  0
SEQEND
  8
0
  0
POLYLINE
  8
0
 62
     0
  6
CONTINUOUS
 66
     1
 40
0.002200
 41
0.002200
  0
VERTEX
  8
0
 62
     0
  6
CONTINUOUS
 10
3.962200
 20
8.587040
  0
VERTEX
  8
0
 62
     0
  6
CONTINUOUS
 10
3.974960
 20
8.599360
  0
SEQEND
  8
0
  0
POLYLINE
  8
0
 62
     0
  6
CONTINUOUS
 66
     1
 40
0.002200
 41
0.002200
  0
VERTEX
  8
0
 62
     0
  6
CONTINUOUS
 10
3.974960
 20
8.599360
  0
VERTEX
  8
0
 62
     0
  6
CONTINUOUS
 10
3.985960
 20
8.613880
  0
SEQEND
  8
0
  0
POLYLINE
  8
0
 62
     0
  6
CONTINUOUS
 66
     1
 40
0.002200
 41
0.002200
  0
VERTEX
  8
0
 62
     0
  6
CONTINUOUS
 10
3.985960
 20
8.613880
  0
VERTEX
  8
0
 62
     0
  6
CONTINUOUS
 10
3.995200
 20
8.629720
  0
SEQEND
  8
0
  0
POLYLINE
  8
0
 62
     0
  6
CONTINUOUS
 66
     1
 40
0.002200
 41
0.002200
  0
VERTEX
  8
0
 62
     0
  6
CONTINUOUS
 10
3.995200
 20
8.629720
  0
VERTEX
  8
0
 62
     0
  6
CONTINUOUS
 10
4.004880
 20
8.645120
  0
SEQEND
  8
0
  0
POLYLINE
  8
0
 62
     0
  6
CONTINUOUS
 66
     1
 40
0.002200
 41
0.002200
  0
VERTEX
  8
0
 62
     0
  6
CONTINUOUS
 10
4.004880
 20
8.645120
  0
VERTEX
  8
0
 62
     0
  6
CONTINUOUS
 10
4.009720
 20
8.664480
  0
SEQEND
  8
0
  0
POLYLINE
  8
0
 62
     0
  6
CONTINUOUS
 66
     1
 40
0.002200
 41
0.002200
  0
VERTEX
  8
0
 62
     0
  6
CONTINUOUS
 10
4.009720
 20
8.664480
  0
VERTEX
  8
0
 62
     0
  6
CONTINUOUS
 10
4.012800
 20
8.681640
  0
SEQEND
  8
0
  0
POLYLINE
  8
0
 62
     0
  6
CONTINUOUS
 66
     1
 40
0.002200
 41
0.002200
  0
VERTEX
  8
0
 62
     0
  6
CONTINUOUS
 10
4.012800
 20
8.681640
  0
VERTEX
  8
0
 62
     0
  6
CONTINUOUS
 10
4.014560
 20
8.700560
  0
SEQEND
  8
0
  0
POLYLINE
  8
0
 62
     0
  6
CONTINUOUS
 66
     1
 40
0.002200
 41
0.002200
  0
VERTEX
  8
0
 62
     0
  6
CONTINUOUS
 10
4.014560
 20
8.700560
  0
VERTEX
  8
0
 62
     0
  6
CONTINUOUS
 10
4.012800
 20
8.718160
  0
SEQEND
  8
0
  0
POLYLINE
  8
0
 62
     0
  6
CONTINUOUS
 66
     1
 40
0.002200
 41
0.002200
  0
VERTEX
  8
0
 62
     0
  6
CONTINUOUS
 10
4.012800
 20
8.718160
  0
VERTEX
  8
0
 62
     0
  6
CONTINUOUS
 10
4.009720
 20
8.735320
  0
SEQEND
  8
0
  0
POLYLINE
  8
0
 62
     0
  6
CONTINUOUS
 66
     1
 40
0.002200
 41
0.002200
  0
VERTEX
  8
0
 62
     0
  6
CONTINUOUS
 10
4.009720
 20
8.735320
  0
VERTEX
  8
0
 62
     0
  6
CONTINUOUS
 10
4.004880
 20
8.754240
  0
SEQEND
  8
0
  0
POLYLINE
  8
0
 62
     0
  6
CONTINUOUS
 66
     1
 40
0.002200
 41
0.002200
  0
VERTEX
  8
0
 62
     0
  6
CONTINUOUS
 10
4.004880
 20
8.754240
  0
VERTEX
  8
0
 62
     0
  6
CONTINUOUS
 10
3.995200
 20
8.770080
  0
SEQEND
  8
0
  0
POLYLINE
  8
0
 62
     0
  6
CONTINUOUS
 66
     1
 40
0.002200
 41
0.002200
  0
VERTEX
  8
0
 62
     0
  6
CONTINUOUS
 10
3.995200
 20
8.770080
  0
VERTEX
  8
0
 62
     0
  6
CONTINUOUS
 10
3.985960
 20
8.785920
  0
SEQEND
  8
0
  0
POLYLINE
  8
0
 62
     0
  6
CONTINUOUS
 66
     1
 40
0.002200
 41
0.002200
  0
VERTEX
  8
0
 62
     0
  6
CONTINUOUS
 10
3.985960
 20
8.785920
  0
VERTEX
  8
0
 62
     0
  6
CONTINUOUS
 10
3.974960
 20
8.800000
  0
SEQEND
  8
0
  0
POLYLINE
  8
0
 62
     0
  6
CONTINUOUS
 66
     1
 40
0.002200
 41
0.002200
  0
VERTEX
  8
0
 62
     0
  6
CONTINUOUS
 10
3.974960
 20
8.800000
  0
VERTEX
  8
0
 62
     0
  6
CONTINUOUS
 10
3.962200
 20
8.812760
  0
SEQEND
  8
0
  0
POLYLINE
  8
0
 62
     0
  6
CONTINUOUS
 66
     1
 40
0.002200
 41
0.002200
  0
VERTEX
  8
0
 62
     0
  6
CONTINUOUS
 10
3.962200
 20
8.812760
  0
VERTEX
  8
0
 62
     0
  6
CONTINUOUS
 10
3.948120
 20
8.823760
  0
SEQEND
  8
0
  0
POLYLINE
  8
0
 62
     0
  6
CONTINUOUS
 66
     1
 40
0.002200
 41
0.002200
  0
VERTEX
  8
0
 62
     0
  6
CONTINUOUS
 10
3.948120
 20
8.823760
  0
VERTEX
  8
0
 62
     0
  6
CONTINUOUS
 10
3.932280
 20
8.833440
  0
SEQEND
  8
0
  0
POLYLINE
  8
0
 62
     0
  6
CONTINUOUS
 66
     1
 40
0.002200
 41
0.002200
  0
VERTEX
  8
0
 62
     0
  6
CONTINUOUS
 10
3.932280
 20
8.833440
  0
VERTEX
  8
0
 62
     0
  6
CONTINUOUS
 10
3.916440
 20
8.841360
  0
SEQEND
  8
0
  0
POLYLINE
  8
0
 62
     0
  6
CONTINUOUS
 66
     1
 40
0.002200
 41
0.002200
  0
VERTEX
  8
0
 62
     0
  6
CONTINUOUS
 10
3.916440
 20
8.841360
  0
VERTEX
  8
0
 62
     0
  6
CONTINUOUS
 10
3.898840
 20
8.847520
  0
SEQEND
  8
0
  0
POLYLINE
  8
0
 62
     0
  6
CONTINUOUS
 66
     1
 40
0.002200
 41
0.002200
  0
VERTEX
  8
0
 62
     0
  6
CONTINUOUS
 10
3.898840
 20
8.847520
  0
VERTEX
  8
0
 62
     0
  6
CONTINUOUS
 10
3.879920
 20
8.850600
  0
SEQEND
  8
0
  0
POLYLINE
  8
0
 62
     0
  6
CONTINUOUS
 66
     1
 40
0.002200
 41
0.002200
  0
VERTEX
  8
0
 62
     0
  6
CONTINUOUS
 10
3.879920
 20
8.850600
  0
VERTEX
  8
0
 62
     0
  6
CONTINUOUS
 10
3.861000
 20
8.850600
  0
SEQEND
  8
0
  0
POLYLINE
  8
0
 62
     0
  6
CONTINUOUS
 66
     1
 40
0.002200
 41
0.002200
  0
VERTEX
  8
0
 62
     0
  6
CONTINUOUS
 10
3.861000
 20
8.850600
  0
VERTEX
  8
0
 62
     0
  6
CONTINUOUS
 10
3.842080
 20
8.850600
  0
SEQEND
  8
0
  0
POLYLINE
  8
0
 62
     0
  6
CONTINUOUS
 66
     1
 40
0.002200
 41
0.002200
  0
VERTEX
  8
0
 62
     0
  6
CONTINUOUS
 10
3.842080
 20
8.850600
  0
VERTEX
  8
0
 62
     0
  6
CONTINUOUS
 10
3.826240
 20
8.847520
  0
SEQEND
  8
0
  0
POLYLINE
  8
0
 62
     0
  6
CONTINUOUS
 66
     1
 40
0.002200
 41
0.002200
  0
VERTEX
  8
0
 62
     0
  6
CONTINUOUS
 10
3.826240
 20
8.847520
  0
VERTEX
  8
0
 62
     0
  6
CONTINUOUS
 10
3.809080
 20
8.841360
  0
SEQEND
  8
0
  0
POLYLINE
  8
0
 62
     0
  6
CONTINUOUS
 66
     1
 40
0.002200
 41
0.002200
  0
VERTEX
  8
0
 62
     0
  6
CONTINUOUS
 10
3.809080
 20
8.841360
  0
VERTEX
  8
0
 62
     0
  6
CONTINUOUS
 10
3.791480
 20
8.833440
  0
SEQEND
  8
0
  0
POLYLINE
  8
0
 62
     0
  6
CONTINUOUS
 66
     1
 40
0.002200
 41
0.002200
  0
VERTEX
  8
0
 62
     0
  6
CONTINUOUS
 10
3.791480
 20
8.833440
  0
VERTEX
  8
0
 62
     0
  6
CONTINUOUS
 10
3.775640
 20
8.823760
  0
SEQEND
  8
0
  0
POLYLINE
  8
0
 62
     0
  6
CONTINUOUS
 66
     1
 40
0.002200
 41
0.002200
  0
VERTEX
  8
0
 62
     0
  6
CONTINUOUS
 10
3.775640
 20
8.823760
  0
VERTEX
  8
0
 62
     0
  6
CONTINUOUS
 10
3.760240
 20
8.812760
  0
SEQEND
  8
0
  0
POLYLINE
  8
0
 62
     0
  6
CONTINUOUS
 66
     1
 40
0.002200
 41
0.002200
  0
VERTEX
  8
0
 62
     0
  6
CONTINUOUS
 10
3.760240
 20
8.812760
  0
VERTEX
  8
0
 62
     0
  6
CONTINUOUS
 10
3.747480
 20
8.800000
  0
SEQEND
  8
0
  0
POLYLINE
  8
0
 62
     0
  6
CONTINUOUS
 66
     1
 40
0.002200
 41
0.002200
  0
VERTEX
  8
0
 62
     0
  6
CONTINUOUS
 10
3.747480
 20
8.800000
  0
VERTEX
  8
0
 62
     0
  6
CONTINUOUS
 10
3.737800
 20
8.785920
  0
SEQEND
  8
0
  0
POLYLINE
  8
0
 62
     0
  6
CONTINUOUS
 66
     1
 40
0.002200
 41
0.002200
  0
VERTEX
  8
0
 62
     0
  6
CONTINUOUS
 10
3.737800
 20
8.785920
  0
VERTEX
  8
0
 62
     0
  6
CONTINUOUS
 10
3.728560
 20
8.770080
  0
SEQEND
  8
0
  0
POLYLINE
  8
0
 62
     0
  6
CONTINUOUS
 66
     1
 40
0.002200
 41
0.002200
  0
VERTEX
  8
0
 62
     0
  6
CONTINUOUS
 10
3.728560
 20
8.770080
  0
VERTEX
  8
0
 62
     0
  6
CONTINUOUS
 10
3.720640
 20
8.754240
  0
SEQEND
  8
0
  0
POLYLINE
  8
0
 62
     0
  6
CONTINUOUS
 66
     1
 40
0.002200
 41
0.002200
  0
VERTEX
  8
0
 62
     0
  6
CONTINUOUS
 10
3.720640
 20
8.754240
  0
VERTEX
  8
0
 62
     0
  6
CONTINUOUS
 10
3.714040
 20
8.735320
  0
SEQEND
  8
0
  0
POLYLINE
  8
0
 62
     0
  6
CONTINUOUS
 66
     1
 40
0.002200
 41
0.002200
  0
VERTEX
  8
0
 62
     0
  6
CONTINUOUS
 10
3.714040
 20
8.735320
  0
VERTEX
  8
0
 62
     0
  6
CONTINUOUS
 10
3.710960
 20
8.718160
  0
SEQEND
  8
0
  0
POLYLINE
  8
0
 62
     0
  6
CONTINUOUS
 66
     1
 40
0.002200
 41
0.002200
  0
VERTEX
  8
0
 62
     0
  6
CONTINUOUS
 10
3.721960
 20
8.770080
  0
VERTEX
  8
0
 62
     0
  6
CONTINUOUS
 10
3.695120
 20
8.781080
  0
SEQEND
  8
0
  0
POLYLINE
  8
0
 62
     0
  6
CONTINUOUS
 66
     1
 40
0.002200
 41
0.002200
  0
VERTEX
  8
0
 62
     0
  6
CONTINUOUS
 10
3.755400
 20
8.807920
  0
VERTEX
  8
0
 62
     0
  6
CONTINUOUS
 10
3.733400
 20
8.829920
  0
SEQEND
  8
0
  0
POLYLINE
  8
0
 62
     0
  6
CONTINUOUS
 66
     1
 40
0.002200
 41
0.002200
  0
VERTEX
  8
0
 62
     0
  6
CONTINUOUS
 10
3.801160
 20
8.839600
  0
VERTEX
  8
0
 62
     0
  6
CONTINUOUS
 10
3.788400
 20
8.868200
  0
SEQEND
  8
0
  0
POLYLINE
  8
0
 62
     0
  6
CONTINUOUS
 66
     1
 40
0.002200
 41
0.002200
  0
VERTEX
  8
0
 62
     0
  6
CONTINUOUS
 10
3.861000
 20
8.861600
  0
VERTEX
  8
0
 62
     0
  6
CONTINUOUS
 10
3.861000
 20
8.891520
  0
SEQEND
  8
0
  0
POLYLINE
  8
0
 62
     0
  6
CONTINUOUS
 66
     1
 40
0.002200
 41
0.002200
  0
VERTEX
  8
0
 62
     0
  6
CONTINUOUS
 10
3.934040
 20
8.877440
  0
VERTEX
  8
0
 62
     0
  6
CONTINUOUS
 10
3.921280
 20
8.849280
  0
SEQEND
  8
0
  0
POLYLINE
  8
0
 62
     0
  6
CONTINUOUS
 66
     1
 40
0.002200
 41
0.002200
  0
VERTEX
  8
0
 62
     0
  6
CONTINUOUS
 10
3.976280
 20
8.841360
  0
VERTEX
  8
0
 62
     0
  6
CONTINUOUS
 10
4.308040
 20
8.574280
  0
SEQEND
  8
0
  0
POLYLINE
  8
0
 62
     0
  6
CONTINUOUS
 66
     1
 40
0.002200
 41
0.002200
  0
VERTEX
  8
0
 62
     0
  6
CONTINUOUS
 10
4.308040
 20
8.574280
  0
VERTEX
  8
0
 62
     0
  6
CONTINUOUS
 10
4.308040
 20
8.571200
  0
SEQEND
  8
0
  0
POLYLINE
  8
0
 62
     0
  6
CONTINUOUS
 66
     1
 40
0.002200
 41
0.002200
  0
VERTEX
  8
0
 62
     0
  6
CONTINUOUS
 10
4.308040
 20
8.571200
  0
VERTEX
  8
0
 62
     0
  6
CONTINUOUS
 10
4.301880
 20
8.576040
  0
SEQEND
  8
0
  0
POLYLINE
  8
0
 62
     0
  6
CONTINUOUS
 66
     1
 40
0.002200
 41
0.002200
  0
VERTEX
  8
0
 62
     0
  6
CONTINUOUS
 10
4.301880
 20
8.576040
  0
VERTEX
  8
0
 62
     0
  6
CONTINUOUS
 10
4.295720
 20
8.580440
  0
SEQEND
  8
0
  0
POLYLINE
  8
0
 62
     0
  6
CONTINUOUS
 66
     1
 40
0.002200
 41
0.002200
  0
VERTEX
  8
0
 62
     0
  6
CONTINUOUS
 10
4.295720
 20
8.580440
  0
VERTEX
  8
0
 62
     0
  6
CONTINUOUS
 10
4.286040
 20
8.580440
  0
SEQEND
  8
0
  0
POLYLINE
  8
0
 62
     0
  6
CONTINUOUS
 66
     1
 40
0.002200
 41
0.002200
  0
VERTEX
  8
0
 62
     0
  6
CONTINUOUS
 10
4.286040
 20
8.580440
  0
VERTEX
  8
0
 62
     0
  6
CONTINUOUS
 10
4.278120
 20
8.580440
  0
SEQEND
  8
0
  0
POLYLINE
  8
0
 62
     0
  6
CONTINUOUS
 66
     1
 40
0.002200
 41
0.002200
  0
VERTEX
  8
0
 62
     0
  6
CONTINUOUS
 10
4.278120
 20
8.580440
  0
VERTEX
  8
0
 62
     0
  6
CONTINUOUS
 10
4.270200
 20
8.576040
  0
SEQEND
  8
0
  0
POLYLINE
  8
0
 62
     0
  6
CONTINUOUS
 66
     1
 40
0.002200
 41
0.002200
  0
VERTEX
  8
0
 62
     0
  6
CONTINUOUS
 10
4.270200
 20
8.576040
  0
VERTEX
  8
0
 62
     0
  6
CONTINUOUS
 10
4.264040
 20
8.571200
  0
SEQEND
  8
0
  0
POLYLINE
  8
0
 62
     0
  6
CONTINUOUS
 66
     1
 40
0.002200
 41
0.002200
  0
VERTEX
  8
0
 62
     0
  6
CONTINUOUS
 10
4.264040
 20
8.571200
  0
VERTEX
  8
0
 62
     0
  6
CONTINUOUS
 10
4.259200
 20
8.564600
  0
SEQEND
  8
0
  0
POLYLINE
  8
0
 62
     0
  6
CONTINUOUS
 66
     1
 40
0.002200
 41
0.002200
  0
VERTEX
  8
0
 62
     0
  6
CONTINUOUS
 10
4.259200
 20
8.564600
  0
VERTEX
  8
0
 62
     0
  6
CONTINUOUS
 10
4.256120
 20
8.556680
  0
SEQEND
  8
0
  0
POLYLINE
  8
0
 62
     0
  6
CONTINUOUS
 66
     1
 40
0.002200
 41
0.002200
  0
VERTEX
  8
0
 62
     0
  6
CONTINUOUS
 10
4.256120
 20
8.556680
  0
VERTEX
  8
0
 62
     0
  6
CONTINUOUS
 10
4.253040
 20
8.547440
  0
SEQEND
  8
0
  0
POLYLINE
  8
0
 62
     0
  6
CONTINUOUS
 66
     1
 40
0.002200
 41
0.002200
  0
VERTEX
  8
0
 62
     0
  6
CONTINUOUS
 10
4.253040
 20
8.547440
  0
VERTEX
  8
0
 62
     0
  6
CONTINUOUS
 10
4.256120
 20
8.539520
  0
SEQEND
  8
0
  0
POLYLINE
  8
0
 62
     0
  6
CONTINUOUS
 66
     1
 40
0.002200
 41
0.002200
  0
VERTEX
  8
0
 62
     0
  6
CONTINUOUS
 10
4.256120
 20
8.539520
  0
VERTEX
  8
0
 62
     0
  6
CONTINUOUS
 10
4.259200
 20
8.531600
  0
SEQEND
  8
0
  0
POLYLINE
  8
0
 62
     0
  6
CONTINUOUS
 66
     1
 40
0.002200
 41
0.002200
  0
VERTEX
  8
0
 62
     0
  6
CONTINUOUS
 10
4.259200
 20
8.531600
  0
VERTEX
  8
0
 62
     0
  6
CONTINUOUS
 10
4.264040
 20
8.526760
  0
SEQEND
  8
0
  0
POLYLINE
  8
0
 62
     0
  6
CONTINUOUS
 66
     1
 40
0.002200
 41
0.002200
  0
VERTEX
  8
0
 62
     0
  6
CONTINUOUS
 10
4.264040
 20
8.526760
  0
VERTEX
  8
0
 62
     0
  6
CONTINUOUS
 10
4.270200
 20
8.520600
  0
SEQEND
  8
0
  0
POLYLINE
  8
0
 62
     0
  6
CONTINUOUS
 66
     1
 40
0.002200
 41
0.002200
  0
VERTEX
  8
0
 62
     0
  6
CONTINUOUS
 10
4.270200
 20
8.520600
  0
VERTEX
  8
0
 62
     0
  6
CONTINUOUS
 10
4.278120
 20
8.517520
  0
SEQEND
  8
0
  0
POLYLINE
  8
0
 62
     0
  6
CONTINUOUS
 66
     1
 40
0.002200
 41
0.002200
  0
VERTEX
  8
0
 62
     0
  6
CONTINUOUS
 10
4.278120
 20
8.517520
  0
VERTEX
  8
0
 62
     0
  6
CONTINUOUS
 10
4.286040
 20
8.515760
  0
SEQEND
  8
0
  0
POLYLINE
  8
0
 62
     0
  6
CONTINUOUS
 66
     1
 40
0.002200
 41
0.002200
  0
VERTEX
  8
0
 62
     0
  6
CONTINUOUS
 10
4.286040
 20
8.515760
  0
VERTEX
  8
0
 62
     0
  6
CONTINUOUS
 10
4.295720
 20
8.517520
  0
SEQEND
  8
0
  0
POLYLINE
  8
0
 62
     0
  6
CONTINUOUS
 66
     1
 40
0.002200
 41
0.002200
  0
VERTEX
  8
0
 62
     0
  6
CONTINUOUS
 10
4.295720
 20
8.517520
  0
VERTEX
  8
0
 62
     0
  6
CONTINUOUS
 10
4.301880
 20
8.520600
  0
SEQEND
  8
0
  0
POLYLINE
  8
0
 62
     0
  6
CONTINUOUS
 66
     1
 40
0.002200
 41
0.002200
  0
VERTEX
  8
0
 62
     0
  6
CONTINUOUS
 10
4.301880
 20
8.520600
  0
VERTEX
  8
0
 62
     0
  6
CONTINUOUS
 10
4.308040
 20
8.526760
  0
SEQEND
  8
0
  0
POLYLINE
  8
0
 62
     0
  6
CONTINUOUS
 66
     1
 40
0.002200
 41
0.002200
  0
VERTEX
  8
0
 62
     0
  6
CONTINUOUS
 10
4.308040
 20
8.526760
  0
VERTEX
  8
0
 62
     0
  6
CONTINUOUS
 10
4.315960
 20
8.531600
  0
SEQEND
  8
0
  0
POLYLINE
  8
0
 62
     0
  6
CONTINUOUS
 66
     1
 40
0.002200
 41
0.002200
  0
VERTEX
  8
0
 62
     0
  6
CONTINUOUS
 10
4.315960
 20
8.531600
  0
VERTEX
  8
0
 62
     0
  6
CONTINUOUS
 10
4.317720
 20
8.539520
  0
SEQEND
  8
0
  0
POLYLINE
  8
0
 62
     0
  6
CONTINUOUS
 66
     1
 40
0.002200
 41
0.002200
  0
VERTEX
  8
0
 62
     0
  6
CONTINUOUS
 10
4.317720
 20
8.539520
  0
VERTEX
  8
0
 62
     0
  6
CONTINUOUS
 10
4.317720
 20
8.547440
  0
SEQEND
  8
0
  0
POLYLINE
  8
0
 62
     0
  6
CONTINUOUS
 66
     1
 40
0.002200
 41
0.002200
  0
VERTEX
  8
0
 62
     0
  6
CONTINUOUS
 10
4.317720
 20
8.547440
  0
VERTEX
  8
0
 62
     0
  6
CONTINUOUS
 10
4.317720
 20
8.556680
  0
SEQEND
  8
0
  0
POLYLINE
  8
0
 62
     0
  6
CONTINUOUS
 66
     1
 40
0.002200
 41
0.002200
  0
VERTEX
  8
0
 62
     0
  6
CONTINUOUS
 10
4.317720
 20
8.556680
  0
VERTEX
  8
0
 62
     0
  6
CONTINUOUS
 10
4.315960
 20
8.564600
  0
SEQEND
  8
0
  0
POLYLINE
  8
0
 62
     0
  6
CONTINUOUS
 66
     1
 40
0.002200
 41
0.002200
  0
VERTEX
  8
0
 62
     0
  6
CONTINUOUS
 10
4.315960
 20
8.564600
  0
VERTEX
  8
0
 62
     0
  6
CONTINUOUS
 10
4.308040
 20
8.571200
  0
SEQEND
  8
0
  0
POLYLINE
  8
0
 62
     0
  6
CONTINUOUS
 66
     1
 40
0.002200
 41
0.002200
  0
VERTEX
  8
0
 62
     0
  6
CONTINUOUS
 10
4.286040
 20
8.515760
  0
VERTEX
  8
0
 62
     0
  6
CONTINUOUS
 10
3.861000
 20
8.518840
  0
SEQEND
  8
0
  0
POLYLINE
  8
0
 62
     0
  6
CONTINUOUS
 66
     1
 40
0.002200
 41
0.002200
  0
VERTEX
  8
0
 62
     0
  6
CONTINUOUS
 10
3.861000
 20
8.528520
  0
VERTEX
  8
0
 62
     0
  6
CONTINUOUS
 10
3.861000
 20
8.558440
  0
SEQEND
  8
0
  0
POLYLINE
  8
0
 62
     0
  6
CONTINUOUS
 66
     1
 40
0.002200
 41
0.002200
  0
VERTEX
  8
0
 62
     0
  6
CONTINUOUS
 10
3.911600
 20
8.568120
  0
VERTEX
  8
0
 62
     0
  6
CONTINUOUS
 10
3.924360
 20
8.539520
  0
SEQEND
  8
0
  0
POLYLINE
  8
0
 62
     0
  6
CONTINUOUS
 66
     1
 40
0.002200
 41
0.002200
  0
VERTEX
  8
0
 62
     0
  6
CONTINUOUS
 10
3.990800
 20
8.582200
  0
VERTEX
  8
0
 62
     0
  6
CONTINUOUS
 10
3.968360
 20
8.602880
  0
SEQEND
  8
0
  0
POLYLINE
  8
0
 62
     0
  6
CONTINUOUS
 66
     1
 40
0.002200
 41
0.002200
  0
VERTEX
  8
0
 62
     0
  6
CONTINUOUS
 10
4.000040
 20
8.648640
  0
VERTEX
  8
0
 62
     0
  6
CONTINUOUS
 10
4.028640
 20
8.635880
  0
SEQEND
  8
0
  0
POLYLINE
  8
0
 62
     0
  6
CONTINUOUS
 66
     1
 40
0.002200
 41
0.002200
  0
VERTEX
  8
0
 62
     0
  6
CONTINUOUS
 10
4.044480
 20
8.700560
  0
VERTEX
  8
0
 62
     0
  6
CONTINUOUS
 10
4.042720
 20
8.719480
  0
SEQEND
  8
0
  0
POLYLINE
  8
0
 62
     0
  6
CONTINUOUS
 66
     1
 40
0.002200
 41
0.002200
  0
VERTEX
  8
0
 62
     0
  6
CONTINUOUS
 10
4.042720
 20
8.719480
  0
VERTEX
  8
0
 62
     0
  6
CONTINUOUS
 10
4.037880
 20
8.741480
  0
SEQEND
  8
0
  0
POLYLINE
  8
0
 62
     0
  6
CONTINUOUS
 66
     1
 40
0.002200
 41
0.002200
  0
VERTEX
  8
0
 62
     0
  6
CONTINUOUS
 10
4.037880
 20
8.741480
  0
VERTEX
  8
0
 62
     0
  6
CONTINUOUS
 10
4.033480
 20
8.760840
  0
SEQEND
  8
0
  0
POLYLINE
  8
0
 62
     0
  6
CONTINUOUS
 66
     1
 40
0.002200
 41
0.002200
  0
VERTEX
  8
0
 62
     0
  6
CONTINUOUS
 10
4.033480
 20
8.760840
  0
VERTEX
  8
0
 62
     0
  6
CONTINUOUS
 10
4.025560
 20
8.779760
  0
SEQEND
  8
0
  0
POLYLINE
  8
0
 62
     0
  6
CONTINUOUS
 66
     1
 40
0.002200
 41
0.002200
  0
VERTEX
  8
0
 62
     0
  6
CONTINUOUS
 10
4.025560
 20
8.779760
  0
VERTEX
  8
0
 62
     0
  6
CONTINUOUS
 10
4.015880
 20
8.796920
  0
SEQEND
  8
0
  0
POLYLINE
  8
0
 62
     0
  6
CONTINUOUS
 66
     1
 40
0.002200
 41
0.002200
  0
VERTEX
  8
0
 62
     0
  6
CONTINUOUS
 10
4.015880
 20
8.796920
  0
VERTEX
  8
0
 62
     0
  6
CONTINUOUS
 10
4.004880
 20
8.812760
  0
SEQEND
  8
0
  0
POLYLINE
  8
0
 62
     0
  6
CONTINUOUS
 66
     1
 40
0.002200
 41
0.002200
  0
VERTEX
  8
0
 62
     0
  6
CONTINUOUS
 10
4.004880
 20
8.812760
  0
VERTEX
  8
0
 62
     0
  6
CONTINUOUS
 10
3.990800
 20
8.829920
  0
SEQEND
  8
0
  0
POLYLINE
  8
0
 62
     0
  6
CONTINUOUS
 66
     1
 40
0.002200
 41
0.002200
  0
VERTEX
  8
0
 62
     0
  6
CONTINUOUS
 10
3.990800
 20
8.829920
  0
VERTEX
  8
0
 62
     0
  6
CONTINUOUS
 10
3.974960
 20
8.841360
  0
SEQEND
  8
0
  0
POLYLINE
  8
0
 62
     0
  6
CONTINUOUS
 66
     1
 40
0.002200
 41
0.002200
  0
VERTEX
  8
0
 62
     0
  6
CONTINUOUS
 10
3.974960
 20
8.841360
  0
VERTEX
  8
0
 62
     0
  6
CONTINUOUS
 10
3.957360
 20
8.853680
  0
SEQEND
  8
0
  0
POLYLINE
  8
0
 62
     0
  6
CONTINUOUS
 66
     1
 40
0.002200
 41
0.002200
  0
VERTEX
  8
0
 62
     0
  6
CONTINUOUS
 10
3.957360
 20
8.853680
  0
VERTEX
  8
0
 62
     0
  6
CONTINUOUS
 10
3.940200
 20
8.863360
  0
SEQEND
  8
0
  0
POLYLINE
  8
0
 62
     0
  6
CONTINUOUS
 66
     1
 40
0.002200
 41
0.002200
  0
VERTEX
  8
0
 62
     0
  6
CONTINUOUS
 10
3.940200
 20
8.863360
  0
VERTEX
  8
0
 62
     0
  6
CONTINUOUS
 10
3.921280
 20
8.871280
  0
SEQEND
  8
0
  0
POLYLINE
  8
0
 62
     0
  6
CONTINUOUS
 66
     1
 40
0.002200
 41
0.002200
  0
VERTEX
  8
0
 62
     0
  6
CONTINUOUS
 10
3.921280
 20
8.871280
  0
VERTEX
  8
0
 62
     0
  6
CONTINUOUS
 10
3.902360
 20
8.877440
  0
SEQEND
  8
0
  0
POLYLINE
  8
0
 62
     0
  6
CONTINUOUS
 66
     1
 40
0.002200
 41
0.002200
  0
VERTEX
  8
0
 62
     0
  6
CONTINUOUS
 10
3.902360
 20
8.877440
  0
VERTEX
  8
0
 62
     0
  6
CONTINUOUS
 10
3.881680
 20
8.880520
  0
SEQEND
  8
0
  0
POLYLINE
  8
0
 62
     0
  6
CONTINUOUS
 66
     1
 40
0.002200
 41
0.002200
  0
VERTEX
  8
0
 62
     0
  6
CONTINUOUS
 10
3.881680
 20
8.880520
  0
VERTEX
  8
0
 62
     0
  6
CONTINUOUS
 10
3.861000
 20
8.880520
  0
SEQEND
  8
0
  0
POLYLINE
  8
0
 62
     0
  6
CONTINUOUS
 66
     1
 40
0.002200
 41
0.002200
  0
VERTEX
  8
0
 62
     0
  6
CONTINUOUS
 10
3.861000
 20
8.880520
  0
VERTEX
  8
0
 62
     0
  6
CONTINUOUS
 10
3.842080
 20
8.880520
  0
SEQEND
  8
0
  0
POLYLINE
  8
0
 62
     0
  6
CONTINUOUS
 66
     1
 40
0.002200
 41
0.002200
  0
VERTEX
  8
0
 62
     0
  6
CONTINUOUS
 10
3.842080
 20
8.880520
  0
VERTEX
  8
0
 62
     0
  6
CONTINUOUS
 10
3.820080
 20
8.877440
  0
SEQEND
  8
0
  0
POLYLINE
  8
0
 62
     0
  6
CONTINUOUS
 66
     1
 40
0.002200
 41
0.002200
  0
VERTEX
  8
0
 62
     0
  6
CONTINUOUS
 10
3.820080
 20
8.877440
  0
VERTEX
  8
0
 62
     0
  6
CONTINUOUS
 10
3.801160
 20
8.871280
  0
SEQEND
  8
0
  0
POLYLINE
  8
0
 62
     0
  6
CONTINUOUS
 66
     1
 40
0.002200
 41
0.002200
  0
VERTEX
  8
0
 62
     0
  6
CONTINUOUS
 10
3.801160
 20
8.871280
  0
VERTEX
  8
0
 62
     0
  6
CONTINUOUS
 10
3.782240
 20
8.863360
  0
SEQEND
  8
0
  0
POLYLINE
  8
0
 62
     0
  6
CONTINUOUS
 66
     1
 40
0.002200
 41
0.002200
  0
VERTEX
  8
0
 62
     0
  6
CONTINUOUS
 10
3.782240
 20
8.863360
  0
VERTEX
  8
0
 62
     0
  6
CONTINUOUS
 10
3.764640
 20
8.853680
  0
SEQEND
  8
0
  0
POLYLINE
  8
0
 62
     0
  6
CONTINUOUS
 66
     1
 40
0.002200
 41
0.002200
  0
VERTEX
  8
0
 62
     0
  6
CONTINUOUS
 10
3.764640
 20
8.853680
  0
VERTEX
  8
0
 62
     0
  6
CONTINUOUS
 10
3.748800
 20
8.841360
  0
SEQEND
  8
0
  0
POLYLINE
  8
0
 62
     0
  6
CONTINUOUS
 66
     1
 40
0.002200
 41
0.002200
  0
VERTEX
  8
0
 62
     0
  6
CONTINUOUS
 10
3.748800
 20
8.841360
  0
VERTEX
  8
0
 62
     0
  6
CONTINUOUS
 10
3.733400
 20
8.829920
  0
SEQEND
  8
0
  0
POLYLINE
  8
0
 62
     0
  6
CONTINUOUS
 66
     1
 40
0.002200
 41
0.002200
  0
VERTEX
  8
0
 62
     0
  6
CONTINUOUS
 10
3.733400
 20
8.829920
  0
VERTEX
  8
0
 62
     0
  6
CONTINUOUS
 10
3.720640
 20
8.812760
  0
SEQEND
  8
0
  0
POLYLINE
  8
0
 62
     0
  6
CONTINUOUS
 66
     1
 40
0.002200
 41
0.002200
  0
VERTEX
  8
0
 62
     0
  6
CONTINUOUS
 10
3.720640
 20
8.812760
  0
VERTEX
  8
0
 62
     0
  6
CONTINUOUS
 10
3.709640
 20
8.796920
  0
SEQEND
  8
0
  0
POLYLINE
  8
0
 62
     0
  6
CONTINUOUS
 66
     1
 40
0.002200
 41
0.002200
  0
VERTEX
  8
0
 62
     0
  6
CONTINUOUS
 10
3.709640
 20
8.796920
  0
VERTEX
  8
0
 62
     0
  6
CONTINUOUS
 10
3.698640
 20
8.779760
  0
SEQEND
  8
0
  0
POLYLINE
  8
0
 62
     0
  6
CONTINUOUS
 66
     1
 40
0.002200
 41
0.002200
  0
VERTEX
  8
0
 62
     0
  6
CONTINUOUS
 10
3.698640
 20
8.779760
  0
VERTEX
  8
0
 62
     0
  6
CONTINUOUS
 10
3.690720
 20
8.760840
  0
SEQEND
  8
0
  0
POLYLINE
  8
0
 62
     0
  6
CONTINUOUS
 66
     1
 40
0.002200
 41
0.002200
  0
VERTEX
  8
0
 62
     0
  6
CONTINUOUS
 10
3.690720
 20
8.760840
  0
VERTEX
  8
0
 62
     0
  6
CONTINUOUS
 10
3.684120
 20
8.741480
  0
SEQEND
  8
0
  0
POLYLINE
  8
0
 62
     0
  6
CONTINUOUS
 66
     1
 40
0.002200
 41
0.002200
  0
VERTEX
  8
0
 62
     0
  6
CONTINUOUS
 10
3.684120
 20
8.741480
  0
VERTEX
  8
0
 62
     0
  6
CONTINUOUS
 10
3.681040
 20
8.719480
  0
SEQEND
  8
0
  0
POLYLINE
  8
0
 62
     0
  6
CONTINUOUS
 66
     1
 40
0.002200
 41
0.002200
  0
VERTEX
  8
0
 62
     0
  6
CONTINUOUS
 10
3.681040
 20
8.719480
  0
VERTEX
  8
0
 62
     0
  6
CONTINUOUS
 10
3.681040
 20
8.700560
  0
SEQEND
  8
0
  0
POLYLINE
  8
0
 62
     0
  6
CONTINUOUS
 66
     1
 40
0.002200
 41
0.002200
  0
VERTEX
  8
0
 62
     0
  6
CONTINUOUS
 10
3.681040
 20
8.700560
  0
VERTEX
  8
0
 62
     0
  6
CONTINUOUS
 10
3.681040
 20
8.679880
  0
SEQEND
  8
0
  0
POLYLINE
  8
0
 62
     0
  6
CONTINUOUS
 66
     1
 40
0.002200
 41
0.002200
  0
VERTEX
  8
0
 62
     0
  6
CONTINUOUS
 10
3.681040
 20
8.679880
  0
VERTEX
  8
0
 62
     0
  6
CONTINUOUS
 10
3.684120
 20
8.659640
  0
SEQEND
  8
0
  0
POLYLINE
  8
0
 62
     0
  6
CONTINUOUS
 66
     1
 40
0.002200
 41
0.002200
  0
VERTEX
  8
0
 62
     0
  6
CONTINUOUS
 10
3.684120
 20
8.659640
  0
VERTEX
  8
0
 62
     0
  6
CONTINUOUS
 10
3.690720
 20
8.640720
  0
SEQEND
  8
0
  0
POLYLINE
  8
0
 62
     0
  6
CONTINUOUS
 66
     1
 40
0.002200
 41
0.002200
  0
VERTEX
  8
0
 62
     0
  6
CONTINUOUS
 10
3.690720
 20
8.640720
  0
VERTEX
  8
0
 62
     0
  6
CONTINUOUS
 10
3.698640
 20
8.621800
  0
SEQEND
  8
0
  0
POLYLINE
  8
0
 62
     0
  6
CONTINUOUS
 66
     1
 40
0.002200
 41
0.002200
  0
VERTEX
  8
0
 62
     0
  6
CONTINUOUS
 10
3.698640
 20
8.621800
  0
VERTEX
  8
0
 62
     0
  6
CONTINUOUS
 10
3.709640
 20
8.602880
  0
SEQEND
  8
0
  0
POLYLINE
  8
0
 62
     0
  6
CONTINUOUS
 66
     1
 40
0.002200
 41
0.002200
  0
VERTEX
  8
0
 62
     0
  6
CONTINUOUS
 10
3.709640
 20
8.602880
  0
VERTEX
  8
0
 62
     0
  6
CONTINUOUS
 10
3.720640
 20
8.587040
  0
SEQEND
  8
0
  0
POLYLINE
  8
0
 62
     0
  6
CONTINUOUS
 66
     1
 40
0.002200
 41
0.002200
  0
VERTEX
  8
0
 62
     0
  6
CONTINUOUS
 10
3.720640
 20
8.587040
  0
VERTEX
  8
0
 62
     0
  6
CONTINUOUS
 10
3.733400
 20
8.571200
  0
SEQEND
  8
0
  0
POLYLINE
  8
0
 62
     0
  6
CONTINUOUS
 66
     1
 40
0.002200
 41
0.002200
  0
VERTEX
  8
0
 62
     0
  6
CONTINUOUS
 10
3.733400
 20
8.571200
  0
VERTEX
  8
0
 62
     0
  6
CONTINUOUS
 10
3.748800
 20
8.558440
  0
SEQEND
  8
0
  0
POLYLINE
  8
0
 62
     0
  6
CONTINUOUS
 66
     1
 40
0.002200
 41
0.002200
  0
VERTEX
  8
0
 62
     0
  6
CONTINUOUS
 10
3.748800
 20
8.558440
  0
VERTEX
  8
0
 62
     0
  6
CONTINUOUS
 10
3.764640
 20
8.545680
  0
SEQEND
  8
0
  0
POLYLINE
  8
0
 62
     0
  6
CONTINUOUS
 66
     1
 40
0.002200
 41
0.002200
  0
VERTEX
  8
0
 62
     0
  6
CONTINUOUS
 10
3.764640
 20
8.545680
  0
VERTEX
  8
0
 62
     0
  6
CONTINUOUS
 10
3.782240
 20
8.536440
  0
SEQEND
  8
0
  0
POLYLINE
  8
0
 62
     0
  6
CONTINUOUS
 66
     1
 40
0.002200
 41
0.002200
  0
VERTEX
  8
0
 62
     0
  6
CONTINUOUS
 10
3.782240
 20
8.536440
  0
VERTEX
  8
0
 62
     0
  6
CONTINUOUS
 10
3.801160
 20
8.528520
  0
SEQEND
  8
0
  0
POLYLINE
  8
0
 62
     0
  6
CONTINUOUS
 66
     1
 40
0.002200
 41
0.002200
  0
VERTEX
  8
0
 62
     0
  6
CONTINUOUS
 10
3.801160
 20
8.528520
  0
VERTEX
  8
0
 62
     0
  6
CONTINUOUS
 10
3.820080
 20
8.523680
  0
SEQEND
  8
0
  0
POLYLINE
  8
0
 62
     0
  6
CONTINUOUS
 66
     1
 40
0.002200
 41
0.002200
  0
VERTEX
  8
0
 62
     0
  6
CONTINUOUS
 10
3.820080
 20
8.523680
  0
VERTEX
  8
0
 62
     0
  6
CONTINUOUS
 10
3.842080
 20
8.520600
  0
SEQEND
  8
0
  0
POLYLINE
  8
0
 62
     0
  6
CONTINUOUS
 66
     1
 40
0.002200
 41
0.002200
  0
VERTEX
  8
0
 62
     0
  6
CONTINUOUS
 10
3.842080
 20
8.520600
  0
VERTEX
  8
0
 62
     0
  6
CONTINUOUS
 10
3.861000
 20
8.518840
  0
SEQEND
  8
0
  0
POLYLINE
  8
0
 62
     0
  6
CONTINUOUS
 66
     1
 40
0.002200
 41
0.002200
  0
VERTEX
  8
0
 62
     0
  6
CONTINUOUS
 10
3.861000
 20
8.518840
  0
VERTEX
  8
0
 62
     0
  6
CONTINUOUS
 10
3.881680
 20
8.520600
  0
SEQEND
  8
0
  0
POLYLINE
  8
0
 62
     0
  6
CONTINUOUS
 66
     1
 40
0.002200
 41
0.002200
  0
VERTEX
  8
0
 62
     0
  6
CONTINUOUS
 10
3.881680
 20
8.520600
  0
VERTEX
  8
0
 62
     0
  6
CONTINUOUS
 10
3.902360
 20
8.523680
  0
SEQEND
  8
0
  0
POLYLINE
  8
0
 62
     0
  6
CONTINUOUS
 66
     1
 40
0.002200
 41
0.002200
  0
VERTEX
  8
0
 62
     0
  6
CONTINUOUS
 10
3.902360
 20
8.523680
  0
VERTEX
  8
0
 62
     0
  6
CONTINUOUS
 10
3.921280
 20
8.528520
  0
SEQEND
  8
0
  0
POLYLINE
  8
0
 62
     0
  6
CONTINUOUS
 66
     1
 40
0.002200
 41
0.002200
  0
VERTEX
  8
0
 62
     0
  6
CONTINUOUS
 10
3.921280
 20
8.528520
  0
VERTEX
  8
0
 62
     0
  6
CONTINUOUS
 10
3.940200
 20
8.536440
  0
SEQEND
  8
0
  0
POLYLINE
  8
0
 62
     0
  6
CONTINUOUS
 66
     1
 40
0.002200
 41
0.002200
  0
VERTEX
  8
0
 62
     0
  6
CONTINUOUS
 10
3.940200
 20
8.536440
  0
VERTEX
  8
0
 62
     0
  6
CONTINUOUS
 10
3.957360
 20
8.545680
  0
SEQEND
  8
0
  0
POLYLINE
  8
0
 62
     0
  6
CONTINUOUS
 66
     1
 40
0.002200
 41
0.002200
  0
VERTEX
  8
0
 62
     0
  6
CONTINUOUS
 10
3.957360
 20
8.545680
  0
VERTEX
  8
0
 62
     0
  6
CONTINUOUS
 10
3.974960
 20
8.558440
  0
SEQEND
  8
0
  0
POLYLINE
  8
0
 62
     0
  6
CONTINUOUS
 66
     1
 40
0.002200
 41
0.002200
  0
VERTEX
  8
0
 62
     0
  6
CONTINUOUS
 10
3.974960
 20
8.558440
  0
VERTEX
  8
0
 62
     0
  6
CONTINUOUS
 10
3.990800
 20
8.571200
  0
SEQEND
  8
0
  0
POLYLINE
  8
0
 62
     0
  6
CONTINUOUS
 66
     1
 40
0.002200
 41
0.002200
  0
VERTEX
  8
0
 62
     0
  6
CONTINUOUS
 10
3.990800
 20
8.571200
  0
VERTEX
  8
0
 62
     0
  6
CONTINUOUS
 10
4.004880
 20
8.587040
  0
SEQEND
  8
0
  0
POLYLINE
  8
0
 62
     0
  6
CONTINUOUS
 66
     1
 40
0.002200
 41
0.002200
  0
VERTEX
  8
0
 62
     0
  6
CONTINUOUS
 10
4.004880
 20
8.587040
  0
VERTEX
  8
0
 62
     0
  6
CONTINUOUS
 10
4.015880
 20
8.602880
  0
SEQEND
  8
0
  0
POLYLINE
  8
0
 62
     0
  6
CONTINUOUS
 66
     1
 40
0.002200
 41
0.002200
  0
VERTEX
  8
0
 62
     0
  6
CONTINUOUS
 10
4.015880
 20
8.602880
  0
VERTEX
  8
0
 62
     0
  6
CONTINUOUS
 10
4.025560
 20
8.621800
  0
SEQEND
  8
0
  0
POLYLINE
  8
0
 62
     0
  6
CONTINUOUS
 66
     1
 40
0.002200
 41
0.002200
  0
VERTEX
  8
0
 62
     0
  6
CONTINUOUS
 10
4.025560
 20
8.621800
  0
VERTEX
  8
0
 62
     0
  6
CONTINUOUS
 10
4.033480
 20
8.640720
  0
SEQEND
  8
0
  0
POLYLINE
  8
0
 62
     0
  6
CONTINUOUS
 66
     1
 40
0.002200
 41
0.002200
  0
VERTEX
  8
0
 62
     0
  6
CONTINUOUS
 10
4.033480
 20
8.640720
  0
VERTEX
  8
0
 62
     0
  6
CONTINUOUS
 10
4.037880
 20
8.659640
  0
SEQEND
  8
0
  0
POLYLINE
  8
0
 62
     0
  6
CONTINUOUS
 66
     1
 40
0.002200
 41
0.002200
  0
VERTEX
  8
0
 62
     0
  6
CONTINUOUS
 10
4.037880
 20
8.659640
  0
VERTEX
  8
0
 62
     0
  6
CONTINUOUS
 10
4.042720
 20
8.679880
  0
SEQEND
  8
0
  0
POLYLINE
  8
0
 62
     0
  6
CONTINUOUS
 66
     1
 40
0.002200
 41
0.002200
  0
VERTEX
  8
0
 62
     0
  6
CONTINUOUS
 10
4.042720
 20
8.679880
  0
VERTEX
  8
0
 62
     0
  6
CONTINUOUS
 10
4.044480
 20
8.700560
  0
SEQEND
  8
0
  0
POLYLINE
  8
0
 62
     0
  6
CONTINUOUS
 66
     1
 40
0.002200
 41
0.002200
  0
VERTEX
  8
0
 62
     0
  6
CONTINUOUS
 10
4.044480
 20
8.710240
  0
VERTEX
  8
0
 62
     0
  6
CONTINUOUS
 10
4.014560
 20
8.710240
  0
SEQEND
  8
0
  0
POLYLINE
  8
0
 62
     0
  6
CONTINUOUS
 66
     1
 40
0.002200
 41
0.002200
  0
VERTEX
  8
0
 62
     0
  6
CONTINUOUS
 10
4.000040
 20
8.773160
  0
VERTEX
  8
0
 62
     0
  6
CONTINUOUS
 10
4.028640
 20
8.784160
  0
SEQEND
  8
0
  0
POLYLINE
  8
0
 62
     0
  6
CONTINUOUS
 66
     1
 40
0.002200
 41
0.002200
  0
VERTEX
  8
0
 62
     0
  6
CONTINUOUS
 10
3.998720
 20
8.831680
  0
VERTEX
  8
0
 62
     0
  6
CONTINUOUS
 10
3.974960
 20
8.811000
  0
SEQEND
  8
0
  0
POLYLINE
  8
0
 62
     0
  6
CONTINUOUS
 66
     1
 40
0.002200
 41
0.002200
  0
VERTEX
  8
0
 62
     0
  6
CONTINUOUS
 10
4.164600
 20
8.719480
  0
VERTEX
  8
0
 62
     0
  6
CONTINUOUS
 10
4.461600
 20
8.719480
  0
SEQEND
  8
0
  0
POLYLINE
  8
0
 62
     0
  6
CONTINUOUS
 66
     1
 40
0.002200
 41
0.002200
  0
VERTEX
  8
0
 62
     0
  6
CONTINUOUS
 10
4.461600
 20
8.719480
  0
VERTEX
  8
0
 62
     0
  6
CONTINUOUS
 10
4.461600
 20
9.002400
  0
SEQEND
  8
0
  0
POLYLINE
  8
0
 62
     0
  6
CONTINUOUS
 66
     1
 40
0.002200
 41
0.002200
  0
VERTEX
  8
0
 62
     0
  6
CONTINUOUS
 10
4.461600
 20
9.002400
  0
VERTEX
  8
0
 62
     0
  6
CONTINUOUS
 10
3.865840
 20
9.002400
  0
SEQEND
  8
0
  0
POLYLINE
  8
0
 62
     0
  6
CONTINUOUS
 66
     1
 40
0.002200
 41
0.002200
  0
VERTEX
  8
0
 62
     0
  6
CONTINUOUS
 10
3.865840
 20
9.002400
  0
VERTEX
  8
0
 62
     0
  6
CONTINUOUS
 10
3.861000
 20
9.002400
  0
SEQEND
  8
0
  0
POLYLINE
  8
0
 62
     0
  6
CONTINUOUS
 66
     1
 40
0.002200
 41
0.002200
  0
VERTEX
  8
0
 62
     0
  6
CONTINUOUS
 10
3.861000
 20
9.002400
  0
VERTEX
  8
0
 62
     0
  6
CONTINUOUS
 10
3.835920
 20
9.000640
  0
SEQEND
  8
0
  0
POLYLINE
  8
0
 62
     0
  6
CONTINUOUS
 66
     1
 40
0.002200
 41
0.002200
  0
VERTEX
  8
0
 62
     0
  6
CONTINUOUS
 10
3.835920
 20
9.000640
  0
VERTEX
  8
0
 62
     0
  6
CONTINUOUS
 10
3.809080
 20
8.997560
  0
SEQEND
  8
0
  0
POLYLINE
  8
0
 62
     0
  6
CONTINUOUS
 66
     1
 40
0.002200
 41
0.002200
  0
VERTEX
  8
0
 62
     0
  6
CONTINUOUS
 10
3.809080
 20
8.997560
  0
VERTEX
  8
0
 62
     0
  6
CONTINUOUS
 10
3.785320
 20
8.992720
  0
SEQEND
  8
0
  0
POLYLINE
  8
0
 62
     0
  6
CONTINUOUS
 66
     1
 40
0.002200
 41
0.002200
  0
VERTEX
  8
0
 62
     0
  6
CONTINUOUS
 10
3.785320
 20
8.992720
  0
VERTEX
  8
0
 62
     0
  6
CONTINUOUS
 10
3.758480
 20
8.984800
  0
SEQEND
  8
0
  0
POLYLINE
  8
0
 62
     0
  6
CONTINUOUS
 66
     1
 40
0.002200
 41
0.002200
  0
VERTEX
  8
0
 62
     0
  6
CONTINUOUS
 10
3.758480
 20
8.984800
  0
VERTEX
  8
0
 62
     0
  6
CONTINUOUS
 10
3.734720
 20
8.975560
  0
SEQEND
  8
0
  0
POLYLINE
  8
0
 62
     0
  6
CONTINUOUS
 66
     1
 40
0.002200
 41
0.002200
  0
VERTEX
  8
0
 62
     0
  6
CONTINUOUS
 10
3.734720
 20
8.975560
  0
VERTEX
  8
0
 62
     0
  6
CONTINUOUS
 10
3.710960
 20
8.962800
  0
SEQEND
  8
0
  0
POLYLINE
  8
0
 62
     0
  6
CONTINUOUS
 66
     1
 40
0.002200
 41
0.002200
  0
VERTEX
  8
0
 62
     0
  6
CONTINUOUS
 10
3.710960
 20
8.962800
  0
VERTEX
  8
0
 62
     0
  6
CONTINUOUS
 10
3.688960
 20
8.948720
  0
SEQEND
  8
0
  0
POLYLINE
  8
0
 62
     0
  6
CONTINUOUS
 66
     1
 40
0.002200
 41
0.002200
  0
VERTEX
  8
0
 62
     0
  6
CONTINUOUS
 10
3.688960
 20
8.948720
  0
VERTEX
  8
0
 62
     0
  6
CONTINUOUS
 10
3.666960
 20
8.932880
  0
SEQEND
  8
0
  0
POLYLINE
  8
0
 62
     0
  6
CONTINUOUS
 66
     1
 40
0.002200
 41
0.002200
  0
VERTEX
  8
0
 62
     0
  6
CONTINUOUS
 10
3.666960
 20
8.932880
  0
VERTEX
  8
0
 62
     0
  6
CONTINUOUS
 10
3.649360
 20
8.915280
  0
SEQEND
  8
0
  0
POLYLINE
  8
0
 62
     0
  6
CONTINUOUS
 66
     1
 40
0.002200
 41
0.002200
  0
VERTEX
  8
0
 62
     0
  6
CONTINUOUS
 10
3.649360
 20
8.915280
  0
VERTEX
  8
0
 62
     0
  6
CONTINUOUS
 10
3.630440
 20
8.896360
  0
SEQEND
  8
0
  0
POLYLINE
  8
0
 62
     0
  6
CONTINUOUS
 66
     1
 40
0.002200
 41
0.002200
  0
VERTEX
  8
0
 62
     0
  6
CONTINUOUS
 10
3.630440
 20
8.896360
  0
VERTEX
  8
0
 62
     0
  6
CONTINUOUS
 10
3.614600
 20
8.874360
  0
SEQEND
  8
0
  0
POLYLINE
  8
0
 62
     0
  6
CONTINUOUS
 66
     1
 40
0.002200
 41
0.002200
  0
VERTEX
  8
0
 62
     0
  6
CONTINUOUS
 10
3.614600
 20
8.874360
  0
VERTEX
  8
0
 62
     0
  6
CONTINUOUS
 10
3.600520
 20
8.852360
  0
SEQEND
  8
0
  0
POLYLINE
  8
0
 62
     0
  6
CONTINUOUS
 66
     1
 40
0.002200
 41
0.002200
  0
VERTEX
  8
0
 62
     0
  6
CONTINUOUS
 10
3.600520
 20
8.852360
  0
VERTEX
  8
0
 62
     0
  6
CONTINUOUS
 10
3.589520
 20
8.829920
  0
SEQEND
  8
0
  0
POLYLINE
  8
0
 62
     0
  6
CONTINUOUS
 66
     1
 40
0.002200
 41
0.002200
  0
VERTEX
  8
0
 62
     0
  6
CONTINUOUS
 10
3.589520
 20
8.829920
  0
VERTEX
  8
0
 62
     0
  6
CONTINUOUS
 10
3.576760
 20
8.804840
  0
SEQEND
  8
0
  0
POLYLINE
  8
0
 62
     0
  6
CONTINUOUS
 66
     1
 40
0.002200
 41
0.002200
  0
VERTEX
  8
0
 62
     0
  6
CONTINUOUS
 10
3.576760
 20
8.804840
  0
VERTEX
  8
0
 62
     0
  6
CONTINUOUS
 10
3.568840
 20
8.779760
  0
SEQEND
  8
0
  0
POLYLINE
  8
0
 62
     0
  6
CONTINUOUS
 66
     1
 40
0.002200
 41
0.002200
  0
VERTEX
  8
0
 62
     0
  6
CONTINUOUS
 10
3.568840
 20
8.779760
  0
VERTEX
  8
0
 62
     0
  6
CONTINUOUS
 10
3.564000
 20
8.754240
  0
SEQEND
  8
0
  0
POLYLINE
  8
0
 62
     0
  6
CONTINUOUS
 66
     1
 40
0.002200
 41
0.002200
  0
VERTEX
  8
0
 62
     0
  6
CONTINUOUS
 10
3.564000
 20
8.754240
  0
VERTEX
  8
0
 62
     0
  6
CONTINUOUS
 10
3.559600
 20
8.729160
  0
SEQEND
  8
0
  0
POLYLINE
  8
0
 62
     0
  6
CONTINUOUS
 66
     1
 40
0.002200
 41
0.002200
  0
VERTEX
  8
0
 62
     0
  6
CONTINUOUS
 10
3.559600
 20
8.729160
  0
VERTEX
  8
0
 62
     0
  6
CONTINUOUS
 10
3.559600
 20
8.702320
  0
SEQEND
  8
0
  0
POLYLINE
  8
0
 62
     0
  6
CONTINUOUS
 66
     1
 40
0.002200
 41
0.002200
  0
VERTEX
  8
0
 62
     0
  6
CONTINUOUS
 10
3.559600
 20
8.702320
  0
VERTEX
  8
0
 62
     0
  6
CONTINUOUS
 10
3.559600
 20
8.675480
  0
SEQEND
  8
0
  0
POLYLINE
  8
0
 62
     0
  6
CONTINUOUS
 66
     1
 40
0.002200
 41
0.002200
  0
VERTEX
  8
0
 62
     0
  6
CONTINUOUS
 10
3.559600
 20
8.675480
  0
VERTEX
  8
0
 62
     0
  6
CONTINUOUS
 10
3.562680
 20
8.649960
  0
SEQEND
  8
0
  0
POLYLINE
  8
0
 62
     0
  6
CONTINUOUS
 66
     1
 40
0.002200
 41
0.002200
  0
VERTEX
  8
0
 62
     0
  6
CONTINUOUS
 10
3.562680
 20
8.649960
  0
VERTEX
  8
0
 62
     0
  6
CONTINUOUS
 10
3.568840
 20
8.623120
  0
SEQEND
  8
0
  0
POLYLINE
  8
0
 62
     0
  6
CONTINUOUS
 66
     1
 40
0.002200
 41
0.002200
  0
VERTEX
  8
0
 62
     0
  6
CONTINUOUS
 10
3.568840
 20
8.623120
  0
VERTEX
  8
0
 62
     0
  6
CONTINUOUS
 10
3.576760
 20
8.599360
  0
SEQEND
  8
0
  0
POLYLINE
  8
0
 62
     0
  6
CONTINUOUS
 66
     1
 40
0.002200
 41
0.002200
  0
VERTEX
  8
0
 62
     0
  6
CONTINUOUS
 10
3.576760
 20
8.599360
  0
VERTEX
  8
0
 62
     0
  6
CONTINUOUS
 10
3.586440
 20
8.574280
  0
SEQEND
  8
0
  0
POLYLINE
  8
0
 62
     0
  6
CONTINUOUS
 66
     1
 40
0.002200
 41
0.002200
  0
VERTEX
  8
0
 62
     0
  6
CONTINUOUS
 10
3.586440
 20
8.574280
  0
VERTEX
  8
0
 62
     0
  6
CONTINUOUS
 10
3.598760
 20
8.552280
  0
SEQEND
  8
0
  0
POLYLINE
  8
0
 62
     0
  6
CONTINUOUS
 66
     1
 40
0.002200
 41
0.002200
  0
VERTEX
  8
0
 62
     0
  6
CONTINUOUS
 10
3.598760
 20
8.552280
  0
VERTEX
  8
0
 62
     0
  6
CONTINUOUS
 10
3.611520
 20
8.528520
  0
SEQEND
  8
0
  0
POLYLINE
  8
0
 62
     0
  6
CONTINUOUS
 66
     1
 40
0.002200
 41
0.002200
  0
VERTEX
  8
0
 62
     0
  6
CONTINUOUS
 10
3.665200
 20
8.470000
  0
VERTEX
  8
0
 62
     0
  6
CONTINUOUS
 10
3.684120
 20
8.454160
  0
SEQEND
  8
0
  0
POLYLINE
  8
0
 62
     0
  6
CONTINUOUS
 66
     1
 40
0.002200
 41
0.002200
  0
VERTEX
  8
0
 62
     0
  6
CONTINUOUS
 10
3.684120
 20
8.454160
  0
VERTEX
  8
0
 62
     0
  6
CONTINUOUS
 10
3.706560
 20
8.440080
  0
SEQEND
  8
0
  0
POLYLINE
  8
0
 62
     0
  6
CONTINUOUS
 66
     1
 40
0.002200
 41
0.002200
  0
VERTEX
  8
0
 62
     0
  6
CONTINUOUS
 10
3.706560
 20
8.440080
  0
VERTEX
  8
0
 62
     0
  6
CONTINUOUS
 10
3.729880
 20
8.425560
  0
SEQEND
  8
0
  0
POLYLINE
  8
0
 62
     0
  6
CONTINUOUS
 66
     1
 40
0.002200
 41
0.002200
  0
VERTEX
  8
0
 62
     0
  6
CONTINUOUS
 10
3.729880
 20
8.425560
  0
VERTEX
  8
0
 62
     0
  6
CONTINUOUS
 10
3.755400
 20
8.416320
  0
SEQEND
  8
0
  0
POLYLINE
  8
0
 62
     0
  6
CONTINUOUS
 66
     1
 40
0.002200
 41
0.002200
  0
VERTEX
  8
0
 62
     0
  6
CONTINUOUS
 10
3.755400
 20
8.416320
  0
VERTEX
  8
0
 62
     0
  6
CONTINUOUS
 10
3.779160
 20
8.408400
  0
SEQEND
  8
0
  0
POLYLINE
  8
0
 62
     0
  6
CONTINUOUS
 66
     1
 40
0.002200
 41
0.002200
  0
VERTEX
  8
0
 62
     0
  6
CONTINUOUS
 10
3.779160
 20
8.408400
  0
VERTEX
  8
0
 62
     0
  6
CONTINUOUS
 10
3.804240
 20
8.402240
  0
SEQEND
  8
0
  0
POLYLINE
  8
0
 62
     0
  6
CONTINUOUS
 66
     1
 40
0.002200
 41
0.002200
  0
VERTEX
  8
0
 62
     0
  6
CONTINUOUS
 10
3.804240
 20
8.402240
  0
VERTEX
  8
0
 62
     0
  6
CONTINUOUS
 10
3.831080
 20
8.398720
  0
SEQEND
  8
0
  0
POLYLINE
  8
0
 62
     0
  6
CONTINUOUS
 66
     1
 40
0.002200
 41
0.002200
  0
VERTEX
  8
0
 62
     0
  6
CONTINUOUS
 10
3.831080
 20
8.398720
  0
VERTEX
  8
0
 62
     0
  6
CONTINUOUS
 10
3.857920
 20
8.397400
  0
SEQEND
  8
0
  0
POLYLINE
  8
0
 62
     0
  6
CONTINUOUS
 66
     1
 40
0.002200
 41
0.002200
  0
VERTEX
  8
0
 62
     0
  6
CONTINUOUS
 10
3.857920
 20
8.397400
  0
VERTEX
  8
0
 62
     0
  6
CONTINUOUS
 10
3.883440
 20
8.398720
  0
SEQEND
  8
0
  0
POLYLINE
  8
0
 62
     0
  6
CONTINUOUS
 66
     1
 40
0.002200
 41
0.002200
  0
VERTEX
  8
0
 62
     0
  6
CONTINUOUS
 10
3.883440
 20
8.398720
  0
VERTEX
  8
0
 62
     0
  6
CONTINUOUS
 10
3.910280
 20
8.402240
  0
SEQEND
  8
0
  0
POLYLINE
  8
0
 62
     0
  6
CONTINUOUS
 66
     1
 40
0.002200
 41
0.002200
  0
VERTEX
  8
0
 62
     0
  6
CONTINUOUS
 10
3.910280
 20
8.402240
  0
VERTEX
  8
0
 62
     0
  6
CONTINUOUS
 10
3.937120
 20
8.406640
  0
SEQEND
  8
0
  0
POLYLINE
  8
0
 62
     0
  6
CONTINUOUS
 66
     1
 40
0.002200
 41
0.002200
  0
VERTEX
  8
0
 62
     0
  6
CONTINUOUS
 10
3.937120
 20
8.406640
  0
VERTEX
  8
0
 62
     0
  6
CONTINUOUS
 10
3.960440
 20
8.413240
  0
SEQEND
  8
0
  0
POLYLINE
  8
0
 62
     0
  6
CONTINUOUS
 66
     1
 40
0.002200
 41
0.002200
  0
VERTEX
  8
0
 62
     0
  6
CONTINUOUS
 10
3.960440
 20
8.413240
  0
VERTEX
  8
0
 62
     0
  6
CONTINUOUS
 10
3.984200
 20
8.424240
  0
SEQEND
  8
0
  0
POLYLINE
  8
0
 62
     0
  6
CONTINUOUS
 66
     1
 40
0.002200
 41
0.002200
  0
VERTEX
  8
0
 62
     0
  6
CONTINUOUS
 10
3.984200
 20
8.424240
  0
VERTEX
  8
0
 62
     0
  6
CONTINUOUS
 10
4.009720
 20
8.435240
  0
SEQEND
  8
0
  0
POLYLINE
  8
0
 62
     0
  6
CONTINUOUS
 66
     1
 40
0.002200
 41
0.002200
  0
VERTEX
  8
0
 62
     0
  6
CONTINUOUS
 10
4.009720
 20
8.435240
  0
VERTEX
  8
0
 62
     0
  6
CONTINUOUS
 10
4.031720
 20
8.448000
  0
SEQEND
  8
0
  0
POLYLINE
  8
0
 62
     0
  6
CONTINUOUS
 66
     1
 40
0.002200
 41
0.002200
  0
VERTEX
  8
0
 62
     0
  6
CONTINUOUS
 10
4.031720
 20
8.448000
  0
VERTEX
  8
0
 62
     0
  6
CONTINUOUS
 10
4.052400
 20
8.463840
  0
SEQEND
  8
0
  0
POLYLINE
  8
0
 62
     0
  6
CONTINUOUS
 66
     1
 40
0.002200
 41
0.002200
  0
VERTEX
  8
0
 62
     0
  6
CONTINUOUS
 10
4.052400
 20
8.463840
  0
VERTEX
  8
0
 62
     0
  6
CONTINUOUS
 10
4.072640
 20
8.482760
  0
SEQEND
  8
0
  0
POLYLINE
  8
0
 62
     0
  6
CONTINUOUS
 66
     1
 40
0.002200
 41
0.002200
  0
VERTEX
  8
0
 62
     0
  6
CONTINUOUS
 10
4.072640
 20
8.482760
  0
VERTEX
  8
0
 62
     0
  6
CONTINUOUS
 10
4.090240
 20
8.501680
  0
SEQEND
  8
0
  0
POLYLINE
  8
0
 62
     0
  6
CONTINUOUS
 66
     1
 40
0.002200
 41
0.002200
  0
VERTEX
  8
0
 62
     0
  6
CONTINUOUS
 10
4.090240
 20
8.501680
  0
VERTEX
  8
0
 62
     0
  6
CONTINUOUS
 10
4.107400
 20
8.520600
  0
SEQEND
  8
0
  0
POLYLINE
  8
0
 62
     0
  6
CONTINUOUS
 66
     1
 40
0.002200
 41
0.002200
  0
VERTEX
  8
0
 62
     0
  6
CONTINUOUS
 10
4.107400
 20
8.520600
  0
VERTEX
  8
0
 62
     0
  6
CONTINUOUS
 10
4.121920
 20
8.542600
  0
SEQEND
  8
0
  0
POLYLINE
  8
0
 62
     0
  6
CONTINUOUS
 66
     1
 40
0.002200
 41
0.002200
  0
VERTEX
  8
0
 62
     0
  6
CONTINUOUS
 10
4.121920
 20
8.542600
  0
VERTEX
  8
0
 62
     0
  6
CONTINUOUS
 10
4.134240
 20
8.566360
  0
SEQEND
  8
0
  0
POLYLINE
  8
0
 62
     0
  6
CONTINUOUS
 66
     1
 40
0.002200
 41
0.002200
  0
VERTEX
  8
0
 62
     0
  6
CONTINUOUS
 10
4.134240
 20
8.566360
  0
VERTEX
  8
0
 62
     0
  6
CONTINUOUS
 10
4.143920
 20
8.590120
  0
SEQEND
  8
0
  0
POLYLINE
  8
0
 62
     0
  6
CONTINUOUS
 66
     1
 40
0.002200
 41
0.002200
  0
VERTEX
  8
0
 62
     0
  6
CONTINUOUS
 10
4.143920
 20
8.590120
  0
VERTEX
  8
0
 62
     0
  6
CONTINUOUS
 10
4.151840
 20
8.615200
  0
SEQEND
  8
0
  0
POLYLINE
  8
0
 62
     0
  6
CONTINUOUS
 66
     1
 40
0.002200
 41
0.002200
  0
VERTEX
  8
0
 62
     0
  6
CONTINUOUS
 10
4.151840
 20
8.615200
  0
VERTEX
  8
0
 62
     0
  6
CONTINUOUS
 10
4.158000
 20
8.640720
  0
SEQEND
  8
0
  0
POLYLINE
  8
0
 62
     0
  6
CONTINUOUS
 66
     1
 40
0.002200
 41
0.002200
  0
VERTEX
  8
0
 62
     0
  6
CONTINUOUS
 10
4.158000
 20
8.640720
  0
VERTEX
  8
0
 62
     0
  6
CONTINUOUS
 10
4.164600
 20
8.665800
  0
SEQEND
  8
0
  0
POLYLINE
  8
0
 62
     0
  6
CONTINUOUS
 66
     1
 40
0.002200
 41
0.002200
  0
VERTEX
  8
0
 62
     0
  6
CONTINUOUS
 10
4.164600
 20
8.665800
  0
VERTEX
  8
0
 62
     0
  6
CONTINUOUS
 10
4.164600
 20
8.694400
  0
SEQEND
  8
0
  0
POLYLINE
  8
0
 62
     0
  6
CONTINUOUS
 66
     1
 40
0.002200
 41
0.002200
  0
VERTEX
  8
0
 62
     0
  6
CONTINUOUS
 10
4.164600
 20
8.694400
  0
VERTEX
  8
0
 62
     0
  6
CONTINUOUS
 10
4.164600
 20
8.719480
  0
SEQEND
  8
0
  0
POLYLINE
  8
0
 62
     0
  6
CONTINUOUS
 66
     1
 40
0.002200
 41
0.002200
  0
VERTEX
  8
0
 62
     0
  6
CONTINUOUS
 10
4.199360
 20
8.634120
  0
VERTEX
  8
0
 62
     0
  6
CONTINUOUS
 10
4.189680
 20
8.621800
  0
SEQEND
  8
0
  0
POLYLINE
  8
0
 62
     0
  6
CONTINUOUS
 66
     1
 40
0.002200
 41
0.002200
  0
VERTEX
  8
0
 62
     0
  6
CONTINUOUS
 10
4.189680
 20
8.621800
  0
VERTEX
  8
0
 62
     0
  6
CONTINUOUS
 10
4.180440
 20
8.609040
  0
SEQEND
  8
0
  0
POLYLINE
  8
0
 62
     0
  6
CONTINUOUS
 66
     1
 40
0.002200
 41
0.002200
  0
VERTEX
  8
0
 62
     0
  6
CONTINUOUS
 10
4.180440
 20
8.609040
  0
VERTEX
  8
0
 62
     0
  6
CONTINUOUS
 10
4.173840
 20
8.594960
  0
SEQEND
  8
0
  0
POLYLINE
  8
0
 62
     0
  6
CONTINUOUS
 66
     1
 40
0.002200
 41
0.002200
  0
VERTEX
  8
0
 62
     0
  6
CONTINUOUS
 10
4.173840
 20
8.594960
  0
VERTEX
  8
0
 62
     0
  6
CONTINUOUS
 10
4.167680
 20
8.580440
  0
SEQEND
  8
0
  0
POLYLINE
  8
0
 62
     0
  6
CONTINUOUS
 66
     1
 40
0.002200
 41
0.002200
  0
VERTEX
  8
0
 62
     0
  6
CONTINUOUS
 10
4.167680
 20
8.580440
  0
VERTEX
  8
0
 62
     0
  6
CONTINUOUS
 10
4.165920
 20
8.564600
  0
SEQEND
  8
0
  0
POLYLINE
  8
0
 62
     0
  6
CONTINUOUS
 66
     1
 40
0.002200
 41
0.002200
  0
VERTEX
  8
0
 62
     0
  6
CONTINUOUS
 10
4.165920
 20
8.564600
  0
VERTEX
  8
0
 62
     0
  6
CONTINUOUS
 10
4.164600
 20
8.547440
  0
SEQEND
  8
0
  0
POLYLINE
  8
0
 62
     0
  6
CONTINUOUS
 66
     1
 40
0.002200
 41
0.002200
  0
VERTEX
  8
0
 62
     0
  6
CONTINUOUS
 10
4.164600
 20
8.547440
  0
VERTEX
  8
0
 62
     0
  6
CONTINUOUS
 10
4.165920
 20
8.533360
  0
SEQEND
  8
0
  0
POLYLINE
  8
0
 62
     0
  6
CONTINUOUS
 66
     1
 40
0.002200
 41
0.002200
  0
VERTEX
  8
0
 62
     0
  6
CONTINUOUS
 10
4.165920
 20
8.533360
  0
VERTEX
  8
0
 62
     0
  6
CONTINUOUS
 10
4.167680
 20
8.517520
  0
SEQEND
  8
0
  0
POLYLINE
  8
0
 62
     0
  6
CONTINUOUS
 66
     1
 40
0.002200
 41
0.002200
  0
VERTEX
  8
0
 62
     0
  6
CONTINUOUS
 10
4.167680
 20
8.517520
  0
VERTEX
  8
0
 62
     0
  6
CONTINUOUS
 10
4.173840
 20
8.501680
  0
SEQEND
  8
0
  0
POLYLINE
  8
0
 62
     0
  6
CONTINUOUS
 66
     1
 40
0.002200
 41
0.002200
  0
VERTEX
  8
0
 62
     0
  6
CONTINUOUS
 10
4.173840
 20
8.501680
  0
VERTEX
  8
0
 62
     0
  6
CONTINUOUS
 10
4.180440
 20
8.488920
  0
SEQEND
  8
0
  0
POLYLINE
  8
0
 62
     0
  6
CONTINUOUS
 66
     1
 40
0.002200
 41
0.002200
  0
VERTEX
  8
0
 62
     0
  6
CONTINUOUS
 10
4.180440
 20
8.488920
  0
VERTEX
  8
0
 62
     0
  6
CONTINUOUS
 10
4.189680
 20
8.474840
  0
SEQEND
  8
0
  0
POLYLINE
  8
0
 62
     0
  6
CONTINUOUS
 66
     1
 40
0.002200
 41
0.002200
  0
VERTEX
  8
0
 62
     0
  6
CONTINUOUS
 10
4.189680
 20
8.474840
  0
VERTEX
  8
0
 62
     0
  6
CONTINUOUS
 10
4.199360
 20
8.462080
  0
SEQEND
  8
0
  0
POLYLINE
  8
0
 62
     0
  6
CONTINUOUS
 66
     1
 40
0.002200
 41
0.002200
  0
VERTEX
  8
0
 62
     0
  6
CONTINUOUS
 10
4.199360
 20
8.462080
  0
VERTEX
  8
0
 62
     0
  6
CONTINUOUS
 10
4.211680
 20
8.452400
  0
SEQEND
  8
0
  0
POLYLINE
  8
0
 62
     0
  6
CONTINUOUS
 66
     1
 40
0.002200
 41
0.002200
  0
VERTEX
  8
0
 62
     0
  6
CONTINUOUS
 10
4.211680
 20
8.452400
  0
VERTEX
  8
0
 62
     0
  6
CONTINUOUS
 10
4.224440
 20
8.444920
  0
SEQEND
  8
0
  0
POLYLINE
  8
0
 62
     0
  6
CONTINUOUS
 66
     1
 40
0.002200
 41
0.002200
  0
VERTEX
  8
0
 62
     0
  6
CONTINUOUS
 10
4.224440
 20
8.444920
  0
VERTEX
  8
0
 62
     0
  6
CONTINUOUS
 10
4.240280
 20
8.437000
  0
SEQEND
  8
0
  0
POLYLINE
  8
0
 62
     0
  6
CONTINUOUS
 66
     1
 40
0.002200
 41
0.002200
  0
VERTEX
  8
0
 62
     0
  6
CONTINUOUS
 10
4.240280
 20
8.437000
  0
VERTEX
  8
0
 62
     0
  6
CONTINUOUS
 10
4.253040
 20
8.432160
  0
SEQEND
  8
0
  0
POLYLINE
  8
0
 62
     0
  6
CONTINUOUS
 66
     1
 40
0.002200
 41
0.002200
  0
VERTEX
  8
0
 62
     0
  6
CONTINUOUS
 10
4.253040
 20
8.432160
  0
VERTEX
  8
0
 62
     0
  6
CONTINUOUS
 10
4.270200
 20
8.429080
  0
SEQEND
  8
0
  0
POLYLINE
  8
0
 62
     0
  6
CONTINUOUS
 66
     1
 40
0.002200
 41
0.002200
  0
VERTEX
  8
0
 62
     0
  6
CONTINUOUS
 10
4.270200
 20
8.429080
  0
VERTEX
  8
0
 62
     0
  6
CONTINUOUS
 10
4.286040
 20
8.429080
  0
SEQEND
  8
0
  0
POLYLINE
  8
0
 62
     0
  6
CONTINUOUS
 66
     1
 40
0.002200
 41
0.002200
  0
VERTEX
  8
0
 62
     0
  6
CONTINUOUS
 10
4.286040
 20
8.429080
  0
VERTEX
  8
0
 62
     0
  6
CONTINUOUS
 10
4.301880
 20
8.429080
  0
SEQEND
  8
0
  0
POLYLINE
  8
0
 62
     0
  6
CONTINUOUS
 66
     1
 40
0.002200
 41
0.002200
  0
VERTEX
  8
0
 62
     0
  6
CONTINUOUS
 10
4.301880
 20
8.429080
  0
VERTEX
  8
0
 62
     0
  6
CONTINUOUS
 10
4.317720
 20
8.432160
  0
SEQEND
  8
0
  0
POLYLINE
  8
0
 62
     0
  6
CONTINUOUS
 66
     1
 40
0.002200
 41
0.002200
  0
VERTEX
  8
0
 62
     0
  6
CONTINUOUS
 10
4.317720
 20
8.432160
  0
VERTEX
  8
0
 62
     0
  6
CONTINUOUS
 10
4.331800
 20
8.437000
  0
SEQEND
  8
0
  0
POLYLINE
  8
0
 62
     0
  6
CONTINUOUS
 66
     1
 40
0.002200
 41
0.002200
  0
VERTEX
  8
0
 62
     0
  6
CONTINUOUS
 10
4.331800
 20
8.437000
  0
VERTEX
  8
0
 62
     0
  6
CONTINUOUS
 10
4.345880
 20
8.444920
  0
SEQEND
  8
0
  0
POLYLINE
  8
0
 62
     0
  6
CONTINUOUS
 66
     1
 40
0.002200
 41
0.002200
  0
VERTEX
  8
0
 62
     0
  6
CONTINUOUS
 10
4.345880
 20
8.444920
  0
VERTEX
  8
0
 62
     0
  6
CONTINUOUS
 10
4.360400
 20
8.452400
  0
SEQEND
  8
0
  0
POLYLINE
  8
0
 62
     0
  6
CONTINUOUS
 66
     1
 40
0.002200
 41
0.002200
  0
VERTEX
  8
0
 62
     0
  6
CONTINUOUS
 10
4.360400
 20
8.452400
  0
VERTEX
  8
0
 62
     0
  6
CONTINUOUS
 10
4.371400
 20
8.462080
  0
SEQEND
  8
0
  0
POLYLINE
  8
0
 62
     0
  6
CONTINUOUS
 66
     1
 40
0.002200
 41
0.002200
  0
VERTEX
  8
0
 62
     0
  6
CONTINUOUS
 10
4.371400
 20
8.462080
  0
VERTEX
  8
0
 62
     0
  6
CONTINUOUS
 10
4.382400
 20
8.474840
  0
SEQEND
  8
0
  0
POLYLINE
  8
0
 62
     0
  6
CONTINUOUS
 66
     1
 40
0.002200
 41
0.002200
  0
VERTEX
  8
0
 62
     0
  6
CONTINUOUS
 10
4.382400
 20
8.474840
  0
VERTEX
  8
0
 62
     0
  6
CONTINUOUS
 10
4.390320
 20
8.488920
  0
SEQEND
  8
0
  0
POLYLINE
  8
0
 62
     0
  6
CONTINUOUS
 66
     1
 40
0.002200
 41
0.002200
  0
VERTEX
  8
0
 62
     0
  6
CONTINUOUS
 10
4.390320
 20
8.488920
  0
VERTEX
  8
0
 62
     0
  6
CONTINUOUS
 10
4.398240
 20
8.501680
  0
SEQEND
  8
0
  0
POLYLINE
  8
0
 62
     0
  6
CONTINUOUS
 66
     1
 40
0.002200
 41
0.002200
  0
VERTEX
  8
0
 62
     0
  6
CONTINUOUS
 10
4.398240
 20
8.501680
  0
VERTEX
  8
0
 62
     0
  6
CONTINUOUS
 10
4.403080
 20
8.517520
  0
SEQEND
  8
0
  0
POLYLINE
  8
0
 62
     0
  6
CONTINUOUS
 66
     1
 40
0.002200
 41
0.002200
  0
VERTEX
  8
0
 62
     0
  6
CONTINUOUS
 10
4.403080
 20
8.517520
  0
VERTEX
  8
0
 62
     0
  6
CONTINUOUS
 10
4.404400
 20
8.533360
  0
SEQEND
  8
0
  0
POLYLINE
  8
0
 62
     0
  6
CONTINUOUS
 66
     1
 40
0.002200
 41
0.002200
  0
VERTEX
  8
0
 62
     0
  6
CONTINUOUS
 10
4.404400
 20
8.533360
  0
VERTEX
  8
0
 62
     0
  6
CONTINUOUS
 10
4.406160
 20
8.547440
  0
SEQEND
  8
0
  0
POLYLINE
  8
0
 62
     0
  6
CONTINUOUS
 66
     1
 40
0.002200
 41
0.002200
  0
VERTEX
  8
0
 62
     0
  6
CONTINUOUS
 10
4.406160
 20
8.547440
  0
VERTEX
  8
0
 62
     0
  6
CONTINUOUS
 10
4.404400
 20
8.564600
  0
SEQEND
  8
0
  0
POLYLINE
  8
0
 62
     0
  6
CONTINUOUS
 66
     1
 40
0.002200
 41
0.002200
  0
VERTEX
  8
0
 62
     0
  6
CONTINUOUS
 10
4.404400
 20
8.564600
  0
VERTEX
  8
0
 62
     0
  6
CONTINUOUS
 10
4.403080
 20
8.580440
  0
SEQEND
  8
0
  0
POLYLINE
  8
0
 62
     0
  6
CONTINUOUS
 66
     1
 40
0.002200
 41
0.002200
  0
VERTEX
  8
0
 62
     0
  6
CONTINUOUS
 10
4.403080
 20
8.580440
  0
VERTEX
  8
0
 62
     0
  6
CONTINUOUS
 10
4.398240
 20
8.594960
  0
SEQEND
  8
0
  0
POLYLINE
  8
0
 62
     0
  6
CONTINUOUS
 66
     1
 40
0.002200
 41
0.002200
  0
VERTEX
  8
0
 62
     0
  6
CONTINUOUS
 10
4.398240
 20
8.594960
  0
VERTEX
  8
0
 62
     0
  6
CONTINUOUS
 10
4.390320
 20
8.609040
  0
SEQEND
  8
0
  0
POLYLINE
  8
0
 62
     0
  6
CONTINUOUS
 66
     1
 40
0.002200
 41
0.002200
  0
VERTEX
  8
0
 62
     0
  6
CONTINUOUS
 10
4.390320
 20
8.609040
  0
VERTEX
  8
0
 62
     0
  6
CONTINUOUS
 10
4.382400
 20
8.621800
  0
SEQEND
  8
0
  0
POLYLINE
  8
0
 62
     0
  6
CONTINUOUS
 66
     1
 40
0.002200
 41
0.002200
  0
VERTEX
  8
0
 62
     0
  6
CONTINUOUS
 10
4.382400
 20
8.621800
  0
VERTEX
  8
0
 62
     0
  6
CONTINUOUS
 10
4.371400
 20
8.634120
  0
SEQEND
  8
0
  0
POLYLINE
  8
0
 62
     0
  6
CONTINUOUS
 66
     1
 40
0.002200
 41
0.002200
  0
VERTEX
  8
0
 62
     0
  6
CONTINUOUS
 10
4.371400
 20
8.634120
  0
VERTEX
  8
0
 62
     0
  6
CONTINUOUS
 10
4.360400
 20
8.643800
  0
SEQEND
  8
0
  0
POLYLINE
  8
0
 62
     0
  6
CONTINUOUS
 66
     1
 40
0.002200
 41
0.002200
  0
VERTEX
  8
0
 62
     0
  6
CONTINUOUS
 10
4.360400
 20
8.643800
  0
VERTEX
  8
0
 62
     0
  6
CONTINUOUS
 10
4.345880
 20
8.653040
  0
SEQEND
  8
0
  0
POLYLINE
  8
0
 62
     0
  6
CONTINUOUS
 66
     1
 40
0.002200
 41
0.002200
  0
VERTEX
  8
0
 62
     0
  6
CONTINUOUS
 10
4.345880
 20
8.653040
  0
VERTEX
  8
0
 62
     0
  6
CONTINUOUS
 10
4.331800
 20
8.659640
  0
SEQEND
  8
0
  0
POLYLINE
  8
0
 62
     0
  6
CONTINUOUS
 66
     1
 40
0.002200
 41
0.002200
  0
VERTEX
  8
0
 62
     0
  6
CONTINUOUS
 10
4.331800
 20
8.659640
  0
VERTEX
  8
0
 62
     0
  6
CONTINUOUS
 10
4.317720
 20
8.665800
  0
SEQEND
  8
0
  0
POLYLINE
  8
0
 62
     0
  6
CONTINUOUS
 66
     1
 40
0.002200
 41
0.002200
  0
VERTEX
  8
0
 62
     0
  6
CONTINUOUS
 10
4.317720
 20
8.665800
  0
VERTEX
  8
0
 62
     0
  6
CONTINUOUS
 10
4.301880
 20
8.668880
  0
SEQEND
  8
0
  0
POLYLINE
  8
0
 62
     0
  6
CONTINUOUS
 66
     1
 40
0.002200
 41
0.002200
  0
VERTEX
  8
0
 62
     0
  6
CONTINUOUS
 10
4.301880
 20
8.668880
  0
VERTEX
  8
0
 62
     0
  6
CONTINUOUS
 10
4.286040
 20
8.670640
  0
SEQEND
  8
0
  0
POLYLINE
  8
0
 62
     0
  6
CONTINUOUS
 66
     1
 40
0.002200
 41
0.002200
  0
VERTEX
  8
0
 62
     0
  6
CONTINUOUS
 10
4.286040
 20
8.670640
  0
VERTEX
  8
0
 62
     0
  6
CONTINUOUS
 10
4.270200
 20
8.668880
  0
SEQEND
  8
0
  0
POLYLINE
  8
0
 62
     0
  6
CONTINUOUS
 66
     1
 40
0.002200
 41
0.002200
  0
VERTEX
  8
0
 62
     0
  6
CONTINUOUS
 10
4.270200
 20
8.668880
  0
VERTEX
  8
0
 62
     0
  6
CONTINUOUS
 10
4.253040
 20
8.665800
  0
SEQEND
  8
0
  0
POLYLINE
  8
0
 62
     0
  6
CONTINUOUS
 66
     1
 40
0.002200
 41
0.002200
  0
VERTEX
  8
0
 62
     0
  6
CONTINUOUS
 10
4.253040
 20
8.665800
  0
VERTEX
  8
0
 62
     0
  6
CONTINUOUS
 10
4.240280
 20
8.659640
  0
SEQEND
  8
0
  0
POLYLINE
  8
0
 62
     0
  6
CONTINUOUS
 66
     1
 40
0.002200
 41
0.002200
  0
VERTEX
  8
0
 62
     0
  6
CONTINUOUS
 10
4.240280
 20
8.659640
  0
VERTEX
  8
0
 62
     0
  6
CONTINUOUS
 10
4.224440
 20
8.653040
  0
SEQEND
  8
0
  0
POLYLINE
  8
0
 62
     0
  6
CONTINUOUS
 66
     1
 40
0.002200
 41
0.002200
  0
VERTEX
  8
0
 62
     0
  6
CONTINUOUS
 10
4.224440
 20
8.653040
  0
VERTEX
  8
0
 62
     0
  6
CONTINUOUS
 10
4.211680
 20
8.643800
  0
SEQEND
  8
0
  0
POLYLINE
  8
0
 62
     0
  6
CONTINUOUS
 66
     1
 40
0.002200
 41
0.002200
  0
VERTEX
  8
0
 62
     0
  6
CONTINUOUS
 10
4.211680
 20
8.643800
  0
VERTEX
  8
0
 62
     0
  6
CONTINUOUS
 10
4.199360
 20
8.634120
  0
SEQEND
  8
0
  0
POLYLINE
  8
0
 62
     0
  6
CONTINUOUS
 66
     1
 40
0.002200
 41
0.002200
  0
VERTEX
  8
0
 62
     0
  6
CONTINUOUS
 10
4.164600
 20
8.547440
  0
VERTEX
  8
0
 62
     0
  6
CONTINUOUS
 10
4.164600
 20
8.425560
  0
SEQEND
  8
0
  0
POLYLINE
  8
0
 62
     0
  6
CONTINUOUS
 66
     1
 40
0.002200
 41
0.002200
  0
VERTEX
  8
0
 62
     0
  6
CONTINUOUS
 10
4.218280
 20
8.448000
  0
VERTEX
  8
0
 62
     0
  6
CONTINUOUS
 10
4.126320
 20
8.356040
  0
SEQEND
  8
0
  0
POLYLINE
  8
0
 62
     0
  6
CONTINUOUS
 66
     1
 40
0.002200
 41
0.002200
  0
VERTEX
  8
0
 62
     0
  6
CONTINUOUS
 10
4.357320
 20
8.448000
  0
VERTEX
  8
0
 62
     0
  6
CONTINUOUS
 10
4.448840
 20
8.356040
  0
SEQEND
  8
0
  0
POLYLINE
  8
0
 62
     0
  6
CONTINUOUS
 66
     1
 40
0.002200
 41
0.002200
  0
VERTEX
  8
0
 62
     0
  6
CONTINUOUS
 10
4.406160
 20
8.397400
  0
VERTEX
  8
0
 62
     0
  6
CONTINUOUS
 10
4.406160
 20
8.545680
  0
SEQEND
  8
0
  0
POLYLINE
  8
0
 62
     0
  6
CONTINUOUS
 66
     1
 40
0.002200
 41
0.002200
  0
VERTEX
  8
0
 62
     0
  6
CONTINUOUS
 10
4.406160
 20
8.425560
  0
VERTEX
  8
0
 62
     0
  6
CONTINUOUS
 10
3.993880
 20
8.425560
  0
SEQEND
  8
0
  0
POLYLINE
  8
0
 62
     0
  6
CONTINUOUS
 66
     1
 40
0.002200
 41
0.002200
  0
VERTEX
  8
0
 62
     0
  6
CONTINUOUS
 10
3.790160
 20
8.542600
  0
VERTEX
  8
0
 62
     0
  6
CONTINUOUS
 10
3.802480
 20
8.571200
  0
SEQEND
  8
0
  0
POLYLINE
  8
0
 62
     0
  6
CONTINUOUS
 66
     1
 40
0.002200
 41
0.002200
  0
VERTEX
  8
0
 62
     0
  6
CONTINUOUS
 10
3.744400
 20
8.613880
  0
VERTEX
  8
0
 62
     0
  6
CONTINUOUS
 10
3.721960
 20
8.594960
  0
SEQEND
  8
0
  0
POLYLINE
  8
0
 62
     0
  6
CONTINUOUS
 66
     1
 40
0.002200
 41
0.002200
  0
VERTEX
  8
0
 62
     0
  6
CONTINUOUS
 10
3.721960
 20
8.649960
  0
VERTEX
  8
0
 62
     0
  6
CONTINUOUS
 10
3.695120
 20
8.637200
  0
SEQEND
  8
0
  0
POLYLINE
  8
0
 62
     0
  6
CONTINUOUS
 66
     1
 40
0.002200
 41
0.002200
  0
VERTEX
  8
0
 62
     0
  6
CONTINUOUS
 10
4.240280
 20
8.823760
  0
VERTEX
  8
0
 62
     0
  6
CONTINUOUS
 10
4.253040
 20
8.877440
  0
SEQEND
  8
0
  0
POLYLINE
  8
0
 62
     0
  6
CONTINUOUS
 66
     1
 40
0.002200
 41
0.002200
  0
VERTEX
  8
0
 62
     0
  6
CONTINUOUS
 10
4.253040
 20
8.877440
  0
VERTEX
  8
0
 62
     0
  6
CONTINUOUS
 10
4.286040
 20
8.877440
  0
SEQEND
  8
0
  0
POLYLINE
  8
0
 62
     0
  6
CONTINUOUS
 66
     1
 40
0.002200
 41
0.002200
  0
VERTEX
  8
0
 62
     0
  6
CONTINUOUS
 10
4.312880
 20
8.877440
  0
VERTEX
  8
0
 62
     0
  6
CONTINUOUS
 10
4.278120
 20
8.823760
  0
SEQEND
  8
0
  0
POLYLINE
  8
0
 62
     0
  6
CONTINUOUS
 66
     1
 40
0.002200
 41
0.002200
  0
VERTEX
  8
0
 62
     0
  6
CONTINUOUS
 10
4.289120
 20
8.841360
  0
VERTEX
  8
0
 62
     0
  6
CONTINUOUS
 10
4.315960
 20
8.841360
  0
SEQEND
  8
0
  0
POLYLINE
  8
0
 62
     0
  6
CONTINUOUS
 66
     1
 40
0.002200
 41
0.002200
  0
VERTEX
  8
0
 62
     0
  6
CONTINUOUS
 10
4.317720
 20
8.823760
  0
VERTEX
  8
0
 62
     0
  6
CONTINUOUS
 10
4.312880
 20
8.877440
  0
SEQEND
  8
0
  0
POLYLINE
  8
0
 62
     0
  6
CONTINUOUS
 66
     1
 40
0.002200
 41
0.002200
  0
VERTEX
  8
0
 62
     0
  6
CONTINUOUS
 10
4.345880
 20
8.877440
  0
VERTEX
  8
0
 62
     0
  6
CONTINUOUS
 10
4.330480
 20
8.823760
  0
SEQEND
  8
0
  0
POLYLINE
  8
0
 62
     0
  6
CONTINUOUS
 66
     1
 40
0.002200
 41
0.002200
  0
VERTEX
  8
0
 62
     0
  6
CONTINUOUS
 10
4.366560
 20
8.823760
  0
VERTEX
  8
0
 62
     0
  6
CONTINUOUS
 10
4.345880
 20
8.877440
  0
SEQEND
  8
0
  0
POLYLINE
  8
0
 62
     0
  6
CONTINUOUS
 66
     1
 40
0.002200
 41
0.002200
  0
VERTEX
  8
0
 62
     0
  6
CONTINUOUS
 10
4.380640
 20
8.877440
  0
VERTEX
  8
0
 62
     0
  6
CONTINUOUS
 10
4.366560
 20
8.823760
  0
SEQEND
  8
0
  0
POLYLINE
  8
0
 62
     0
  6
CONTINUOUS
 66
     1
 40
0.002200
 41
0.002200
  0
VERTEX
  8
0
 62
     0
  6
CONTINUOUS
 10
4.267120
 20
8.850600
  0
VERTEX
  8
0
 62
     0
  6
CONTINUOUS
 10
4.246440
 20
8.850600
  0
SEQEND
  8
0
  0
POLYLINE
  8
0
 62
     0
  6
CONTINUOUS
 66
     1
 40
0.000000
 41
0.000000
  0
VERTEX
  8
0
 62
     0
  6
CONTINUOUS
 10
3.178560
 20
9.013840
  0
VERTEX
  8
0
 62
     0
  6
CONTINUOUS
 10
4.265360
 20
9.013840
  0
VERTEX
  8
0
 62
     0
  6
CONTINUOUS
 10
5.727480
 20
9.013840
  0
VERTEX
  8
0
 62
     0
  6
CONTINUOUS
 10
6.457880
 20
8.283440
  0
VERTEX
  8
0
 62
     0
  6
CONTINUOUS
 10
5.719120
 20
7.544680
  0
VERTEX
  8
0
 62
     0
  6
CONTINUOUS
 10
4.190120
 20
7.544680
  0
SEQEND
  8
0
  0
ENDSEC
  0
EOF
