  0
SECTION
  2
HEADER
  9
$EXTMIN
 10
1.614800
 20
4.125880
  9
$EXTMAX
 10
4.993120
 20
5.973880
  9
$LTSCALE
 40
0.044000
  9
$PDMODE
 70
    35
  9
$PDSIZE
 40
0.035200
  0
ENDSEC
  0
SECTION
  2
TABLES
  0
TABLE
  2
LTYPE
 70
     9
  0
LTYPE
  2
CONTINUOUS
 70
    64
  3
Solid line
 72
    65
 73
     0
 40
0.000000
  0
LTYPE
  2
DASHED
 70
    64
  3
__ __ __ __ __ __ __ __ __ __ __ __ __ __ __
 72
    65
 73
     2
 40
0.000330
 49
0.000220
 49
-0.000110
  0
LTYPE
  2
HIDDEN
 70
    64
  3
 _ _ _ _ _ _ _ _ _ _ _ _ _ _ _ _ _ _ _ _ _ _
 72
    65
 73
     2
 40
0.000165
 49
0.000110
 49
-0.000055
  0
LTYPE
  2
CENTER
 70
    64
  3
____ _ ____ _ ____ _ ____ _ ____ _ ____ _ ____
 72
    65
 73
     4
 40
0.000880
 49
0.000550
 49
-0.000110
 49
0.000110
 49
-0.000110
  0
LTYPE
  2
PHANTOM
 70
    64
  3
_____ _ _ _____ _ _ _____ _ _ _____ _ _ ____
 72
    65
 73
     6
 40
0.001100
 49
0.000550
 49
-0.000110
 49
0.000110
 49
-0.000110
 49
0.000110
 49
-0.000110
  0
LTYPE
  2
DOT
 70
    64
  3
...............................................
 72
    65
 73
     2
 40
0.000110
 49
0.000000
 49
-0.000110
  0
LTYPE
  2
DASHDOT
 70
    64
  3
__ . __ . __ . __ . __ . __ . __ . __ . __ . __
 72
    65
 73
     4
 40
0.000440
 49
0.000220
 49
-0.000110
 49
0.000000
 49
-0.000110
  0
LTYPE
  2
BORDER
 70
    64
  3
__ __ . __ __ . __ __ . __ __ . __ __ . __ __
 72
    65
 73
     6
 40
0.000770
 49
0.000220
 49
-0.000110
 49
0.000220
 49
-0.000110
 49
0.000000
 49
-0.000110
  0
LTYPE
  2
DIVIDE
 70
    64
  3
__ . . __ . . __ . . __ . . __ . . __ . . __
 72
    65
 73
     6
 40
0.000550
 49
0.000220
 49
-0.000110
 49
0.000000
 49
-0.000110
 49
0.000000
 49
-0.000110
  0
LTYPE
  2
DOTDOT
 70
    64
  3
 . .  . .  . .  . .  . .  . . 
 72
    65
 73
     5
 40
0.000242
 49
-0.000110
 49
0.000000
 49
-0.000110
 49
0.000000
 49
-0.000110
  0
ENDTAB
  0
TABLE
  2
STYLE
 70
     4
  0
STYLE
 70
     0
  2
SN0
 40
0.000000
 41
0.000440
 50
0.000000
 71
     0
 42
0.000000
  3
ROMANS
  0
STYLE
 70
    68
  2
SV0
 40
0.000000
 41
0.000440
 50
0.000000
 71
     0
 42
0.000000
  3
ROMANS
  0
STYLE
 70
     0
  2
SN1
 40
0.000000
 41
0.000440
 50
0.000000
 71
     0
 42
0.000000
  3
ITALICC
  0
STYLE
 70
    68
  2
SV1
 40
0.000000
 41
0.000440
 50
0.000000
 71
     0
 42
0.000000
  3
ITALICC
  0
ENDTAB
  0
TABLE
  2
LAYER
 70
     3
  0
LAYER
  2
FOREGROUND
 70
    64
 62
     7
  6
CONTINUOUS
  0
LAYER
  2
BACKGROUND
 70
    65
 62
    -7
  6
CONTINUOUS
  0
LAYER
  2
0
 70
    64
 62
     7
  6
CONTINUOUS
  0
ENDTAB
  0
ENDSEC
  0
SECTION
  2
ENTITIES
  0
POLYLINE
  8
0
 62
     0
  6
CONTINUOUS
 66
     1
 40
0.002200
 41
0.002200
  0
VERTEX
  8
0
 62
     0
  6
CONTINUOUS
 10
3.706120
 20
5.443680
  0
VERTEX
  8
0
 62
     0
  6
CONTINUOUS
 10
3.736040
 20
5.443680
  0
SEQEND
  8
0
  0
POLYLINE
  8
0
 62
     0
  6
CONTINUOUS
 66
     1
 40
0.002200
 41
0.002200
  0
VERTEX
  8
0
 62
     0
  6
CONTINUOUS
 10
3.736040
 20
5.451600
  0
VERTEX
  8
0
 62
     0
  6
CONTINUOUS
 10
3.736040
 20
5.434000
  0
SEQEND
  8
0
  0
POLYLINE
  8
0
 62
     0
  6
CONTINUOUS
 66
     1
 40
0.002200
 41
0.002200
  0
VERTEX
  8
0
 62
     0
  6
CONTINUOUS
 10
3.736040
 20
5.434000
  0
VERTEX
  8
0
 62
     0
  6
CONTINUOUS
 10
3.736040
 20
5.415080
  0
SEQEND
  8
0
  0
POLYLINE
  8
0
 62
     0
  6
CONTINUOUS
 66
     1
 40
0.002200
 41
0.002200
  0
VERTEX
  8
0
 62
     0
  6
CONTINUOUS
 10
3.736040
 20
5.415080
  0
VERTEX
  8
0
 62
     0
  6
CONTINUOUS
 10
3.739120
 20
5.397920
  0
SEQEND
  8
0
  0
POLYLINE
  8
0
 62
     0
  6
CONTINUOUS
 66
     1
 40
0.002200
 41
0.002200
  0
VERTEX
  8
0
 62
     0
  6
CONTINUOUS
 10
3.739120
 20
5.397920
  0
VERTEX
  8
0
 62
     0
  6
CONTINUOUS
 10
3.745720
 20
5.378560
  0
SEQEND
  8
0
  0
POLYLINE
  8
0
 62
     0
  6
CONTINUOUS
 66
     1
 40
0.002200
 41
0.002200
  0
VERTEX
  8
0
 62
     0
  6
CONTINUOUS
 10
3.745720
 20
5.378560
  0
VERTEX
  8
0
 62
     0
  6
CONTINUOUS
 10
3.753640
 20
5.363160
  0
SEQEND
  8
0
  0
POLYLINE
  8
0
 62
     0
  6
CONTINUOUS
 66
     1
 40
0.002200
 41
0.002200
  0
VERTEX
  8
0
 62
     0
  6
CONTINUOUS
 10
3.753640
 20
5.363160
  0
VERTEX
  8
0
 62
     0
  6
CONTINUOUS
 10
3.762880
 20
5.347320
  0
SEQEND
  8
0
  0
POLYLINE
  8
0
 62
     0
  6
CONTINUOUS
 66
     1
 40
0.002200
 41
0.002200
  0
VERTEX
  8
0
 62
     0
  6
CONTINUOUS
 10
3.762880
 20
5.347320
  0
VERTEX
  8
0
 62
     0
  6
CONTINUOUS
 10
3.772560
 20
5.332800
  0
SEQEND
  8
0
  0
POLYLINE
  8
0
 62
     0
  6
CONTINUOUS
 66
     1
 40
0.002200
 41
0.002200
  0
VERTEX
  8
0
 62
     0
  6
CONTINUOUS
 10
3.772560
 20
5.332800
  0
VERTEX
  8
0
 62
     0
  6
CONTINUOUS
 10
3.785320
 20
5.320480
  0
SEQEND
  8
0
  0
POLYLINE
  8
0
 62
     0
  6
CONTINUOUS
 66
     1
 40
0.002200
 41
0.002200
  0
VERTEX
  8
0
 62
     0
  6
CONTINUOUS
 10
3.785320
 20
5.320480
  0
VERTEX
  8
0
 62
     0
  6
CONTINUOUS
 10
3.800720
 20
5.307720
  0
SEQEND
  8
0
  0
POLYLINE
  8
0
 62
     0
  6
CONTINUOUS
 66
     1
 40
0.002200
 41
0.002200
  0
VERTEX
  8
0
 62
     0
  6
CONTINUOUS
 10
3.800720
 20
5.307720
  0
VERTEX
  8
0
 62
     0
  6
CONTINUOUS
 10
3.816560
 20
5.298040
  0
SEQEND
  8
0
  0
POLYLINE
  8
0
 62
     0
  6
CONTINUOUS
 66
     1
 40
0.002200
 41
0.002200
  0
VERTEX
  8
0
 62
     0
  6
CONTINUOUS
 10
3.816560
 20
5.298040
  0
VERTEX
  8
0
 62
     0
  6
CONTINUOUS
 10
3.834160
 20
5.291880
  0
SEQEND
  8
0
  0
POLYLINE
  8
0
 62
     0
  6
CONTINUOUS
 66
     1
 40
0.002200
 41
0.002200
  0
VERTEX
  8
0
 62
     0
  6
CONTINUOUS
 10
3.834160
 20
5.291880
  0
VERTEX
  8
0
 62
     0
  6
CONTINUOUS
 10
3.851320
 20
5.285720
  0
SEQEND
  8
0
  0
POLYLINE
  8
0
 62
     0
  6
CONTINUOUS
 66
     1
 40
0.002200
 41
0.002200
  0
VERTEX
  8
0
 62
     0
  6
CONTINUOUS
 10
3.851320
 20
5.285720
  0
VERTEX
  8
0
 62
     0
  6
CONTINUOUS
 10
3.867160
 20
5.282200
  0
SEQEND
  8
0
  0
POLYLINE
  8
0
 62
     0
  6
CONTINUOUS
 66
     1
 40
0.002200
 41
0.002200
  0
VERTEX
  8
0
 62
     0
  6
CONTINUOUS
 10
3.867160
 20
5.282200
  0
VERTEX
  8
0
 62
     0
  6
CONTINUOUS
 10
3.886080
 20
5.280880
  0
SEQEND
  8
0
  0
POLYLINE
  8
0
 62
     0
  6
CONTINUOUS
 66
     1
 40
0.002200
 41
0.002200
  0
VERTEX
  8
0
 62
     0
  6
CONTINUOUS
 10
3.886080
 20
5.280880
  0
VERTEX
  8
0
 62
     0
  6
CONTINUOUS
 10
3.905000
 20
5.282200
  0
SEQEND
  8
0
  0
POLYLINE
  8
0
 62
     0
  6
CONTINUOUS
 66
     1
 40
0.002200
 41
0.002200
  0
VERTEX
  8
0
 62
     0
  6
CONTINUOUS
 10
3.905000
 20
5.282200
  0
VERTEX
  8
0
 62
     0
  6
CONTINUOUS
 10
3.923920
 20
5.285720
  0
SEQEND
  8
0
  0
POLYLINE
  8
0
 62
     0
  6
CONTINUOUS
 66
     1
 40
0.002200
 41
0.002200
  0
VERTEX
  8
0
 62
     0
  6
CONTINUOUS
 10
3.923920
 20
5.285720
  0
VERTEX
  8
0
 62
     0
  6
CONTINUOUS
 10
3.941520
 20
5.291880
  0
SEQEND
  8
0
  0
POLYLINE
  8
0
 62
     0
  6
CONTINUOUS
 66
     1
 40
0.002200
 41
0.002200
  0
VERTEX
  8
0
 62
     0
  6
CONTINUOUS
 10
3.941520
 20
5.291880
  0
VERTEX
  8
0
 62
     0
  6
CONTINUOUS
 10
3.957360
 20
5.298040
  0
SEQEND
  8
0
  0
POLYLINE
  8
0
 62
     0
  6
CONTINUOUS
 66
     1
 40
0.002200
 41
0.002200
  0
VERTEX
  8
0
 62
     0
  6
CONTINUOUS
 10
3.957360
 20
5.298040
  0
VERTEX
  8
0
 62
     0
  6
CONTINUOUS
 10
3.973200
 20
5.307720
  0
SEQEND
  8
0
  0
POLYLINE
  8
0
 62
     0
  6
CONTINUOUS
 66
     1
 40
0.002200
 41
0.002200
  0
VERTEX
  8
0
 62
     0
  6
CONTINUOUS
 10
3.973200
 20
5.307720
  0
VERTEX
  8
0
 62
     0
  6
CONTINUOUS
 10
3.987280
 20
5.320480
  0
SEQEND
  8
0
  0
POLYLINE
  8
0
 62
     0
  6
CONTINUOUS
 66
     1
 40
0.002200
 41
0.002200
  0
VERTEX
  8
0
 62
     0
  6
CONTINUOUS
 10
3.987280
 20
5.320480
  0
VERTEX
  8
0
 62
     0
  6
CONTINUOUS
 10
4.000040
 20
5.332800
  0
SEQEND
  8
0
  0
POLYLINE
  8
0
 62
     0
  6
CONTINUOUS
 66
     1
 40
0.002200
 41
0.002200
  0
VERTEX
  8
0
 62
     0
  6
CONTINUOUS
 10
4.000040
 20
5.332800
  0
VERTEX
  8
0
 62
     0
  6
CONTINUOUS
 10
4.011040
 20
5.347320
  0
SEQEND
  8
0
  0
POLYLINE
  8
0
 62
     0
  6
CONTINUOUS
 66
     1
 40
0.002200
 41
0.002200
  0
VERTEX
  8
0
 62
     0
  6
CONTINUOUS
 10
4.011040
 20
5.347320
  0
VERTEX
  8
0
 62
     0
  6
CONTINUOUS
 10
4.020280
 20
5.363160
  0
SEQEND
  8
0
  0
POLYLINE
  8
0
 62
     0
  6
CONTINUOUS
 66
     1
 40
0.002200
 41
0.002200
  0
VERTEX
  8
0
 62
     0
  6
CONTINUOUS
 10
4.020280
 20
5.363160
  0
VERTEX
  8
0
 62
     0
  6
CONTINUOUS
 10
4.029960
 20
5.378560
  0
SEQEND
  8
0
  0
POLYLINE
  8
0
 62
     0
  6
CONTINUOUS
 66
     1
 40
0.002200
 41
0.002200
  0
VERTEX
  8
0
 62
     0
  6
CONTINUOUS
 10
4.029960
 20
5.378560
  0
VERTEX
  8
0
 62
     0
  6
CONTINUOUS
 10
4.034800
 20
5.397920
  0
SEQEND
  8
0
  0
POLYLINE
  8
0
 62
     0
  6
CONTINUOUS
 66
     1
 40
0.002200
 41
0.002200
  0
VERTEX
  8
0
 62
     0
  6
CONTINUOUS
 10
4.034800
 20
5.397920
  0
VERTEX
  8
0
 62
     0
  6
CONTINUOUS
 10
4.037880
 20
5.415080
  0
SEQEND
  8
0
  0
POLYLINE
  8
0
 62
     0
  6
CONTINUOUS
 66
     1
 40
0.002200
 41
0.002200
  0
VERTEX
  8
0
 62
     0
  6
CONTINUOUS
 10
4.037880
 20
5.415080
  0
VERTEX
  8
0
 62
     0
  6
CONTINUOUS
 10
4.039640
 20
5.434000
  0
SEQEND
  8
0
  0
POLYLINE
  8
0
 62
     0
  6
CONTINUOUS
 66
     1
 40
0.002200
 41
0.002200
  0
VERTEX
  8
0
 62
     0
  6
CONTINUOUS
 10
4.039640
 20
5.434000
  0
VERTEX
  8
0
 62
     0
  6
CONTINUOUS
 10
4.037880
 20
5.451600
  0
SEQEND
  8
0
  0
POLYLINE
  8
0
 62
     0
  6
CONTINUOUS
 66
     1
 40
0.002200
 41
0.002200
  0
VERTEX
  8
0
 62
     0
  6
CONTINUOUS
 10
4.037880
 20
5.451600
  0
VERTEX
  8
0
 62
     0
  6
CONTINUOUS
 10
4.034800
 20
5.468760
  0
SEQEND
  8
0
  0
POLYLINE
  8
0
 62
     0
  6
CONTINUOUS
 66
     1
 40
0.002200
 41
0.002200
  0
VERTEX
  8
0
 62
     0
  6
CONTINUOUS
 10
4.034800
 20
5.468760
  0
VERTEX
  8
0
 62
     0
  6
CONTINUOUS
 10
4.029960
 20
5.487680
  0
SEQEND
  8
0
  0
POLYLINE
  8
0
 62
     0
  6
CONTINUOUS
 66
     1
 40
0.002200
 41
0.002200
  0
VERTEX
  8
0
 62
     0
  6
CONTINUOUS
 10
4.029960
 20
5.487680
  0
VERTEX
  8
0
 62
     0
  6
CONTINUOUS
 10
4.020280
 20
5.503520
  0
SEQEND
  8
0
  0
POLYLINE
  8
0
 62
     0
  6
CONTINUOUS
 66
     1
 40
0.002200
 41
0.002200
  0
VERTEX
  8
0
 62
     0
  6
CONTINUOUS
 10
4.020280
 20
5.503520
  0
VERTEX
  8
0
 62
     0
  6
CONTINUOUS
 10
4.011040
 20
5.519360
  0
SEQEND
  8
0
  0
POLYLINE
  8
0
 62
     0
  6
CONTINUOUS
 66
     1
 40
0.002200
 41
0.002200
  0
VERTEX
  8
0
 62
     0
  6
CONTINUOUS
 10
4.011040
 20
5.519360
  0
VERTEX
  8
0
 62
     0
  6
CONTINUOUS
 10
4.000040
 20
5.533440
  0
SEQEND
  8
0
  0
POLYLINE
  8
0
 62
     0
  6
CONTINUOUS
 66
     1
 40
0.002200
 41
0.002200
  0
VERTEX
  8
0
 62
     0
  6
CONTINUOUS
 10
4.000040
 20
5.533440
  0
VERTEX
  8
0
 62
     0
  6
CONTINUOUS
 10
3.987280
 20
5.546200
  0
SEQEND
  8
0
  0
POLYLINE
  8
0
 62
     0
  6
CONTINUOUS
 66
     1
 40
0.002200
 41
0.002200
  0
VERTEX
  8
0
 62
     0
  6
CONTINUOUS
 10
3.987280
 20
5.546200
  0
VERTEX
  8
0
 62
     0
  6
CONTINUOUS
 10
3.973200
 20
5.557200
  0
SEQEND
  8
0
  0
POLYLINE
  8
0
 62
     0
  6
CONTINUOUS
 66
     1
 40
0.002200
 41
0.002200
  0
VERTEX
  8
0
 62
     0
  6
CONTINUOUS
 10
3.973200
 20
5.557200
  0
VERTEX
  8
0
 62
     0
  6
CONTINUOUS
 10
3.957360
 20
5.566880
  0
SEQEND
  8
0
  0
POLYLINE
  8
0
 62
     0
  6
CONTINUOUS
 66
     1
 40
0.002200
 41
0.002200
  0
VERTEX
  8
0
 62
     0
  6
CONTINUOUS
 10
3.957360
 20
5.566880
  0
VERTEX
  8
0
 62
     0
  6
CONTINUOUS
 10
3.941520
 20
5.574800
  0
SEQEND
  8
0
  0
POLYLINE
  8
0
 62
     0
  6
CONTINUOUS
 66
     1
 40
0.002200
 41
0.002200
  0
VERTEX
  8
0
 62
     0
  6
CONTINUOUS
 10
3.941520
 20
5.574800
  0
VERTEX
  8
0
 62
     0
  6
CONTINUOUS
 10
3.923920
 20
5.580960
  0
SEQEND
  8
0
  0
POLYLINE
  8
0
 62
     0
  6
CONTINUOUS
 66
     1
 40
0.002200
 41
0.002200
  0
VERTEX
  8
0
 62
     0
  6
CONTINUOUS
 10
3.923920
 20
5.580960
  0
VERTEX
  8
0
 62
     0
  6
CONTINUOUS
 10
3.905000
 20
5.584040
  0
SEQEND
  8
0
  0
POLYLINE
  8
0
 62
     0
  6
CONTINUOUS
 66
     1
 40
0.002200
 41
0.002200
  0
VERTEX
  8
0
 62
     0
  6
CONTINUOUS
 10
3.905000
 20
5.584040
  0
VERTEX
  8
0
 62
     0
  6
CONTINUOUS
 10
3.886080
 20
5.584040
  0
SEQEND
  8
0
  0
POLYLINE
  8
0
 62
     0
  6
CONTINUOUS
 66
     1
 40
0.002200
 41
0.002200
  0
VERTEX
  8
0
 62
     0
  6
CONTINUOUS
 10
3.886080
 20
5.584040
  0
VERTEX
  8
0
 62
     0
  6
CONTINUOUS
 10
3.867160
 20
5.584040
  0
SEQEND
  8
0
  0
POLYLINE
  8
0
 62
     0
  6
CONTINUOUS
 66
     1
 40
0.002200
 41
0.002200
  0
VERTEX
  8
0
 62
     0
  6
CONTINUOUS
 10
3.867160
 20
5.584040
  0
VERTEX
  8
0
 62
     0
  6
CONTINUOUS
 10
3.851320
 20
5.580960
  0
SEQEND
  8
0
  0
POLYLINE
  8
0
 62
     0
  6
CONTINUOUS
 66
     1
 40
0.002200
 41
0.002200
  0
VERTEX
  8
0
 62
     0
  6
CONTINUOUS
 10
3.851320
 20
5.580960
  0
VERTEX
  8
0
 62
     0
  6
CONTINUOUS
 10
3.834160
 20
5.574800
  0
SEQEND
  8
0
  0
POLYLINE
  8
0
 62
     0
  6
CONTINUOUS
 66
     1
 40
0.002200
 41
0.002200
  0
VERTEX
  8
0
 62
     0
  6
CONTINUOUS
 10
3.834160
 20
5.574800
  0
VERTEX
  8
0
 62
     0
  6
CONTINUOUS
 10
3.816560
 20
5.566880
  0
SEQEND
  8
0
  0
POLYLINE
  8
0
 62
     0
  6
CONTINUOUS
 66
     1
 40
0.002200
 41
0.002200
  0
VERTEX
  8
0
 62
     0
  6
CONTINUOUS
 10
3.816560
 20
5.566880
  0
VERTEX
  8
0
 62
     0
  6
CONTINUOUS
 10
3.800720
 20
5.557200
  0
SEQEND
  8
0
  0
POLYLINE
  8
0
 62
     0
  6
CONTINUOUS
 66
     1
 40
0.002200
 41
0.002200
  0
VERTEX
  8
0
 62
     0
  6
CONTINUOUS
 10
3.800720
 20
5.557200
  0
VERTEX
  8
0
 62
     0
  6
CONTINUOUS
 10
3.785320
 20
5.546200
  0
SEQEND
  8
0
  0
POLYLINE
  8
0
 62
     0
  6
CONTINUOUS
 66
     1
 40
0.002200
 41
0.002200
  0
VERTEX
  8
0
 62
     0
  6
CONTINUOUS
 10
3.785320
 20
5.546200
  0
VERTEX
  8
0
 62
     0
  6
CONTINUOUS
 10
3.772560
 20
5.533440
  0
SEQEND
  8
0
  0
POLYLINE
  8
0
 62
     0
  6
CONTINUOUS
 66
     1
 40
0.002200
 41
0.002200
  0
VERTEX
  8
0
 62
     0
  6
CONTINUOUS
 10
3.772560
 20
5.533440
  0
VERTEX
  8
0
 62
     0
  6
CONTINUOUS
 10
3.762880
 20
5.519360
  0
SEQEND
  8
0
  0
POLYLINE
  8
0
 62
     0
  6
CONTINUOUS
 66
     1
 40
0.002200
 41
0.002200
  0
VERTEX
  8
0
 62
     0
  6
CONTINUOUS
 10
3.762880
 20
5.519360
  0
VERTEX
  8
0
 62
     0
  6
CONTINUOUS
 10
3.753640
 20
5.503520
  0
SEQEND
  8
0
  0
POLYLINE
  8
0
 62
     0
  6
CONTINUOUS
 66
     1
 40
0.002200
 41
0.002200
  0
VERTEX
  8
0
 62
     0
  6
CONTINUOUS
 10
3.753640
 20
5.503520
  0
VERTEX
  8
0
 62
     0
  6
CONTINUOUS
 10
3.745720
 20
5.487680
  0
SEQEND
  8
0
  0
POLYLINE
  8
0
 62
     0
  6
CONTINUOUS
 66
     1
 40
0.002200
 41
0.002200
  0
VERTEX
  8
0
 62
     0
  6
CONTINUOUS
 10
3.745720
 20
5.487680
  0
VERTEX
  8
0
 62
     0
  6
CONTINUOUS
 10
3.739120
 20
5.468760
  0
SEQEND
  8
0
  0
POLYLINE
  8
0
 62
     0
  6
CONTINUOUS
 66
     1
 40
0.002200
 41
0.002200
  0
VERTEX
  8
0
 62
     0
  6
CONTINUOUS
 10
3.739120
 20
5.468760
  0
VERTEX
  8
0
 62
     0
  6
CONTINUOUS
 10
3.736040
 20
5.451600
  0
SEQEND
  8
0
  0
POLYLINE
  8
0
 62
     0
  6
CONTINUOUS
 66
     1
 40
0.002200
 41
0.002200
  0
VERTEX
  8
0
 62
     0
  6
CONTINUOUS
 10
3.747040
 20
5.503520
  0
VERTEX
  8
0
 62
     0
  6
CONTINUOUS
 10
3.720200
 20
5.514520
  0
SEQEND
  8
0
  0
POLYLINE
  8
0
 62
     0
  6
CONTINUOUS
 66
     1
 40
0.002200
 41
0.002200
  0
VERTEX
  8
0
 62
     0
  6
CONTINUOUS
 10
3.780480
 20
5.541360
  0
VERTEX
  8
0
 62
     0
  6
CONTINUOUS
 10
3.758480
 20
5.563360
  0
SEQEND
  8
0
  0
POLYLINE
  8
0
 62
     0
  6
CONTINUOUS
 66
     1
 40
0.002200
 41
0.002200
  0
VERTEX
  8
0
 62
     0
  6
CONTINUOUS
 10
3.826240
 20
5.573040
  0
VERTEX
  8
0
 62
     0
  6
CONTINUOUS
 10
3.813480
 20
5.601640
  0
SEQEND
  8
0
  0
POLYLINE
  8
0
 62
     0
  6
CONTINUOUS
 66
     1
 40
0.002200
 41
0.002200
  0
VERTEX
  8
0
 62
     0
  6
CONTINUOUS
 10
3.886080
 20
5.595040
  0
VERTEX
  8
0
 62
     0
  6
CONTINUOUS
 10
3.886080
 20
5.624960
  0
SEQEND
  8
0
  0
POLYLINE
  8
0
 62
     0
  6
CONTINUOUS
 66
     1
 40
0.002200
 41
0.002200
  0
VERTEX
  8
0
 62
     0
  6
CONTINUOUS
 10
3.958680
 20
5.610880
  0
VERTEX
  8
0
 62
     0
  6
CONTINUOUS
 10
3.946360
 20
5.582720
  0
SEQEND
  8
0
  0
POLYLINE
  8
0
 62
     0
  6
CONTINUOUS
 66
     1
 40
0.002200
 41
0.002200
  0
VERTEX
  8
0
 62
     0
  6
CONTINUOUS
 10
4.001360
 20
5.574800
  0
VERTEX
  8
0
 62
     0
  6
CONTINUOUS
 10
4.333120
 20
5.307720
  0
SEQEND
  8
0
  0
POLYLINE
  8
0
 62
     0
  6
CONTINUOUS
 66
     1
 40
0.002200
 41
0.002200
  0
VERTEX
  8
0
 62
     0
  6
CONTINUOUS
 10
4.333120
 20
5.307720
  0
VERTEX
  8
0
 62
     0
  6
CONTINUOUS
 10
4.333120
 20
5.304640
  0
SEQEND
  8
0
  0
POLYLINE
  8
0
 62
     0
  6
CONTINUOUS
 66
     1
 40
0.002200
 41
0.002200
  0
VERTEX
  8
0
 62
     0
  6
CONTINUOUS
 10
4.333120
 20
5.304640
  0
VERTEX
  8
0
 62
     0
  6
CONTINUOUS
 10
4.326960
 20
5.309480
  0
SEQEND
  8
0
  0
POLYLINE
  8
0
 62
     0
  6
CONTINUOUS
 66
     1
 40
0.002200
 41
0.002200
  0
VERTEX
  8
0
 62
     0
  6
CONTINUOUS
 10
4.326960
 20
5.309480
  0
VERTEX
  8
0
 62
     0
  6
CONTINUOUS
 10
4.320800
 20
5.313880
  0
SEQEND
  8
0
  0
POLYLINE
  8
0
 62
     0
  6
CONTINUOUS
 66
     1
 40
0.002200
 41
0.002200
  0
VERTEX
  8
0
 62
     0
  6
CONTINUOUS
 10
4.320800
 20
5.313880
  0
VERTEX
  8
0
 62
     0
  6
CONTINUOUS
 10
4.311120
 20
5.313880
  0
SEQEND
  8
0
  0
POLYLINE
  8
0
 62
     0
  6
CONTINUOUS
 66
     1
 40
0.002200
 41
0.002200
  0
VERTEX
  8
0
 62
     0
  6
CONTINUOUS
 10
4.311120
 20
5.313880
  0
VERTEX
  8
0
 62
     0
  6
CONTINUOUS
 10
4.303200
 20
5.313880
  0
SEQEND
  8
0
  0
POLYLINE
  8
0
 62
     0
  6
CONTINUOUS
 66
     1
 40
0.002200
 41
0.002200
  0
VERTEX
  8
0
 62
     0
  6
CONTINUOUS
 10
4.303200
 20
5.313880
  0
VERTEX
  8
0
 62
     0
  6
CONTINUOUS
 10
4.295280
 20
5.309480
  0
SEQEND
  8
0
  0
POLYLINE
  8
0
 62
     0
  6
CONTINUOUS
 66
     1
 40
0.002200
 41
0.002200
  0
VERTEX
  8
0
 62
     0
  6
CONTINUOUS
 10
4.295280
 20
5.309480
  0
VERTEX
  8
0
 62
     0
  6
CONTINUOUS
 10
4.289120
 20
5.304640
  0
SEQEND
  8
0
  0
POLYLINE
  8
0
 62
     0
  6
CONTINUOUS
 66
     1
 40
0.002200
 41
0.002200
  0
VERTEX
  8
0
 62
     0
  6
CONTINUOUS
 10
4.289120
 20
5.304640
  0
VERTEX
  8
0
 62
     0
  6
CONTINUOUS
 10
4.284280
 20
5.298040
  0
SEQEND
  8
0
  0
POLYLINE
  8
0
 62
     0
  6
CONTINUOUS
 66
     1
 40
0.002200
 41
0.002200
  0
VERTEX
  8
0
 62
     0
  6
CONTINUOUS
 10
4.284280
 20
5.298040
  0
VERTEX
  8
0
 62
     0
  6
CONTINUOUS
 10
4.281200
 20
5.290120
  0
SEQEND
  8
0
  0
POLYLINE
  8
0
 62
     0
  6
CONTINUOUS
 66
     1
 40
0.002200
 41
0.002200
  0
VERTEX
  8
0
 62
     0
  6
CONTINUOUS
 10
4.281200
 20
5.290120
  0
VERTEX
  8
0
 62
     0
  6
CONTINUOUS
 10
4.278120
 20
5.280880
  0
SEQEND
  8
0
  0
POLYLINE
  8
0
 62
     0
  6
CONTINUOUS
 66
     1
 40
0.002200
 41
0.002200
  0
VERTEX
  8
0
 62
     0
  6
CONTINUOUS
 10
4.278120
 20
5.280880
  0
VERTEX
  8
0
 62
     0
  6
CONTINUOUS
 10
4.281200
 20
5.272960
  0
SEQEND
  8
0
  0
POLYLINE
  8
0
 62
     0
  6
CONTINUOUS
 66
     1
 40
0.002200
 41
0.002200
  0
VERTEX
  8
0
 62
     0
  6
CONTINUOUS
 10
4.281200
 20
5.272960
  0
VERTEX
  8
0
 62
     0
  6
CONTINUOUS
 10
4.284280
 20
5.265040
  0
SEQEND
  8
0
  0
POLYLINE
  8
0
 62
     0
  6
CONTINUOUS
 66
     1
 40
0.002200
 41
0.002200
  0
VERTEX
  8
0
 62
     0
  6
CONTINUOUS
 10
4.284280
 20
5.265040
  0
VERTEX
  8
0
 62
     0
  6
CONTINUOUS
 10
4.289120
 20
5.260200
  0
SEQEND
  8
0
  0
POLYLINE
  8
0
 62
     0
  6
CONTINUOUS
 66
     1
 40
0.002200
 41
0.002200
  0
VERTEX
  8
0
 62
     0
  6
CONTINUOUS
 10
4.289120
 20
5.260200
  0
VERTEX
  8
0
 62
     0
  6
CONTINUOUS
 10
4.295280
 20
5.254040
  0
SEQEND
  8
0
  0
POLYLINE
  8
0
 62
     0
  6
CONTINUOUS
 66
     1
 40
0.002200
 41
0.002200
  0
VERTEX
  8
0
 62
     0
  6
CONTINUOUS
 10
4.295280
 20
5.254040
  0
VERTEX
  8
0
 62
     0
  6
CONTINUOUS
 10
4.303200
 20
5.250960
  0
SEQEND
  8
0
  0
POLYLINE
  8
0
 62
     0
  6
CONTINUOUS
 66
     1
 40
0.002200
 41
0.002200
  0
VERTEX
  8
0
 62
     0
  6
CONTINUOUS
 10
4.303200
 20
5.250960
  0
VERTEX
  8
0
 62
     0
  6
CONTINUOUS
 10
4.311120
 20
5.249200
  0
SEQEND
  8
0
  0
POLYLINE
  8
0
 62
     0
  6
CONTINUOUS
 66
     1
 40
0.002200
 41
0.002200
  0
VERTEX
  8
0
 62
     0
  6
CONTINUOUS
 10
4.311120
 20
5.249200
  0
VERTEX
  8
0
 62
     0
  6
CONTINUOUS
 10
4.320800
 20
5.250960
  0
SEQEND
  8
0
  0
POLYLINE
  8
0
 62
     0
  6
CONTINUOUS
 66
     1
 40
0.002200
 41
0.002200
  0
VERTEX
  8
0
 62
     0
  6
CONTINUOUS
 10
4.320800
 20
5.250960
  0
VERTEX
  8
0
 62
     0
  6
CONTINUOUS
 10
4.326960
 20
5.254040
  0
SEQEND
  8
0
  0
POLYLINE
  8
0
 62
     0
  6
CONTINUOUS
 66
     1
 40
0.002200
 41
0.002200
  0
VERTEX
  8
0
 62
     0
  6
CONTINUOUS
 10
4.326960
 20
5.254040
  0
VERTEX
  8
0
 62
     0
  6
CONTINUOUS
 10
4.333120
 20
5.260200
  0
SEQEND
  8
0
  0
POLYLINE
  8
0
 62
     0
  6
CONTINUOUS
 66
     1
 40
0.002200
 41
0.002200
  0
VERTEX
  8
0
 62
     0
  6
CONTINUOUS
 10
4.333120
 20
5.260200
  0
VERTEX
  8
0
 62
     0
  6
CONTINUOUS
 10
4.341040
 20
5.265040
  0
SEQEND
  8
0
  0
POLYLINE
  8
0
 62
     0
  6
CONTINUOUS
 66
     1
 40
0.002200
 41
0.002200
  0
VERTEX
  8
0
 62
     0
  6
CONTINUOUS
 10
4.341040
 20
5.265040
  0
VERTEX
  8
0
 62
     0
  6
CONTINUOUS
 10
4.342800
 20
5.272960
  0
SEQEND
  8
0
  0
POLYLINE
  8
0
 62
     0
  6
CONTINUOUS
 66
     1
 40
0.002200
 41
0.002200
  0
VERTEX
  8
0
 62
     0
  6
CONTINUOUS
 10
4.342800
 20
5.272960
  0
VERTEX
  8
0
 62
     0
  6
CONTINUOUS
 10
4.342800
 20
5.280880
  0
SEQEND
  8
0
  0
POLYLINE
  8
0
 62
     0
  6
CONTINUOUS
 66
     1
 40
0.002200
 41
0.002200
  0
VERTEX
  8
0
 62
     0
  6
CONTINUOUS
 10
4.342800
 20
5.280880
  0
VERTEX
  8
0
 62
     0
  6
CONTINUOUS
 10
4.342800
 20
5.290120
  0
SEQEND
  8
0
  0
POLYLINE
  8
0
 62
     0
  6
CONTINUOUS
 66
     1
 40
0.002200
 41
0.002200
  0
VERTEX
  8
0
 62
     0
  6
CONTINUOUS
 10
4.342800
 20
5.290120
  0
VERTEX
  8
0
 62
     0
  6
CONTINUOUS
 10
4.341040
 20
5.298040
  0
SEQEND
  8
0
  0
POLYLINE
  8
0
 62
     0
  6
CONTINUOUS
 66
     1
 40
0.002200
 41
0.002200
  0
VERTEX
  8
0
 62
     0
  6
CONTINUOUS
 10
4.341040
 20
5.298040
  0
VERTEX
  8
0
 62
     0
  6
CONTINUOUS
 10
4.333120
 20
5.304640
  0
SEQEND
  8
0
  0
POLYLINE
  8
0
 62
     0
  6
CONTINUOUS
 66
     1
 40
0.002200
 41
0.002200
  0
VERTEX
  8
0
 62
     0
  6
CONTINUOUS
 10
4.311120
 20
5.249200
  0
VERTEX
  8
0
 62
     0
  6
CONTINUOUS
 10
3.886080
 20
5.252280
  0
SEQEND
  8
0
  0
POLYLINE
  8
0
 62
     0
  6
CONTINUOUS
 66
     1
 40
0.002200
 41
0.002200
  0
VERTEX
  8
0
 62
     0
  6
CONTINUOUS
 10
3.886080
 20
5.261960
  0
VERTEX
  8
0
 62
     0
  6
CONTINUOUS
 10
3.886080
 20
5.291880
  0
SEQEND
  8
0
  0
POLYLINE
  8
0
 62
     0
  6
CONTINUOUS
 66
     1
 40
0.002200
 41
0.002200
  0
VERTEX
  8
0
 62
     0
  6
CONTINUOUS
 10
3.936680
 20
5.301560
  0
VERTEX
  8
0
 62
     0
  6
CONTINUOUS
 10
3.949440
 20
5.272960
  0
SEQEND
  8
0
  0
POLYLINE
  8
0
 62
     0
  6
CONTINUOUS
 66
     1
 40
0.002200
 41
0.002200
  0
VERTEX
  8
0
 62
     0
  6
CONTINUOUS
 10
4.015880
 20
5.315640
  0
VERTEX
  8
0
 62
     0
  6
CONTINUOUS
 10
3.993440
 20
5.335880
  0
SEQEND
  8
0
  0
POLYLINE
  8
0
 62
     0
  6
CONTINUOUS
 66
     1
 40
0.002200
 41
0.002200
  0
VERTEX
  8
0
 62
     0
  6
CONTINUOUS
 10
4.025120
 20
5.382080
  0
VERTEX
  8
0
 62
     0
  6
CONTINUOUS
 10
4.053720
 20
5.369320
  0
SEQEND
  8
0
  0
POLYLINE
  8
0
 62
     0
  6
CONTINUOUS
 66
     1
 40
0.002200
 41
0.002200
  0
VERTEX
  8
0
 62
     0
  6
CONTINUOUS
 10
4.069560
 20
5.434000
  0
VERTEX
  8
0
 62
     0
  6
CONTINUOUS
 10
4.067800
 20
5.452920
  0
SEQEND
  8
0
  0
POLYLINE
  8
0
 62
     0
  6
CONTINUOUS
 66
     1
 40
0.002200
 41
0.002200
  0
VERTEX
  8
0
 62
     0
  6
CONTINUOUS
 10
4.067800
 20
5.452920
  0
VERTEX
  8
0
 62
     0
  6
CONTINUOUS
 10
4.062960
 20
5.474920
  0
SEQEND
  8
0
  0
POLYLINE
  8
0
 62
     0
  6
CONTINUOUS
 66
     1
 40
0.002200
 41
0.002200
  0
VERTEX
  8
0
 62
     0
  6
CONTINUOUS
 10
4.062960
 20
5.474920
  0
VERTEX
  8
0
 62
     0
  6
CONTINUOUS
 10
4.058560
 20
5.494280
  0
SEQEND
  8
0
  0
POLYLINE
  8
0
 62
     0
  6
CONTINUOUS
 66
     1
 40
0.002200
 41
0.002200
  0
VERTEX
  8
0
 62
     0
  6
CONTINUOUS
 10
4.058560
 20
5.494280
  0
VERTEX
  8
0
 62
     0
  6
CONTINUOUS
 10
4.050640
 20
5.513200
  0
SEQEND
  8
0
  0
POLYLINE
  8
0
 62
     0
  6
CONTINUOUS
 66
     1
 40
0.002200
 41
0.002200
  0
VERTEX
  8
0
 62
     0
  6
CONTINUOUS
 10
4.050640
 20
5.513200
  0
VERTEX
  8
0
 62
     0
  6
CONTINUOUS
 10
4.040960
 20
5.530360
  0
SEQEND
  8
0
  0
POLYLINE
  8
0
 62
     0
  6
CONTINUOUS
 66
     1
 40
0.002200
 41
0.002200
  0
VERTEX
  8
0
 62
     0
  6
CONTINUOUS
 10
4.040960
 20
5.530360
  0
VERTEX
  8
0
 62
     0
  6
CONTINUOUS
 10
4.029960
 20
5.546200
  0
SEQEND
  8
0
  0
POLYLINE
  8
0
 62
     0
  6
CONTINUOUS
 66
     1
 40
0.002200
 41
0.002200
  0
VERTEX
  8
0
 62
     0
  6
CONTINUOUS
 10
4.029960
 20
5.546200
  0
VERTEX
  8
0
 62
     0
  6
CONTINUOUS
 10
4.015880
 20
5.563360
  0
SEQEND
  8
0
  0
POLYLINE
  8
0
 62
     0
  6
CONTINUOUS
 66
     1
 40
0.002200
 41
0.002200
  0
VERTEX
  8
0
 62
     0
  6
CONTINUOUS
 10
4.015880
 20
5.563360
  0
VERTEX
  8
0
 62
     0
  6
CONTINUOUS
 10
4.000040
 20
5.574800
  0
SEQEND
  8
0
  0
POLYLINE
  8
0
 62
     0
  6
CONTINUOUS
 66
     1
 40
0.002200
 41
0.002200
  0
VERTEX
  8
0
 62
     0
  6
CONTINUOUS
 10
4.000040
 20
5.574800
  0
VERTEX
  8
0
 62
     0
  6
CONTINUOUS
 10
3.982440
 20
5.587120
  0
SEQEND
  8
0
  0
POLYLINE
  8
0
 62
     0
  6
CONTINUOUS
 66
     1
 40
0.002200
 41
0.002200
  0
VERTEX
  8
0
 62
     0
  6
CONTINUOUS
 10
3.982440
 20
5.587120
  0
VERTEX
  8
0
 62
     0
  6
CONTINUOUS
 10
3.965280
 20
5.596800
  0
SEQEND
  8
0
  0
POLYLINE
  8
0
 62
     0
  6
CONTINUOUS
 66
     1
 40
0.002200
 41
0.002200
  0
VERTEX
  8
0
 62
     0
  6
CONTINUOUS
 10
3.965280
 20
5.596800
  0
VERTEX
  8
0
 62
     0
  6
CONTINUOUS
 10
3.946360
 20
5.604720
  0
SEQEND
  8
0
  0
POLYLINE
  8
0
 62
     0
  6
CONTINUOUS
 66
     1
 40
0.002200
 41
0.002200
  0
VERTEX
  8
0
 62
     0
  6
CONTINUOUS
 10
3.946360
 20
5.604720
  0
VERTEX
  8
0
 62
     0
  6
CONTINUOUS
 10
3.927440
 20
5.610880
  0
SEQEND
  8
0
  0
POLYLINE
  8
0
 62
     0
  6
CONTINUOUS
 66
     1
 40
0.002200
 41
0.002200
  0
VERTEX
  8
0
 62
     0
  6
CONTINUOUS
 10
3.927440
 20
5.610880
  0
VERTEX
  8
0
 62
     0
  6
CONTINUOUS
 10
3.906760
 20
5.613960
  0
SEQEND
  8
0
  0
POLYLINE
  8
0
 62
     0
  6
CONTINUOUS
 66
     1
 40
0.002200
 41
0.002200
  0
VERTEX
  8
0
 62
     0
  6
CONTINUOUS
 10
3.906760
 20
5.613960
  0
VERTEX
  8
0
 62
     0
  6
CONTINUOUS
 10
3.886080
 20
5.613960
  0
SEQEND
  8
0
  0
POLYLINE
  8
0
 62
     0
  6
CONTINUOUS
 66
     1
 40
0.002200
 41
0.002200
  0
VERTEX
  8
0
 62
     0
  6
CONTINUOUS
 10
3.886080
 20
5.613960
  0
VERTEX
  8
0
 62
     0
  6
CONTINUOUS
 10
3.867160
 20
5.613960
  0
SEQEND
  8
0
  0
POLYLINE
  8
0
 62
     0
  6
CONTINUOUS
 66
     1
 40
0.002200
 41
0.002200
  0
VERTEX
  8
0
 62
     0
  6
CONTINUOUS
 10
3.867160
 20
5.613960
  0
VERTEX
  8
0
 62
     0
  6
CONTINUOUS
 10
3.845160
 20
5.610880
  0
SEQEND
  8
0
  0
POLYLINE
  8
0
 62
     0
  6
CONTINUOUS
 66
     1
 40
0.002200
 41
0.002200
  0
VERTEX
  8
0
 62
     0
  6
CONTINUOUS
 10
3.845160
 20
5.610880
  0
VERTEX
  8
0
 62
     0
  6
CONTINUOUS
 10
3.826240
 20
5.604720
  0
SEQEND
  8
0
  0
POLYLINE
  8
0
 62
     0
  6
CONTINUOUS
 66
     1
 40
0.002200
 41
0.002200
  0
VERTEX
  8
0
 62
     0
  6
CONTINUOUS
 10
3.826240
 20
5.604720
  0
VERTEX
  8
0
 62
     0
  6
CONTINUOUS
 10
3.807320
 20
5.596800
  0
SEQEND
  8
0
  0
POLYLINE
  8
0
 62
     0
  6
CONTINUOUS
 66
     1
 40
0.002200
 41
0.002200
  0
VERTEX
  8
0
 62
     0
  6
CONTINUOUS
 10
3.807320
 20
5.596800
  0
VERTEX
  8
0
 62
     0
  6
CONTINUOUS
 10
3.789720
 20
5.587120
  0
SEQEND
  8
0
  0
POLYLINE
  8
0
 62
     0
  6
CONTINUOUS
 66
     1
 40
0.002200
 41
0.002200
  0
VERTEX
  8
0
 62
     0
  6
CONTINUOUS
 10
3.789720
 20
5.587120
  0
VERTEX
  8
0
 62
     0
  6
CONTINUOUS
 10
3.773880
 20
5.574800
  0
SEQEND
  8
0
  0
POLYLINE
  8
0
 62
     0
  6
CONTINUOUS
 66
     1
 40
0.002200
 41
0.002200
  0
VERTEX
  8
0
 62
     0
  6
CONTINUOUS
 10
3.773880
 20
5.574800
  0
VERTEX
  8
0
 62
     0
  6
CONTINUOUS
 10
3.758480
 20
5.563360
  0
SEQEND
  8
0
  0
POLYLINE
  8
0
 62
     0
  6
CONTINUOUS
 66
     1
 40
0.002200
 41
0.002200
  0
VERTEX
  8
0
 62
     0
  6
CONTINUOUS
 10
3.758480
 20
5.563360
  0
VERTEX
  8
0
 62
     0
  6
CONTINUOUS
 10
3.745720
 20
5.546200
  0
SEQEND
  8
0
  0
POLYLINE
  8
0
 62
     0
  6
CONTINUOUS
 66
     1
 40
0.002200
 41
0.002200
  0
VERTEX
  8
0
 62
     0
  6
CONTINUOUS
 10
3.745720
 20
5.546200
  0
VERTEX
  8
0
 62
     0
  6
CONTINUOUS
 10
3.734720
 20
5.530360
  0
SEQEND
  8
0
  0
POLYLINE
  8
0
 62
     0
  6
CONTINUOUS
 66
     1
 40
0.002200
 41
0.002200
  0
VERTEX
  8
0
 62
     0
  6
CONTINUOUS
 10
3.734720
 20
5.530360
  0
VERTEX
  8
0
 62
     0
  6
CONTINUOUS
 10
3.723720
 20
5.513200
  0
SEQEND
  8
0
  0
POLYLINE
  8
0
 62
     0
  6
CONTINUOUS
 66
     1
 40
0.002200
 41
0.002200
  0
VERTEX
  8
0
 62
     0
  6
CONTINUOUS
 10
3.723720
 20
5.513200
  0
VERTEX
  8
0
 62
     0
  6
CONTINUOUS
 10
3.715800
 20
5.494280
  0
SEQEND
  8
0
  0
POLYLINE
  8
0
 62
     0
  6
CONTINUOUS
 66
     1
 40
0.002200
 41
0.002200
  0
VERTEX
  8
0
 62
     0
  6
CONTINUOUS
 10
3.715800
 20
5.494280
  0
VERTEX
  8
0
 62
     0
  6
CONTINUOUS
 10
3.709200
 20
5.474920
  0
SEQEND
  8
0
  0
POLYLINE
  8
0
 62
     0
  6
CONTINUOUS
 66
     1
 40
0.002200
 41
0.002200
  0
VERTEX
  8
0
 62
     0
  6
CONTINUOUS
 10
3.709200
 20
5.474920
  0
VERTEX
  8
0
 62
     0
  6
CONTINUOUS
 10
3.706120
 20
5.452920
  0
SEQEND
  8
0
  0
POLYLINE
  8
0
 62
     0
  6
CONTINUOUS
 66
     1
 40
0.002200
 41
0.002200
  0
VERTEX
  8
0
 62
     0
  6
CONTINUOUS
 10
3.706120
 20
5.452920
  0
VERTEX
  8
0
 62
     0
  6
CONTINUOUS
 10
3.706120
 20
5.434000
  0
SEQEND
  8
0
  0
POLYLINE
  8
0
 62
     0
  6
CONTINUOUS
 66
     1
 40
0.002200
 41
0.002200
  0
VERTEX
  8
0
 62
     0
  6
CONTINUOUS
 10
3.706120
 20
5.434000
  0
VERTEX
  8
0
 62
     0
  6
CONTINUOUS
 10
3.706120
 20
5.413320
  0
SEQEND
  8
0
  0
POLYLINE
  8
0
 62
     0
  6
CONTINUOUS
 66
     1
 40
0.002200
 41
0.002200
  0
VERTEX
  8
0
 62
     0
  6
CONTINUOUS
 10
3.706120
 20
5.413320
  0
VERTEX
  8
0
 62
     0
  6
CONTINUOUS
 10
3.709200
 20
5.393080
  0
SEQEND
  8
0
  0
POLYLINE
  8
0
 62
     0
  6
CONTINUOUS
 66
     1
 40
0.002200
 41
0.002200
  0
VERTEX
  8
0
 62
     0
  6
CONTINUOUS
 10
3.709200
 20
5.393080
  0
VERTEX
  8
0
 62
     0
  6
CONTINUOUS
 10
3.715800
 20
5.374160
  0
SEQEND
  8
0
  0
POLYLINE
  8
0
 62
     0
  6
CONTINUOUS
 66
     1
 40
0.002200
 41
0.002200
  0
VERTEX
  8
0
 62
     0
  6
CONTINUOUS
 10
3.715800
 20
5.374160
  0
VERTEX
  8
0
 62
     0
  6
CONTINUOUS
 10
3.723720
 20
5.355240
  0
SEQEND
  8
0
  0
POLYLINE
  8
0
 62
     0
  6
CONTINUOUS
 66
     1
 40
0.002200
 41
0.002200
  0
VERTEX
  8
0
 62
     0
  6
CONTINUOUS
 10
3.723720
 20
5.355240
  0
VERTEX
  8
0
 62
     0
  6
CONTINUOUS
 10
3.734720
 20
5.335880
  0
SEQEND
  8
0
  0
POLYLINE
  8
0
 62
     0
  6
CONTINUOUS
 66
     1
 40
0.002200
 41
0.002200
  0
VERTEX
  8
0
 62
     0
  6
CONTINUOUS
 10
3.734720
 20
5.335880
  0
VERTEX
  8
0
 62
     0
  6
CONTINUOUS
 10
3.745720
 20
5.320480
  0
SEQEND
  8
0
  0
POLYLINE
  8
0
 62
     0
  6
CONTINUOUS
 66
     1
 40
0.002200
 41
0.002200
  0
VERTEX
  8
0
 62
     0
  6
CONTINUOUS
 10
3.745720
 20
5.320480
  0
VERTEX
  8
0
 62
     0
  6
CONTINUOUS
 10
3.758480
 20
5.304640
  0
SEQEND
  8
0
  0
POLYLINE
  8
0
 62
     0
  6
CONTINUOUS
 66
     1
 40
0.002200
 41
0.002200
  0
VERTEX
  8
0
 62
     0
  6
CONTINUOUS
 10
3.758480
 20
5.304640
  0
VERTEX
  8
0
 62
     0
  6
CONTINUOUS
 10
3.773880
 20
5.291880
  0
SEQEND
  8
0
  0
POLYLINE
  8
0
 62
     0
  6
CONTINUOUS
 66
     1
 40
0.002200
 41
0.002200
  0
VERTEX
  8
0
 62
     0
  6
CONTINUOUS
 10
3.773880
 20
5.291880
  0
VERTEX
  8
0
 62
     0
  6
CONTINUOUS
 10
3.789720
 20
5.279120
  0
SEQEND
  8
0
  0
POLYLINE
  8
0
 62
     0
  6
CONTINUOUS
 66
     1
 40
0.002200
 41
0.002200
  0
VERTEX
  8
0
 62
     0
  6
CONTINUOUS
 10
3.789720
 20
5.279120
  0
VERTEX
  8
0
 62
     0
  6
CONTINUOUS
 10
3.807320
 20
5.269880
  0
SEQEND
  8
0
  0
POLYLINE
  8
0
 62
     0
  6
CONTINUOUS
 66
     1
 40
0.002200
 41
0.002200
  0
VERTEX
  8
0
 62
     0
  6
CONTINUOUS
 10
3.807320
 20
5.269880
  0
VERTEX
  8
0
 62
     0
  6
CONTINUOUS
 10
3.826240
 20
5.261960
  0
SEQEND
  8
0
  0
POLYLINE
  8
0
 62
     0
  6
CONTINUOUS
 66
     1
 40
0.002200
 41
0.002200
  0
VERTEX
  8
0
 62
     0
  6
CONTINUOUS
 10
3.826240
 20
5.261960
  0
VERTEX
  8
0
 62
     0
  6
CONTINUOUS
 10
3.845160
 20
5.257120
  0
SEQEND
  8
0
  0
POLYLINE
  8
0
 62
     0
  6
CONTINUOUS
 66
     1
 40
0.002200
 41
0.002200
  0
VERTEX
  8
0
 62
     0
  6
CONTINUOUS
 10
3.845160
 20
5.257120
  0
VERTEX
  8
0
 62
     0
  6
CONTINUOUS
 10
3.867160
 20
5.254040
  0
SEQEND
  8
0
  0
POLYLINE
  8
0
 62
     0
  6
CONTINUOUS
 66
     1
 40
0.002200
 41
0.002200
  0
VERTEX
  8
0
 62
     0
  6
CONTINUOUS
 10
3.867160
 20
5.254040
  0
VERTEX
  8
0
 62
     0
  6
CONTINUOUS
 10
3.886080
 20
5.252280
  0
SEQEND
  8
0
  0
POLYLINE
  8
0
 62
     0
  6
CONTINUOUS
 66
     1
 40
0.002200
 41
0.002200
  0
VERTEX
  8
0
 62
     0
  6
CONTINUOUS
 10
3.886080
 20
5.252280
  0
VERTEX
  8
0
 62
     0
  6
CONTINUOUS
 10
3.906760
 20
5.254040
  0
SEQEND
  8
0
  0
POLYLINE
  8
0
 62
     0
  6
CONTINUOUS
 66
     1
 40
0.002200
 41
0.002200
  0
VERTEX
  8
0
 62
     0
  6
CONTINUOUS
 10
3.906760
 20
5.254040
  0
VERTEX
  8
0
 62
     0
  6
CONTINUOUS
 10
3.927440
 20
5.257120
  0
SEQEND
  8
0
  0
POLYLINE
  8
0
 62
     0
  6
CONTINUOUS
 66
     1
 40
0.002200
 41
0.002200
  0
VERTEX
  8
0
 62
     0
  6
CONTINUOUS
 10
3.927440
 20
5.257120
  0
VERTEX
  8
0
 62
     0
  6
CONTINUOUS
 10
3.946360
 20
5.261960
  0
SEQEND
  8
0
  0
POLYLINE
  8
0
 62
     0
  6
CONTINUOUS
 66
     1
 40
0.002200
 41
0.002200
  0
VERTEX
  8
0
 62
     0
  6
CONTINUOUS
 10
3.946360
 20
5.261960
  0
VERTEX
  8
0
 62
     0
  6
CONTINUOUS
 10
3.965280
 20
5.269880
  0
SEQEND
  8
0
  0
POLYLINE
  8
0
 62
     0
  6
CONTINUOUS
 66
     1
 40
0.002200
 41
0.002200
  0
VERTEX
  8
0
 62
     0
  6
CONTINUOUS
 10
3.965280
 20
5.269880
  0
VERTEX
  8
0
 62
     0
  6
CONTINUOUS
 10
3.982440
 20
5.279120
  0
SEQEND
  8
0
  0
POLYLINE
  8
0
 62
     0
  6
CONTINUOUS
 66
     1
 40
0.002200
 41
0.002200
  0
VERTEX
  8
0
 62
     0
  6
CONTINUOUS
 10
3.982440
 20
5.279120
  0
VERTEX
  8
0
 62
     0
  6
CONTINUOUS
 10
4.000040
 20
5.291880
  0
SEQEND
  8
0
  0
POLYLINE
  8
0
 62
     0
  6
CONTINUOUS
 66
     1
 40
0.002200
 41
0.002200
  0
VERTEX
  8
0
 62
     0
  6
CONTINUOUS
 10
4.000040
 20
5.291880
  0
VERTEX
  8
0
 62
     0
  6
CONTINUOUS
 10
4.015880
 20
5.304640
  0
SEQEND
  8
0
  0
POLYLINE
  8
0
 62
     0
  6
CONTINUOUS
 66
     1
 40
0.002200
 41
0.002200
  0
VERTEX
  8
0
 62
     0
  6
CONTINUOUS
 10
4.015880
 20
5.304640
  0
VERTEX
  8
0
 62
     0
  6
CONTINUOUS
 10
4.029960
 20
5.320480
  0
SEQEND
  8
0
  0
POLYLINE
  8
0
 62
     0
  6
CONTINUOUS
 66
     1
 40
0.002200
 41
0.002200
  0
VERTEX
  8
0
 62
     0
  6
CONTINUOUS
 10
4.029960
 20
5.320480
  0
VERTEX
  8
0
 62
     0
  6
CONTINUOUS
 10
4.040960
 20
5.335880
  0
SEQEND
  8
0
  0
POLYLINE
  8
0
 62
     0
  6
CONTINUOUS
 66
     1
 40
0.002200
 41
0.002200
  0
VERTEX
  8
0
 62
     0
  6
CONTINUOUS
 10
4.040960
 20
5.335880
  0
VERTEX
  8
0
 62
     0
  6
CONTINUOUS
 10
4.050640
 20
5.355240
  0
SEQEND
  8
0
  0
POLYLINE
  8
0
 62
     0
  6
CONTINUOUS
 66
     1
 40
0.002200
 41
0.002200
  0
VERTEX
  8
0
 62
     0
  6
CONTINUOUS
 10
4.050640
 20
5.355240
  0
VERTEX
  8
0
 62
     0
  6
CONTINUOUS
 10
4.058560
 20
5.374160
  0
SEQEND
  8
0
  0
POLYLINE
  8
0
 62
     0
  6
CONTINUOUS
 66
     1
 40
0.002200
 41
0.002200
  0
VERTEX
  8
0
 62
     0
  6
CONTINUOUS
 10
4.058560
 20
5.374160
  0
VERTEX
  8
0
 62
     0
  6
CONTINUOUS
 10
4.062960
 20
5.393080
  0
SEQEND
  8
0
  0
POLYLINE
  8
0
 62
     0
  6
CONTINUOUS
 66
     1
 40
0.002200
 41
0.002200
  0
VERTEX
  8
0
 62
     0
  6
CONTINUOUS
 10
4.062960
 20
5.393080
  0
VERTEX
  8
0
 62
     0
  6
CONTINUOUS
 10
4.067800
 20
5.413320
  0
SEQEND
  8
0
  0
POLYLINE
  8
0
 62
     0
  6
CONTINUOUS
 66
     1
 40
0.002200
 41
0.002200
  0
VERTEX
  8
0
 62
     0
  6
CONTINUOUS
 10
4.067800
 20
5.413320
  0
VERTEX
  8
0
 62
     0
  6
CONTINUOUS
 10
4.069560
 20
5.434000
  0
SEQEND
  8
0
  0
POLYLINE
  8
0
 62
     0
  6
CONTINUOUS
 66
     1
 40
0.002200
 41
0.002200
  0
VERTEX
  8
0
 62
     0
  6
CONTINUOUS
 10
4.069560
 20
5.443680
  0
VERTEX
  8
0
 62
     0
  6
CONTINUOUS
 10
4.039640
 20
5.443680
  0
SEQEND
  8
0
  0
POLYLINE
  8
0
 62
     0
  6
CONTINUOUS
 66
     1
 40
0.002200
 41
0.002200
  0
VERTEX
  8
0
 62
     0
  6
CONTINUOUS
 10
4.025120
 20
5.506600
  0
VERTEX
  8
0
 62
     0
  6
CONTINUOUS
 10
4.053720
 20
5.517600
  0
SEQEND
  8
0
  0
POLYLINE
  8
0
 62
     0
  6
CONTINUOUS
 66
     1
 40
0.002200
 41
0.002200
  0
VERTEX
  8
0
 62
     0
  6
CONTINUOUS
 10
4.023800
 20
5.565120
  0
VERTEX
  8
0
 62
     0
  6
CONTINUOUS
 10
4.000040
 20
5.544440
  0
SEQEND
  8
0
  0
POLYLINE
  8
0
 62
     0
  6
CONTINUOUS
 66
     1
 40
0.002200
 41
0.002200
  0
VERTEX
  8
0
 62
     0
  6
CONTINUOUS
 10
4.189680
 20
5.452920
  0
VERTEX
  8
0
 62
     0
  6
CONTINUOUS
 10
4.486680
 20
5.452920
  0
SEQEND
  8
0
  0
POLYLINE
  8
0
 62
     0
  6
CONTINUOUS
 66
     1
 40
0.002200
 41
0.002200
  0
VERTEX
  8
0
 62
     0
  6
CONTINUOUS
 10
4.486680
 20
5.452920
  0
VERTEX
  8
0
 62
     0
  6
CONTINUOUS
 10
4.486680
 20
5.735840
  0
SEQEND
  8
0
  0
POLYLINE
  8
0
 62
     0
  6
CONTINUOUS
 66
     1
 40
0.002200
 41
0.002200
  0
VERTEX
  8
0
 62
     0
  6
CONTINUOUS
 10
4.486680
 20
5.735840
  0
VERTEX
  8
0
 62
     0
  6
CONTINUOUS
 10
3.890920
 20
5.735840
  0
SEQEND
  8
0
  0
POLYLINE
  8
0
 62
     0
  6
CONTINUOUS
 66
     1
 40
0.002200
 41
0.002200
  0
VERTEX
  8
0
 62
     0
  6
CONTINUOUS
 10
3.890920
 20
5.735840
  0
VERTEX
  8
0
 62
     0
  6
CONTINUOUS
 10
3.886080
 20
5.735840
  0
SEQEND
  8
0
  0
POLYLINE
  8
0
 62
     0
  6
CONTINUOUS
 66
     1
 40
0.002200
 41
0.002200
  0
VERTEX
  8
0
 62
     0
  6
CONTINUOUS
 10
3.886080
 20
5.735840
  0
VERTEX
  8
0
 62
     0
  6
CONTINUOUS
 10
3.861000
 20
5.734080
  0
SEQEND
  8
0
  0
POLYLINE
  8
0
 62
     0
  6
CONTINUOUS
 66
     1
 40
0.002200
 41
0.002200
  0
VERTEX
  8
0
 62
     0
  6
CONTINUOUS
 10
3.861000
 20
5.734080
  0
VERTEX
  8
0
 62
     0
  6
CONTINUOUS
 10
3.834160
 20
5.731000
  0
SEQEND
  8
0
  0
POLYLINE
  8
0
 62
     0
  6
CONTINUOUS
 66
     1
 40
0.002200
 41
0.002200
  0
VERTEX
  8
0
 62
     0
  6
CONTINUOUS
 10
3.834160
 20
5.731000
  0
VERTEX
  8
0
 62
     0
  6
CONTINUOUS
 10
3.810400
 20
5.726160
  0
SEQEND
  8
0
  0
POLYLINE
  8
0
 62
     0
  6
CONTINUOUS
 66
     1
 40
0.002200
 41
0.002200
  0
VERTEX
  8
0
 62
     0
  6
CONTINUOUS
 10
3.810400
 20
5.726160
  0
VERTEX
  8
0
 62
     0
  6
CONTINUOUS
 10
3.783560
 20
5.718240
  0
SEQEND
  8
0
  0
POLYLINE
  8
0
 62
     0
  6
CONTINUOUS
 66
     1
 40
0.002200
 41
0.002200
  0
VERTEX
  8
0
 62
     0
  6
CONTINUOUS
 10
3.783560
 20
5.718240
  0
VERTEX
  8
0
 62
     0
  6
CONTINUOUS
 10
3.759800
 20
5.709000
  0
SEQEND
  8
0
  0
POLYLINE
  8
0
 62
     0
  6
CONTINUOUS
 66
     1
 40
0.002200
 41
0.002200
  0
VERTEX
  8
0
 62
     0
  6
CONTINUOUS
 10
3.759800
 20
5.709000
  0
VERTEX
  8
0
 62
     0
  6
CONTINUOUS
 10
3.736040
 20
5.696240
  0
SEQEND
  8
0
  0
POLYLINE
  8
0
 62
     0
  6
CONTINUOUS
 66
     1
 40
0.002200
 41
0.002200
  0
VERTEX
  8
0
 62
     0
  6
CONTINUOUS
 10
3.736040
 20
5.696240
  0
VERTEX
  8
0
 62
     0
  6
CONTINUOUS
 10
3.714040
 20
5.682160
  0
SEQEND
  8
0
  0
POLYLINE
  8
0
 62
     0
  6
CONTINUOUS
 66
     1
 40
0.002200
 41
0.002200
  0
VERTEX
  8
0
 62
     0
  6
CONTINUOUS
 10
3.714040
 20
5.682160
  0
VERTEX
  8
0
 62
     0
  6
CONTINUOUS
 10
3.692040
 20
5.666320
  0
SEQEND
  8
0
  0
POLYLINE
  8
0
 62
     0
  6
CONTINUOUS
 66
     1
 40
0.002200
 41
0.002200
  0
VERTEX
  8
0
 62
     0
  6
CONTINUOUS
 10
3.692040
 20
5.666320
  0
VERTEX
  8
0
 62
     0
  6
CONTINUOUS
 10
3.674440
 20
5.648720
  0
SEQEND
  8
0
  0
POLYLINE
  8
0
 62
     0
  6
CONTINUOUS
 66
     1
 40
0.002200
 41
0.002200
  0
VERTEX
  8
0
 62
     0
  6
CONTINUOUS
 10
3.674440
 20
5.648720
  0
VERTEX
  8
0
 62
     0
  6
CONTINUOUS
 10
3.655520
 20
5.629800
  0
SEQEND
  8
0
  0
POLYLINE
  8
0
 62
     0
  6
CONTINUOUS
 66
     1
 40
0.002200
 41
0.002200
  0
VERTEX
  8
0
 62
     0
  6
CONTINUOUS
 10
3.655520
 20
5.629800
  0
VERTEX
  8
0
 62
     0
  6
CONTINUOUS
 10
3.639680
 20
5.607800
  0
SEQEND
  8
0
  0
POLYLINE
  8
0
 62
     0
  6
CONTINUOUS
 66
     1
 40
0.002200
 41
0.002200
  0
VERTEX
  8
0
 62
     0
  6
CONTINUOUS
 10
3.639680
 20
5.607800
  0
VERTEX
  8
0
 62
     0
  6
CONTINUOUS
 10
3.625600
 20
5.585800
  0
SEQEND
  8
0
  0
POLYLINE
  8
0
 62
     0
  6
CONTINUOUS
 66
     1
 40
0.002200
 41
0.002200
  0
VERTEX
  8
0
 62
     0
  6
CONTINUOUS
 10
3.625600
 20
5.585800
  0
VERTEX
  8
0
 62
     0
  6
CONTINUOUS
 10
3.614600
 20
5.563360
  0
SEQEND
  8
0
  0
POLYLINE
  8
0
 62
     0
  6
CONTINUOUS
 66
     1
 40
0.002200
 41
0.002200
  0
VERTEX
  8
0
 62
     0
  6
CONTINUOUS
 10
3.614600
 20
5.563360
  0
VERTEX
  8
0
 62
     0
  6
CONTINUOUS
 10
3.601840
 20
5.538280
  0
SEQEND
  8
0
  0
POLYLINE
  8
0
 62
     0
  6
CONTINUOUS
 66
     1
 40
0.002200
 41
0.002200
  0
VERTEX
  8
0
 62
     0
  6
CONTINUOUS
 10
3.601840
 20
5.538280
  0
VERTEX
  8
0
 62
     0
  6
CONTINUOUS
 10
3.593920
 20
5.513200
  0
SEQEND
  8
0
  0
POLYLINE
  8
0
 62
     0
  6
CONTINUOUS
 66
     1
 40
0.002200
 41
0.002200
  0
VERTEX
  8
0
 62
     0
  6
CONTINUOUS
 10
3.593920
 20
5.513200
  0
VERTEX
  8
0
 62
     0
  6
CONTINUOUS
 10
3.589080
 20
5.487680
  0
SEQEND
  8
0
  0
POLYLINE
  8
0
 62
     0
  6
CONTINUOUS
 66
     1
 40
0.002200
 41
0.002200
  0
VERTEX
  8
0
 62
     0
  6
CONTINUOUS
 10
3.589080
 20
5.487680
  0
VERTEX
  8
0
 62
     0
  6
CONTINUOUS
 10
3.584680
 20
5.462600
  0
SEQEND
  8
0
  0
POLYLINE
  8
0
 62
     0
  6
CONTINUOUS
 66
     1
 40
0.002200
 41
0.002200
  0
VERTEX
  8
0
 62
     0
  6
CONTINUOUS
 10
3.584680
 20
5.462600
  0
VERTEX
  8
0
 62
     0
  6
CONTINUOUS
 10
3.584680
 20
5.435760
  0
SEQEND
  8
0
  0
POLYLINE
  8
0
 62
     0
  6
CONTINUOUS
 66
     1
 40
0.002200
 41
0.002200
  0
VERTEX
  8
0
 62
     0
  6
CONTINUOUS
 10
3.584680
 20
5.435760
  0
VERTEX
  8
0
 62
     0
  6
CONTINUOUS
 10
3.584680
 20
5.408920
  0
SEQEND
  8
0
  0
POLYLINE
  8
0
 62
     0
  6
CONTINUOUS
 66
     1
 40
0.002200
 41
0.002200
  0
VERTEX
  8
0
 62
     0
  6
CONTINUOUS
 10
3.584680
 20
5.408920
  0
VERTEX
  8
0
 62
     0
  6
CONTINUOUS
 10
3.587760
 20
5.383400
  0
SEQEND
  8
0
  0
POLYLINE
  8
0
 62
     0
  6
CONTINUOUS
 66
     1
 40
0.002200
 41
0.002200
  0
VERTEX
  8
0
 62
     0
  6
CONTINUOUS
 10
3.587760
 20
5.383400
  0
VERTEX
  8
0
 62
     0
  6
CONTINUOUS
 10
3.593920
 20
5.356560
  0
SEQEND
  8
0
  0
POLYLINE
  8
0
 62
     0
  6
CONTINUOUS
 66
     1
 40
0.002200
 41
0.002200
  0
VERTEX
  8
0
 62
     0
  6
CONTINUOUS
 10
3.593920
 20
5.356560
  0
VERTEX
  8
0
 62
     0
  6
CONTINUOUS
 10
3.601840
 20
5.332800
  0
SEQEND
  8
0
  0
POLYLINE
  8
0
 62
     0
  6
CONTINUOUS
 66
     1
 40
0.002200
 41
0.002200
  0
VERTEX
  8
0
 62
     0
  6
CONTINUOUS
 10
3.601840
 20
5.332800
  0
VERTEX
  8
0
 62
     0
  6
CONTINUOUS
 10
3.611520
 20
5.307720
  0
SEQEND
  8
0
  0
POLYLINE
  8
0
 62
     0
  6
CONTINUOUS
 66
     1
 40
0.002200
 41
0.002200
  0
VERTEX
  8
0
 62
     0
  6
CONTINUOUS
 10
3.611520
 20
5.307720
  0
VERTEX
  8
0
 62
     0
  6
CONTINUOUS
 10
3.623840
 20
5.285720
  0
SEQEND
  8
0
  0
POLYLINE
  8
0
 62
     0
  6
CONTINUOUS
 66
     1
 40
0.002200
 41
0.002200
  0
VERTEX
  8
0
 62
     0
  6
CONTINUOUS
 10
3.623840
 20
5.285720
  0
VERTEX
  8
0
 62
     0
  6
CONTINUOUS
 10
3.636600
 20
5.261960
  0
SEQEND
  8
0
  0
POLYLINE
  8
0
 62
     0
  6
CONTINUOUS
 66
     1
 40
0.002200
 41
0.002200
  0
VERTEX
  8
0
 62
     0
  6
CONTINUOUS
 10
3.636600
 20
5.261960
  0
VERTEX
  8
0
 62
     0
  6
CONTINUOUS
 10
3.652440
 20
5.241280
  0
SEQEND
  8
0
  0
POLYLINE
  8
0
 62
     0
  6
CONTINUOUS
 66
     1
 40
0.002200
 41
0.002200
  0
VERTEX
  8
0
 62
     0
  6
CONTINUOUS
 10
3.652440
 20
5.241280
  0
VERTEX
  8
0
 62
     0
  6
CONTINUOUS
 10
3.670040
 20
5.222360
  0
SEQEND
  8
0
  0
POLYLINE
  8
0
 62
     0
  6
CONTINUOUS
 66
     1
 40
0.002200
 41
0.002200
  0
VERTEX
  8
0
 62
     0
  6
CONTINUOUS
 10
3.670040
 20
5.222360
  0
VERTEX
  8
0
 62
     0
  6
CONTINUOUS
 10
3.690280
 20
5.203440
  0
SEQEND
  8
0
  0
POLYLINE
  8
0
 62
     0
  6
CONTINUOUS
 66
     1
 40
0.002200
 41
0.002200
  0
VERTEX
  8
0
 62
     0
  6
CONTINUOUS
 10
3.690280
 20
5.203440
  0
VERTEX
  8
0
 62
     0
  6
CONTINUOUS
 10
3.709200
 20
5.187600
  0
SEQEND
  8
0
  0
POLYLINE
  8
0
 62
     0
  6
CONTINUOUS
 66
     1
 40
0.002200
 41
0.002200
  0
VERTEX
  8
0
 62
     0
  6
CONTINUOUS
 10
3.709200
 20
5.187600
  0
VERTEX
  8
0
 62
     0
  6
CONTINUOUS
 10
3.731640
 20
5.173520
  0
SEQEND
  8
0
  0
POLYLINE
  8
0
 62
     0
  6
CONTINUOUS
 66
     1
 40
0.002200
 41
0.002200
  0
VERTEX
  8
0
 62
     0
  6
CONTINUOUS
 10
3.731640
 20
5.173520
  0
VERTEX
  8
0
 62
     0
  6
CONTINUOUS
 10
3.754960
 20
5.159000
  0
SEQEND
  8
0
  0
POLYLINE
  8
0
 62
     0
  6
CONTINUOUS
 66
     1
 40
0.002200
 41
0.002200
  0
VERTEX
  8
0
 62
     0
  6
CONTINUOUS
 10
3.754960
 20
5.159000
  0
VERTEX
  8
0
 62
     0
  6
CONTINUOUS
 10
3.780480
 20
5.149760
  0
SEQEND
  8
0
  0
POLYLINE
  8
0
 62
     0
  6
CONTINUOUS
 66
     1
 40
0.002200
 41
0.002200
  0
VERTEX
  8
0
 62
     0
  6
CONTINUOUS
 10
3.780480
 20
5.149760
  0
VERTEX
  8
0
 62
     0
  6
CONTINUOUS
 10
3.804240
 20
5.141840
  0
SEQEND
  8
0
  0
POLYLINE
  8
0
 62
     0
  6
CONTINUOUS
 66
     1
 40
0.002200
 41
0.002200
  0
VERTEX
  8
0
 62
     0
  6
CONTINUOUS
 10
3.804240
 20
5.141840
  0
VERTEX
  8
0
 62
     0
  6
CONTINUOUS
 10
3.829320
 20
5.135680
  0
SEQEND
  8
0
  0
POLYLINE
  8
0
 62
     0
  6
CONTINUOUS
 66
     1
 40
0.002200
 41
0.002200
  0
VERTEX
  8
0
 62
     0
  6
CONTINUOUS
 10
3.829320
 20
5.135680
  0
VERTEX
  8
0
 62
     0
  6
CONTINUOUS
 10
3.856160
 20
5.132160
  0
SEQEND
  8
0
  0
POLYLINE
  8
0
 62
     0
  6
CONTINUOUS
 66
     1
 40
0.002200
 41
0.002200
  0
VERTEX
  8
0
 62
     0
  6
CONTINUOUS
 10
3.856160
 20
5.132160
  0
VERTEX
  8
0
 62
     0
  6
CONTINUOUS
 10
3.883000
 20
5.130840
  0
SEQEND
  8
0
  0
POLYLINE
  8
0
 62
     0
  6
CONTINUOUS
 66
     1
 40
0.002200
 41
0.002200
  0
VERTEX
  8
0
 62
     0
  6
CONTINUOUS
 10
3.883000
 20
5.130840
  0
VERTEX
  8
0
 62
     0
  6
CONTINUOUS
 10
3.908520
 20
5.132160
  0
SEQEND
  8
0
  0
POLYLINE
  8
0
 62
     0
  6
CONTINUOUS
 66
     1
 40
0.002200
 41
0.002200
  0
VERTEX
  8
0
 62
     0
  6
CONTINUOUS
 10
3.908520
 20
5.132160
  0
VERTEX
  8
0
 62
     0
  6
CONTINUOUS
 10
3.935360
 20
5.135680
  0
SEQEND
  8
0
  0
POLYLINE
  8
0
 62
     0
  6
CONTINUOUS
 66
     1
 40
0.002200
 41
0.002200
  0
VERTEX
  8
0
 62
     0
  6
CONTINUOUS
 10
3.935360
 20
5.135680
  0
VERTEX
  8
0
 62
     0
  6
CONTINUOUS
 10
3.962200
 20
5.140080
  0
SEQEND
  8
0
  0
POLYLINE
  8
0
 62
     0
  6
CONTINUOUS
 66
     1
 40
0.002200
 41
0.002200
  0
VERTEX
  8
0
 62
     0
  6
CONTINUOUS
 10
3.962200
 20
5.140080
  0
VERTEX
  8
0
 62
     0
  6
CONTINUOUS
 10
3.985520
 20
5.146680
  0
SEQEND
  8
0
  0
POLYLINE
  8
0
 62
     0
  6
CONTINUOUS
 66
     1
 40
0.002200
 41
0.002200
  0
VERTEX
  8
0
 62
     0
  6
CONTINUOUS
 10
3.985520
 20
5.146680
  0
VERTEX
  8
0
 62
     0
  6
CONTINUOUS
 10
4.009280
 20
5.157680
  0
SEQEND
  8
0
  0
POLYLINE
  8
0
 62
     0
  6
CONTINUOUS
 66
     1
 40
0.002200
 41
0.002200
  0
VERTEX
  8
0
 62
     0
  6
CONTINUOUS
 10
4.009280
 20
5.157680
  0
VERTEX
  8
0
 62
     0
  6
CONTINUOUS
 10
4.034800
 20
5.168680
  0
SEQEND
  8
0
  0
POLYLINE
  8
0
 62
     0
  6
CONTINUOUS
 66
     1
 40
0.002200
 41
0.002200
  0
VERTEX
  8
0
 62
     0
  6
CONTINUOUS
 10
4.034800
 20
5.168680
  0
VERTEX
  8
0
 62
     0
  6
CONTINUOUS
 10
4.056800
 20
5.181440
  0
SEQEND
  8
0
  0
POLYLINE
  8
0
 62
     0
  6
CONTINUOUS
 66
     1
 40
0.002200
 41
0.002200
  0
VERTEX
  8
0
 62
     0
  6
CONTINUOUS
 10
4.056800
 20
5.181440
  0
VERTEX
  8
0
 62
     0
  6
CONTINUOUS
 10
4.077480
 20
5.197280
  0
SEQEND
  8
0
  0
POLYLINE
  8
0
 62
     0
  6
CONTINUOUS
 66
     1
 40
0.002200
 41
0.002200
  0
VERTEX
  8
0
 62
     0
  6
CONTINUOUS
 10
4.077480
 20
5.197280
  0
VERTEX
  8
0
 62
     0
  6
CONTINUOUS
 10
4.097720
 20
5.216200
  0
SEQEND
  8
0
  0
POLYLINE
  8
0
 62
     0
  6
CONTINUOUS
 66
     1
 40
0.002200
 41
0.002200
  0
VERTEX
  8
0
 62
     0
  6
CONTINUOUS
 10
4.097720
 20
5.216200
  0
VERTEX
  8
0
 62
     0
  6
CONTINUOUS
 10
4.115320
 20
5.235120
  0
SEQEND
  8
0
  0
POLYLINE
  8
0
 62
     0
  6
CONTINUOUS
 66
     1
 40
0.002200
 41
0.002200
  0
VERTEX
  8
0
 62
     0
  6
CONTINUOUS
 10
4.115320
 20
5.235120
  0
VERTEX
  8
0
 62
     0
  6
CONTINUOUS
 10
4.132480
 20
5.254040
  0
SEQEND
  8
0
  0
POLYLINE
  8
0
 62
     0
  6
CONTINUOUS
 66
     1
 40
0.002200
 41
0.002200
  0
VERTEX
  8
0
 62
     0
  6
CONTINUOUS
 10
4.132480
 20
5.254040
  0
VERTEX
  8
0
 62
     0
  6
CONTINUOUS
 10
4.147000
 20
5.276040
  0
SEQEND
  8
0
  0
POLYLINE
  8
0
 62
     0
  6
CONTINUOUS
 66
     1
 40
0.002200
 41
0.002200
  0
VERTEX
  8
0
 62
     0
  6
CONTINUOUS
 10
4.147000
 20
5.276040
  0
VERTEX
  8
0
 62
     0
  6
CONTINUOUS
 10
4.159320
 20
5.299800
  0
SEQEND
  8
0
  0
POLYLINE
  8
0
 62
     0
  6
CONTINUOUS
 66
     1
 40
0.002200
 41
0.002200
  0
VERTEX
  8
0
 62
     0
  6
CONTINUOUS
 10
4.159320
 20
5.299800
  0
VERTEX
  8
0
 62
     0
  6
CONTINUOUS
 10
4.169000
 20
5.323560
  0
SEQEND
  8
0
  0
POLYLINE
  8
0
 62
     0
  6
CONTINUOUS
 66
     1
 40
0.002200
 41
0.002200
  0
VERTEX
  8
0
 62
     0
  6
CONTINUOUS
 10
4.169000
 20
5.323560
  0
VERTEX
  8
0
 62
     0
  6
CONTINUOUS
 10
4.176920
 20
5.348640
  0
SEQEND
  8
0
  0
POLYLINE
  8
0
 62
     0
  6
CONTINUOUS
 66
     1
 40
0.002200
 41
0.002200
  0
VERTEX
  8
0
 62
     0
  6
CONTINUOUS
 10
4.176920
 20
5.348640
  0
VERTEX
  8
0
 62
     0
  6
CONTINUOUS
 10
4.183080
 20
5.374160
  0
SEQEND
  8
0
  0
POLYLINE
  8
0
 62
     0
  6
CONTINUOUS
 66
     1
 40
0.002200
 41
0.002200
  0
VERTEX
  8
0
 62
     0
  6
CONTINUOUS
 10
4.183080
 20
5.374160
  0
VERTEX
  8
0
 62
     0
  6
CONTINUOUS
 10
4.189680
 20
5.399240
  0
SEQEND
  8
0
  0
POLYLINE
  8
0
 62
     0
  6
CONTINUOUS
 66
     1
 40
0.002200
 41
0.002200
  0
VERTEX
  8
0
 62
     0
  6
CONTINUOUS
 10
4.189680
 20
5.399240
  0
VERTEX
  8
0
 62
     0
  6
CONTINUOUS
 10
4.189680
 20
5.427840
  0
SEQEND
  8
0
  0
POLYLINE
  8
0
 62
     0
  6
CONTINUOUS
 66
     1
 40
0.002200
 41
0.002200
  0
VERTEX
  8
0
 62
     0
  6
CONTINUOUS
 10
4.189680
 20
5.427840
  0
VERTEX
  8
0
 62
     0
  6
CONTINUOUS
 10
4.189680
 20
5.452920
  0
SEQEND
  8
0
  0
POLYLINE
  8
0
 62
     0
  6
CONTINUOUS
 66
     1
 40
0.002200
 41
0.002200
  0
VERTEX
  8
0
 62
     0
  6
CONTINUOUS
 10
4.224440
 20
5.367560
  0
VERTEX
  8
0
 62
     0
  6
CONTINUOUS
 10
4.214760
 20
5.355240
  0
SEQEND
  8
0
  0
POLYLINE
  8
0
 62
     0
  6
CONTINUOUS
 66
     1
 40
0.002200
 41
0.002200
  0
VERTEX
  8
0
 62
     0
  6
CONTINUOUS
 10
4.214760
 20
5.355240
  0
VERTEX
  8
0
 62
     0
  6
CONTINUOUS
 10
4.205520
 20
5.342480
  0
SEQEND
  8
0
  0
POLYLINE
  8
0
 62
     0
  6
CONTINUOUS
 66
     1
 40
0.002200
 41
0.002200
  0
VERTEX
  8
0
 62
     0
  6
CONTINUOUS
 10
4.205520
 20
5.342480
  0
VERTEX
  8
0
 62
     0
  6
CONTINUOUS
 10
4.198920
 20
5.328400
  0
SEQEND
  8
0
  0
POLYLINE
  8
0
 62
     0
  6
CONTINUOUS
 66
     1
 40
0.002200
 41
0.002200
  0
VERTEX
  8
0
 62
     0
  6
CONTINUOUS
 10
4.198920
 20
5.328400
  0
VERTEX
  8
0
 62
     0
  6
CONTINUOUS
 10
4.192760
 20
5.313880
  0
SEQEND
  8
0
  0
POLYLINE
  8
0
 62
     0
  6
CONTINUOUS
 66
     1
 40
0.002200
 41
0.002200
  0
VERTEX
  8
0
 62
     0
  6
CONTINUOUS
 10
4.192760
 20
5.313880
  0
VERTEX
  8
0
 62
     0
  6
CONTINUOUS
 10
4.191000
 20
5.298040
  0
SEQEND
  8
0
  0
POLYLINE
  8
0
 62
     0
  6
CONTINUOUS
 66
     1
 40
0.002200
 41
0.002200
  0
VERTEX
  8
0
 62
     0
  6
CONTINUOUS
 10
4.191000
 20
5.298040
  0
VERTEX
  8
0
 62
     0
  6
CONTINUOUS
 10
4.189680
 20
5.280880
  0
SEQEND
  8
0
  0
POLYLINE
  8
0
 62
     0
  6
CONTINUOUS
 66
     1
 40
0.002200
 41
0.002200
  0
VERTEX
  8
0
 62
     0
  6
CONTINUOUS
 10
4.189680
 20
5.280880
  0
VERTEX
  8
0
 62
     0
  6
CONTINUOUS
 10
4.191000
 20
5.266800
  0
SEQEND
  8
0
  0
POLYLINE
  8
0
 62
     0
  6
CONTINUOUS
 66
     1
 40
0.002200
 41
0.002200
  0
VERTEX
  8
0
 62
     0
  6
CONTINUOUS
 10
4.191000
 20
5.266800
  0
VERTEX
  8
0
 62
     0
  6
CONTINUOUS
 10
4.192760
 20
5.250960
  0
SEQEND
  8
0
  0
POLYLINE
  8
0
 62
     0
  6
CONTINUOUS
 66
     1
 40
0.002200
 41
0.002200
  0
VERTEX
  8
0
 62
     0
  6
CONTINUOUS
 10
4.192760
 20
5.250960
  0
VERTEX
  8
0
 62
     0
  6
CONTINUOUS
 10
4.198920
 20
5.235120
  0
SEQEND
  8
0
  0
POLYLINE
  8
0
 62
     0
  6
CONTINUOUS
 66
     1
 40
0.002200
 41
0.002200
  0
VERTEX
  8
0
 62
     0
  6
CONTINUOUS
 10
4.198920
 20
5.235120
  0
VERTEX
  8
0
 62
     0
  6
CONTINUOUS
 10
4.205520
 20
5.222360
  0
SEQEND
  8
0
  0
POLYLINE
  8
0
 62
     0
  6
CONTINUOUS
 66
     1
 40
0.002200
 41
0.002200
  0
VERTEX
  8
0
 62
     0
  6
CONTINUOUS
 10
4.205520
 20
5.222360
  0
VERTEX
  8
0
 62
     0
  6
CONTINUOUS
 10
4.214760
 20
5.208280
  0
SEQEND
  8
0
  0
POLYLINE
  8
0
 62
     0
  6
CONTINUOUS
 66
     1
 40
0.002200
 41
0.002200
  0
VERTEX
  8
0
 62
     0
  6
CONTINUOUS
 10
4.214760
 20
5.208280
  0
VERTEX
  8
0
 62
     0
  6
CONTINUOUS
 10
4.224440
 20
5.195520
  0
SEQEND
  8
0
  0
POLYLINE
  8
0
 62
     0
  6
CONTINUOUS
 66
     1
 40
0.002200
 41
0.002200
  0
VERTEX
  8
0
 62
     0
  6
CONTINUOUS
 10
4.224440
 20
5.195520
  0
VERTEX
  8
0
 62
     0
  6
CONTINUOUS
 10
4.236760
 20
5.185840
  0
SEQEND
  8
0
  0
POLYLINE
  8
0
 62
     0
  6
CONTINUOUS
 66
     1
 40
0.002200
 41
0.002200
  0
VERTEX
  8
0
 62
     0
  6
CONTINUOUS
 10
4.236760
 20
5.185840
  0
VERTEX
  8
0
 62
     0
  6
CONTINUOUS
 10
4.249520
 20
5.177920
  0
SEQEND
  8
0
  0
POLYLINE
  8
0
 62
     0
  6
CONTINUOUS
 66
     1
 40
0.002200
 41
0.002200
  0
VERTEX
  8
0
 62
     0
  6
CONTINUOUS
 10
4.249520
 20
5.177920
  0
VERTEX
  8
0
 62
     0
  6
CONTINUOUS
 10
4.265360
 20
5.170440
  0
SEQEND
  8
0
  0
POLYLINE
  8
0
 62
     0
  6
CONTINUOUS
 66
     1
 40
0.002200
 41
0.002200
  0
VERTEX
  8
0
 62
     0
  6
CONTINUOUS
 10
4.265360
 20
5.170440
  0
VERTEX
  8
0
 62
     0
  6
CONTINUOUS
 10
4.278120
 20
5.165600
  0
SEQEND
  8
0
  0
POLYLINE
  8
0
 62
     0
  6
CONTINUOUS
 66
     1
 40
0.002200
 41
0.002200
  0
VERTEX
  8
0
 62
     0
  6
CONTINUOUS
 10
4.278120
 20
5.165600
  0
VERTEX
  8
0
 62
     0
  6
CONTINUOUS
 10
4.295280
 20
5.162520
  0
SEQEND
  8
0
  0
POLYLINE
  8
0
 62
     0
  6
CONTINUOUS
 66
     1
 40
0.002200
 41
0.002200
  0
VERTEX
  8
0
 62
     0
  6
CONTINUOUS
 10
4.295280
 20
5.162520
  0
VERTEX
  8
0
 62
     0
  6
CONTINUOUS
 10
4.311120
 20
5.162520
  0
SEQEND
  8
0
  0
POLYLINE
  8
0
 62
     0
  6
CONTINUOUS
 66
     1
 40
0.002200
 41
0.002200
  0
VERTEX
  8
0
 62
     0
  6
CONTINUOUS
 10
4.311120
 20
5.162520
  0
VERTEX
  8
0
 62
     0
  6
CONTINUOUS
 10
4.326960
 20
5.162520
  0
SEQEND
  8
0
  0
POLYLINE
  8
0
 62
     0
  6
CONTINUOUS
 66
     1
 40
0.002200
 41
0.002200
  0
VERTEX
  8
0
 62
     0
  6
CONTINUOUS
 10
4.326960
 20
5.162520
  0
VERTEX
  8
0
 62
     0
  6
CONTINUOUS
 10
4.342800
 20
5.165600
  0
SEQEND
  8
0
  0
POLYLINE
  8
0
 62
     0
  6
CONTINUOUS
 66
     1
 40
0.002200
 41
0.002200
  0
VERTEX
  8
0
 62
     0
  6
CONTINUOUS
 10
4.342800
 20
5.165600
  0
VERTEX
  8
0
 62
     0
  6
CONTINUOUS
 10
4.356880
 20
5.170440
  0
SEQEND
  8
0
  0
POLYLINE
  8
0
 62
     0
  6
CONTINUOUS
 66
     1
 40
0.002200
 41
0.002200
  0
VERTEX
  8
0
 62
     0
  6
CONTINUOUS
 10
4.356880
 20
5.170440
  0
VERTEX
  8
0
 62
     0
  6
CONTINUOUS
 10
4.370960
 20
5.177920
  0
SEQEND
  8
0
  0
POLYLINE
  8
0
 62
     0
  6
CONTINUOUS
 66
     1
 40
0.002200
 41
0.002200
  0
VERTEX
  8
0
 62
     0
  6
CONTINUOUS
 10
4.370960
 20
5.177920
  0
VERTEX
  8
0
 62
     0
  6
CONTINUOUS
 10
4.385480
 20
5.185840
  0
SEQEND
  8
0
  0
POLYLINE
  8
0
 62
     0
  6
CONTINUOUS
 66
     1
 40
0.002200
 41
0.002200
  0
VERTEX
  8
0
 62
     0
  6
CONTINUOUS
 10
4.385480
 20
5.185840
  0
VERTEX
  8
0
 62
     0
  6
CONTINUOUS
 10
4.396480
 20
5.195520
  0
SEQEND
  8
0
  0
POLYLINE
  8
0
 62
     0
  6
CONTINUOUS
 66
     1
 40
0.002200
 41
0.002200
  0
VERTEX
  8
0
 62
     0
  6
CONTINUOUS
 10
4.396480
 20
5.195520
  0
VERTEX
  8
0
 62
     0
  6
CONTINUOUS
 10
4.407480
 20
5.208280
  0
SEQEND
  8
0
  0
POLYLINE
  8
0
 62
     0
  6
CONTINUOUS
 66
     1
 40
0.002200
 41
0.002200
  0
VERTEX
  8
0
 62
     0
  6
CONTINUOUS
 10
4.407480
 20
5.208280
  0
VERTEX
  8
0
 62
     0
  6
CONTINUOUS
 10
4.415400
 20
5.222360
  0
SEQEND
  8
0
  0
POLYLINE
  8
0
 62
     0
  6
CONTINUOUS
 66
     1
 40
0.002200
 41
0.002200
  0
VERTEX
  8
0
 62
     0
  6
CONTINUOUS
 10
4.415400
 20
5.222360
  0
VERTEX
  8
0
 62
     0
  6
CONTINUOUS
 10
4.423320
 20
5.235120
  0
SEQEND
  8
0
  0
POLYLINE
  8
0
 62
     0
  6
CONTINUOUS
 66
     1
 40
0.002200
 41
0.002200
  0
VERTEX
  8
0
 62
     0
  6
CONTINUOUS
 10
4.423320
 20
5.235120
  0
VERTEX
  8
0
 62
     0
  6
CONTINUOUS
 10
4.428160
 20
5.250960
  0
SEQEND
  8
0
  0
POLYLINE
  8
0
 62
     0
  6
CONTINUOUS
 66
     1
 40
0.002200
 41
0.002200
  0
VERTEX
  8
0
 62
     0
  6
CONTINUOUS
 10
4.428160
 20
5.250960
  0
VERTEX
  8
0
 62
     0
  6
CONTINUOUS
 10
4.429480
 20
5.266800
  0
SEQEND
  8
0
  0
POLYLINE
  8
0
 62
     0
  6
CONTINUOUS
 66
     1
 40
0.002200
 41
0.002200
  0
VERTEX
  8
0
 62
     0
  6
CONTINUOUS
 10
4.429480
 20
5.266800
  0
VERTEX
  8
0
 62
     0
  6
CONTINUOUS
 10
4.431240
 20
5.280880
  0
SEQEND
  8
0
  0
POLYLINE
  8
0
 62
     0
  6
CONTINUOUS
 66
     1
 40
0.002200
 41
0.002200
  0
VERTEX
  8
0
 62
     0
  6
CONTINUOUS
 10
4.431240
 20
5.280880
  0
VERTEX
  8
0
 62
     0
  6
CONTINUOUS
 10
4.429480
 20
5.298040
  0
SEQEND
  8
0
  0
POLYLINE
  8
0
 62
     0
  6
CONTINUOUS
 66
     1
 40
0.002200
 41
0.002200
  0
VERTEX
  8
0
 62
     0
  6
CONTINUOUS
 10
4.429480
 20
5.298040
  0
VERTEX
  8
0
 62
     0
  6
CONTINUOUS
 10
4.428160
 20
5.313880
  0
SEQEND
  8
0
  0
POLYLINE
  8
0
 62
     0
  6
CONTINUOUS
 66
     1
 40
0.002200
 41
0.002200
  0
VERTEX
  8
0
 62
     0
  6
CONTINUOUS
 10
4.428160
 20
5.313880
  0
VERTEX
  8
0
 62
     0
  6
CONTINUOUS
 10
4.423320
 20
5.328400
  0
SEQEND
  8
0
  0
POLYLINE
  8
0
 62
     0
  6
CONTINUOUS
 66
     1
 40
0.002200
 41
0.002200
  0
VERTEX
  8
0
 62
     0
  6
CONTINUOUS
 10
4.423320
 20
5.328400
  0
VERTEX
  8
0
 62
     0
  6
CONTINUOUS
 10
4.415400
 20
5.342480
  0
SEQEND
  8
0
  0
POLYLINE
  8
0
 62
     0
  6
CONTINUOUS
 66
     1
 40
0.002200
 41
0.002200
  0
VERTEX
  8
0
 62
     0
  6
CONTINUOUS
 10
4.415400
 20
5.342480
  0
VERTEX
  8
0
 62
     0
  6
CONTINUOUS
 10
4.407480
 20
5.355240
  0
SEQEND
  8
0
  0
POLYLINE
  8
0
 62
     0
  6
CONTINUOUS
 66
     1
 40
0.002200
 41
0.002200
  0
VERTEX
  8
0
 62
     0
  6
CONTINUOUS
 10
4.407480
 20
5.355240
  0
VERTEX
  8
0
 62
     0
  6
CONTINUOUS
 10
4.396480
 20
5.367560
  0
SEQEND
  8
0
  0
POLYLINE
  8
0
 62
     0
  6
CONTINUOUS
 66
     1
 40
0.002200
 41
0.002200
  0
VERTEX
  8
0
 62
     0
  6
CONTINUOUS
 10
4.396480
 20
5.367560
  0
VERTEX
  8
0
 62
     0
  6
CONTINUOUS
 10
4.385480
 20
5.377240
  0
SEQEND
  8
0
  0
POLYLINE
  8
0
 62
     0
  6
CONTINUOUS
 66
     1
 40
0.002200
 41
0.002200
  0
VERTEX
  8
0
 62
     0
  6
CONTINUOUS
 10
4.385480
 20
5.377240
  0
VERTEX
  8
0
 62
     0
  6
CONTINUOUS
 10
4.370960
 20
5.386480
  0
SEQEND
  8
0
  0
POLYLINE
  8
0
 62
     0
  6
CONTINUOUS
 66
     1
 40
0.002200
 41
0.002200
  0
VERTEX
  8
0
 62
     0
  6
CONTINUOUS
 10
4.370960
 20
5.386480
  0
VERTEX
  8
0
 62
     0
  6
CONTINUOUS
 10
4.356880
 20
5.393080
  0
SEQEND
  8
0
  0
POLYLINE
  8
0
 62
     0
  6
CONTINUOUS
 66
     1
 40
0.002200
 41
0.002200
  0
VERTEX
  8
0
 62
     0
  6
CONTINUOUS
 10
4.356880
 20
5.393080
  0
VERTEX
  8
0
 62
     0
  6
CONTINUOUS
 10
4.342800
 20
5.399240
  0
SEQEND
  8
0
  0
POLYLINE
  8
0
 62
     0
  6
CONTINUOUS
 66
     1
 40
0.002200
 41
0.002200
  0
VERTEX
  8
0
 62
     0
  6
CONTINUOUS
 10
4.342800
 20
5.399240
  0
VERTEX
  8
0
 62
     0
  6
CONTINUOUS
 10
4.326960
 20
5.402320
  0
SEQEND
  8
0
  0
POLYLINE
  8
0
 62
     0
  6
CONTINUOUS
 66
     1
 40
0.002200
 41
0.002200
  0
VERTEX
  8
0
 62
     0
  6
CONTINUOUS
 10
4.326960
 20
5.402320
  0
VERTEX
  8
0
 62
     0
  6
CONTINUOUS
 10
4.311120
 20
5.404080
  0
SEQEND
  8
0
  0
POLYLINE
  8
0
 62
     0
  6
CONTINUOUS
 66
     1
 40
0.002200
 41
0.002200
  0
VERTEX
  8
0
 62
     0
  6
CONTINUOUS
 10
4.311120
 20
5.404080
  0
VERTEX
  8
0
 62
     0
  6
CONTINUOUS
 10
4.295280
 20
5.402320
  0
SEQEND
  8
0
  0
POLYLINE
  8
0
 62
     0
  6
CONTINUOUS
 66
     1
 40
0.002200
 41
0.002200
  0
VERTEX
  8
0
 62
     0
  6
CONTINUOUS
 10
4.295280
 20
5.402320
  0
VERTEX
  8
0
 62
     0
  6
CONTINUOUS
 10
4.278120
 20
5.399240
  0
SEQEND
  8
0
  0
POLYLINE
  8
0
 62
     0
  6
CONTINUOUS
 66
     1
 40
0.002200
 41
0.002200
  0
VERTEX
  8
0
 62
     0
  6
CONTINUOUS
 10
4.278120
 20
5.399240
  0
VERTEX
  8
0
 62
     0
  6
CONTINUOUS
 10
4.265360
 20
5.393080
  0
SEQEND
  8
0
  0
POLYLINE
  8
0
 62
     0
  6
CONTINUOUS
 66
     1
 40
0.002200
 41
0.002200
  0
VERTEX
  8
0
 62
     0
  6
CONTINUOUS
 10
4.265360
 20
5.393080
  0
VERTEX
  8
0
 62
     0
  6
CONTINUOUS
 10
4.249520
 20
5.386480
  0
SEQEND
  8
0
  0
POLYLINE
  8
0
 62
     0
  6
CONTINUOUS
 66
     1
 40
0.002200
 41
0.002200
  0
VERTEX
  8
0
 62
     0
  6
CONTINUOUS
 10
4.249520
 20
5.386480
  0
VERTEX
  8
0
 62
     0
  6
CONTINUOUS
 10
4.236760
 20
5.377240
  0
SEQEND
  8
0
  0
POLYLINE
  8
0
 62
     0
  6
CONTINUOUS
 66
     1
 40
0.002200
 41
0.002200
  0
VERTEX
  8
0
 62
     0
  6
CONTINUOUS
 10
4.236760
 20
5.377240
  0
VERTEX
  8
0
 62
     0
  6
CONTINUOUS
 10
4.224440
 20
5.367560
  0
SEQEND
  8
0
  0
POLYLINE
  8
0
 62
     0
  6
CONTINUOUS
 66
     1
 40
0.002200
 41
0.002200
  0
VERTEX
  8
0
 62
     0
  6
CONTINUOUS
 10
4.189680
 20
5.280880
  0
VERTEX
  8
0
 62
     0
  6
CONTINUOUS
 10
4.189680
 20
5.159000
  0
SEQEND
  8
0
  0
POLYLINE
  8
0
 62
     0
  6
CONTINUOUS
 66
     1
 40
0.002200
 41
0.002200
  0
VERTEX
  8
0
 62
     0
  6
CONTINUOUS
 10
4.243360
 20
5.181440
  0
VERTEX
  8
0
 62
     0
  6
CONTINUOUS
 10
4.151400
 20
5.089480
  0
SEQEND
  8
0
  0
POLYLINE
  8
0
 62
     0
  6
CONTINUOUS
 66
     1
 40
0.002200
 41
0.002200
  0
VERTEX
  8
0
 62
     0
  6
CONTINUOUS
 10
4.382400
 20
5.181440
  0
VERTEX
  8
0
 62
     0
  6
CONTINUOUS
 10
4.473920
 20
5.089480
  0
SEQEND
  8
0
  0
POLYLINE
  8
0
 62
     0
  6
CONTINUOUS
 66
     1
 40
0.002200
 41
0.002200
  0
VERTEX
  8
0
 62
     0
  6
CONTINUOUS
 10
4.431240
 20
5.130840
  0
VERTEX
  8
0
 62
     0
  6
CONTINUOUS
 10
4.431240
 20
5.279120
  0
SEQEND
  8
0
  0
POLYLINE
  8
0
 62
     0
  6
CONTINUOUS
 66
     1
 40
0.002200
 41
0.002200
  0
VERTEX
  8
0
 62
     0
  6
CONTINUOUS
 10
4.431240
 20
5.159000
  0
VERTEX
  8
0
 62
     0
  6
CONTINUOUS
 10
4.018960
 20
5.159000
  0
SEQEND
  8
0
  0
POLYLINE
  8
0
 62
     0
  6
CONTINUOUS
 66
     1
 40
0.002200
 41
0.002200
  0
VERTEX
  8
0
 62
     0
  6
CONTINUOUS
 10
3.815240
 20
5.276040
  0
VERTEX
  8
0
 62
     0
  6
CONTINUOUS
 10
3.827560
 20
5.304640
  0
SEQEND
  8
0
  0
POLYLINE
  8
0
 62
     0
  6
CONTINUOUS
 66
     1
 40
0.002200
 41
0.002200
  0
VERTEX
  8
0
 62
     0
  6
CONTINUOUS
 10
3.769480
 20
5.347320
  0
VERTEX
  8
0
 62
     0
  6
CONTINUOUS
 10
3.747040
 20
5.328400
  0
SEQEND
  8
0
  0
POLYLINE
  8
0
 62
     0
  6
CONTINUOUS
 66
     1
 40
0.002200
 41
0.002200
  0
VERTEX
  8
0
 62
     0
  6
CONTINUOUS
 10
3.747040
 20
5.383400
  0
VERTEX
  8
0
 62
     0
  6
CONTINUOUS
 10
3.720200
 20
5.370640
  0
SEQEND
  8
0
  0
POLYLINE
  8
0
 62
     0
  6
CONTINUOUS
 66
     1
 40
0.002200
 41
0.002200
  0
VERTEX
  8
0
 62
     0
  6
CONTINUOUS
 10
4.265360
 20
5.557200
  0
VERTEX
  8
0
 62
     0
  6
CONTINUOUS
 10
4.278120
 20
5.610880
  0
SEQEND
  8
0
  0
POLYLINE
  8
0
 62
     0
  6
CONTINUOUS
 66
     1
 40
0.002200
 41
0.002200
  0
VERTEX
  8
0
 62
     0
  6
CONTINUOUS
 10
4.278120
 20
5.610880
  0
VERTEX
  8
0
 62
     0
  6
CONTINUOUS
 10
4.311120
 20
5.610880
  0
SEQEND
  8
0
  0
POLYLINE
  8
0
 62
     0
  6
CONTINUOUS
 66
     1
 40
0.002200
 41
0.002200
  0
VERTEX
  8
0
 62
     0
  6
CONTINUOUS
 10
4.337960
 20
5.610880
  0
VERTEX
  8
0
 62
     0
  6
CONTINUOUS
 10
4.303200
 20
5.557200
  0
SEQEND
  8
0
  0
POLYLINE
  8
0
 62
     0
  6
CONTINUOUS
 66
     1
 40
0.002200
 41
0.002200
  0
VERTEX
  8
0
 62
     0
  6
CONTINUOUS
 10
4.314200
 20
5.574800
  0
VERTEX
  8
0
 62
     0
  6
CONTINUOUS
 10
4.341040
 20
5.574800
  0
SEQEND
  8
0
  0
POLYLINE
  8
0
 62
     0
  6
CONTINUOUS
 66
     1
 40
0.002200
 41
0.002200
  0
VERTEX
  8
0
 62
     0
  6
CONTINUOUS
 10
4.342800
 20
5.557200
  0
VERTEX
  8
0
 62
     0
  6
CONTINUOUS
 10
4.337960
 20
5.610880
  0
SEQEND
  8
0
  0
POLYLINE
  8
0
 62
     0
  6
CONTINUOUS
 66
     1
 40
0.002200
 41
0.002200
  0
VERTEX
  8
0
 62
     0
  6
CONTINUOUS
 10
4.370960
 20
5.610880
  0
VERTEX
  8
0
 62
     0
  6
CONTINUOUS
 10
4.355560
 20
5.557200
  0
SEQEND
  8
0
  0
POLYLINE
  8
0
 62
     0
  6
CONTINUOUS
 66
     1
 40
0.002200
 41
0.002200
  0
VERTEX
  8
0
 62
     0
  6
CONTINUOUS
 10
4.391640
 20
5.557200
  0
VERTEX
  8
0
 62
     0
  6
CONTINUOUS
 10
4.370960
 20
5.610880
  0
SEQEND
  8
0
  0
POLYLINE
  8
0
 62
     0
  6
CONTINUOUS
 66
     1
 40
0.002200
 41
0.002200
  0
VERTEX
  8
0
 62
     0
  6
CONTINUOUS
 10
4.405720
 20
5.610880
  0
VERTEX
  8
0
 62
     0
  6
CONTINUOUS
 10
4.391640
 20
5.557200
  0
SEQEND
  8
0
  0
POLYLINE
  8
0
 62
     0
  6
CONTINUOUS
 66
     1
 40
0.002200
 41
0.002200
  0
VERTEX
  8
0
 62
     0
  6
CONTINUOUS
 10
4.292200
 20
5.584040
  0
VERTEX
  8
0
 62
     0
  6
CONTINUOUS
 10
4.271520
 20
5.584040
  0
SEQEND
  8
0
  0
LINE
  8
0
 62
     0
  6
CONTINUOUS
 10
2.902680
 20
5.143600
 11
2.905760
 21
5.135680
  0
LINE
  8
0
 62
     0
  6
CONTINUOUS
 10
2.905760
 20
5.135680
 11
2.915000
 21
5.129520
  0
LINE
  8
0
 62
     0
  6
CONTINUOUS
 10
2.915000
 20
5.129520
 11
2.924240
 21
5.126440
  0
LINE
  8
0
 62
     0
  6
CONTINUOUS
 10
2.887280
 20
5.089480
 11
2.905760
 21
5.089480
  0
LINE
  8
0
 62
     0
  6
CONTINUOUS
 10
2.890360
 20
5.089480
 11
2.900920
 21
5.089480
  0
LINE
  8
0
 62
     0
  6
CONTINUOUS
 10
3.006080
 20
4.991800
 11
3.022360
 21
5.001920
  0
LINE
  8
0
 62
     0
  6
CONTINUOUS
 10
3.017960
 20
4.999720
 11
3.011360
 21
4.995760
  0
LINE
  8
0
 62
     0
  6
CONTINUOUS
 10
3.011360
 20
4.995760
 11
3.011360
 21
5.083760
  0
LINE
  8
0
 62
     0
  6
CONTINUOUS
 10
3.022360
 20
5.083760
 11
3.022360
 21
5.001920
  0
LINE
  8
0
 62
     0
  6
CONTINUOUS
 10
3.022360
 20
5.001920
 11
3.006080
 21
4.991800
  0
LINE
  8
0
 62
     0
  6
CONTINUOUS
 10
3.006080
 20
4.991800
 11
3.006080
 21
5.083760
  0
LINE
  8
0
 62
     0
  6
CONTINUOUS
 10
3.019720
 20
5.083760
 11
3.019720
 21
4.999720
  0
LINE
  8
0
 62
     0
  6
CONTINUOUS
 10
3.019720
 20
4.999720
 11
3.011360
 21
4.995760
  0
LINE
  8
0
 62
     0
  6
CONTINUOUS
 10
3.024120
 20
5.048560
 11
3.018400
 21
5.048560
  0
POLYLINE
  8
0
 62
     0
  6
CONTINUOUS
 66
     1
 40
0.002200
 41
0.002200
  0
VERTEX
  8
0
 62
     0
  6
CONTINUOUS
 10
1.994960
 20
5.437080
  0
VERTEX
  8
0
 62
     0
  6
CONTINUOUS
 10
1.616120
 20
5.814160
  0
SEQEND
  8
0
  0
POLYLINE
  8
0
 62
     0
  6
CONTINUOUS
 66
     1
 40
0.002200
 41
0.002200
  0
VERTEX
  8
0
 62
     0
  6
CONTINUOUS
 10
2.701600
 20
5.636840
  0
VERTEX
  8
0
 62
     0
  6
CONTINUOUS
 10
2.422640
 20
5.771480
  0
SEQEND
  8
0
  0
POLYLINE
  8
0
 62
     0
  6
CONTINUOUS
 66
     1
 40
0.002200
 41
0.002200
  0
VERTEX
  8
0
 62
     0
  6
CONTINUOUS
 10
2.422640
 20
5.653120
  0
VERTEX
  8
0
 62
     0
  6
CONTINUOUS
 10
2.701600
 20
5.518480
  0
SEQEND
  8
0
  0
POLYLINE
  8
0
 62
     0
  6
CONTINUOUS
 66
     1
 40
0.002200
 41
0.002200
  0
VERTEX
  8
0
 62
     0
  6
CONTINUOUS
 10
2.701600
 20
5.379440
  0
VERTEX
  8
0
 62
     0
  6
CONTINUOUS
 10
2.422640
 20
5.514520
  0
SEQEND
  8
0
  0
POLYLINE
  8
0
 62
     0
  6
CONTINUOUS
 66
     1
 40
0.002200
 41
0.002200
  0
VERTEX
  8
0
 62
     0
  6
CONTINUOUS
 10
2.422640
 20
5.370200
  0
VERTEX
  8
0
 62
     0
  6
CONTINUOUS
 10
2.701600
 20
5.235120
  0
SEQEND
  8
0
  0
POLYLINE
  8
0
 62
     0
  6
CONTINUOUS
 66
     1
 40
0.002200
 41
0.002200
  0
VERTEX
  8
0
 62
     0
  6
CONTINUOUS
 10
2.701600
 20
5.107520
  0
VERTEX
  8
0
 62
     0
  6
CONTINUOUS
 10
2.422640
 20
5.244360
  0
SEQEND
  8
0
  0
POLYLINE
  8
0
 62
     0
  6
CONTINUOUS
 66
     1
 40
0.002200
 41
0.002200
  0
VERTEX
  8
0
 62
     0
  6
CONTINUOUS
 10
2.557280
 20
5.277800
  0
VERTEX
  8
0
 62
     0
  6
CONTINUOUS
 10
2.574000
 20
5.292760
  0
SEQEND
  8
0
  0
POLYLINE
  8
0
 62
     0
  6
CONTINUOUS
 66
     1
 40
0.002200
 41
0.002200
  0
VERTEX
  8
0
 62
     0
  6
CONTINUOUS
 10
2.574000
 20
5.292760
  0
VERTEX
  8
0
 62
     0
  6
CONTINUOUS
 10
2.575760
 20
5.272080
  0
SEQEND
  8
0
  0
POLYLINE
  8
0
 62
     0
  6
CONTINUOUS
 66
     1
 40
0.002200
 41
0.002200
  0
VERTEX
  8
0
 62
     0
  6
CONTINUOUS
 10
2.575760
 20
5.272080
  0
VERTEX
  8
0
 62
     0
  6
CONTINUOUS
 10
2.570480
 20
5.272080
  0
SEQEND
  8
0
  0
POLYLINE
  8
0
 62
     0
  6
CONTINUOUS
 66
     1
 40
0.002200
 41
0.002200
  0
VERTEX
  8
0
 62
     0
  6
CONTINUOUS
 10
2.570480
 20
5.272080
  0
VERTEX
  8
0
 62
     0
  6
CONTINUOUS
 10
2.574000
 20
5.292760
  0
SEQEND
  8
0
  0
POLYLINE
  8
0
 62
     0
  6
CONTINUOUS
 66
     1
 40
0.002200
 41
0.002200
  0
VERTEX
  8
0
 62
     0
  6
CONTINUOUS
 10
2.574000
 20
5.292760
  0
VERTEX
  8
0
 62
     0
  6
CONTINUOUS
 10
2.587200
 20
5.277800
  0
SEQEND
  8
0
  0
POLYLINE
  8
0
 62
     0
  6
CONTINUOUS
 66
     1
 40
0.002200
 41
0.002200
  0
VERTEX
  8
0
 62
     0
  6
CONTINUOUS
 10
2.581480
 20
5.274280
  0
VERTEX
  8
0
 62
     0
  6
CONTINUOUS
 10
2.574000
 20
5.292760
  0
SEQEND
  8
0
  0
POLYLINE
  8
0
 62
     0
  6
CONTINUOUS
 66
     1
 40
0.002200
 41
0.002200
  0
VERTEX
  8
0
 62
     0
  6
CONTINUOUS
 10
2.574000
 20
5.292760
  0
VERTEX
  8
0
 62
     0
  6
CONTINUOUS
 10
2.592480
 20
5.288800
  0
SEQEND
  8
0
  0
POLYLINE
  8
0
 62
     0
  6
CONTINUOUS
 66
     1
 40
0.002200
 41
0.002200
  0
VERTEX
  8
0
 62
     0
  6
CONTINUOUS
 10
2.592480
 20
5.288800
  0
VERTEX
  8
0
 62
     0
  6
CONTINUOUS
 10
2.592480
 20
5.296280
  0
SEQEND
  8
0
  0
POLYLINE
  8
0
 62
     0
  6
CONTINUOUS
 66
     1
 40
0.002200
 41
0.002200
  0
VERTEX
  8
0
 62
     0
  6
CONTINUOUS
 10
2.592480
 20
5.296280
  0
VERTEX
  8
0
 62
     0
  6
CONTINUOUS
 10
2.574000
 20
5.292760
  0
SEQEND
  8
0
  0
POLYLINE
  8
0
 62
     0
  6
CONTINUOUS
 66
     1
 40
0.002200
 41
0.002200
  0
VERTEX
  8
0
 62
     0
  6
CONTINUOUS
 10
2.574000
 20
5.292760
  0
VERTEX
  8
0
 62
     0
  6
CONTINUOUS
 10
2.592480
 20
5.303760
  0
SEQEND
  8
0
  0
POLYLINE
  8
0
 62
     0
  6
CONTINUOUS
 66
     1
 40
0.002200
 41
0.002200
  0
VERTEX
  8
0
 62
     0
  6
CONTINUOUS
 10
2.587200
 20
5.307280
  0
VERTEX
  8
0
 62
     0
  6
CONTINUOUS
 10
2.574000
 20
5.292760
  0
SEQEND
  8
0
  0
POLYLINE
  8
0
 62
     0
  6
CONTINUOUS
 66
     1
 40
0.002200
 41
0.002200
  0
VERTEX
  8
0
 62
     0
  6
CONTINUOUS
 10
2.574000
 20
5.292760
  0
VERTEX
  8
0
 62
     0
  6
CONTINUOUS
 10
2.570480
 20
5.314760
  0
SEQEND
  8
0
  0
POLYLINE
  8
0
 62
     0
  6
CONTINUOUS
 66
     1
 40
0.002200
 41
0.002200
  0
VERTEX
  8
0
 62
     0
  6
CONTINUOUS
 10
2.570480
 20
5.314760
  0
VERTEX
  8
0
 62
     0
  6
CONTINUOUS
 10
2.575760
 20
5.314760
  0
SEQEND
  8
0
  0
POLYLINE
  8
0
 62
     0
  6
CONTINUOUS
 66
     1
 40
0.002200
 41
0.002200
  0
VERTEX
  8
0
 62
     0
  6
CONTINUOUS
 10
2.575760
 20
5.314760
  0
VERTEX
  8
0
 62
     0
  6
CONTINUOUS
 10
2.574000
 20
5.292760
  0
SEQEND
  8
0
  0
POLYLINE
  8
0
 62
     0
  6
CONTINUOUS
 66
     1
 40
0.002200
 41
0.002200
  0
VERTEX
  8
0
 62
     0
  6
CONTINUOUS
 10
2.574000
 20
5.292760
  0
VERTEX
  8
0
 62
     0
  6
CONTINUOUS
 10
2.557280
 20
5.307280
  0
SEQEND
  8
0
  0
POLYLINE
  8
0
 62
     0
  6
CONTINUOUS
 66
     1
 40
0.002200
 41
0.002200
  0
VERTEX
  8
0
 62
     0
  6
CONTINUOUS
 10
2.555520
 20
5.303760
  0
VERTEX
  8
0
 62
     0
  6
CONTINUOUS
 10
2.574000
 20
5.292760
  0
SEQEND
  8
0
  0
POLYLINE
  8
0
 62
     0
  6
CONTINUOUS
 66
     1
 40
0.002200
 41
0.002200
  0
VERTEX
  8
0
 62
     0
  6
CONTINUOUS
 10
2.574000
 20
5.292760
  0
VERTEX
  8
0
 62
     0
  6
CONTINUOUS
 10
2.552000
 20
5.296280
  0
SEQEND
  8
0
  0
POLYLINE
  8
0
 62
     0
  6
CONTINUOUS
 66
     1
 40
0.002200
 41
0.002200
  0
VERTEX
  8
0
 62
     0
  6
CONTINUOUS
 10
2.552000
 20
5.296280
  0
VERTEX
  8
0
 62
     0
  6
CONTINUOUS
 10
2.552000
 20
5.288800
  0
SEQEND
  8
0
  0
POLYLINE
  8
0
 62
     0
  6
CONTINUOUS
 66
     1
 40
0.002200
 41
0.002200
  0
VERTEX
  8
0
 62
     0
  6
CONTINUOUS
 10
2.552000
 20
5.288800
  0
VERTEX
  8
0
 62
     0
  6
CONTINUOUS
 10
2.574000
 20
5.292760
  0
SEQEND
  8
0
  0
POLYLINE
  8
0
 62
     0
  6
CONTINUOUS
 66
     1
 40
0.002200
 41
0.002200
  0
VERTEX
  8
0
 62
     0
  6
CONTINUOUS
 10
2.574000
 20
5.292760
  0
VERTEX
  8
0
 62
     0
  6
CONTINUOUS
 10
2.555520
 20
5.283520
  0
SEQEND
  8
0
  0
POLYLINE
  8
0
 62
     0
  6
CONTINUOUS
 66
     1
 40
0.002200
 41
0.002200
  0
VERTEX
  8
0
 62
     0
  6
CONTINUOUS
 10
2.563000
 20
5.274280
  0
VERTEX
  8
0
 62
     0
  6
CONTINUOUS
 10
2.574000
 20
5.292760
  0
SEQEND
  8
0
  0
POLYLINE
  8
0
 62
     0
  6
CONTINUOUS
 66
     1
 40
0.002200
 41
0.002200
  0
VERTEX
  8
0
 62
     0
  6
CONTINUOUS
 10
2.574000
 20
5.292760
  0
VERTEX
  8
0
 62
     0
  6
CONTINUOUS
 10
2.592480
 20
5.283520
  0
SEQEND
  8
0
  0
POLYLINE
  8
0
 62
     0
  6
CONTINUOUS
 66
     1
 40
0.002200
 41
0.002200
  0
VERTEX
  8
0
 62
     0
  6
CONTINUOUS
 10
2.574000
 20
5.292760
  0
VERTEX
  8
0
 62
     0
  6
CONTINUOUS
 10
2.581480
 20
5.311240
  0
SEQEND
  8
0
  0
POLYLINE
  8
0
 62
     0
  6
CONTINUOUS
 66
     1
 40
0.002200
 41
0.002200
  0
VERTEX
  8
0
 62
     0
  6
CONTINUOUS
 10
2.563000
 20
5.311240
  0
VERTEX
  8
0
 62
     0
  6
CONTINUOUS
 10
2.574000
 20
5.292760
  0
SEQEND
  8
0
  0
POLYLINE
  8
0
 62
     0
  6
CONTINUOUS
 66
     1
 40
0.002200
 41
0.002200
  0
VERTEX
  8
0
 62
     0
  6
CONTINUOUS
 10
2.575760
 20
5.188920
  0
VERTEX
  8
0
 62
     0
  6
CONTINUOUS
 10
2.574000
 20
5.168680
  0
SEQEND
  8
0
  0
POLYLINE
  8
0
 62
     0
  6
CONTINUOUS
 66
     1
 40
0.002200
 41
0.002200
  0
VERTEX
  8
0
 62
     0
  6
CONTINUOUS
 10
2.574000
 20
5.168680
  0
VERTEX
  8
0
 62
     0
  6
CONTINUOUS
 10
2.570480
 20
5.188920
  0
SEQEND
  8
0
  0
POLYLINE
  8
0
 62
     0
  6
CONTINUOUS
 66
     1
 40
0.002200
 41
0.002200
  0
VERTEX
  8
0
 62
     0
  6
CONTINUOUS
 10
2.563000
 20
5.185400
  0
VERTEX
  8
0
 62
     0
  6
CONTINUOUS
 10
2.574000
 20
5.168680
  0
SEQEND
  8
0
  0
POLYLINE
  8
0
 62
     0
  6
CONTINUOUS
 66
     1
 40
0.002200
 41
0.002200
  0
VERTEX
  8
0
 62
     0
  6
CONTINUOUS
 10
2.574000
 20
5.168680
  0
VERTEX
  8
0
 62
     0
  6
CONTINUOUS
 10
2.557280
 20
5.181440
  0
SEQEND
  8
0
  0
POLYLINE
  8
0
 62
     0
  6
CONTINUOUS
 66
     1
 40
0.002200
 41
0.002200
  0
VERTEX
  8
0
 62
     0
  6
CONTINUOUS
 10
2.555520
 20
5.177920
  0
VERTEX
  8
0
 62
     0
  6
CONTINUOUS
 10
2.574000
 20
5.168680
  0
SEQEND
  8
0
  0
POLYLINE
  8
0
 62
     0
  6
CONTINUOUS
 66
     1
 40
0.002200
 41
0.002200
  0
VERTEX
  8
0
 62
     0
  6
CONTINUOUS
 10
2.574000
 20
5.168680
  0
VERTEX
  8
0
 62
     0
  6
CONTINUOUS
 10
2.552000
 20
5.170440
  0
SEQEND
  8
0
  0
POLYLINE
  8
0
 62
     0
  6
CONTINUOUS
 66
     1
 40
0.002200
 41
0.002200
  0
VERTEX
  8
0
 62
     0
  6
CONTINUOUS
 10
2.552000
 20
5.170440
  0
VERTEX
  8
0
 62
     0
  6
CONTINUOUS
 10
2.552000
 20
5.162960
  0
SEQEND
  8
0
  0
POLYLINE
  8
0
 62
     0
  6
CONTINUOUS
 66
     1
 40
0.002200
 41
0.002200
  0
VERTEX
  8
0
 62
     0
  6
CONTINUOUS
 10
2.552000
 20
5.162960
  0
VERTEX
  8
0
 62
     0
  6
CONTINUOUS
 10
2.574000
 20
5.168680
  0
SEQEND
  8
0
  0
POLYLINE
  8
0
 62
     0
  6
CONTINUOUS
 66
     1
 40
0.002200
 41
0.002200
  0
VERTEX
  8
0
 62
     0
  6
CONTINUOUS
 10
2.574000
 20
5.168680
  0
VERTEX
  8
0
 62
     0
  6
CONTINUOUS
 10
2.555520
 20
5.157680
  0
SEQEND
  8
0
  0
POLYLINE
  8
0
 62
     0
  6
CONTINUOUS
 66
     1
 40
0.002200
 41
0.002200
  0
VERTEX
  8
0
 62
     0
  6
CONTINUOUS
 10
2.557280
 20
5.151960
  0
VERTEX
  8
0
 62
     0
  6
CONTINUOUS
 10
2.574000
 20
5.168680
  0
SEQEND
  8
0
  0
POLYLINE
  8
0
 62
     0
  6
CONTINUOUS
 66
     1
 40
0.002200
 41
0.002200
  0
VERTEX
  8
0
 62
     0
  6
CONTINUOUS
 10
2.574000
 20
5.168680
  0
VERTEX
  8
0
 62
     0
  6
CONTINUOUS
 10
2.575760
 20
5.146680
  0
SEQEND
  8
0
  0
POLYLINE
  8
0
 62
     0
  6
CONTINUOUS
 66
     1
 40
0.002200
 41
0.002200
  0
VERTEX
  8
0
 62
     0
  6
CONTINUOUS
 10
2.575760
 20
5.146680
  0
VERTEX
  8
0
 62
     0
  6
CONTINUOUS
 10
2.570480
 20
5.146680
  0
SEQEND
  8
0
  0
POLYLINE
  8
0
 62
     0
  6
CONTINUOUS
 66
     1
 40
0.002200
 41
0.002200
  0
VERTEX
  8
0
 62
     0
  6
CONTINUOUS
 10
2.570480
 20
5.146680
  0
VERTEX
  8
0
 62
     0
  6
CONTINUOUS
 10
2.574000
 20
5.168680
  0
SEQEND
  8
0
  0
POLYLINE
  8
0
 62
     0
  6
CONTINUOUS
 66
     1
 40
0.002200
 41
0.002200
  0
VERTEX
  8
0
 62
     0
  6
CONTINUOUS
 10
2.574000
 20
5.168680
  0
VERTEX
  8
0
 62
     0
  6
CONTINUOUS
 10
2.587200
 20
5.151960
  0
SEQEND
  8
0
  0
POLYLINE
  8
0
 62
     0
  6
CONTINUOUS
 66
     1
 40
0.002200
 41
0.002200
  0
VERTEX
  8
0
 62
     0
  6
CONTINUOUS
 10
2.592480
 20
5.157680
  0
VERTEX
  8
0
 62
     0
  6
CONTINUOUS
 10
2.574000
 20
5.168680
  0
SEQEND
  8
0
  0
POLYLINE
  8
0
 62
     0
  6
CONTINUOUS
 66
     1
 40
0.002200
 41
0.002200
  0
VERTEX
  8
0
 62
     0
  6
CONTINUOUS
 10
2.574000
 20
5.168680
  0
VERTEX
  8
0
 62
     0
  6
CONTINUOUS
 10
2.592480
 20
5.162960
  0
SEQEND
  8
0
  0
POLYLINE
  8
0
 62
     0
  6
CONTINUOUS
 66
     1
 40
0.002200
 41
0.002200
  0
VERTEX
  8
0
 62
     0
  6
CONTINUOUS
 10
2.592480
 20
5.162960
  0
VERTEX
  8
0
 62
     0
  6
CONTINUOUS
 10
2.592480
 20
5.170440
  0
SEQEND
  8
0
  0
POLYLINE
  8
0
 62
     0
  6
CONTINUOUS
 66
     1
 40
0.002200
 41
0.002200
  0
VERTEX
  8
0
 62
     0
  6
CONTINUOUS
 10
2.592480
 20
5.170440
  0
VERTEX
  8
0
 62
     0
  6
CONTINUOUS
 10
2.574000
 20
5.168680
  0
SEQEND
  8
0
  0
POLYLINE
  8
0
 62
     0
  6
CONTINUOUS
 66
     1
 40
0.002200
 41
0.002200
  0
VERTEX
  8
0
 62
     0
  6
CONTINUOUS
 10
2.574000
 20
5.168680
  0
VERTEX
  8
0
 62
     0
  6
CONTINUOUS
 10
2.592480
 20
5.177920
  0
SEQEND
  8
0
  0
POLYLINE
  8
0
 62
     0
  6
CONTINUOUS
 66
     1
 40
0.002200
 41
0.002200
  0
VERTEX
  8
0
 62
     0
  6
CONTINUOUS
 10
2.587200
 20
5.181440
  0
VERTEX
  8
0
 62
     0
  6
CONTINUOUS
 10
2.574000
 20
5.168680
  0
SEQEND
  8
0
  0
POLYLINE
  8
0
 62
     0
  6
CONTINUOUS
 66
     1
 40
0.002200
 41
0.002200
  0
VERTEX
  8
0
 62
     0
  6
CONTINUOUS
 10
2.574000
 20
5.168680
  0
VERTEX
  8
0
 62
     0
  6
CONTINUOUS
 10
2.581480
 20
5.185400
  0
SEQEND
  8
0
  0
POLYLINE
  8
0
 62
     0
  6
CONTINUOUS
 66
     1
 40
0.002200
 41
0.002200
  0
VERTEX
  8
0
 62
     0
  6
CONTINUOUS
 10
2.574000
 20
5.168680
  0
VERTEX
  8
0
 62
     0
  6
CONTINUOUS
 10
2.563000
 20
5.148440
  0
SEQEND
  8
0
  0
POLYLINE
  8
0
 62
     0
  6
CONTINUOUS
 66
     1
 40
0.002200
 41
0.002200
  0
VERTEX
  8
0
 62
     0
  6
CONTINUOUS
 10
2.581480
 20
5.148440
  0
VERTEX
  8
0
 62
     0
  6
CONTINUOUS
 10
2.574000
 20
5.168680
  0
SEQEND
  8
0
  0
POLYLINE
  8
0
 62
     0
  6
CONTINUOUS
 66
     1
 40
0.002200
 41
0.002200
  0
VERTEX
  8
0
 62
     0
  6
CONTINUOUS
 10
2.570480
 20
5.416400
  0
VERTEX
  8
0
 62
     0
  6
CONTINUOUS
 10
2.574000
 20
5.437080
  0
SEQEND
  8
0
  0
POLYLINE
  8
0
 62
     0
  6
CONTINUOUS
 66
     1
 40
0.002200
 41
0.002200
  0
VERTEX
  8
0
 62
     0
  6
CONTINUOUS
 10
2.574000
 20
5.437080
  0
VERTEX
  8
0
 62
     0
  6
CONTINUOUS
 10
2.575760
 20
5.416400
  0
SEQEND
  8
0
  0
POLYLINE
  8
0
 62
     0
  6
CONTINUOUS
 66
     1
 40
0.002200
 41
0.002200
  0
VERTEX
  8
0
 62
     0
  6
CONTINUOUS
 10
2.581480
 20
5.418600
  0
VERTEX
  8
0
 62
     0
  6
CONTINUOUS
 10
2.574000
 20
5.437080
  0
SEQEND
  8
0
  0
POLYLINE
  8
0
 62
     0
  6
CONTINUOUS
 66
     1
 40
0.002200
 41
0.002200
  0
VERTEX
  8
0
 62
     0
  6
CONTINUOUS
 10
2.574000
 20
5.437080
  0
VERTEX
  8
0
 62
     0
  6
CONTINUOUS
 10
2.587200
 20
5.422120
  0
SEQEND
  8
0
  0
POLYLINE
  8
0
 62
     0
  6
CONTINUOUS
 66
     1
 40
0.002200
 41
0.002200
  0
VERTEX
  8
0
 62
     0
  6
CONTINUOUS
 10
2.592480
 20
5.427840
  0
VERTEX
  8
0
 62
     0
  6
CONTINUOUS
 10
2.574000
 20
5.437080
  0
SEQEND
  8
0
  0
POLYLINE
  8
0
 62
     0
  6
CONTINUOUS
 66
     1
 40
0.002200
 41
0.002200
  0
VERTEX
  8
0
 62
     0
  6
CONTINUOUS
 10
2.574000
 20
5.437080
  0
VERTEX
  8
0
 62
     0
  6
CONTINUOUS
 10
2.592480
 20
5.434880
  0
SEQEND
  8
0
  0
POLYLINE
  8
0
 62
     0
  6
CONTINUOUS
 66
     1
 40
0.002200
 41
0.002200
  0
VERTEX
  8
0
 62
     0
  6
CONTINUOUS
 10
2.592480
 20
5.434880
  0
VERTEX
  8
0
 62
     0
  6
CONTINUOUS
 10
2.592480
 20
5.440600
  0
SEQEND
  8
0
  0
POLYLINE
  8
0
 62
     0
  6
CONTINUOUS
 66
     1
 40
0.002200
 41
0.002200
  0
VERTEX
  8
0
 62
     0
  6
CONTINUOUS
 10
2.592480
 20
5.440600
  0
VERTEX
  8
0
 62
     0
  6
CONTINUOUS
 10
2.574000
 20
5.437080
  0
SEQEND
  8
0
  0
POLYLINE
  8
0
 62
     0
  6
CONTINUOUS
 66
     1
 40
0.002200
 41
0.002200
  0
VERTEX
  8
0
 62
     0
  6
CONTINUOUS
 10
2.574000
 20
5.437080
  0
VERTEX
  8
0
 62
     0
  6
CONTINUOUS
 10
2.592480
 20
5.448080
  0
SEQEND
  8
0
  0
POLYLINE
  8
0
 62
     0
  6
CONTINUOUS
 66
     1
 40
0.002200
 41
0.002200
  0
VERTEX
  8
0
 62
     0
  6
CONTINUOUS
 10
2.587200
 20
5.451600
  0
VERTEX
  8
0
 62
     0
  6
CONTINUOUS
 10
2.574000
 20
5.437080
  0
SEQEND
  8
0
  0
POLYLINE
  8
0
 62
     0
  6
CONTINUOUS
 66
     1
 40
0.002200
 41
0.002200
  0
VERTEX
  8
0
 62
     0
  6
CONTINUOUS
 10
2.574000
 20
5.437080
  0
VERTEX
  8
0
 62
     0
  6
CONTINUOUS
 10
2.575760
 20
5.459080
  0
SEQEND
  8
0
  0
POLYLINE
  8
0
 62
     0
  6
CONTINUOUS
 66
     1
 40
0.002200
 41
0.002200
  0
VERTEX
  8
0
 62
     0
  6
CONTINUOUS
 10
2.575760
 20
5.459080
  0
VERTEX
  8
0
 62
     0
  6
CONTINUOUS
 10
2.570480
 20
5.459080
  0
SEQEND
  8
0
  0
POLYLINE
  8
0
 62
     0
  6
CONTINUOUS
 66
     1
 40
0.002200
 41
0.002200
  0
VERTEX
  8
0
 62
     0
  6
CONTINUOUS
 10
2.570480
 20
5.459080
  0
VERTEX
  8
0
 62
     0
  6
CONTINUOUS
 10
2.574000
 20
5.437080
  0
SEQEND
  8
0
  0
POLYLINE
  8
0
 62
     0
  6
CONTINUOUS
 66
     1
 40
0.002200
 41
0.002200
  0
VERTEX
  8
0
 62
     0
  6
CONTINUOUS
 10
2.574000
 20
5.437080
  0
VERTEX
  8
0
 62
     0
  6
CONTINUOUS
 10
2.557280
 20
5.451600
  0
SEQEND
  8
0
  0
POLYLINE
  8
0
 62
     0
  6
CONTINUOUS
 66
     1
 40
0.002200
 41
0.002200
  0
VERTEX
  8
0
 62
     0
  6
CONTINUOUS
 10
2.555520
 20
5.448080
  0
VERTEX
  8
0
 62
     0
  6
CONTINUOUS
 10
2.574000
 20
5.437080
  0
SEQEND
  8
0
  0
POLYLINE
  8
0
 62
     0
  6
CONTINUOUS
 66
     1
 40
0.002200
 41
0.002200
  0
VERTEX
  8
0
 62
     0
  6
CONTINUOUS
 10
2.574000
 20
5.437080
  0
VERTEX
  8
0
 62
     0
  6
CONTINUOUS
 10
2.552000
 20
5.440600
  0
SEQEND
  8
0
  0
POLYLINE
  8
0
 62
     0
  6
CONTINUOUS
 66
     1
 40
0.002200
 41
0.002200
  0
VERTEX
  8
0
 62
     0
  6
CONTINUOUS
 10
2.552000
 20
5.440600
  0
VERTEX
  8
0
 62
     0
  6
CONTINUOUS
 10
2.552000
 20
5.434880
  0
SEQEND
  8
0
  0
POLYLINE
  8
0
 62
     0
  6
CONTINUOUS
 66
     1
 40
0.002200
 41
0.002200
  0
VERTEX
  8
0
 62
     0
  6
CONTINUOUS
 10
2.552000
 20
5.434880
  0
VERTEX
  8
0
 62
     0
  6
CONTINUOUS
 10
2.574000
 20
5.437080
  0
SEQEND
  8
0
  0
POLYLINE
  8
0
 62
     0
  6
CONTINUOUS
 66
     1
 40
0.002200
 41
0.002200
  0
VERTEX
  8
0
 62
     0
  6
CONTINUOUS
 10
2.574000
 20
5.437080
  0
VERTEX
  8
0
 62
     0
  6
CONTINUOUS
 10
2.555520
 20
5.427840
  0
SEQEND
  8
0
  0
POLYLINE
  8
0
 62
     0
  6
CONTINUOUS
 66
     1
 40
0.002200
 41
0.002200
  0
VERTEX
  8
0
 62
     0
  6
CONTINUOUS
 10
2.557280
 20
5.422120
  0
VERTEX
  8
0
 62
     0
  6
CONTINUOUS
 10
2.574000
 20
5.437080
  0
SEQEND
  8
0
  0
POLYLINE
  8
0
 62
     0
  6
CONTINUOUS
 66
     1
 40
0.002200
 41
0.002200
  0
VERTEX
  8
0
 62
     0
  6
CONTINUOUS
 10
2.574000
 20
5.437080
  0
VERTEX
  8
0
 62
     0
  6
CONTINUOUS
 10
2.563000
 20
5.418600
  0
SEQEND
  8
0
  0
POLYLINE
  8
0
 62
     0
  6
CONTINUOUS
 66
     1
 40
0.002200
 41
0.002200
  0
VERTEX
  8
0
 62
     0
  6
CONTINUOUS
 10
2.574000
 20
5.437080
  0
VERTEX
  8
0
 62
     0
  6
CONTINUOUS
 10
2.581480
 20
5.457320
  0
SEQEND
  8
0
  0
POLYLINE
  8
0
 62
     0
  6
CONTINUOUS
 66
     1
 40
0.002200
 41
0.002200
  0
VERTEX
  8
0
 62
     0
  6
CONTINUOUS
 10
2.563000
 20
5.457320
  0
VERTEX
  8
0
 62
     0
  6
CONTINUOUS
 10
2.574000
 20
5.437080
  0
SEQEND
  8
0
  0
POLYLINE
  8
0
 62
     0
  6
CONTINUOUS
 66
     1
 40
0.002200
 41
0.002200
  0
VERTEX
  8
0
 62
     0
  6
CONTINUOUS
 10
2.575760
 20
5.555440
  0
VERTEX
  8
0
 62
     0
  6
CONTINUOUS
 10
2.574000
 20
5.577440
  0
SEQEND
  8
0
  0
POLYLINE
  8
0
 62
     0
  6
CONTINUOUS
 66
     1
 40
0.002200
 41
0.002200
  0
VERTEX
  8
0
 62
     0
  6
CONTINUOUS
 10
2.574000
 20
5.577440
  0
VERTEX
  8
0
 62
     0
  6
CONTINUOUS
 10
2.587200
 20
5.560720
  0
SEQEND
  8
0
  0
POLYLINE
  8
0
 62
     0
  6
CONTINUOUS
 66
     1
 40
0.002200
 41
0.002200
  0
VERTEX
  8
0
 62
     0
  6
CONTINUOUS
 10
2.592480
 20
5.566440
  0
VERTEX
  8
0
 62
     0
  6
CONTINUOUS
 10
2.574000
 20
5.577440
  0
SEQEND
  8
0
  0
POLYLINE
  8
0
 62
     0
  6
CONTINUOUS
 66
     1
 40
0.002200
 41
0.002200
  0
VERTEX
  8
0
 62
     0
  6
CONTINUOUS
 10
2.574000
 20
5.577440
  0
VERTEX
  8
0
 62
     0
  6
CONTINUOUS
 10
2.592480
 20
5.573920
  0
SEQEND
  8
0
  0
POLYLINE
  8
0
 62
     0
  6
CONTINUOUS
 66
     1
 40
0.002200
 41
0.002200
  0
VERTEX
  8
0
 62
     0
  6
CONTINUOUS
 10
2.592480
 20
5.573920
  0
VERTEX
  8
0
 62
     0
  6
CONTINUOUS
 10
2.592480
 20
5.579200
  0
SEQEND
  8
0
  0
POLYLINE
  8
0
 62
     0
  6
CONTINUOUS
 66
     1
 40
0.002200
 41
0.002200
  0
VERTEX
  8
0
 62
     0
  6
CONTINUOUS
 10
2.592480
 20
5.579200
  0
VERTEX
  8
0
 62
     0
  6
CONTINUOUS
 10
2.574000
 20
5.577440
  0
SEQEND
  8
0
  0
POLYLINE
  8
0
 62
     0
  6
CONTINUOUS
 66
     1
 40
0.002200
 41
0.002200
  0
VERTEX
  8
0
 62
     0
  6
CONTINUOUS
 10
2.574000
 20
5.577440
  0
VERTEX
  8
0
 62
     0
  6
CONTINUOUS
 10
2.592480
 20
5.586680
  0
SEQEND
  8
0
  0
POLYLINE
  8
0
 62
     0
  6
CONTINUOUS
 66
     1
 40
0.002200
 41
0.002200
  0
VERTEX
  8
0
 62
     0
  6
CONTINUOUS
 10
2.587200
 20
5.592400
  0
VERTEX
  8
0
 62
     0
  6
CONTINUOUS
 10
2.574000
 20
5.577440
  0
SEQEND
  8
0
  0
POLYLINE
  8
0
 62
     0
  6
CONTINUOUS
 66
     1
 40
0.002200
 41
0.002200
  0
VERTEX
  8
0
 62
     0
  6
CONTINUOUS
 10
2.574000
 20
5.577440
  0
VERTEX
  8
0
 62
     0
  6
CONTINUOUS
 10
2.575760
 20
5.599880
  0
SEQEND
  8
0
  0
POLYLINE
  8
0
 62
     0
  6
CONTINUOUS
 66
     1
 40
0.002200
 41
0.002200
  0
VERTEX
  8
0
 62
     0
  6
CONTINUOUS
 10
2.575760
 20
5.599880
  0
VERTEX
  8
0
 62
     0
  6
CONTINUOUS
 10
2.570480
 20
5.599880
  0
SEQEND
  8
0
  0
POLYLINE
  8
0
 62
     0
  6
CONTINUOUS
 66
     1
 40
0.002200
 41
0.002200
  0
VERTEX
  8
0
 62
     0
  6
CONTINUOUS
 10
2.570480
 20
5.599880
  0
VERTEX
  8
0
 62
     0
  6
CONTINUOUS
 10
2.574000
 20
5.577440
  0
SEQEND
  8
0
  0
POLYLINE
  8
0
 62
     0
  6
CONTINUOUS
 66
     1
 40
0.002200
 41
0.002200
  0
VERTEX
  8
0
 62
     0
  6
CONTINUOUS
 10
2.574000
 20
5.577440
  0
VERTEX
  8
0
 62
     0
  6
CONTINUOUS
 10
2.557280
 20
5.592400
  0
SEQEND
  8
0
  0
POLYLINE
  8
0
 62
     0
  6
CONTINUOUS
 66
     1
 40
0.002200
 41
0.002200
  0
VERTEX
  8
0
 62
     0
  6
CONTINUOUS
 10
2.555520
 20
5.586680
  0
VERTEX
  8
0
 62
     0
  6
CONTINUOUS
 10
2.574000
 20
5.577440
  0
SEQEND
  8
0
  0
POLYLINE
  8
0
 62
     0
  6
CONTINUOUS
 66
     1
 40
0.002200
 41
0.002200
  0
VERTEX
  8
0
 62
     0
  6
CONTINUOUS
 10
2.574000
 20
5.577440
  0
VERTEX
  8
0
 62
     0
  6
CONTINUOUS
 10
2.552000
 20
5.579200
  0
SEQEND
  8
0
  0
POLYLINE
  8
0
 62
     0
  6
CONTINUOUS
 66
     1
 40
0.002200
 41
0.002200
  0
VERTEX
  8
0
 62
     0
  6
CONTINUOUS
 10
2.552000
 20
5.579200
  0
VERTEX
  8
0
 62
     0
  6
CONTINUOUS
 10
2.552000
 20
5.573920
  0
SEQEND
  8
0
  0
POLYLINE
  8
0
 62
     0
  6
CONTINUOUS
 66
     1
 40
0.002200
 41
0.002200
  0
VERTEX
  8
0
 62
     0
  6
CONTINUOUS
 10
2.552000
 20
5.573920
  0
VERTEX
  8
0
 62
     0
  6
CONTINUOUS
 10
2.574000
 20
5.577440
  0
SEQEND
  8
0
  0
POLYLINE
  8
0
 62
     0
  6
CONTINUOUS
 66
     1
 40
0.002200
 41
0.002200
  0
VERTEX
  8
0
 62
     0
  6
CONTINUOUS
 10
2.574000
 20
5.577440
  0
VERTEX
  8
0
 62
     0
  6
CONTINUOUS
 10
2.555520
 20
5.566440
  0
SEQEND
  8
0
  0
POLYLINE
  8
0
 62
     0
  6
CONTINUOUS
 66
     1
 40
0.002200
 41
0.002200
  0
VERTEX
  8
0
 62
     0
  6
CONTINUOUS
 10
2.557280
 20
5.560720
  0
VERTEX
  8
0
 62
     0
  6
CONTINUOUS
 10
2.574000
 20
5.577440
  0
SEQEND
  8
0
  0
POLYLINE
  8
0
 62
     0
  6
CONTINUOUS
 66
     1
 40
0.002200
 41
0.002200
  0
VERTEX
  8
0
 62
     0
  6
CONTINUOUS
 10
2.574000
 20
5.577440
  0
VERTEX
  8
0
 62
     0
  6
CONTINUOUS
 10
2.570480
 20
5.555440
  0
SEQEND
  8
0
  0
POLYLINE
  8
0
 62
     0
  6
CONTINUOUS
 66
     1
 40
0.002200
 41
0.002200
  0
VERTEX
  8
0
 62
     0
  6
CONTINUOUS
 10
2.563000
 20
5.557200
  0
VERTEX
  8
0
 62
     0
  6
CONTINUOUS
 10
2.574000
 20
5.577440
  0
SEQEND
  8
0
  0
POLYLINE
  8
0
 62
     0
  6
CONTINUOUS
 66
     1
 40
0.002200
 41
0.002200
  0
VERTEX
  8
0
 62
     0
  6
CONTINUOUS
 10
2.574000
 20
5.577440
  0
VERTEX
  8
0
 62
     0
  6
CONTINUOUS
 10
2.581480
 20
5.557200
  0
SEQEND
  8
0
  0
POLYLINE
  8
0
 62
     0
  6
CONTINUOUS
 66
     1
 40
0.002200
 41
0.002200
  0
VERTEX
  8
0
 62
     0
  6
CONTINUOUS
 10
2.574000
 20
5.577440
  0
VERTEX
  8
0
 62
     0
  6
CONTINUOUS
 10
2.581480
 20
5.595920
  0
SEQEND
  8
0
  0
POLYLINE
  8
0
 62
     0
  6
CONTINUOUS
 66
     1
 40
0.002200
 41
0.002200
  0
VERTEX
  8
0
 62
     0
  6
CONTINUOUS
 10
2.563000
 20
5.595920
  0
VERTEX
  8
0
 62
     0
  6
CONTINUOUS
 10
2.574000
 20
5.577440
  0
SEQEND
  8
0
  0
POLYLINE
  8
0
 62
     0
  6
CONTINUOUS
 66
     1
 40
0.002200
 41
0.002200
  0
VERTEX
  8
0
 62
     0
  6
CONTINUOUS
 10
2.575760
 20
5.673800
  0
VERTEX
  8
0
 62
     0
  6
CONTINUOUS
 10
2.574000
 20
5.695800
  0
SEQEND
  8
0
  0
POLYLINE
  8
0
 62
     0
  6
CONTINUOUS
 66
     1
 40
0.002200
 41
0.002200
  0
VERTEX
  8
0
 62
     0
  6
CONTINUOUS
 10
2.574000
 20
5.695800
  0
VERTEX
  8
0
 62
     0
  6
CONTINUOUS
 10
2.587200
 20
5.680840
  0
SEQEND
  8
0
  0
POLYLINE
  8
0
 62
     0
  6
CONTINUOUS
 66
     1
 40
0.002200
 41
0.002200
  0
VERTEX
  8
0
 62
     0
  6
CONTINUOUS
 10
2.581480
 20
5.677320
  0
VERTEX
  8
0
 62
     0
  6
CONTINUOUS
 10
2.574000
 20
5.695800
  0
SEQEND
  8
0
  0
POLYLINE
  8
0
 62
     0
  6
CONTINUOUS
 66
     1
 40
0.002200
 41
0.002200
  0
VERTEX
  8
0
 62
     0
  6
CONTINUOUS
 10
2.574000
 20
5.695800
  0
VERTEX
  8
0
 62
     0
  6
CONTINUOUS
 10
2.592480
 20
5.692280
  0
SEQEND
  8
0
  0
POLYLINE
  8
0
 62
     0
  6
CONTINUOUS
 66
     1
 40
0.002200
 41
0.002200
  0
VERTEX
  8
0
 62
     0
  6
CONTINUOUS
 10
2.592480
 20
5.692280
  0
VERTEX
  8
0
 62
     0
  6
CONTINUOUS
 10
2.592480
 20
5.699760
  0
SEQEND
  8
0
  0
POLYLINE
  8
0
 62
     0
  6
CONTINUOUS
 66
     1
 40
0.002200
 41
0.002200
  0
VERTEX
  8
0
 62
     0
  6
CONTINUOUS
 10
2.592480
 20
5.699760
  0
VERTEX
  8
0
 62
     0
  6
CONTINUOUS
 10
2.574000
 20
5.695800
  0
SEQEND
  8
0
  0
POLYLINE
  8
0
 62
     0
  6
CONTINUOUS
 66
     1
 40
0.002200
 41
0.002200
  0
VERTEX
  8
0
 62
     0
  6
CONTINUOUS
 10
2.574000
 20
5.695800
  0
VERTEX
  8
0
 62
     0
  6
CONTINUOUS
 10
2.592480
 20
5.706800
  0
SEQEND
  8
0
  0
POLYLINE
  8
0
 62
     0
  6
CONTINUOUS
 66
     1
 40
0.002200
 41
0.002200
  0
VERTEX
  8
0
 62
     0
  6
CONTINUOUS
 10
2.587200
 20
5.710760
  0
VERTEX
  8
0
 62
     0
  6
CONTINUOUS
 10
2.574000
 20
5.695800
  0
SEQEND
  8
0
  0
POLYLINE
  8
0
 62
     0
  6
CONTINUOUS
 66
     1
 40
0.002200
 41
0.002200
  0
VERTEX
  8
0
 62
     0
  6
CONTINUOUS
 10
2.574000
 20
5.695800
  0
VERTEX
  8
0
 62
     0
  6
CONTINUOUS
 10
2.575760
 20
5.718240
  0
SEQEND
  8
0
  0
POLYLINE
  8
0
 62
     0
  6
CONTINUOUS
 66
     1
 40
0.002200
 41
0.002200
  0
VERTEX
  8
0
 62
     0
  6
CONTINUOUS
 10
2.575760
 20
5.718240
  0
VERTEX
  8
0
 62
     0
  6
CONTINUOUS
 10
2.570480
 20
5.718240
  0
SEQEND
  8
0
  0
POLYLINE
  8
0
 62
     0
  6
CONTINUOUS
 66
     1
 40
0.002200
 41
0.002200
  0
VERTEX
  8
0
 62
     0
  6
CONTINUOUS
 10
2.570480
 20
5.718240
  0
VERTEX
  8
0
 62
     0
  6
CONTINUOUS
 10
2.574000
 20
5.695800
  0
SEQEND
  8
0
  0
POLYLINE
  8
0
 62
     0
  6
CONTINUOUS
 66
     1
 40
0.002200
 41
0.002200
  0
VERTEX
  8
0
 62
     0
  6
CONTINUOUS
 10
2.574000
 20
5.695800
  0
VERTEX
  8
0
 62
     0
  6
CONTINUOUS
 10
2.557280
 20
5.710760
  0
SEQEND
  8
0
  0
POLYLINE
  8
0
 62
     0
  6
CONTINUOUS
 66
     1
 40
0.002200
 41
0.002200
  0
VERTEX
  8
0
 62
     0
  6
CONTINUOUS
 10
2.555520
 20
5.706800
  0
VERTEX
  8
0
 62
     0
  6
CONTINUOUS
 10
2.574000
 20
5.695800
  0
SEQEND
  8
0
  0
POLYLINE
  8
0
 62
     0
  6
CONTINUOUS
 66
     1
 40
0.002200
 41
0.002200
  0
VERTEX
  8
0
 62
     0
  6
CONTINUOUS
 10
2.574000
 20
5.695800
  0
VERTEX
  8
0
 62
     0
  6
CONTINUOUS
 10
2.552000
 20
5.699760
  0
SEQEND
  8
0
  0
POLYLINE
  8
0
 62
     0
  6
CONTINUOUS
 66
     1
 40
0.002200
 41
0.002200
  0
VERTEX
  8
0
 62
     0
  6
CONTINUOUS
 10
2.552000
 20
5.699760
  0
VERTEX
  8
0
 62
     0
  6
CONTINUOUS
 10
2.552000
 20
5.692280
  0
SEQEND
  8
0
  0
POLYLINE
  8
0
 62
     0
  6
CONTINUOUS
 66
     1
 40
0.002200
 41
0.002200
  0
VERTEX
  8
0
 62
     0
  6
CONTINUOUS
 10
2.552000
 20
5.692280
  0
VERTEX
  8
0
 62
     0
  6
CONTINUOUS
 10
2.574000
 20
5.695800
  0
SEQEND
  8
0
  0
POLYLINE
  8
0
 62
     0
  6
CONTINUOUS
 66
     1
 40
0.002200
 41
0.002200
  0
VERTEX
  8
0
 62
     0
  6
CONTINUOUS
 10
2.574000
 20
5.695800
  0
VERTEX
  8
0
 62
     0
  6
CONTINUOUS
 10
2.555520
 20
5.684800
  0
SEQEND
  8
0
  0
POLYLINE
  8
0
 62
     0
  6
CONTINUOUS
 66
     1
 40
0.002200
 41
0.002200
  0
VERTEX
  8
0
 62
     0
  6
CONTINUOUS
 10
2.557280
 20
5.680840
  0
VERTEX
  8
0
 62
     0
  6
CONTINUOUS
 10
2.574000
 20
5.695800
  0
SEQEND
  8
0
  0
POLYLINE
  8
0
 62
     0
  6
CONTINUOUS
 66
     1
 40
0.002200
 41
0.002200
  0
VERTEX
  8
0
 62
     0
  6
CONTINUOUS
 10
2.574000
 20
5.695800
  0
VERTEX
  8
0
 62
     0
  6
CONTINUOUS
 10
2.570480
 20
5.673800
  0
SEQEND
  8
0
  0
POLYLINE
  8
0
 62
     0
  6
CONTINUOUS
 66
     1
 40
0.002200
 41
0.002200
  0
VERTEX
  8
0
 62
     0
  6
CONTINUOUS
 10
2.563000
 20
5.677320
  0
VERTEX
  8
0
 62
     0
  6
CONTINUOUS
 10
2.574000
 20
5.695800
  0
SEQEND
  8
0
  0
POLYLINE
  8
0
 62
     0
  6
CONTINUOUS
 66
     1
 40
0.002200
 41
0.002200
  0
VERTEX
  8
0
 62
     0
  6
CONTINUOUS
 10
2.574000
 20
5.695800
  0
VERTEX
  8
0
 62
     0
  6
CONTINUOUS
 10
2.592480
 20
5.684800
  0
SEQEND
  8
0
  0
POLYLINE
  8
0
 62
     0
  6
CONTINUOUS
 66
     1
 40
0.002200
 41
0.002200
  0
VERTEX
  8
0
 62
     0
  6
CONTINUOUS
 10
2.574000
 20
5.695800
  0
VERTEX
  8
0
 62
     0
  6
CONTINUOUS
 10
2.581480
 20
5.716040
  0
SEQEND
  8
0
  0
POLYLINE
  8
0
 62
     0
  6
CONTINUOUS
 66
     1
 40
0.002200
 41
0.002200
  0
VERTEX
  8
0
 62
     0
  6
CONTINUOUS
 10
2.563000
 20
5.716040
  0
VERTEX
  8
0
 62
     0
  6
CONTINUOUS
 10
2.574000
 20
5.695800
  0
SEQEND
  8
0
  0
POLYLINE
  8
0
 62
     0
  6
CONTINUOUS
 66
     1
 40
0.002200
 41
0.002200
  0
VERTEX
  8
0
 62
     0
  6
CONTINUOUS
 10
4.609880
 20
5.082880
  0
VERTEX
  8
0
 62
     0
  6
CONTINUOUS
 10
1.617000
 20
5.082880
  0
SEQEND
  8
0
  0
POLYLINE
  8
0
 62
     0
  6
CONTINUOUS
 66
     1
 40
0.002200
 41
0.002200
  0
VERTEX
  8
0
 62
     0
  6
CONTINUOUS
 10
1.616120
 20
5.085520
  0
VERTEX
  8
0
 62
     0
  6
CONTINUOUS
 10
1.994960
 20
5.437080
  0
SEQEND
  8
0
  0
POLYLINE
  8
0
 62
     0
  6
CONTINUOUS
 66
     1
 40
0.002200
 41
0.002200
  0
VERTEX
  8
0
 62
     0
  6
CONTINUOUS
 10
4.601520
 20
5.810200
  0
VERTEX
  8
0
 62
     0
  6
CONTINUOUS
 10
1.632840
 20
5.810200
  0
SEQEND
  8
0
  0
POLYLINE
  8
0
 62
     0
  6
CONTINUOUS
 66
     1
 40
0.002200
 41
0.002200
  0
VERTEX
  8
0
 62
     0
  6
CONTINUOUS
 10
2.572240
 20
5.288800
  0
VERTEX
  8
0
 62
     0
  6
CONTINUOUS
 10
2.572240
 20
5.063080
  0
SEQEND
  8
0
  0
POLYLINE
  8
0
 62
     0
  6
CONTINUOUS
 66
     1
 40
0.002200
 41
0.002200
  0
VERTEX
  8
0
 62
     0
  6
CONTINUOUS
 10
2.572240
 20
5.377680
  0
VERTEX
  8
0
 62
     0
  6
CONTINUOUS
 10
2.572240
 20
5.558960
  0
SEQEND
  8
0
  0
POLYLINE
  8
0
 62
     0
  6
CONTINUOUS
 66
     1
 40
0.002200
 41
0.002200
  0
VERTEX
  8
0
 62
     0
  6
CONTINUOUS
 10
2.572240
 20
5.649600
  0
VERTEX
  8
0
 62
     0
  6
CONTINUOUS
 10
2.572240
 20
5.830880
  0
SEQEND
  8
0
  0
POLYLINE
  8
0
 62
     0
  6
CONTINUOUS
 66
     1
 40
0.002200
 41
0.002200
  0
VERTEX
  8
0
 62
     0
  6
CONTINUOUS
 10
4.611200
 20
5.085520
  0
VERTEX
  8
0
 62
     0
  6
CONTINUOUS
 10
4.990480
 20
5.437080
  0
SEQEND
  8
0
  0
POLYLINE
  8
0
 62
     0
  6
CONTINUOUS
 66
     1
 40
0.002200
 41
0.002200
  0
VERTEX
  8
0
 62
     0
  6
CONTINUOUS
 10
4.990480
 20
5.437080
  0
VERTEX
  8
0
 62
     0
  6
CONTINUOUS
 10
4.601960
 20
5.810200
  0
SEQEND
  8
0
  0
POLYLINE
  8
0
 62
     0
  6
CONTINUOUS
 66
     1
 40
0.002200
 41
0.002200
  0
VERTEX
  8
0
 62
     0
  6
CONTINUOUS
 10
4.720320
 20
5.466560
  0
VERTEX
  8
0
 62
     0
  6
CONTINUOUS
 10
4.718560
 20
5.460840
  0
SEQEND
  8
0
  0
POLYLINE
  8
0
 62
     0
  6
CONTINUOUS
 66
     1
 40
0.002200
 41
0.002200
  0
VERTEX
  8
0
 62
     0
  6
CONTINUOUS
 10
4.718560
 20
5.460840
  0
VERTEX
  8
0
 62
     0
  6
CONTINUOUS
 10
4.720320
 20
5.455560
  0
SEQEND
  8
0
  0
POLYLINE
  8
0
 62
     0
  6
CONTINUOUS
 66
     1
 40
0.002200
 41
0.002200
  0
VERTEX
  8
0
 62
     0
  6
CONTINUOUS
 10
4.720320
 20
5.455560
  0
VERTEX
  8
0
 62
     0
  6
CONTINUOUS
 10
4.724280
 20
5.451600
  0
SEQEND
  8
0
  0
POLYLINE
  8
0
 62
     0
  6
CONTINUOUS
 66
     1
 40
0.002200
 41
0.002200
  0
VERTEX
  8
0
 62
     0
  6
CONTINUOUS
 10
4.724280
 20
5.451600
  0
VERTEX
  8
0
 62
     0
  6
CONTINUOUS
 10
4.727800
 20
5.449840
  0
SEQEND
  8
0
  0
POLYLINE
  8
0
 62
     0
  6
CONTINUOUS
 66
     1
 40
0.002200
 41
0.002200
  0
VERTEX
  8
0
 62
     0
  6
CONTINUOUS
 10
4.727800
 20
5.449840
  0
VERTEX
  8
0
 62
     0
  6
CONTINUOUS
 10
4.742760
 20
5.444120
  0
SEQEND
  8
0
  0
POLYLINE
  8
0
 62
     0
  6
CONTINUOUS
 66
     1
 40
0.002200
 41
0.002200
  0
VERTEX
  8
0
 62
     0
  6
CONTINUOUS
 10
4.742760
 20
5.444120
  0
VERTEX
  8
0
 62
     0
  6
CONTINUOUS
 10
4.749800
 20
5.440600
  0
SEQEND
  8
0
  0
POLYLINE
  8
0
 62
     0
  6
CONTINUOUS
 66
     1
 40
0.002200
 41
0.002200
  0
VERTEX
  8
0
 62
     0
  6
CONTINUOUS
 10
4.749800
 20
5.440600
  0
VERTEX
  8
0
 62
     0
  6
CONTINUOUS
 10
4.751560
 20
5.437080
  0
SEQEND
  8
0
  0
POLYLINE
  8
0
 62
     0
  6
CONTINUOUS
 66
     1
 40
0.002200
 41
0.002200
  0
VERTEX
  8
0
 62
     0
  6
CONTINUOUS
 10
4.751560
 20
5.437080
  0
VERTEX
  8
0
 62
     0
  6
CONTINUOUS
 10
4.753760
 20
5.431360
  0
SEQEND
  8
0
  0
POLYLINE
  8
0
 62
     0
  6
CONTINUOUS
 66
     1
 40
0.002200
 41
0.002200
  0
VERTEX
  8
0
 62
     0
  6
CONTINUOUS
 10
4.753760
 20
5.431360
  0
VERTEX
  8
0
 62
     0
  6
CONTINUOUS
 10
4.749800
 20
5.422120
  0
SEQEND
  8
0
  0
POLYLINE
  8
0
 62
     0
  6
CONTINUOUS
 66
     1
 40
0.002200
 41
0.002200
  0
VERTEX
  8
0
 62
     0
  6
CONTINUOUS
 10
4.749800
 20
5.422120
  0
VERTEX
  8
0
 62
     0
  6
CONTINUOUS
 10
4.742760
 20
5.416400
  0
SEQEND
  8
0
  0
POLYLINE
  8
0
 62
     0
  6
CONTINUOUS
 66
     1
 40
0.002200
 41
0.002200
  0
VERTEX
  8
0
 62
     0
  6
CONTINUOUS
 10
4.742760
 20
5.416400
  0
VERTEX
  8
0
 62
     0
  6
CONTINUOUS
 10
4.733080
 20
5.414640
  0
SEQEND
  8
0
  0
POLYLINE
  8
0
 62
     0
  6
CONTINUOUS
 66
     1
 40
0.002200
 41
0.002200
  0
VERTEX
  8
0
 62
     0
  6
CONTINUOUS
 10
4.733080
 20
5.414640
  0
VERTEX
  8
0
 62
     0
  6
CONTINUOUS
 10
4.720320
 20
5.414640
  0
SEQEND
  8
0
  0
POLYLINE
  8
0
 62
     0
  6
CONTINUOUS
 66
     1
 40
0.002200
 41
0.002200
  0
VERTEX
  8
0
 62
     0
  6
CONTINUOUS
 10
4.720320
 20
5.414640
  0
VERTEX
  8
0
 62
     0
  6
CONTINUOUS
 10
4.712840
 20
5.416400
  0
SEQEND
  8
0
  0
POLYLINE
  8
0
 62
     0
  6
CONTINUOUS
 66
     1
 40
0.002200
 41
0.002200
  0
VERTEX
  8
0
 62
     0
  6
CONTINUOUS
 10
4.712840
 20
5.416400
  0
VERTEX
  8
0
 62
     0
  6
CONTINUOUS
 10
4.709320
 20
5.422120
  0
SEQEND
  8
0
  0
POLYLINE
  8
0
 62
     0
  6
CONTINUOUS
 66
     1
 40
0.002200
 41
0.002200
  0
VERTEX
  8
0
 62
     0
  6
CONTINUOUS
 10
4.720320
 20
5.466560
  0
VERTEX
  8
0
 62
     0
  6
CONTINUOUS
 10
4.727800
 20
5.471840
  0
SEQEND
  8
0
  0
POLYLINE
  8
0
 62
     0
  6
CONTINUOUS
 66
     1
 40
0.002200
 41
0.002200
  0
VERTEX
  8
0
 62
     0
  6
CONTINUOUS
 10
4.727800
 20
5.471840
  0
VERTEX
  8
0
 62
     0
  6
CONTINUOUS
 10
4.737040
 20
5.475800
  0
SEQEND
  8
0
  0
POLYLINE
  8
0
 62
     0
  6
CONTINUOUS
 66
     1
 40
0.002200
 41
0.002200
  0
VERTEX
  8
0
 62
     0
  6
CONTINUOUS
 10
4.737040
 20
5.475800
  0
VERTEX
  8
0
 62
     0
  6
CONTINUOUS
 10
4.749800
 20
5.475800
  0
SEQEND
  8
0
  0
POLYLINE
  8
0
 62
     0
  6
CONTINUOUS
 66
     1
 40
0.002200
 41
0.002200
  0
VERTEX
  8
0
 62
     0
  6
CONTINUOUS
 10
4.749800
 20
5.475800
  0
VERTEX
  8
0
 62
     0
  6
CONTINUOUS
 10
4.757280
 20
5.471840
  0
SEQEND
  8
0
  0
POLYLINE
  8
0
 62
     0
  6
CONTINUOUS
 66
     1
 40
0.002200
 41
0.002200
  0
VERTEX
  8
0
 62
     0
  6
CONTINUOUS
 10
4.757280
 20
5.471840
  0
VERTEX
  8
0
 62
     0
  6
CONTINUOUS
 10
4.763000
 20
5.466560
  0
SEQEND
  8
0
  0
POLYLINE
  8
0
 62
     0
  6
CONTINUOUS
 66
     1
 40
0.002200
 41
0.002200
  0
VERTEX
  8
0
 62
     0
  6
CONTINUOUS
 10
4.774000
 20
5.433120
  0
VERTEX
  8
0
 62
     0
  6
CONTINUOUS
 10
4.805240
 20
5.433120
  0
SEQEND
  8
0
  0
POLYLINE
  8
0
 62
     0
  6
CONTINUOUS
 66
     1
 40
0.002200
 41
0.002200
  0
VERTEX
  8
0
 62
     0
  6
CONTINUOUS
 10
4.807440
 20
5.414640
  0
VERTEX
  8
0
 62
     0
  6
CONTINUOUS
 10
4.799960
 20
5.475800
  0
SEQEND
  8
0
  0
POLYLINE
  8
0
 62
     0
  6
CONTINUOUS
 66
     1
 40
0.002200
 41
0.002200
  0
VERTEX
  8
0
 62
     0
  6
CONTINUOUS
 10
4.799960
 20
5.475800
  0
VERTEX
  8
0
 62
     0
  6
CONTINUOUS
 10
4.761240
 20
5.414640
  0
SEQEND
  8
0
  0
POLYLINE
  8
0
 62
     0
  6
CONTINUOUS
 66
     1
 40
0.002200
 41
0.002200
  0
VERTEX
  8
0
 62
     0
  6
CONTINUOUS
 10
2.572680
 20
4.343680
  0
VERTEX
  8
0
 62
     0
  6
CONTINUOUS
 10
2.572680
 20
5.070560
  0
SEQEND
  8
0
  0
POLYLINE
  8
0
 62
     0
  6
CONTINUOUS
 66
     1
 40
0.002200
 41
0.002200
  0
VERTEX
  8
0
 62
     0
  6
CONTINUOUS
 10
3.120480
 20
4.288680
  0
VERTEX
  8
0
 62
     0
  6
CONTINUOUS
 10
3.083080
 20
4.191440
  0
VERTEX
  8
0
 62
     0
  6
CONTINUOUS
 10
3.097160
 20
4.191440
  0
VERTEX
  8
0
 62
     0
  6
CONTINUOUS
 10
3.107720
 20
4.220480
  0
VERTEX
  8
0
 62
     0
  6
CONTINUOUS
 10
3.162720
 20
4.220480
  0
VERTEX
  8
0
 62
     0
  6
CONTINUOUS
 10
3.139840
 20
4.277240
  0
VERTEX
  8
0
 62
     0
  6
CONTINUOUS
 10
3.127520
 20
4.277240
  0
VERTEX
  8
0
 62
     0
  6
CONTINUOUS
 10
3.144240
 20
4.231040
  0
VERTEX
  8
0
 62
     0
  6
CONTINUOUS
 10
3.111680
 20
4.231040
  0
VERTEX
  8
0
 62
     0
  6
CONTINUOUS
 10
3.126640
 20
4.273720
  0
VERTEX
  8
0
 62
     0
  6
CONTINUOUS
 10
3.127080
 20
4.277240
  0
VERTEX
  8
0
 62
     0
  6
CONTINUOUS
 10
3.139400
 20
4.277240
  0
VERTEX
  8
0
 62
     0
  6
CONTINUOUS
 10
3.135000
 20
4.288680
  0
VERTEX
  8
0
 62
     0
  6
CONTINUOUS
 10
3.120480
 20
4.288680
  0
SEQEND
  8
0
  0
SOLID
  8
0
 62
     0
 10
3.148200
 20
4.220480
 11
3.159640
 21
4.191440
 12
3.162720
 22
4.220480
 13
3.174600
 23
4.191440
  0
POLYLINE
  8
0
 62
     0
  6
CONTINUOUS
 66
     1
 40
0.002200
 41
0.002200
  0
VERTEX
  8
0
 62
     0
  6
CONTINUOUS
 10
3.148200
 20
4.220480
  0
VERTEX
  8
0
 62
     0
  6
CONTINUOUS
 10
3.159640
 20
4.191440
  0
VERTEX
  8
0
 62
     0
  6
CONTINUOUS
 10
3.174600
 20
4.191440
  0
VERTEX
  8
0
 62
     0
  6
CONTINUOUS
 10
3.162720
 20
4.220480
  0
VERTEX
  8
0
 62
     0
  6
CONTINUOUS
 10
3.148200
 20
4.220480
  0
SEQEND
  8
0
  0
POLYLINE
  8
0
 62
     0
  6
CONTINUOUS
 66
     1
 40
0.002200
 41
0.002200
  0
VERTEX
  8
0
 62
     0
  6
CONTINUOUS
 10
3.229160
 20
4.278560
  0
VERTEX
  8
0
 62
     0
  6
CONTINUOUS
 10
3.229160
 20
4.278120
  0
VERTEX
  8
0
 62
     0
  6
CONTINUOUS
 10
3.237080
 20
4.277240
  0
VERTEX
  8
0
 62
     0
  6
CONTINUOUS
 10
3.237080
 20
4.276800
  0
VERTEX
  8
0
 62
     0
  6
CONTINUOUS
 10
3.245880
 20
4.272400
  0
VERTEX
  8
0
 62
     0
  6
CONTINUOUS
 10
3.253360
 20
4.264480
  0
VERTEX
  8
0
 62
     0
  6
CONTINUOUS
 10
3.258640
 20
4.251720
  0
VERTEX
  8
0
 62
     0
  6
CONTINUOUS
 10
3.259520
 20
4.235000
  0
VERTEX
  8
0
 62
     0
  6
CONTINUOUS
 10
3.259080
 20
4.235000
  0
VERTEX
  8
0
 62
     0
  6
CONTINUOUS
 10
3.257760
 20
4.224000
  0
VERTEX
  8
0
 62
     0
  6
CONTINUOUS
 10
3.257320
 20
4.224000
  0
VERTEX
  8
0
 62
     0
  6
CONTINUOUS
 10
3.255120
 20
4.217840
  0
VERTEX
  8
0
 62
     0
  6
CONTINUOUS
 10
3.248080
 20
4.208600
  0
VERTEX
  8
0
 62
     0
  6
CONTINUOUS
 10
3.237960
 20
4.202440
  0
VERTEX
  8
0
 62
     0
  6
CONTINUOUS
 10
3.230040
 20
4.200680
  0
VERTEX
  8
0
 62
     0
  6
CONTINUOUS
 10
3.218160
 20
4.201560
  0
VERTEX
  8
0
 62
     0
  6
CONTINUOUS
 10
3.207160
 20
4.206400
  0
VERTEX
  8
0
 62
     0
  6
CONTINUOUS
 10
3.197040
 20
4.219160
  0
VERTEX
  8
0
 62
     0
  6
CONTINUOUS
 10
3.193520
 20
4.234120
  0
VERTEX
  8
0
 62
     0
  6
CONTINUOUS
 10
3.194840
 20
4.253040
  0
VERTEX
  8
0
 62
     0
  6
CONTINUOUS
 10
3.195280
 20
4.253040
  0
VERTEX
  8
0
 62
     0
  6
CONTINUOUS
 10
3.199240
 20
4.264480
  0
VERTEX
  8
0
 62
     0
  6
CONTINUOUS
 10
3.210240
 20
4.274600
  0
VERTEX
  8
0
 62
     0
  6
CONTINUOUS
 10
3.218600
 20
4.278120
  0
VERTEX
  8
0
 62
     0
  6
CONTINUOUS
 10
3.256880
 20
4.278560
  0
VERTEX
  8
0
 62
     0
  6
CONTINUOUS
 10
3.246320
 20
4.286040
  0
VERTEX
  8
0
 62
     0
  6
CONTINUOUS
 10
3.229600
 20
4.290000
  0
VERTEX
  8
0
 62
     0
  6
CONTINUOUS
 10
3.215960
 20
4.288680
  0
VERTEX
  8
0
 62
     0
  6
CONTINUOUS
 10
3.204960
 20
4.284720
  0
VERTEX
  8
0
 62
     0
  6
CONTINUOUS
 10
3.194400
 20
4.277240
  0
VERTEX
  8
0
 62
     0
  6
CONTINUOUS
 10
3.186040
 20
4.266240
  0
VERTEX
  8
0
 62
     0
  6
CONTINUOUS
 10
3.180760
 20
4.250400
  0
VERTEX
  8
0
 62
     0
  6
CONTINUOUS
 10
3.180320
 20
4.230600
  0
VERTEX
  8
0
 62
     0
  6
CONTINUOUS
 10
3.180760
 20
4.230600
  0
VERTEX
  8
0
 62
     0
  6
CONTINUOUS
 10
3.182960
 20
4.219600
  0
VERTEX
  8
0
 62
     0
  6
CONTINUOUS
 10
3.184280
 20
4.217840
  0
VERTEX
  8
0
 62
     0
  6
CONTINUOUS
 10
3.186920
 20
4.212120
  0
VERTEX
  8
0
 62
     0
  6
CONTINUOUS
 10
3.197480
 20
4.198920
  0
VERTEX
  8
0
 62
     0
  6
CONTINUOUS
 10
3.210240
 20
4.191880
  0
VERTEX
  8
0
 62
     0
  6
CONTINUOUS
 10
3.218600
 20
4.189680
  0
VERTEX
  8
0
 62
     0
  6
CONTINUOUS
 10
3.235320
 20
4.190120
  0
VERTEX
  8
0
 62
     0
  6
CONTINUOUS
 10
3.235320
 20
4.190560
  0
VERTEX
  8
0
 62
     0
  6
CONTINUOUS
 10
3.246760
 20
4.193640
  0
VERTEX
  8
0
 62
     0
  6
CONTINUOUS
 10
3.251160
 20
4.196720
  0
VERTEX
  8
0
 62
     0
  6
CONTINUOUS
 10
3.262160
 20
4.204640
  0
VERTEX
  8
0
 62
     0
  6
CONTINUOUS
 10
3.264800
 20
4.208600
  0
VERTEX
  8
0
 62
     0
  6
CONTINUOUS
 10
3.266560
 20
4.211240
  0
VERTEX
  8
0
 62
     0
  6
CONTINUOUS
 10
3.271400
 20
4.223120
  0
VERTEX
  8
0
 62
     0
  6
CONTINUOUS
 10
3.273160
 20
4.242920
  0
VERTEX
  8
0
 62
     0
  6
CONTINUOUS
 10
3.272720
 20
4.242920
  0
VERTEX
  8
0
 62
     0
  6
CONTINUOUS
 10
3.270960
 20
4.257440
  0
VERTEX
  8
0
 62
     0
  6
CONTINUOUS
 10
3.270520
 20
4.257440
  0
VERTEX
  8
0
 62
     0
  6
CONTINUOUS
 10
3.267440
 20
4.265800
  0
VERTEX
  8
0
 62
     0
  6
CONTINUOUS
 10
3.266120
 20
4.267560
  0
VERTEX
  8
0
 62
     0
  6
CONTINUOUS
 10
3.258200
 20
4.278120
  0
VERTEX
  8
0
 62
     0
  6
CONTINUOUS
 10
3.257320
 20
4.278560
  0
VERTEX
  8
0
 62
     0
  6
CONTINUOUS
 10
3.229160
 20
4.278560
  0
SEQEND
  8
0
  0
POLYLINE
  8
0
 62
     0
  6
CONTINUOUS
 66
     1
 40
0.002200
 41
0.002200
  0
VERTEX
  8
0
 62
     0
  6
CONTINUOUS
 10
3.346640
 20
4.202880
  0
VERTEX
  8
0
 62
     0
  6
CONTINUOUS
 10
3.346640
 20
4.191440
  0
VERTEX
  8
0
 62
     0
  6
CONTINUOUS
 10
3.282400
 20
4.191440
  0
VERTEX
  8
0
 62
     0
  6
CONTINUOUS
 10
3.283720
 20
4.199800
  0
VERTEX
  8
0
 62
     0
  6
CONTINUOUS
 10
3.291640
 20
4.212560
  0
VERTEX
  8
0
 62
     0
  6
CONTINUOUS
 10
3.329040
 20
4.247760
  0
VERTEX
  8
0
 62
     0
  6
CONTINUOUS
 10
3.333880
 20
4.258760
  0
VERTEX
  8
0
 62
     0
  6
CONTINUOUS
 10
3.333440
 20
4.268880
  0
VERTEX
  8
0
 62
     0
  6
CONTINUOUS
 10
3.326840
 20
4.276360
  0
VERTEX
  8
0
 62
     0
  6
CONTINUOUS
 10
3.316280
 20
4.279000
  0
VERTEX
  8
0
 62
     0
  6
CONTINUOUS
 10
3.304840
 20
4.275920
  0
VERTEX
  8
0
 62
     0
  6
CONTINUOUS
 10
3.298240
 20
4.268000
  0
VERTEX
  8
0
 62
     0
  6
CONTINUOUS
 10
3.296920
 20
4.259640
  0
VERTEX
  8
0
 62
     0
  6
CONTINUOUS
 10
3.284600
 20
4.260960
  0
VERTEX
  8
0
 62
     0
  6
CONTINUOUS
 10
3.287680
 20
4.272840
  0
VERTEX
  8
0
 62
     0
  6
CONTINUOUS
 10
3.294280
 20
4.281640
  0
VERTEX
  8
0
 62
     0
  6
CONTINUOUS
 10
3.303960
 20
4.287360
  0
VERTEX
  8
0
 62
     0
  6
CONTINUOUS
 10
3.316280
 20
4.289120
  0
VERTEX
  8
0
 62
     0
  6
CONTINUOUS
 10
3.329040
 20
4.286920
  0
VERTEX
  8
0
 62
     0
  6
CONTINUOUS
 10
3.338720
 20
4.281200
  0
VERTEX
  8
0
 62
     0
  6
CONTINUOUS
 10
3.344880
 20
4.272400
  0
VERTEX
  8
0
 62
     0
  6
CONTINUOUS
 10
3.346640
 20
4.261840
  0
VERTEX
  8
0
 62
     0
  6
CONTINUOUS
 10
3.346200
 20
4.256120
  0
VERTEX
  8
0
 62
     0
  6
CONTINUOUS
 10
3.336520
 20
4.238520
  0
VERTEX
  8
0
 62
     0
  6
CONTINUOUS
 10
3.303960
 20
4.209480
  0
VERTEX
  8
0
 62
     0
  6
CONTINUOUS
 10
3.299120
 20
4.202880
  0
VERTEX
  8
0
 62
     0
  6
CONTINUOUS
 10
3.346640
 20
4.202880
  0
SEQEND
  8
0
  0
POLYLINE
  8
0
 62
     0
  6
CONTINUOUS
 66
     1
 40
0.014080
 41
0.014080
  0
VERTEX
  8
0
 62
     0
  6
CONTINUOUS
 10
3.053600
 20
4.327400
  0
VERTEX
  8
0
 62
     0
  6
CONTINUOUS
 10
3.380080
 20
4.327400
  0
VERTEX
  8
0
 62
     0
  6
CONTINUOUS
 10
3.380080
 20
4.135120
  0
VERTEX
  8
0
 62
     0
  6
CONTINUOUS
 10
3.053600
 20
4.135120
  0
VERTEX
  8
0
 62
     0
  6
CONTINUOUS
 10
3.053600
 20
4.327400
  0
SEQEND
  8
0
  0
POLYLINE
  8
0
 62
     0
  6
CONTINUOUS
 66
     1
 40
0.014080
 41
0.014080
  0
VERTEX
  8
0
 62
     0
  6
CONTINUOUS
 10
2.437160
 20
4.277680
  0
VERTEX
  8
0
 62
     0
  6
CONTINUOUS
 10
2.404160
 20
4.191440
  0
VERTEX
  8
0
 62
     0
  6
CONTINUOUS
 10
2.418680
 20
4.191440
  0
VERTEX
  8
0
 62
     0
  6
CONTINUOUS
 10
2.429240
 20
4.220480
  0
VERTEX
  8
0
 62
     0
  6
CONTINUOUS
 10
2.484240
 20
4.220480
  0
VERTEX
  8
0
 62
     0
  6
CONTINUOUS
 10
2.456520
 20
4.288680
  0
VERTEX
  8
0
 62
     0
  6
CONTINUOUS
 10
2.441560
 20
4.288680
  0
VERTEX
  8
0
 62
     0
  6
CONTINUOUS
 10
2.437600
 20
4.277680
  0
VERTEX
  8
0
 62
     0
  6
CONTINUOUS
 10
2.449040
 20
4.277680
  0
VERTEX
  8
0
 62
     0
  6
CONTINUOUS
 10
2.457400
 20
4.252600
  0
VERTEX
  8
0
 62
     0
  6
CONTINUOUS
 10
2.458280
 20
4.251720
  0
VERTEX
  8
0
 62
     0
  6
CONTINUOUS
 10
2.465760
 20
4.231040
  0
VERTEX
  8
0
 62
     0
  6
CONTINUOUS
 10
2.432760
 20
4.231040
  0
VERTEX
  8
0
 62
     0
  6
CONTINUOUS
 10
2.446400
 20
4.268000
  0
VERTEX
  8
0
 62
     0
  6
CONTINUOUS
 10
2.448600
 20
4.277680
  0
VERTEX
  8
0
 62
     0
  6
CONTINUOUS
 10
2.437160
 20
4.277680
  0
SEQEND
  8
0
  0
SOLID
  8
0
 62
     0
 10
2.469720
 20
4.220480
 11
2.480720
 21
4.191440
 12
2.484240
 22
4.220480
 13
2.496120
 23
4.191440
  0
POLYLINE
  8
0
 62
     0
  6
CONTINUOUS
 66
     1
 40
0.014080
 41
0.014080
  0
VERTEX
  8
0
 62
     0
  6
CONTINUOUS
 10
2.469720
 20
4.220480
  0
VERTEX
  8
0
 62
     0
  6
CONTINUOUS
 10
2.480720
 20
4.191440
  0
VERTEX
  8
0
 62
     0
  6
CONTINUOUS
 10
2.496120
 20
4.191440
  0
VERTEX
  8
0
 62
     0
  6
CONTINUOUS
 10
2.484240
 20
4.220480
  0
VERTEX
  8
0
 62
     0
  6
CONTINUOUS
 10
2.469720
 20
4.220480
  0
SEQEND
  8
0
  0
POLYLINE
  8
0
 62
     0
  6
CONTINUOUS
 66
     1
 40
0.014080
 41
0.014080
  0
VERTEX
  8
0
 62
     0
  6
CONTINUOUS
 10
2.550240
 20
4.278560
  0
VERTEX
  8
0
 62
     0
  6
CONTINUOUS
 10
2.550240
 20
4.278120
  0
VERTEX
  8
0
 62
     0
  6
CONTINUOUS
 10
2.557720
 20
4.277240
  0
VERTEX
  8
0
 62
     0
  6
CONTINUOUS
 10
2.557720
 20
4.276800
  0
VERTEX
  8
0
 62
     0
  6
CONTINUOUS
 10
2.568720
 20
4.271520
  0
VERTEX
  8
0
 62
     0
  6
CONTINUOUS
 10
2.576200
 20
4.261840
  0
VERTEX
  8
0
 62
     0
  6
CONTINUOUS
 10
2.580160
 20
4.251720
  0
VERTEX
  8
0
 62
     0
  6
CONTINUOUS
 10
2.581040
 20
4.235000
  0
VERTEX
  8
0
 62
     0
  6
CONTINUOUS
 10
2.580600
 20
4.235000
  0
VERTEX
  8
0
 62
     0
  6
CONTINUOUS
 10
2.579280
 20
4.224000
  0
VERTEX
  8
0
 62
     0
  6
CONTINUOUS
 10
2.578840
 20
4.224000
  0
VERTEX
  8
0
 62
     0
  6
CONTINUOUS
 10
2.576640
 20
4.217840
  0
VERTEX
  8
0
 62
     0
  6
CONTINUOUS
 10
2.566960
 20
4.206400
  0
VERTEX
  8
0
 62
     0
  6
CONTINUOUS
 10
2.555960
 20
4.201120
  0
VERTEX
  8
0
 62
     0
  6
CONTINUOUS
 10
2.539680
 20
4.201120
  0
VERTEX
  8
0
 62
     0
  6
CONTINUOUS
 10
2.539680
 20
4.201560
  0
VERTEX
  8
0
 62
     0
  6
CONTINUOUS
 10
2.527360
 20
4.207280
  0
VERTEX
  8
0
 62
     0
  6
CONTINUOUS
 10
2.520320
 20
4.216080
  0
VERTEX
  8
0
 62
     0
  6
CONTINUOUS
 10
2.515480
 20
4.228840
  0
VERTEX
  8
0
 62
     0
  6
CONTINUOUS
 10
2.515480
 20
4.249520
  0
VERTEX
  8
0
 62
     0
  6
CONTINUOUS
 10
2.515920
 20
4.249520
  0
VERTEX
  8
0
 62
     0
  6
CONTINUOUS
 10
2.519000
 20
4.261840
  0
VERTEX
  8
0
 62
     0
  6
CONTINUOUS
 10
2.526920
 20
4.271520
  0
VERTEX
  8
0
 62
     0
  6
CONTINUOUS
 10
2.539680
 20
4.278120
  0
VERTEX
  8
0
 62
     0
  6
CONTINUOUS
 10
2.578840
 20
4.278560
  0
VERTEX
  8
0
 62
     0
  6
CONTINUOUS
 10
2.566960
 20
4.286480
  0
VERTEX
  8
0
 62
     0
  6
CONTINUOUS
 10
2.550680
 20
4.290000
  0
VERTEX
  8
0
 62
     0
  6
CONTINUOUS
 10
2.537040
 20
4.288680
  0
VERTEX
  8
0
 62
     0
  6
CONTINUOUS
 10
2.526040
 20
4.284720
  0
VERTEX
  8
0
 62
     0
  6
CONTINUOUS
 10
2.515480
 20
4.277240
  0
VERTEX
  8
0
 62
     0
  6
CONTINUOUS
 10
2.507120
 20
4.266240
  0
VERTEX
  8
0
 62
     0
  6
CONTINUOUS
 10
2.502280
 20
4.250840
  0
VERTEX
  8
0
 62
     0
  6
CONTINUOUS
 10
2.501840
 20
4.230600
  0
VERTEX
  8
0
 62
     0
  6
CONTINUOUS
 10
2.502280
 20
4.230600
  0
VERTEX
  8
0
 62
     0
  6
CONTINUOUS
 10
2.504920
 20
4.218280
  0
VERTEX
  8
0
 62
     0
  6
CONTINUOUS
 10
2.505800
 20
4.217400
  0
VERTEX
  8
0
 62
     0
  6
CONTINUOUS
 10
2.511080
 20
4.206840
  0
VERTEX
  8
0
 62
     0
  6
CONTINUOUS
 10
2.523400
 20
4.195840
  0
VERTEX
  8
0
 62
     0
  6
CONTINUOUS
 10
2.533960
 20
4.191000
  0
VERTEX
  8
0
 62
     0
  6
CONTINUOUS
 10
2.539680
 20
4.189680
  0
VERTEX
  8
0
 62
     0
  6
CONTINUOUS
 10
2.556400
 20
4.190120
  0
VERTEX
  8
0
 62
     0
  6
CONTINUOUS
 10
2.556400
 20
4.190560
  0
VERTEX
  8
0
 62
     0
  6
CONTINUOUS
 10
2.567840
 20
4.193640
  0
VERTEX
  8
0
 62
     0
  6
CONTINUOUS
 10
2.569600
 20
4.194960
  0
VERTEX
  8
0
 62
     0
  6
CONTINUOUS
 10
2.583240
 20
4.204640
  0
VERTEX
  8
0
 62
     0
  6
CONTINUOUS
 10
2.585880
 20
4.208600
  0
VERTEX
  8
0
 62
     0
  6
CONTINUOUS
 10
2.587640
 20
4.211240
  0
VERTEX
  8
0
 62
     0
  6
CONTINUOUS
 10
2.592920
 20
4.224880
  0
VERTEX
  8
0
 62
     0
  6
CONTINUOUS
 10
2.594680
 20
4.242920
  0
VERTEX
  8
0
 62
     0
  6
CONTINUOUS
 10
2.594240
 20
4.242920
  0
VERTEX
  8
0
 62
     0
  6
CONTINUOUS
 10
2.592480
 20
4.257440
  0
VERTEX
  8
0
 62
     0
  6
CONTINUOUS
 10
2.592040
 20
4.257440
  0
VERTEX
  8
0
 62
     0
  6
CONTINUOUS
 10
2.588960
 20
4.265800
  0
VERTEX
  8
0
 62
     0
  6
CONTINUOUS
 10
2.579280
 20
4.278560
  0
VERTEX
  8
0
 62
     0
  6
CONTINUOUS
 10
2.550240
 20
4.278560
  0
SEQEND
  8
0
  0
POLYLINE
  8
0
 62
     0
  6
CONTINUOUS
 66
     1
 40
0.014080
 41
0.014080
  0
VERTEX
  8
0
 62
     0
  6
CONTINUOUS
 10
2.650120
 20
4.191440
  0
VERTEX
  8
0
 62
     0
  6
CONTINUOUS
 10
2.649240
 20
4.191440
  0
VERTEX
  8
0
 62
     0
  6
CONTINUOUS
 10
2.647920
 20
4.191440
  0
VERTEX
  8
0
 62
     0
  6
CONTINUOUS
 10
2.646160
 20
4.191440
  0
VERTEX
  8
0
 62
     0
  6
CONTINUOUS
 10
2.643960
 20
4.191440
  0
VERTEX
  8
0
 62
     0
  6
CONTINUOUS
 10
2.641760
 20
4.191440
  0
VERTEX
  8
0
 62
     0
  6
CONTINUOUS
 10
2.640000
 20
4.191440
  0
VERTEX
  8
0
 62
     0
  6
CONTINUOUS
 10
2.638680
 20
4.191440
  0
VERTEX
  8
0
 62
     0
  6
CONTINUOUS
 10
2.638240
 20
4.191440
  0
SEQEND
  8
0
  0
POLYLINE
  8
0
 62
     0
  6
CONTINUOUS
 66
     1
 40
0.014080
 41
0.014080
  0
VERTEX
  8
0
 62
     0
  6
CONTINUOUS
 10
2.638240
 20
4.191440
  0
VERTEX
  8
0
 62
     0
  6
CONTINUOUS
 10
2.638240
 20
4.194520
  0
VERTEX
  8
0
 62
     0
  6
CONTINUOUS
 10
2.638240
 20
4.203320
  0
VERTEX
  8
0
 62
     0
  6
CONTINUOUS
 10
2.638240
 20
4.215200
  0
VERTEX
  8
0
 62
     0
  6
CONTINUOUS
 10
2.638240
 20
4.229280
  0
VERTEX
  8
0
 62
     0
  6
CONTINUOUS
 10
2.638240
 20
4.243360
  0
VERTEX
  8
0
 62
     0
  6
CONTINUOUS
 10
2.638240
 20
4.255240
  0
VERTEX
  8
0
 62
     0
  6
CONTINUOUS
 10
2.638240
 20
4.264040
  0
VERTEX
  8
0
 62
     0
  6
CONTINUOUS
 10
2.638240
 20
4.267560
  0
SEQEND
  8
0
  0
POLYLINE
  8
0
 62
     0
  6
CONTINUOUS
 66
     1
 40
0.014080
 41
0.014080
  0
VERTEX
  8
0
 62
     0
  6
CONTINUOUS
 10
2.638240
 20
4.267560
  0
VERTEX
  8
0
 62
     0
  6
CONTINUOUS
 10
2.636920
 20
4.266240
  0
VERTEX
  8
0
 62
     0
  6
CONTINUOUS
 10
2.635600
 20
4.264920
  0
VERTEX
  8
0
 62
     0
  6
CONTINUOUS
 10
2.634720
 20
4.264040
  0
VERTEX
  8
0
 62
     0
  6
CONTINUOUS
 10
2.633400
 20
4.263160
  0
VERTEX
  8
0
 62
     0
  6
CONTINUOUS
 10
2.631640
 20
4.261840
  0
VERTEX
  8
0
 62
     0
  6
CONTINUOUS
 10
2.630320
 20
4.260960
  0
VERTEX
  8
0
 62
     0
  6
CONTINUOUS
 10
2.628560
 20
4.260080
  0
VERTEX
  8
0
 62
     0
  6
CONTINUOUS
 10
2.627240
 20
4.259200
  0
SEQEND
  8
0
  0
POLYLINE
  8
0
 62
     0
  6
CONTINUOUS
 66
     1
 40
0.014080
 41
0.014080
  0
VERTEX
  8
0
 62
     0
  6
CONTINUOUS
 10
2.627240
 20
4.259200
  0
VERTEX
  8
0
 62
     0
  6
CONTINUOUS
 10
2.625040
 20
4.257880
  0
VERTEX
  8
0
 62
     0
  6
CONTINUOUS
 10
2.623280
 20
4.257000
  0
VERTEX
  8
0
 62
     0
  6
CONTINUOUS
 10
2.621960
 20
4.256120
  0
VERTEX
  8
0
 62
     0
  6
CONTINUOUS
 10
2.620200
 20
4.255240
  0
VERTEX
  8
0
 62
     0
  6
CONTINUOUS
 10
2.618440
 20
4.254800
  0
VERTEX
  8
0
 62
     0
  6
CONTINUOUS
 10
2.617120
 20
4.253920
  0
VERTEX
  8
0
 62
     0
  6
CONTINUOUS
 10
2.615800
 20
4.253480
  0
VERTEX
  8
0
 62
     0
  6
CONTINUOUS
 10
2.614480
 20
4.253040
  0
SEQEND
  8
0
  0
POLYLINE
  8
0
 62
     0
  6
CONTINUOUS
 66
     1
 40
0.014080
 41
0.014080
  0
VERTEX
  8
0
 62
     0
  6
CONTINUOUS
 10
2.614480
 20
4.253040
  0
VERTEX
  8
0
 62
     0
  6
CONTINUOUS
 10
2.614480
 20
4.253480
  0
VERTEX
  8
0
 62
     0
  6
CONTINUOUS
 10
2.614480
 20
4.254800
  0
VERTEX
  8
0
 62
     0
  6
CONTINUOUS
 10
2.614480
 20
4.256560
  0
VERTEX
  8
0
 62
     0
  6
CONTINUOUS
 10
2.614480
 20
4.258760
  0
VERTEX
  8
0
 62
     0
  6
CONTINUOUS
 10
2.614480
 20
4.260520
  0
VERTEX
  8
0
 62
     0
  6
CONTINUOUS
 10
2.614480
 20
4.262280
  0
VERTEX
  8
0
 62
     0
  6
CONTINUOUS
 10
2.614480
 20
4.263600
  0
VERTEX
  8
0
 62
     0
  6
CONTINUOUS
 10
2.614480
 20
4.264480
  0
SEQEND
  8
0
  0
POLYLINE
  8
0
 62
     0
  6
CONTINUOUS
 66
     1
 40
0.014080
 41
0.014080
  0
VERTEX
  8
0
 62
     0
  6
CONTINUOUS
 10
2.614480
 20
4.264480
  0
VERTEX
  8
0
 62
     0
  6
CONTINUOUS
 10
2.616680
 20
4.265360
  0
VERTEX
  8
0
 62
     0
  6
CONTINUOUS
 10
2.618880
 20
4.266680
  0
VERTEX
  8
0
 62
     0
  6
CONTINUOUS
 10
2.621520
 20
4.268000
  0
VERTEX
  8
0
 62
     0
  6
CONTINUOUS
 10
2.623720
 20
4.269320
  0
VERTEX
  8
0
 62
     0
  6
CONTINUOUS
 10
2.625920
 20
4.271080
  0
VERTEX
  8
0
 62
     0
  6
CONTINUOUS
 10
2.627680
 20
4.272400
  0
VERTEX
  8
0
 62
     0
  6
CONTINUOUS
 10
2.629880
 20
4.274160
  0
VERTEX
  8
0
 62
     0
  6
CONTINUOUS
 10
2.632080
 20
4.275920
  0
SEQEND
  8
0
  0
POLYLINE
  8
0
 62
     0
  6
CONTINUOUS
 66
     1
 40
0.014080
 41
0.014080
  0
VERTEX
  8
0
 62
     0
  6
CONTINUOUS
 10
2.632080
 20
4.275920
  0
VERTEX
  8
0
 62
     0
  6
CONTINUOUS
 10
2.633400
 20
4.277240
  0
VERTEX
  8
0
 62
     0
  6
CONTINUOUS
 10
2.635160
 20
4.279000
  0
VERTEX
  8
0
 62
     0
  6
CONTINUOUS
 10
2.636920
 20
4.280760
  0
VERTEX
  8
0
 62
     0
  6
CONTINUOUS
 10
2.638240
 20
4.282520
  0
VERTEX
  8
0
 62
     0
  6
CONTINUOUS
 10
2.639560
 20
4.283840
  0
VERTEX
  8
0
 62
     0
  6
CONTINUOUS
 10
2.640440
 20
4.285600
  0
VERTEX
  8
0
 62
     0
  6
CONTINUOUS
 10
2.641320
 20
4.287360
  0
VERTEX
  8
0
 62
     0
  6
CONTINUOUS
 10
2.642640
 20
4.289120
  0
SEQEND
  8
0
  0
POLYLINE
  8
0
 62
     0
  6
CONTINUOUS
 66
     1
 40
0.014080
 41
0.014080
  0
VERTEX
  8
0
 62
     0
  6
CONTINUOUS
 10
2.642640
 20
4.289120
  0
VERTEX
  8
0
 62
     0
  6
CONTINUOUS
 10
2.643520
 20
4.289120
  0
VERTEX
  8
0
 62
     0
  6
CONTINUOUS
 10
2.644840
 20
4.289120
  0
VERTEX
  8
0
 62
     0
  6
CONTINUOUS
 10
2.646160
 20
4.289120
  0
VERTEX
  8
0
 62
     0
  6
CONTINUOUS
 10
2.647480
 20
4.289120
  0
VERTEX
  8
0
 62
     0
  6
CONTINUOUS
 10
2.648800
 20
4.289120
  0
VERTEX
  8
0
 62
     0
  6
CONTINUOUS
 10
2.649680
 20
4.289120
  0
VERTEX
  8
0
 62
     0
  6
CONTINUOUS
 10
2.650120
 20
4.289120
  0
SEQEND
  8
0
  0
POLYLINE
  8
0
 62
     0
  6
CONTINUOUS
 66
     1
 40
0.014080
 41
0.014080
  0
VERTEX
  8
0
 62
     0
  6
CONTINUOUS
 10
2.650120
 20
4.289120
  0
VERTEX
  8
0
 62
     0
  6
CONTINUOUS
 10
2.650120
 20
4.284720
  0
VERTEX
  8
0
 62
     0
  6
CONTINUOUS
 10
2.650120
 20
4.273720
  0
VERTEX
  8
0
 62
     0
  6
CONTINUOUS
 10
2.650120
 20
4.257880
  0
VERTEX
  8
0
 62
     0
  6
CONTINUOUS
 10
2.650120
 20
4.240280
  0
VERTEX
  8
0
 62
     0
  6
CONTINUOUS
 10
2.650120
 20
4.222240
  0
VERTEX
  8
0
 62
     0
  6
CONTINUOUS
 10
2.650120
 20
4.206400
  0
VERTEX
  8
0
 62
     0
  6
CONTINUOUS
 10
2.650120
 20
4.195400
  0
VERTEX
  8
0
 62
     0
  6
CONTINUOUS
 10
2.650120
 20
4.191440
  0
SEQEND
  8
0
  0
POLYLINE
  8
0
 62
     0
  6
CONTINUOUS
 66
     1
 40
0.014080
 41
0.014080
  0
VERTEX
  8
0
 62
     0
  6
CONTINUOUS
 10
2.375120
 20
4.327400
  0
VERTEX
  8
0
 62
     0
  6
CONTINUOUS
 10
2.701160
 20
4.327400
  0
VERTEX
  8
0
 62
     0
  6
CONTINUOUS
 10
2.701160
 20
4.135120
  0
VERTEX
  8
0
 62
     0
  6
CONTINUOUS
 10
2.375120
 20
4.135120
  0
VERTEX
  8
0
 62
     0
  6
CONTINUOUS
 10
2.375120
 20
4.327400
  0
SEQEND
  8
0
  0
LINE
  8
0
 62
     0
  6
CONTINUOUS
 10
3.082200
 20
4.906000
 11
3.073840
 21
4.902040
  0
LINE
  8
0
 62
     0
  6
CONTINUOUS
 10
3.073840
 20
4.902040
 11
3.071200
 21
4.896320
  0
LINE
  8
0
 62
     0
  6
CONTINUOUS
 10
3.071200
 20
4.896320
 11
3.071200
 21
4.889720
  0
LINE
  8
0
 62
     0
  6
CONTINUOUS
 10
3.071200
 20
4.889720
 11
3.071200
 21
4.638040
  0
LINE
  8
0
 62
     0
  6
CONTINUOUS
 10
3.071200
 20
4.638040
 11
3.286360
 21
4.638040
  0
LINE
  8
0
 62
     0
  6
CONTINUOUS
 10
3.286360
 20
4.638040
 11
3.286360
 21
4.645960
  0
LINE
  8
0
 62
     0
  6
CONTINUOUS
 10
3.286360
 20
4.645960
 11
3.071200
 21
4.645960
  0
LINE
  8
0
 62
     0
  6
CONTINUOUS
 10
3.127080
 20
4.638040
 11
3.136760
 21
4.624400
  0
LINE
  8
0
 62
     0
  6
CONTINUOUS
 10
3.136760
 20
4.624400
 11
3.136760
 21
4.623080
  0
LINE
  8
0
 62
     0
  6
CONTINUOUS
 10
3.136760
 20
4.623080
 11
3.245440
 21
4.623080
  0
LINE
  8
0
 62
     0
  6
CONTINUOUS
 10
3.245440
 20
4.623080
 11
3.249400
 21
4.624400
  0
LINE
  8
0
 62
     0
  6
CONTINUOUS
 10
3.249400
 20
4.624400
 11
3.253800
 21
4.638040
  0
LINE
  8
0
 62
     0
  6
CONTINUOUS
 10
3.237080
 20
4.623080
 11
3.234440
 21
4.613400
  0
LINE
  8
0
 62
     0
  6
CONTINUOUS
 10
3.234440
 20
4.613400
 11
3.234440
 21
4.610760
  0
LINE
  8
0
 62
     0
  6
CONTINUOUS
 10
3.234440
 20
4.610760
 11
3.151720
 21
4.610760
  0
LINE
  8
0
 62
     0
  6
CONTINUOUS
 10
3.151720
 20
4.610760
 11
3.148640
 21
4.610760
  0
LINE
  8
0
 62
     0
  6
CONTINUOUS
 10
3.148640
 20
4.610760
 11
3.147320
 21
4.613400
  0
LINE
  8
0
 62
     0
  6
CONTINUOUS
 10
3.147320
 20
4.613400
 11
3.143360
 21
4.623080
  0
LINE
  8
0
 62
     0
  6
CONTINUOUS
 10
3.148640
 20
4.610760
 11
3.234440
 21
4.610760
  0
LINE
  8
0
 62
     0
  6
CONTINUOUS
 10
3.216840
 20
4.590080
 11
3.169320
 21
4.590080
  0
LINE
  8
0
 62
     0
  6
CONTINUOUS
 10
3.169320
 20
4.545200
 11
3.169320
 21
4.489760
  0
LINE
  8
0
 62
     0
  6
CONTINUOUS
 10
3.169320
 20
4.489760
 11
3.185600
 21
4.486680
  0
LINE
  8
0
 62
     0
  6
CONTINUOUS
 10
3.185600
 20
4.486680
 11
3.201880
 21
4.486680
  0
LINE
  8
0
 62
     0
  6
CONTINUOUS
 10
3.201880
 20
4.486680
 11
3.216840
 21
4.489760
  0
LINE
  8
0
 62
     0
  6
CONTINUOUS
 10
3.216840
 20
4.489760
 11
3.216840
 21
4.546520
  0
LINE
  8
0
 62
     0
  6
CONTINUOUS
 10
3.216840
 20
4.546520
 11
3.223440
 21
4.546520
  0
LINE
  8
0
 62
     0
  6
CONTINUOUS
 10
3.223440
 20
4.546520
 11
3.241480
 21
4.549600
  0
LINE
  8
0
 62
     0
  6
CONTINUOUS
 10
3.233120
 20
4.549600
 11
3.153040
 21
4.549600
  0
LINE
  8
0
 62
     0
  6
CONTINUOUS
 10
3.153040
 20
4.557520
 11
3.233120
 21
4.557520
  0
LINE
  8
0
 62
     0
  6
CONTINUOUS
 10
3.223440
 20
4.546520
 11
3.223440
 21
4.489760
  0
LINE
  8
0
 62
     0
  6
CONTINUOUS
 10
3.223440
 20
4.489760
 11
3.234440
 21
4.486680
  0
LINE
  8
0
 62
     0
  6
CONTINUOUS
 10
3.234440
 20
4.486680
 11
3.249400
 21
4.485360
  0
LINE
  8
0
 62
     0
  6
CONTINUOUS
 10
3.256440
 20
4.485360
 11
3.128400
 21
4.485360
  0
LINE
  8
0
 62
     0
  6
CONTINUOUS
 10
3.136760
 20
4.485360
 11
3.148640
 21
4.486680
  0
LINE
  8
0
 62
     0
  6
CONTINUOUS
 10
3.148640
 20
4.486680
 11
3.159640
 21
4.489760
  0
LINE
  8
0
 62
     0
  6
CONTINUOUS
 10
3.159640
 20
4.489760
 11
3.159640
 21
4.545200
  0
LINE
  8
0
 62
     0
  6
CONTINUOUS
 10
3.159640
 20
4.545200
 11
3.143360
 21
4.549600
  0
LINE
  8
0
 62
     0
  6
CONTINUOUS
 10
3.159640
 20
4.545200
 11
3.169320
 21
4.545200
  0
LINE
  8
0
 62
     0
  6
CONTINUOUS
 10
3.169320
 20
4.545200
 11
3.185600
 21
4.549600
  0
LINE
  8
0
 62
     0
  6
CONTINUOUS
 10
3.185600
 20
4.549600
 11
3.201880
 21
4.549600
  0
LINE
  8
0
 62
     0
  6
CONTINUOUS
 10
3.201880
 20
4.549600
 11
3.216840
 21
4.546520
  0
LINE
  8
0
 62
     0
  6
CONTINUOUS
 10
3.216840
 20
4.546520
 11
3.216840
 21
4.489760
  0
LINE
  8
0
 62
     0
  6
CONTINUOUS
 10
3.216840
 20
4.489760
 11
3.223440
 21
4.489760
  0
LINE
  8
0
 62
     0
  6
CONTINUOUS
 10
3.214200
 20
4.470400
 11
3.210240
 21
4.471720
  0
LINE
  8
0
 62
     0
  6
CONTINUOUS
 10
3.210240
 20
4.471720
 11
3.171960
 21
4.471720
  0
LINE
  8
0
 62
     0
  6
CONTINUOUS
 10
3.171960
 20
4.471720
 11
3.169320
 21
4.470400
  0
LINE
  8
0
 62
     0
  6
CONTINUOUS
 10
3.169320
 20
4.470400
 11
3.169320
 21
4.467760
  0
LINE
  8
0
 62
     0
  6
CONTINUOUS
 10
3.169320
 20
4.467760
 11
3.169320
 21
4.420240
  0
LINE
  8
0
 62
     0
  6
CONTINUOUS
 10
3.169320
 20
4.420240
 11
3.169320
 21
4.418920
  0
LINE
  8
0
 62
     0
  6
CONTINUOUS
 10
3.169320
 20
4.418920
 11
3.216840
 21
4.418920
  0
LINE
  8
0
 62
     0
  6
CONTINUOUS
 10
3.216840
 20
4.418920
 11
3.267000
 21
4.418920
  0
LINE
  8
0
 62
     0
  6
CONTINUOUS
 10
3.267000
 20
4.418920
 11
3.286360
 21
4.418920
  0
LINE
  8
0
 62
     0
  6
CONTINUOUS
 10
3.286360
 20
4.418920
 11
3.286360
 21
4.450160
  0
LINE
  8
0
 62
     0
  6
CONTINUOUS
 10
3.286360
 20
4.450160
 11
3.267000
 21
4.450160
  0
LINE
  8
0
 62
     0
  6
CONTINUOUS
 10
3.267000
 20
4.450160
 11
3.267000
 21
4.418920
  0
LINE
  8
0
 62
     0
  6
CONTINUOUS
 10
3.270080
 20
4.414520
 11
3.270080
 21
4.454120
  0
LINE
  8
0
 62
     0
  6
CONTINUOUS
 10
3.283720
 20
4.454120
 11
3.283720
 21
4.414520
  0
LINE
  8
0
 62
     0
  6
CONTINUOUS
 10
3.248080
 20
4.432560
 11
3.248080
 21
4.435200
  0
LINE
  8
0
 62
     0
  6
CONTINUOUS
 10
3.248080
 20
4.435200
 11
3.248080
 21
4.450160
  0
LINE
  8
0
 62
     0
  6
CONTINUOUS
 10
3.248080
 20
4.432560
 11
3.245440
 21
4.431240
  0
LINE
  8
0
 62
     0
  6
CONTINUOUS
 10
3.245440
 20
4.431240
 11
3.215520
 21
4.428160
  0
LINE
  8
0
 62
     0
  6
CONTINUOUS
 10
3.215520
 20
4.418920
 11
3.215520
 21
4.467760
  0
LINE
  8
0
 62
     0
  6
CONTINUOUS
 10
3.215520
 20
4.467760
 11
3.214200
 21
4.470400
  0
LINE
  8
0
 62
     0
  6
CONTINUOUS
 10
3.249400
 20
4.477440
 11
3.136760
 21
4.477440
  0
LINE
  8
0
 62
     0
  6
CONTINUOUS
 10
3.136760
 20
4.477440
 11
3.128400
 21
4.477440
  0
LINE
  8
0
 62
     0
  6
CONTINUOUS
 10
3.128400
 20
4.477440
 11
3.128400
 21
4.485360
  0
LINE
  8
0
 62
     0
  6
CONTINUOUS
 10
3.128400
 20
4.485360
 11
3.112120
 21
4.493720
  0
LINE
  8
0
 62
     0
  6
CONTINUOUS
 10
3.112120
 20
4.493720
 11
3.112120
 21
4.533320
  0
LINE
  8
0
 62
     0
  6
CONTINUOUS
 10
3.112120
 20
4.533320
 11
3.143360
 21
4.549600
  0
LINE
  8
0
 62
     0
  6
CONTINUOUS
 10
3.143360
 20
4.549600
 11
3.153040
 21
4.549600
  0
LINE
  8
0
 62
     0
  6
CONTINUOUS
 10
3.153040
 20
4.549600
 11
3.153040
 21
4.557520
  0
LINE
  8
0
 62
     0
  6
CONTINUOUS
 10
3.153040
 20
4.557520
 11
3.143360
 21
4.557520
  0
LINE
  8
0
 62
     0
  6
CONTINUOUS
 10
3.143360
 20
4.557520
 11
3.143360
 21
4.580840
  0
LINE
  8
0
 62
     0
  6
CONTINUOUS
 10
3.143360
 20
4.580840
 11
3.147320
 21
4.586120
  0
LINE
  8
0
 62
     0
  6
CONTINUOUS
 10
3.147320
 20
4.586120
 11
3.148640
 21
4.588760
  0
LINE
  8
0
 62
     0
  6
CONTINUOUS
 10
3.148640
 20
4.588760
 11
3.153040
 21
4.588760
  0
LINE
  8
0
 62
     0
  6
CONTINUOUS
 10
3.153040
 20
4.588760
 11
3.169320
 21
4.588760
  0
LINE
  8
0
 62
     0
  6
CONTINUOUS
 10
3.169320
 20
4.588760
 11
3.169320
 21
4.590080
  0
LINE
  8
0
 62
     0
  6
CONTINUOUS
 10
3.169320
 20
4.590080
 11
3.169320
 21
4.610760
  0
LINE
  8
0
 62
     0
  6
CONTINUOUS
 10
3.216840
 20
4.610760
 11
3.216840
 21
4.588760
  0
LINE
  8
0
 62
     0
  6
CONTINUOUS
 10
3.216840
 20
4.588760
 11
3.215520
 21
4.588760
  0
LINE
  8
0
 62
     0
  6
CONTINUOUS
 10
3.215520
 20
4.588760
 11
3.231800
 21
4.588760
  0
LINE
  8
0
 62
     0
  6
CONTINUOUS
 10
3.231800
 20
4.588760
 11
3.234440
 21
4.588760
  0
LINE
  8
0
 62
     0
  6
CONTINUOUS
 10
3.234440
 20
4.588760
 11
3.237080
 21
4.586120
  0
LINE
  8
0
 62
     0
  6
CONTINUOUS
 10
3.237080
 20
4.586120
 11
3.237080
 21
4.580840
  0
LINE
  8
0
 62
     0
  6
CONTINUOUS
 10
3.237080
 20
4.580840
 11
3.237080
 21
4.557520
  0
LINE
  8
0
 62
     0
  6
CONTINUOUS
 10
3.237080
 20
4.557520
 11
3.231800
 21
4.557520
  0
LINE
  8
0
 62
     0
  6
CONTINUOUS
 10
3.231800
 20
4.557520
 11
3.231800
 21
4.549600
  0
LINE
  8
0
 62
     0
  6
CONTINUOUS
 10
3.231800
 20
4.549600
 11
3.237080
 21
4.549600
  0
LINE
  8
0
 62
     0
  6
CONTINUOUS
 10
3.237080
 20
4.549600
 11
3.270080
 21
4.533320
  0
LINE
  8
0
 62
     0
  6
CONTINUOUS
 10
3.270080
 20
4.533320
 11
3.270080
 21
4.493720
  0
LINE
  8
0
 62
     0
  6
CONTINUOUS
 10
3.270080
 20
4.493720
 11
3.253800
 21
4.485360
  0
LINE
  8
0
 62
     0
  6
CONTINUOUS
 10
3.253800
 20
4.485360
 11
3.253800
 21
4.477440
  0
LINE
  8
0
 62
     0
  6
CONTINUOUS
 10
3.253800
 20
4.477440
 11
3.248080
 21
4.477440
  0
LINE
  8
0
 62
     0
  6
CONTINUOUS
 10
3.248080
 20
4.477440
 11
3.248080
 21
4.458080
  0
LINE
  8
0
 62
     0
  6
CONTINUOUS
 10
3.248080
 20
4.458080
 11
3.248080
 21
4.450160
  0
LINE
  8
0
 62
     0
  6
CONTINUOUS
 10
3.248080
 20
4.450160
 11
3.267000
 21
4.450160
  0
LINE
  8
0
 62
     0
  6
CONTINUOUS
 10
3.267000
 20
4.450160
 11
3.270080
 21
4.454120
  0
LINE
  8
0
 62
     0
  6
CONTINUOUS
 10
3.270080
 20
4.454120
 11
3.283720
 21
4.454120
  0
LINE
  8
0
 62
     0
  6
CONTINUOUS
 10
3.283720
 20
4.454120
 11
3.286360
 21
4.450160
  0
LINE
  8
0
 62
     0
  6
CONTINUOUS
 10
3.286360
 20
4.450160
 11
3.286360
 21
4.418920
  0
LINE
  8
0
 62
     0
  6
CONTINUOUS
 10
3.286360
 20
4.418920
 11
3.283720
 21
4.414520
  0
LINE
  8
0
 62
     0
  6
CONTINUOUS
 10
3.283720
 20
4.414520
 11
3.270080
 21
4.414520
  0
LINE
  8
0
 62
     0
  6
CONTINUOUS
 10
3.270080
 20
4.414520
 11
3.267000
 21
4.418920
  0
LINE
  8
0
 62
     0
  6
CONTINUOUS
 10
3.286360
 20
4.428160
 11
3.424960
 21
4.428160
  0
LINE
  8
0
 62
     0
  6
CONTINUOUS
 10
3.424960
 20
4.428160
 11
3.424960
 21
4.435200
  0
LINE
  8
0
 62
     0
  6
CONTINUOUS
 10
3.424960
 20
4.435200
 11
3.286360
 21
4.435200
  0
LINE
  8
0
 62
     0
  6
CONTINUOUS
 10
3.286360
 20
4.435200
 11
3.286360
 21
4.441800
  0
LINE
  8
0
 62
     0
  6
CONTINUOUS
 10
3.286360
 20
4.441800
 11
3.424960
 21
4.441800
  0
LINE
  8
0
 62
     0
  6
CONTINUOUS
 10
3.424960
 20
4.441800
 11
3.424960
 21
4.425520
  0
LINE
  8
0
 62
     0
  6
CONTINUOUS
 10
3.424960
 20
4.425520
 11
3.286360
 21
4.425520
  0
LINE
  8
0
 62
     0
  6
CONTINUOUS
 10
3.286360
 20
4.425520
 11
3.286360
 21
4.441800
  0
LINE
  8
0
 62
     0
  6
CONTINUOUS
 10
3.286360
 20
4.441800
 11
3.424960
 21
4.441800
  0
LINE
  8
0
 62
     0
  6
CONTINUOUS
 10
3.169320
 20
4.428160
 11
3.138080
 21
4.431240
  0
LINE
  8
0
 62
     0
  6
CONTINUOUS
 10
3.138080
 20
4.431240
 11
3.136760
 21
4.432560
  0
LINE
  8
0
 62
     0
  6
CONTINUOUS
 10
3.136760
 20
4.432560
 11
3.136760
 21
4.435200
  0
LINE
  8
0
 62
     0
  6
CONTINUOUS
 10
3.136760
 20
4.435200
 11
3.136760
 21
4.450160
  0
LINE
  8
0
 62
     0
  6
CONTINUOUS
 10
3.136760
 20
4.450160
 11
3.136760
 21
4.458080
  0
LINE
  8
0
 62
     0
  6
CONTINUOUS
 10
3.136760
 20
4.458080
 11
3.136760
 21
4.477440
  0
LINE
  8
0
 62
     0
  6
CONTINUOUS
 10
3.136760
 20
4.450160
 11
3.117400
 21
4.450160
  0
LINE
  8
0
 62
     0
  6
CONTINUOUS
 10
3.117400
 20
4.450160
 11
3.117400
 21
4.418920
  0
LINE
  8
0
 62
     0
  6
CONTINUOUS
 10
3.117400
 20
4.418920
 11
3.169320
 21
4.418920
  0
LINE
  8
0
 62
     0
  6
CONTINUOUS
 10
3.117400
 20
4.418920
 11
3.112120
 21
4.414520
  0
LINE
  8
0
 62
     0
  6
CONTINUOUS
 10
3.112120
 20
4.414520
 11
3.112120
 21
4.454120
  0
LINE
  8
0
 62
     0
  6
CONTINUOUS
 10
3.112120
 20
4.454120
 11
3.117400
 21
4.450160
  0
LINE
  8
0
 62
     0
  6
CONTINUOUS
 10
3.117400
 20
4.450160
 11
3.095840
 21
4.450160
  0
LINE
  8
0
 62
     0
  6
CONTINUOUS
 10
3.095840
 20
4.450160
 11
3.101120
 21
4.454120
  0
LINE
  8
0
 62
     0
  6
CONTINUOUS
 10
3.101120
 20
4.454120
 11
3.101120
 21
4.414520
  0
LINE
  8
0
 62
     0
  6
CONTINUOUS
 10
3.101120
 20
4.414520
 11
3.112120
 21
4.414520
  0
LINE
  8
0
 62
     0
  6
CONTINUOUS
 10
3.117400
 20
4.418920
 11
3.095840
 21
4.418920
  0
LINE
  8
0
 62
     0
  6
CONTINUOUS
 10
3.095840
 20
4.418920
 11
3.095840
 21
4.450160
  0
LINE
  8
0
 62
     0
  6
CONTINUOUS
 10
3.095840
 20
4.450160
 11
3.095840
 21
4.418920
  0
LINE
  8
0
 62
     0
  6
CONTINUOUS
 10
3.095840
 20
4.418920
 11
3.101120
 21
4.414520
  0
LINE
  8
0
 62
     0
  6
CONTINUOUS
 10
3.095840
 20
4.425520
 11
2.891680
 21
4.425520
  0
LINE
  8
0
 62
     0
  6
CONTINUOUS
 10
2.891680
 20
4.425520
 11
2.907960
 21
4.441800
  0
LINE
  8
0
 62
     0
  6
CONTINUOUS
 10
2.907960
 20
4.441800
 11
3.095840
 21
4.441800
  0
LINE
  8
0
 62
     0
  6
CONTINUOUS
 10
3.095840
 20
4.441800
 11
3.095840
 21
4.425520
  0
LINE
  8
0
 62
     0
  6
CONTINUOUS
 10
3.095840
 20
4.425520
 11
3.095840
 21
4.428160
  0
LINE
  8
0
 62
     0
  6
CONTINUOUS
 10
3.095840
 20
4.428160
 11
2.891680
 21
4.428160
  0
LINE
  8
0
 62
     0
  6
CONTINUOUS
 10
2.891680
 20
4.428160
 11
2.891680
 21
4.425520
  0
LINE
  8
0
 62
     0
  6
CONTINUOUS
 10
2.891680
 20
4.425520
 11
2.891680
 21
5.082880
  0
LINE
  8
0
 62
     0
  6
CONTINUOUS
 10
2.907960
 20
5.084640
 11
2.907960
 21
4.441800
  0
LINE
  8
0
 62
     0
  6
CONTINUOUS
 10
2.907960
 20
4.441800
 11
2.891680
 21
4.425520
  0
LINE
  8
0
 62
     0
  6
CONTINUOUS
 10
2.894320
 20
4.425520
 11
2.894320
 21
5.083760
  0
LINE
  8
0
 62
     0
  6
CONTINUOUS
 10
2.904000
 20
5.084640
 11
2.904000
 21
4.437840
  0
LINE
  8
0
 62
     0
  6
CONTINUOUS
 10
2.904000
 20
4.437840
 11
2.894320
 21
4.431240
  0
LINE
  8
0
 62
     0
  6
CONTINUOUS
 10
2.894320
 20
4.431240
 11
2.899600
 21
4.435200
  0
LINE
  8
0
 62
     0
  6
CONTINUOUS
 10
2.899600
 20
4.435200
 11
3.095840
 21
4.435200
  0
LINE
  8
0
 62
     0
  6
CONTINUOUS
 10
3.095840
 20
4.435200
 11
3.095840
 21
4.428160
  0
LINE
  8
0
 62
     0
  6
CONTINUOUS
 10
3.095840
 20
4.441800
 11
2.907960
 21
4.441800
  0
LINE
  8
0
 62
     0
  6
CONTINUOUS
 10
2.907960
 20
4.441800
 11
2.899600
 21
4.435200
  0
LINE
  8
0
 62
     0
  6
CONTINUOUS
 10
3.101120
 20
4.454120
 11
3.112120
 21
4.454120
  0
LINE
  8
0
 62
     0
  6
CONTINUOUS
 10
3.159640
 20
4.489760
 11
3.169320
 21
4.489760
  0
LINE
  8
0
 62
     0
  6
CONTINUOUS
 10
3.153040
 20
4.648600
 11
3.155680
 21
4.651680
  0
LINE
  8
0
 62
     0
  6
CONTINUOUS
 10
3.155680
 20
4.651680
 11
3.158320
 21
4.654320
  0
LINE
  8
0
 62
     0
  6
CONTINUOUS
 10
3.158320
 20
4.654320
 11
3.155680
 21
4.658280
  0
LINE
  8
0
 62
     0
  6
CONTINUOUS
 10
3.155680
 20
4.658280
 11
3.153040
 21
4.660920
  0
LINE
  8
0
 62
     0
  6
CONTINUOUS
 10
3.153040
 20
4.660920
 11
3.148640
 21
4.660920
  0
LINE
  8
0
 62
     0
  6
CONTINUOUS
 10
3.148640
 20
4.660920
 11
3.147320
 21
4.658280
  0
LINE
  8
0
 62
     0
  6
CONTINUOUS
 10
3.147320
 20
4.658280
 11
3.144680
 21
4.654320
  0
LINE
  8
0
 62
     0
  6
CONTINUOUS
 10
3.144680
 20
4.654320
 11
3.147320
 21
4.651680
  0
LINE
  8
0
 62
     0
  6
CONTINUOUS
 10
3.147320
 20
4.651680
 11
3.148640
 21
4.648600
  0
LINE
  8
0
 62
     0
  6
CONTINUOUS
 10
3.148640
 20
4.648600
 11
3.153040
 21
4.647280
  0
LINE
  8
0
 62
     0
  6
CONTINUOUS
 10
3.153040
 20
4.647280
 11
3.153040
 21
4.648600
  0
LINE
  8
0
 62
     0
  6
CONTINUOUS
 10
3.153040
 20
4.648600
 11
3.153040
 21
4.650360
  0
LINE
  8
0
 62
     0
  6
CONTINUOUS
 10
3.153040
 20
4.650360
 11
3.153040
 21
4.654320
  0
LINE
  8
0
 62
     0
  6
CONTINUOUS
 10
3.153040
 20
4.654320
 11
3.154360
 21
4.654320
  0
LINE
  8
0
 62
     0
  6
CONTINUOUS
 10
3.154360
 20
4.654320
 11
3.154360
 21
4.655640
  0
LINE
  8
0
 62
     0
  6
CONTINUOUS
 10
3.154360
 20
4.655640
 11
3.153040
 21
4.655640
  0
LINE
  8
0
 62
     0
  6
CONTINUOUS
 10
3.153040
 20
4.655640
 11
3.153040
 21
4.659600
  0
LINE
  8
0
 62
     0
  6
CONTINUOUS
 10
3.153040
 20
4.659600
 11
3.151720
 21
4.659600
  0
LINE
  8
0
 62
     0
  6
CONTINUOUS
 10
3.151720
 20
4.659600
 11
3.151720
 21
4.655640
  0
LINE
  8
0
 62
     0
  6
CONTINUOUS
 10
3.151720
 20
4.655640
 11
3.148640
 21
4.655640
  0
LINE
  8
0
 62
     0
  6
CONTINUOUS
 10
3.148640
 20
4.655640
 11
3.148640
 21
4.654320
  0
LINE
  8
0
 62
     0
  6
CONTINUOUS
 10
3.148640
 20
4.654320
 11
3.151720
 21
4.654320
  0
LINE
  8
0
 62
     0
  6
CONTINUOUS
 10
3.151720
 20
4.654320
 11
3.151720
 21
4.650360
  0
LINE
  8
0
 62
     0
  6
CONTINUOUS
 10
3.151720
 20
4.650360
 11
3.153040
 21
4.650360
  0
LINE
  8
0
 62
     0
  6
CONTINUOUS
 10
3.237080
 20
4.678520
 11
3.286360
 21
4.678520
  0
LINE
  8
0
 62
     0
  6
CONTINUOUS
 10
3.286360
 20
4.678520
 11
3.286360
 21
4.705800
  0
LINE
  8
0
 62
     0
  6
CONTINUOUS
 10
3.286360
 20
4.705800
 11
3.264360
 21
4.705800
  0
LINE
  8
0
 62
     0
  6
CONTINUOUS
 10
3.264360
 20
4.705800
 11
3.264360
 21
4.703160
  0
LINE
  8
0
 62
     0
  6
CONTINUOUS
 10
3.264360
 20
4.703160
 11
3.286360
 21
4.703160
  0
LINE
  8
0
 62
     0
  6
CONTINUOUS
 10
3.286360
 20
4.703160
 11
3.286360
 21
4.697880
  0
LINE
  8
0
 62
     0
  6
CONTINUOUS
 10
3.286360
 20
4.697880
 11
3.264360
 21
4.697880
  0
LINE
  8
0
 62
     0
  6
CONTINUOUS
 10
3.264360
 20
4.697880
 11
3.264360
 21
4.695240
  0
LINE
  8
0
 62
     0
  6
CONTINUOUS
 10
3.264360
 20
4.695240
 11
3.286360
 21
4.695240
  0
LINE
  8
0
 62
     0
  6
CONTINUOUS
 10
3.286360
 20
4.695240
 11
3.286360
 21
4.689520
  0
LINE
  8
0
 62
     0
  6
CONTINUOUS
 10
3.286360
 20
4.689520
 11
3.294280
 21
4.689520
  0
LINE
  8
0
 62
     0
  6
CONTINUOUS
 10
3.294280
 20
4.689520
 11
3.297360
 21
4.681600
  0
LINE
  8
0
 62
     0
  6
CONTINUOUS
 10
3.297360
 20
4.681600
 11
3.297360
 21
4.660920
  0
LINE
  8
0
 62
     0
  6
CONTINUOUS
 10
3.297360
 20
4.660920
 11
3.294280
 21
4.670600
  0
LINE
  8
0
 62
     0
  6
CONTINUOUS
 10
3.294280
 20
4.670600
 11
3.286360
 21
4.670600
  0
LINE
  8
0
 62
     0
  6
CONTINUOUS
 10
3.294280
 20
4.670600
 11
3.297360
 21
4.681600
  0
LINE
  8
0
 62
     0
  6
CONTINUOUS
 10
3.286360
 20
4.682920
 11
3.264360
 21
4.682920
  0
LINE
  8
0
 62
     0
  6
CONTINUOUS
 10
3.264360
 20
4.682920
 11
3.264360
 21
4.686880
  0
LINE
  8
0
 62
     0
  6
CONTINUOUS
 10
3.264360
 20
4.686880
 11
3.286360
 21
4.686880
  0
LINE
  8
0
 62
     0
  6
CONTINUOUS
 10
3.286360
 20
4.686880
 11
3.286360
 21
4.689520
  0
LINE
  8
0
 62
     0
  6
CONTINUOUS
 10
3.286360
 20
4.689520
 11
3.264360
 21
4.689520
  0
LINE
  8
0
 62
     0
  6
CONTINUOUS
 10
3.264360
 20
4.678520
 11
3.264360
 21
4.889720
  0
LINE
  8
0
 62
     0
  6
CONTINUOUS
 10
3.264360
 20
4.889720
 11
3.263040
 21
4.896320
  0
LINE
  8
0
 62
     0
  6
CONTINUOUS
 10
3.263040
 20
4.896320
 11
3.259080
 21
4.902040
  0
LINE
  8
0
 62
     0
  6
CONTINUOUS
 10
3.259080
 20
4.902040
 11
3.253800
 21
4.906000
  0
LINE
  8
0
 62
     0
  6
CONTINUOUS
 10
3.253800
 20
4.906000
 11
3.250720
 21
4.908640
  0
LINE
  8
0
 62
     0
  6
CONTINUOUS
 10
3.250720
 20
4.908640
 11
3.245440
 21
4.909960
  0
LINE
  8
0
 62
     0
  6
CONTINUOUS
 10
3.245440
 20
4.909960
 11
3.090120
 21
4.909960
  0
LINE
  8
0
 62
     0
  6
CONTINUOUS
 10
3.090120
 20
4.909960
 11
3.087480
 21
4.908640
  0
LINE
  8
0
 62
     0
  6
CONTINUOUS
 10
3.087480
 20
4.908640
 11
3.082200
 21
4.906000
  0
LINE
  8
0
 62
     0
  6
CONTINUOUS
 10
3.011360
 20
4.998400
 11
3.424960
 21
4.998400
  0
LINE
  8
0
 62
     0
  6
CONTINUOUS
 10
3.424960
 20
4.998400
 11
3.424960
 21
4.991800
  0
LINE
  8
0
 62
     0
  6
CONTINUOUS
 10
3.424960
 20
4.991800
 11
3.006080
 21
4.991800
  0
LINE
  8
0
 62
     0
  6
CONTINUOUS
 10
3.022360
 20
5.009400
 11
3.424960
 21
5.009400
  0
LINE
  8
0
 62
     0
  6
CONTINUOUS
 10
3.424960
 20
5.009400
 11
3.424960
 21
4.991800
  0
LINE
  8
0
 62
     0
  6
CONTINUOUS
 10
3.424960
 20
5.005440
 11
3.017960
 21
5.005440
  0
LINE
  8
0
 62
     0
  6
CONTINUOUS
 10
3.469840
 20
4.999720
 11
3.509440
 21
4.999720
  0
LINE
  8
0
 62
     0
  6
CONTINUOUS
 10
3.513400
 20
5.027000
 11
3.498440
 21
4.969800
  0
LINE
  8
0
 62
     0
  6
CONTINUOUS
 10
3.528360
 20
4.969800
 11
3.529680
 21
5.027000
  0
LINE
  8
0
 62
     0
  6
CONTINUOUS
 10
3.560040
 20
5.027000
 11
3.528360
 21
4.969800
  0
LINE
  8
0
 62
     0
  6
CONTINUOUS
 10
3.558280
 20
4.969800
 11
3.560040
 21
5.027000
  0
LINE
  8
0
 62
     0
  6
CONTINUOUS
 10
3.585560
 20
5.027000
 11
3.558280
 21
4.969800
  0
LINE
  8
0
 62
     0
  6
CONTINUOUS
 10
3.588200
 20
4.969800
 11
3.600520
 21
5.027000
  0
LINE
  8
0
 62
     0
  6
CONTINUOUS
 10
3.600520
 20
5.027000
 11
3.626480
 21
5.027000
  0
LINE
  8
0
 62
     0
  6
CONTINUOUS
 10
3.626480
 20
5.027000
 11
3.633080
 21
5.024360
  0
LINE
  8
0
 62
     0
  6
CONTINUOUS
 10
3.633080
 20
5.024360
 11
3.637480
 21
5.021720
  0
LINE
  8
0
 62
     0
  6
CONTINUOUS
 10
3.637480
 20
5.021720
 11
3.637480
 21
5.016440
  0
LINE
  8
0
 62
     0
  6
CONTINUOUS
 10
3.637480
 20
5.016440
 11
3.637480
 21
5.010720
  0
LINE
  8
0
 62
     0
  6
CONTINUOUS
 10
3.637480
 20
5.010720
 11
3.629120
 21
5.005440
  0
LINE
  8
0
 62
     0
  6
CONTINUOUS
 10
3.629120
 20
5.005440
 11
3.626480
 21
5.002800
  0
LINE
  8
0
 62
     0
  6
CONTINUOUS
 10
3.626480
 20
5.002800
 11
3.618120
 21
4.999720
  0
LINE
  8
0
 62
     0
  6
CONTINUOUS
 10
3.618120
 20
4.999720
 11
3.593920
 21
4.999720
  0
LINE
  8
0
 62
     0
  6
CONTINUOUS
 10
3.612840
 20
4.999720
 11
3.626480
 21
4.969800
  0
LINE
  8
0
 62
     0
  6
CONTINUOUS
 10
3.463240
 20
4.969800
 11
3.478200
 21
5.027000
  0
LINE
  8
0
 62
     0
  6
CONTINUOUS
 10
3.275360
 20
4.745400
 11
3.270080
 21
4.746720
  0
LINE
  8
0
 62
     0
  6
CONTINUOUS
 10
3.270080
 20
4.746720
 11
3.264360
 21
4.746720
  0
LINE
  8
0
 62
     0
  6
CONTINUOUS
 10
3.275360
 20
4.745400
 11
3.279320
 21
4.741440
  0
LINE
  8
0
 62
     0
  6
CONTINUOUS
 10
3.279320
 20
4.741440
 11
3.280640
 21
4.738800
  0
LINE
  8
0
 62
     0
  6
CONTINUOUS
 10
3.280640
 20
4.738800
 11
3.280640
 21
4.705800
  0
LINE
  8
0
 62
     0
  6
CONTINUOUS
 10
3.286360
 20
4.678520
 11
3.286360
 21
4.645960
  0
LINE
  8
0
 62
     0
  6
CONTINUOUS
 10
3.286360
 20
4.645960
 11
3.286360
 21
4.650360
  0
LINE
  8
0
 62
     0
  6
CONTINUOUS
 10
3.286360
 20
4.650360
 11
3.294280
 21
4.650360
  0
LINE
  8
0
 62
     0
  6
CONTINUOUS
 10
3.294280
 20
4.650360
 11
3.297360
 21
4.660920
  0
LINE
  8
0
 62
     0
  6
CONTINUOUS
 10
3.478200
 20
4.461160
 11
3.463240
 21
4.403960
  0
LINE
  8
0
 62
     0
  6
CONTINUOUS
 10
3.469840
 20
4.433880
 11
3.509440
 21
4.433880
  0
LINE
  8
0
 62
     0
  6
CONTINUOUS
 10
3.513400
 20
4.461160
 11
3.498440
 21
4.403960
  0
LINE
  8
0
 62
     0
  6
CONTINUOUS
 10
3.528360
 20
4.403960
 11
3.529680
 21
4.461160
  0
LINE
  8
0
 62
     0
  6
CONTINUOUS
 10
3.560040
 20
4.461160
 11
3.528360
 21
4.403960
  0
LINE
  8
0
 62
     0
  6
CONTINUOUS
 10
3.558280
 20
4.403960
 11
3.560040
 21
4.461160
  0
LINE
  8
0
 62
     0
  6
CONTINUOUS
 10
3.585560
 20
4.461160
 11
3.558280
 21
4.403960
  0
LINE
  8
0
 62
     0
  6
CONTINUOUS
 10
3.591280
 20
4.406600
 11
3.585560
 21
4.411880
  0
LINE
  8
0
 62
     0
  6
CONTINUOUS
 10
3.591280
 20
4.406600
 11
3.595240
 21
4.403960
  0
LINE
  8
0
 62
     0
  6
CONTINUOUS
 10
3.595240
 20
4.403960
 11
3.608880
 21
4.403960
  0
LINE
  8
0
 62
     0
  6
CONTINUOUS
 10
3.608880
 20
4.403960
 11
3.616800
 21
4.406600
  0
LINE
  8
0
 62
     0
  6
CONTINUOUS
 10
3.616800
 20
4.406600
 11
3.625160
 21
4.411880
  0
LINE
  8
0
 62
     0
  6
CONTINUOUS
 10
3.625160
 20
4.411880
 11
3.626480
 21
4.420240
  0
LINE
  8
0
 62
     0
  6
CONTINUOUS
 10
3.626480
 20
4.420240
 11
3.626480
 21
4.425520
  0
LINE
  8
0
 62
     0
  6
CONTINUOUS
 10
3.626480
 20
4.425520
 11
3.623840
 21
4.428160
  0
LINE
  8
0
 62
     0
  6
CONTINUOUS
 10
3.623840
 20
4.428160
 11
3.618120
 21
4.431240
  0
LINE
  8
0
 62
     0
  6
CONTINUOUS
 10
3.618120
 20
4.431240
 11
3.604920
 21
4.436520
  0
LINE
  8
0
 62
     0
  6
CONTINUOUS
 10
3.604920
 20
4.436520
 11
3.596560
 21
4.439160
  0
LINE
  8
0
 62
     0
  6
CONTINUOUS
 10
3.596560
 20
4.439160
 11
3.595240
 21
4.441800
  0
LINE
  8
0
 62
     0
  6
CONTINUOUS
 10
3.595240
 20
4.441800
 11
3.593920
 21
4.447520
  0
LINE
  8
0
 62
     0
  6
CONTINUOUS
 10
3.593920
 20
4.447520
 11
3.595240
 21
4.452800
  0
LINE
  8
0
 62
     0
  6
CONTINUOUS
 10
3.595240
 20
4.452800
 11
3.604920
 21
4.458080
  0
LINE
  8
0
 62
     0
  6
CONTINUOUS
 10
3.604920
 20
4.458080
 11
3.610200
 21
4.461160
  0
LINE
  8
0
 62
     0
  6
CONTINUOUS
 10
3.610200
 20
4.461160
 11
3.623840
 21
4.461160
  0
LINE
  8
0
 62
     0
  6
CONTINUOUS
 10
3.623840
 20
4.461160
 11
3.629120
 21
4.458080
  0
LINE
  8
0
 62
     0
  6
CONTINUOUS
 10
3.629120
 20
4.458080
 11
3.634840
 21
4.452800
  0
LINE
  8
0
 62
     0
  6
CONTINUOUS
 10
3.012680
 20
5.948800
 11
3.019720
 21
5.943080
  0
LINE
  8
0
 62
     0
  6
CONTINUOUS
 10
3.019720
 20
5.943080
 11
3.019720
 21
5.937800
  0
LINE
  8
0
 62
     0
  6
CONTINUOUS
 10
3.019720
 20
5.937800
 11
3.021040
 21
5.929440
  0
LINE
  8
0
 62
     0
  6
CONTINUOUS
 10
3.021040
 20
5.929440
 11
3.016640
 21
5.916240
  0
LINE
  8
0
 62
     0
  6
CONTINUOUS
 10
3.016640
 20
5.916240
 11
3.008720
 21
5.907880
  0
LINE
  8
0
 62
     0
  6
CONTINUOUS
 10
3.008720
 20
5.907880
 11
3.006080
 21
5.902600
  0
LINE
  8
0
 62
     0
  6
CONTINUOUS
 10
3.006080
 20
5.902600
 11
3.000360
 21
5.896880
  0
LINE
  8
0
 62
     0
  6
CONTINUOUS
 10
3.000360
 20
5.896880
 11
2.989800
 21
5.894240
  0
LINE
  8
0
 62
     0
  6
CONTINUOUS
 10
2.989800
 20
5.894240
 11
2.973080
 21
5.894240
  0
LINE
  8
0
 62
     0
  6
CONTINUOUS
 10
2.973080
 20
5.894240
 11
2.988040
 21
5.950120
  0
LINE
  8
0
 62
     0
  6
CONTINUOUS
 10
2.988040
 20
5.950120
 11
3.006080
 21
5.950120
  0
LINE
  8
0
 62
     0
  6
CONTINUOUS
 10
3.006080
 20
5.950120
 11
3.012680
 21
5.948800
  0
LINE
  8
0
 62
     0
  6
CONTINUOUS
 10
2.956800
 20
5.948800
 11
2.952840
 21
5.950120
  0
LINE
  8
0
 62
     0
  6
CONTINUOUS
 10
2.952840
 20
5.950120
 11
2.940520
 21
5.950120
  0
LINE
  8
0
 62
     0
  6
CONTINUOUS
 10
2.940520
 20
5.950120
 11
2.936560
 21
5.948800
  0
LINE
  8
0
 62
     0
  6
CONTINUOUS
 10
2.936560
 20
5.948800
 11
2.926880
 21
5.943080
  0
LINE
  8
0
 62
     0
  6
CONTINUOUS
 10
2.926880
 20
5.943080
 11
2.924240
 21
5.937800
  0
LINE
  8
0
 62
     0
  6
CONTINUOUS
 10
2.924240
 20
5.937800
 11
2.920280
 21
5.929440
  0
LINE
  8
0
 62
     0
  6
CONTINUOUS
 10
2.920280
 20
5.929440
 11
2.915880
 21
5.916240
  0
LINE
  8
0
 62
     0
  6
CONTINUOUS
 10
2.915880
 20
5.916240
 11
2.915880
 21
5.907880
  0
LINE
  8
0
 62
     0
  6
CONTINUOUS
 10
2.915880
 20
5.907880
 11
2.918960
 21
5.902600
  0
LINE
  8
0
 62
     0
  6
CONTINUOUS
 10
2.918960
 20
5.902600
 11
2.922920
 21
5.896880
  0
LINE
  8
0
 62
     0
  6
CONTINUOUS
 10
2.922920
 20
5.896880
 11
2.924240
 21
5.894240
  0
LINE
  8
0
 62
     0
  6
CONTINUOUS
 10
2.924240
 20
5.894240
 11
2.937880
 21
5.894240
  0
LINE
  8
0
 62
     0
  6
CONTINUOUS
 10
2.937880
 20
5.894240
 11
2.941840
 21
5.896880
  0
LINE
  8
0
 62
     0
  6
CONTINUOUS
 10
2.941840
 20
5.896880
 11
2.951520
 21
5.902600
  0
LINE
  8
0
 62
     0
  6
CONTINUOUS
 10
2.951520
 20
5.902600
 11
2.955480
 21
5.907880
  0
LINE
  8
0
 62
     0
  6
CONTINUOUS
 10
2.955480
 20
5.907880
 11
2.956800
 21
5.916240
  0
LINE
  8
0
 62
     0
  6
CONTINUOUS
 10
2.956800
 20
5.916240
 11
2.962520
 21
5.929440
  0
LINE
  8
0
 62
     0
  6
CONTINUOUS
 10
2.962520
 20
5.929440
 11
2.962520
 21
5.937800
  0
LINE
  8
0
 62
     0
  6
CONTINUOUS
 10
2.962520
 20
5.937800
 11
2.959440
 21
5.943080
  0
LINE
  8
0
 62
     0
  6
CONTINUOUS
 10
2.959440
 20
5.943080
 11
2.956800
 21
5.948800
  0
LINE
  8
0
 62
     0
  6
CONTINUOUS
 10
2.907960
 20
5.950120
 11
2.869680
 21
5.894240
  0
LINE
  8
0
 62
     0
  6
CONTINUOUS
 10
2.869680
 20
5.894240
 11
2.861760
 21
5.950120
  0
LINE
  8
0
 62
     0
  6
CONTINUOUS
 10
2.861760
 20
5.950120
 11
2.845480
 21
5.894240
  0
LINE
  8
0
 62
     0
  6
CONTINUOUS
 10
2.861760
 20
5.880600
 11
2.845480
 21
5.823400
  0
LINE
  8
0
 62
     0
  6
CONTINUOUS
 10
2.857360
 20
5.853320
 11
2.891680
 21
5.853320
  0
LINE
  8
0
 62
     0
  6
CONTINUOUS
 10
2.914560
 20
5.853320
 11
2.937880
 21
5.853320
  0
LINE
  8
0
 62
     0
  6
CONTINUOUS
 10
2.907960
 20
5.823400
 11
2.924240
 21
5.880600
  0
LINE
  8
0
 62
     0
  6
CONTINUOUS
 10
2.924240
 20
5.880600
 11
2.956800
 21
5.880600
  0
LINE
  8
0
 62
     0
  6
CONTINUOUS
 10
2.988040
 20
5.880600
 11
2.951520
 21
5.823400
  0
LINE
  8
0
 62
     0
  6
CONTINUOUS
 10
2.963840
 20
5.842760
 11
2.989800
 21
5.842760
  0
LINE
  8
0
 62
     0
  6
CONTINUOUS
 10
2.992440
 20
5.823400
 11
2.988040
 21
5.880600
  0
LINE
  8
0
 62
     0
  6
CONTINUOUS
 10
3.014000
 20
5.880600
 11
3.053600
 21
5.880600
  0
LINE
  8
0
 62
     0
  6
CONTINUOUS
 10
3.034680
 20
5.880600
 11
3.019720
 21
5.823400
  0
LINE
  8
0
 62
     0
  6
CONTINUOUS
 10
3.032920
 20
5.894240
 11
3.036000
 21
5.896880
  0
LINE
  8
0
 62
     0
  6
CONTINUOUS
 10
3.036000
 20
5.896880
 11
3.034680
 21
5.899520
  0
LINE
  8
0
 62
     0
  6
CONTINUOUS
 10
3.034680
 20
5.899520
 11
3.028960
 21
5.896880
  0
LINE
  8
0
 62
     0
  6
CONTINUOUS
 10
3.028960
 20
5.896880
 11
3.032920
 21
5.894240
  0
LINE
  8
0
 62
     0
  6
CONTINUOUS
 10
2.891680
 20
5.894240
 11
2.907960
 21
5.950120
  0
LINE
  8
0
 62
     0
  6
CONTINUOUS
 10
2.902680
 20
5.880600
 11
2.887720
 21
5.823400
  0
LINE
  8
0
 62
     0
  6
CONTINUOUS
 10
3.196160
 20
4.422880
 11
3.196160
 21
4.331800
  0
LINE
  8
0
 62
     0
  6
CONTINUOUS
 10
2.862640
 20
5.089480
 11
2.862640
 21
5.586680
  0
LINE
  8
0
 62
     0
  6
CONTINUOUS
 10
2.962960
 20
5.532560
 11
2.967360
 21
5.523320
  0
LINE
  8
0
 62
     0
  6
CONTINUOUS
 10
2.967360
 20
5.523320
 11
2.969120
 21
5.514080
  0
LINE
  8
0
 62
     0
  6
CONTINUOUS
 10
2.962960
 20
5.532560
 11
2.961200
 21
5.540480
  0
LINE
  8
0
 62
     0
  6
CONTINUOUS
 10
2.961200
 20
5.540480
 11
2.950640
 21
5.546640
  0
LINE
  8
0
 62
     0
  6
CONTINUOUS
 10
2.950640
 20
5.546640
 11
2.942720
 21
5.549720
  0
LINE
  8
0
 62
     0
  6
CONTINUOUS
 10
2.942720
 20
5.549720
 11
2.933480
 21
5.551040
  0
LINE
  8
0
 62
     0
  6
CONTINUOUS
 10
2.933480
 20
5.551040
 11
2.924240
 21
5.549720
  0
LINE
  8
0
 62
     0
  6
CONTINUOUS
 10
2.924240
 20
5.549720
 11
2.915000
 21
5.546640
  0
LINE
  8
0
 62
     0
  6
CONTINUOUS
 10
2.915000
 20
5.546640
 11
2.905760
 21
5.540480
  0
LINE
  8
0
 62
     0
  6
CONTINUOUS
 10
2.905760
 20
5.540480
 11
2.902680
 21
5.532560
  0
LINE
  8
0
 62
     0
  6
CONTINUOUS
 10
2.902680
 20
5.532560
 11
2.899600
 21
5.523320
  0
LINE
  8
0
 62
     0
  6
CONTINUOUS
 10
2.899600
 20
5.523320
 11
2.896520
 21
5.514080
  0
LINE
  8
0
 62
     0
  6
CONTINUOUS
 10
2.896520
 20
5.514080
 11
2.899600
 21
5.504840
  0
LINE
  8
0
 62
     0
  6
CONTINUOUS
 10
2.899600
 20
5.504840
 11
2.902680
 21
5.496920
  0
LINE
  8
0
 62
     0
  6
CONTINUOUS
 10
2.902680
 20
5.496920
 11
2.905760
 21
5.487680
  0
LINE
  8
0
 62
     0
  6
CONTINUOUS
 10
2.905760
 20
5.487680
 11
2.915000
 21
5.481520
  0
LINE
  8
0
 62
     0
  6
CONTINUOUS
 10
2.915000
 20
5.481520
 11
2.924240
 21
5.478440
  0
LINE
  8
0
 62
     0
  6
CONTINUOUS
 10
2.924240
 20
5.478440
 11
2.933480
 21
5.478440
  0
LINE
  8
0
 62
     0
  6
CONTINUOUS
 10
2.933480
 20
5.478440
 11
2.942720
 21
5.478440
  0
LINE
  8
0
 62
     0
  6
CONTINUOUS
 10
2.942720
 20
5.478440
 11
2.950640
 21
5.481520
  0
LINE
  8
0
 62
     0
  6
CONTINUOUS
 10
2.950640
 20
5.481520
 11
2.961200
 21
5.487680
  0
LINE
  8
0
 62
     0
  6
CONTINUOUS
 10
2.961200
 20
5.487680
 11
2.962960
 21
5.496920
  0
LINE
  8
0
 62
     0
  6
CONTINUOUS
 10
2.962960
 20
5.496920
 11
2.967360
 21
5.504840
  0
LINE
  8
0
 62
     0
  6
CONTINUOUS
 10
2.967360
 20
5.504840
 11
2.969120
 21
5.514080
  0
LINE
  8
0
 62
     0
  6
CONTINUOUS
 10
2.979680
 20
5.453800
 11
2.976600
 21
5.447640
  0
LINE
  8
0
 62
     0
  6
CONTINUOUS
 10
2.976600
 20
5.447640
 11
2.970440
 21
5.438400
  0
LINE
  8
0
 62
     0
  6
CONTINUOUS
 10
2.970440
 20
5.438400
 11
2.969120
 21
5.429160
  0
LINE
  8
0
 62
     0
  6
CONTINUOUS
 10
2.969120
 20
5.429160
 11
2.970440
 21
5.419920
  0
LINE
  8
0
 62
     0
  6
CONTINUOUS
 10
2.970440
 20
5.419920
 11
2.976600
 21
5.410680
  0
LINE
  8
0
 62
     0
  6
CONTINUOUS
 10
2.976600
 20
5.410680
 11
2.979680
 21
5.402760
  0
LINE
  8
0
 62
     0
  6
CONTINUOUS
 10
2.979680
 20
5.402760
 11
2.987600
 21
5.398360
  0
LINE
  8
0
 62
     0
  6
CONTINUOUS
 10
2.987600
 20
5.398360
 11
2.998600
 21
5.393520
  0
LINE
  8
0
 62
     0
  6
CONTINUOUS
 10
2.998600
 20
5.393520
 11
3.006080
 21
5.392200
  0
LINE
  8
0
 62
     0
  6
CONTINUOUS
 10
3.006080
 20
5.392200
 11
3.017080
 21
5.393520
  0
LINE
  8
0
 62
     0
  6
CONTINUOUS
 10
3.017080
 20
5.393520
 11
3.024560
 21
5.398360
  0
LINE
  8
0
 62
     0
  6
CONTINUOUS
 10
3.024560
 20
5.398360
 11
3.033800
 21
5.402760
  0
LINE
  8
0
 62
     0
  6
CONTINUOUS
 10
3.033800
 20
5.402760
 11
3.035560
 21
5.410680
  0
LINE
  8
0
 62
     0
  6
CONTINUOUS
 10
3.035560
 20
5.410680
 11
3.041720
 21
5.419920
  0
LINE
  8
0
 62
     0
  6
CONTINUOUS
 10
3.041720
 20
5.419920
 11
3.043040
 21
5.429160
  0
LINE
  8
0
 62
     0
  6
CONTINUOUS
 10
3.043040
 20
5.429160
 11
3.041720
 21
5.438400
  0
LINE
  8
0
 62
     0
  6
CONTINUOUS
 10
3.041720
 20
5.438400
 11
3.035560
 21
5.447640
  0
LINE
  8
0
 62
     0
  6
CONTINUOUS
 10
3.035560
 20
5.447640
 11
3.033800
 21
5.453800
  0
LINE
  8
0
 62
     0
  6
CONTINUOUS
 10
3.033800
 20
5.453800
 11
3.024560
 21
5.459960
  0
LINE
  8
0
 62
     0
  6
CONTINUOUS
 10
3.024560
 20
5.459960
 11
3.017080
 21
5.464800
  0
LINE
  8
0
 62
     0
  6
CONTINUOUS
 10
3.017080
 20
5.464800
 11
3.006080
 21
5.466120
  0
LINE
  8
0
 62
     0
  6
CONTINUOUS
 10
3.006080
 20
5.466120
 11
2.998600
 21
5.464800
  0
LINE
  8
0
 62
     0
  6
CONTINUOUS
 10
2.998600
 20
5.464800
 11
2.987600
 21
5.459960
  0
LINE
  8
0
 62
     0
  6
CONTINUOUS
 10
2.987600
 20
5.459960
 11
2.979680
 21
5.453800
  0
LINE
  8
0
 62
     0
  6
CONTINUOUS
 10
2.979680
 20
5.563360
 11
2.987600
 21
5.557200
  0
LINE
  8
0
 62
     0
  6
CONTINUOUS
 10
2.987600
 20
5.557200
 11
2.998600
 21
5.552800
  0
LINE
  8
0
 62
     0
  6
CONTINUOUS
 10
2.998600
 20
5.552800
 11
3.006080
 21
5.552800
  0
LINE
  8
0
 62
     0
  6
CONTINUOUS
 10
3.006080
 20
5.552800
 11
3.017080
 21
5.552800
  0
LINE
  8
0
 62
     0
  6
CONTINUOUS
 10
3.017080
 20
5.552800
 11
3.024560
 21
5.557200
  0
LINE
  8
0
 62
     0
  6
CONTINUOUS
 10
3.024560
 20
5.557200
 11
3.033800
 21
5.563360
  0
LINE
  8
0
 62
     0
  6
CONTINUOUS
 10
3.033800
 20
5.563360
 11
3.035560
 21
5.571280
  0
LINE
  8
0
 62
     0
  6
CONTINUOUS
 10
3.035560
 20
5.571280
 11
3.041720
 21
5.578760
  0
LINE
  8
0
 62
     0
  6
CONTINUOUS
 10
3.041720
 20
5.578760
 11
3.043040
 21
5.588000
  0
LINE
  8
0
 62
     0
  6
CONTINUOUS
 10
3.043040
 20
5.588000
 11
3.041720
 21
5.597680
  0
LINE
  8
0
 62
     0
  6
CONTINUOUS
 10
3.041720
 20
5.597680
 11
3.035560
 21
5.606920
  0
LINE
  8
0
 62
     0
  6
CONTINUOUS
 10
3.035560
 20
5.606920
 11
3.033800
 21
5.614400
  0
LINE
  8
0
 62
     0
  6
CONTINUOUS
 10
3.033800
 20
5.614400
 11
3.024560
 21
5.620560
  0
LINE
  8
0
 62
     0
  6
CONTINUOUS
 10
3.024560
 20
5.620560
 11
3.017080
 21
5.623640
  0
LINE
  8
0
 62
     0
  6
CONTINUOUS
 10
3.017080
 20
5.623640
 11
3.006080
 21
5.625400
  0
LINE
  8
0
 62
     0
  6
CONTINUOUS
 10
3.006080
 20
5.625400
 11
2.998600
 21
5.623640
  0
LINE
  8
0
 62
     0
  6
CONTINUOUS
 10
2.998600
 20
5.623640
 11
2.987600
 21
5.620560
  0
LINE
  8
0
 62
     0
  6
CONTINUOUS
 10
2.987600
 20
5.620560
 11
2.979680
 21
5.614400
  0
LINE
  8
0
 62
     0
  6
CONTINUOUS
 10
2.979680
 20
5.614400
 11
2.976600
 21
5.606920
  0
LINE
  8
0
 62
     0
  6
CONTINUOUS
 10
2.976600
 20
5.606920
 11
2.970440
 21
5.597680
  0
LINE
  8
0
 62
     0
  6
CONTINUOUS
 10
2.970440
 20
5.597680
 11
2.969120
 21
5.588000
  0
LINE
  8
0
 62
     0
  6
CONTINUOUS
 10
2.969120
 20
5.588000
 11
2.970440
 21
5.578760
  0
LINE
  8
0
 62
     0
  6
CONTINUOUS
 10
2.970440
 20
5.578760
 11
2.976600
 21
5.571280
  0
LINE
  8
0
 62
     0
  6
CONTINUOUS
 10
2.976600
 20
5.571280
 11
2.979680
 21
5.563360
  0
LINE
  8
0
 62
     0
  6
CONTINUOUS
 10
3.054040
 20
5.586680
 11
3.054040
 21
5.089480
  0
LINE
  8
0
 62
     0
  6
CONTINUOUS
 10
2.961200
 20
5.135680
 11
2.962960
 21
5.143600
  0
LINE
  8
0
 62
     0
  6
CONTINUOUS
 10
2.962960
 20
5.143600
 11
2.967360
 21
5.152840
  0
LINE
  8
0
 62
     0
  6
CONTINUOUS
 10
2.967360
 20
5.152840
 11
2.969120
 21
5.162080
  0
LINE
  8
0
 62
     0
  6
CONTINUOUS
 10
2.969120
 20
5.162080
 11
2.967360
 21
5.171320
  0
LINE
  8
0
 62
     0
  6
CONTINUOUS
 10
2.967360
 20
5.171320
 11
2.962960
 21
5.180560
  0
LINE
  8
0
 62
     0
  6
CONTINUOUS
 10
2.962960
 20
5.180560
 11
2.961200
 21
5.188040
  0
LINE
  8
0
 62
     0
  6
CONTINUOUS
 10
2.961200
 20
5.188040
 11
2.950640
 21
5.192880
  0
LINE
  8
0
 62
     0
  6
CONTINUOUS
 10
2.950640
 20
5.192880
 11
2.942720
 21
5.197280
  0
LINE
  8
0
 62
     0
  6
CONTINUOUS
 10
2.942720
 20
5.197280
 11
2.933480
 21
5.197280
  0
LINE
  8
0
 62
     0
  6
CONTINUOUS
 10
2.933480
 20
5.197280
 11
2.924240
 21
5.197280
  0
LINE
  8
0
 62
     0
  6
CONTINUOUS
 10
2.924240
 20
5.197280
 11
2.915000
 21
5.192880
  0
LINE
  8
0
 62
     0
  6
CONTINUOUS
 10
2.915000
 20
5.192880
 11
2.905760
 21
5.188040
  0
LINE
  8
0
 62
     0
  6
CONTINUOUS
 10
2.905760
 20
5.188040
 11
2.902680
 21
5.180560
  0
LINE
  8
0
 62
     0
  6
CONTINUOUS
 10
2.902680
 20
5.180560
 11
2.899600
 21
5.171320
  0
LINE
  8
0
 62
     0
  6
CONTINUOUS
 10
2.899600
 20
5.171320
 11
2.896520
 21
5.162080
  0
LINE
  8
0
 62
     0
  6
CONTINUOUS
 10
2.896520
 20
5.162080
 11
2.899600
 21
5.152840
  0
LINE
  8
0
 62
     0
  6
CONTINUOUS
 10
2.899600
 20
5.152840
 11
2.902680
 21
5.143600
  0
LINE
  8
0
 62
     0
  6
CONTINUOUS
 10
2.924240
 20
5.126440
 11
2.933480
 21
5.126440
  0
LINE
  8
0
 62
     0
  6
CONTINUOUS
 10
2.933480
 20
5.126440
 11
2.942720
 21
5.126440
  0
LINE
  8
0
 62
     0
  6
CONTINUOUS
 10
2.942720
 20
5.126440
 11
2.950640
 21
5.129520
  0
LINE
  8
0
 62
     0
  6
CONTINUOUS
 10
2.950640
 20
5.129520
 11
2.961200
 21
5.135680
  0
LINE
  8
0
 62
     0
  6
CONTINUOUS
 10
2.979680
 20
5.232920
 11
2.987600
 21
5.226760
  0
LINE
  8
0
 62
     0
  6
CONTINUOUS
 10
2.987600
 20
5.226760
 11
2.998600
 21
5.223680
  0
LINE
  8
0
 62
     0
  6
CONTINUOUS
 10
2.998600
 20
5.223680
 11
3.006080
 21
5.222360
  0
LINE
  8
0
 62
     0
  6
CONTINUOUS
 10
3.006080
 20
5.222360
 11
3.017080
 21
5.223680
  0
LINE
  8
0
 62
     0
  6
CONTINUOUS
 10
3.017080
 20
5.223680
 11
3.024560
 21
5.226760
  0
LINE
  8
0
 62
     0
  6
CONTINUOUS
 10
3.024560
 20
5.226760
 11
3.033800
 21
5.232920
  0
LINE
  8
0
 62
     0
  6
CONTINUOUS
 10
3.033800
 20
5.232920
 11
3.035560
 21
5.240840
  0
LINE
  8
0
 62
     0
  6
CONTINUOUS
 10
3.035560
 20
5.240840
 11
3.041720
 21
5.250080
  0
LINE
  8
0
 62
     0
  6
CONTINUOUS
 10
3.041720
 20
5.250080
 11
3.043040
 21
5.259320
  0
LINE
  8
0
 62
     0
  6
CONTINUOUS
 10
3.043040
 20
5.259320
 11
3.041720
 21
5.268560
  0
LINE
  8
0
 62
     0
  6
CONTINUOUS
 10
3.041720
 20
5.268560
 11
3.035560
 21
5.277800
  0
LINE
  8
0
 62
     0
  6
CONTINUOUS
 10
3.035560
 20
5.277800
 11
3.033800
 21
5.283960
  0
LINE
  8
0
 62
     0
  6
CONTINUOUS
 10
3.033800
 20
5.283960
 11
3.024560
 21
5.290120
  0
LINE
  8
0
 62
     0
  6
CONTINUOUS
 10
3.024560
 20
5.290120
 11
3.017080
 21
5.293200
  0
LINE
  8
0
 62
     0
  6
CONTINUOUS
 10
3.017080
 20
5.293200
 11
3.006080
 21
5.296280
  0
LINE
  8
0
 62
     0
  6
CONTINUOUS
 10
3.006080
 20
5.296280
 11
2.998600
 21
5.293200
  0
LINE
  8
0
 62
     0
  6
CONTINUOUS
 10
2.998600
 20
5.293200
 11
2.987600
 21
5.290120
  0
LINE
  8
0
 62
     0
  6
CONTINUOUS
 10
2.987600
 20
5.290120
 11
2.979680
 21
5.283960
  0
LINE
  8
0
 62
     0
  6
CONTINUOUS
 10
2.979680
 20
5.283960
 11
2.976600
 21
5.277800
  0
LINE
  8
0
 62
     0
  6
CONTINUOUS
 10
2.976600
 20
5.277800
 11
2.970440
 21
5.268560
  0
LINE
  8
0
 62
     0
  6
CONTINUOUS
 10
2.970440
 20
5.268560
 11
2.969120
 21
5.259320
  0
LINE
  8
0
 62
     0
  6
CONTINUOUS
 10
2.969120
 20
5.259320
 11
2.970440
 21
5.250080
  0
LINE
  8
0
 62
     0
  6
CONTINUOUS
 10
2.970440
 20
5.250080
 11
2.976600
 21
5.240840
  0
LINE
  8
0
 62
     0
  6
CONTINUOUS
 10
2.976600
 20
5.240840
 11
2.979680
 21
5.232920
  0
LINE
  8
0
 62
     0
  6
CONTINUOUS
 10
2.961200
 20
5.305520
 11
2.962960
 21
5.313440
  0
LINE
  8
0
 62
     0
  6
CONTINUOUS
 10
2.962960
 20
5.313440
 11
2.967360
 21
5.322680
  0
LINE
  8
0
 62
     0
  6
CONTINUOUS
 10
2.967360
 20
5.322680
 11
2.969120
 21
5.331920
  0
LINE
  8
0
 62
     0
  6
CONTINUOUS
 10
2.969120
 20
5.331920
 11
2.967360
 21
5.341160
  0
LINE
  8
0
 62
     0
  6
CONTINUOUS
 10
2.967360
 20
5.341160
 11
2.962960
 21
5.350400
  0
LINE
  8
0
 62
     0
  6
CONTINUOUS
 10
2.962960
 20
5.350400
 11
2.961200
 21
5.357880
  0
LINE
  8
0
 62
     0
  6
CONTINUOUS
 10
2.961200
 20
5.357880
 11
2.950640
 21
5.362720
  0
LINE
  8
0
 62
     0
  6
CONTINUOUS
 10
2.950640
 20
5.362720
 11
2.942720
 21
5.367560
  0
LINE
  8
0
 62
     0
  6
CONTINUOUS
 10
2.942720
 20
5.367560
 11
2.933480
 21
5.367560
  0
LINE
  8
0
 62
     0
  6
CONTINUOUS
 10
2.933480
 20
5.367560
 11
2.924240
 21
5.367560
  0
LINE
  8
0
 62
     0
  6
CONTINUOUS
 10
2.924240
 20
5.367560
 11
2.915000
 21
5.362720
  0
LINE
  8
0
 62
     0
  6
CONTINUOUS
 10
2.915000
 20
5.362720
 11
2.905760
 21
5.357880
  0
LINE
  8
0
 62
     0
  6
CONTINUOUS
 10
2.905760
 20
5.357880
 11
2.902680
 21
5.350400
  0
LINE
  8
0
 62
     0
  6
CONTINUOUS
 10
2.902680
 20
5.350400
 11
2.899600
 21
5.341160
  0
LINE
  8
0
 62
     0
  6
CONTINUOUS
 10
2.899600
 20
5.341160
 11
2.896520
 21
5.331920
  0
LINE
  8
0
 62
     0
  6
CONTINUOUS
 10
2.896520
 20
5.331920
 11
2.899600
 21
5.322680
  0
LINE
  8
0
 62
     0
  6
CONTINUOUS
 10
2.899600
 20
5.322680
 11
2.902680
 21
5.313440
  0
LINE
  8
0
 62
     0
  6
CONTINUOUS
 10
2.902680
 20
5.313440
 11
2.905760
 21
5.305520
  0
LINE
  8
0
 62
     0
  6
CONTINUOUS
 10
2.905760
 20
5.305520
 11
2.915000
 21
5.299360
  0
LINE
  8
0
 62
     0
  6
CONTINUOUS
 10
2.915000
 20
5.299360
 11
2.924240
 21
5.296280
  0
LINE
  8
0
 62
     0
  6
CONTINUOUS
 10
2.924240
 20
5.296280
 11
2.933480
 21
5.296280
  0
LINE
  8
0
 62
     0
  6
CONTINUOUS
 10
2.933480
 20
5.296280
 11
2.942720
 21
5.296280
  0
LINE
  8
0
 62
     0
  6
CONTINUOUS
 10
2.942720
 20
5.296280
 11
2.950640
 21
5.299360
  0
LINE
  8
0
 62
     0
  6
CONTINUOUS
 10
2.950640
 20
5.299360
 11
2.961200
 21
5.305520
  0
LINE
  8
0
 62
     0
  6
CONTINUOUS
 10
3.054040
 20
5.089480
 11
2.862640
 21
5.089480
  0
LINE
  8
0
 62
     0
  6
CONTINUOUS
 10
2.862640
 20
5.586680
 11
2.862640
 21
5.811960
  0
LINE
  8
0
 62
     0
  6
CONTINUOUS
 10
2.862640
 20
5.827360
 11
3.054040
 21
5.827360
  0
LINE
  8
0
 62
     0
  6
CONTINUOUS
 10
3.054040
 20
5.811960
 11
3.054040
 21
5.586680
  0
LINE
  8
0
 62
     0
  6
CONTINUOUS
 10
2.961200
 20
5.634640
 11
2.962960
 21
5.642120
  0
LINE
  8
0
 62
     0
  6
CONTINUOUS
 10
2.962960
 20
5.642120
 11
2.967360
 21
5.651360
  0
LINE
  8
0
 62
     0
  6
CONTINUOUS
 10
2.967360
 20
5.651360
 11
2.969120
 21
5.660600
  0
LINE
  8
0
 62
     0
  6
CONTINUOUS
 10
2.969120
 20
5.660600
 11
2.967360
 21
5.670280
  0
LINE
  8
0
 62
     0
  6
CONTINUOUS
 10
2.967360
 20
5.670280
 11
2.962960
 21
5.679520
  0
LINE
  8
0
 62
     0
  6
CONTINUOUS
 10
2.962960
 20
5.679520
 11
2.961200
 21
5.687000
  0
LINE
  8
0
 62
     0
  6
CONTINUOUS
 10
2.961200
 20
5.687000
 11
2.950640
 21
5.691840
  0
LINE
  8
0
 62
     0
  6
CONTINUOUS
 10
2.950640
 20
5.691840
 11
2.942720
 21
5.696240
  0
LINE
  8
0
 62
     0
  6
CONTINUOUS
 10
2.942720
 20
5.696240
 11
2.933480
 21
5.698000
  0
LINE
  8
0
 62
     0
  6
CONTINUOUS
 10
2.933480
 20
5.698000
 11
2.924240
 21
5.696240
  0
LINE
  8
0
 62
     0
  6
CONTINUOUS
 10
2.924240
 20
5.696240
 11
2.915000
 21
5.691840
  0
LINE
  8
0
 62
     0
  6
CONTINUOUS
 10
2.915000
 20
5.691840
 11
2.905760
 21
5.687000
  0
LINE
  8
0
 62
     0
  6
CONTINUOUS
 10
2.905760
 20
5.687000
 11
2.902680
 21
5.679520
  0
LINE
  8
0
 62
     0
  6
CONTINUOUS
 10
2.902680
 20
5.679520
 11
2.899600
 21
5.670280
  0
LINE
  8
0
 62
     0
  6
CONTINUOUS
 10
2.899600
 20
5.670280
 11
2.896520
 21
5.660600
  0
LINE
  8
0
 62
     0
  6
CONTINUOUS
 10
2.896520
 20
5.660600
 11
2.899600
 21
5.651360
  0
LINE
  8
0
 62
     0
  6
CONTINUOUS
 10
2.899600
 20
5.651360
 11
2.902680
 21
5.642120
  0
LINE
  8
0
 62
     0
  6
CONTINUOUS
 10
2.902680
 20
5.642120
 11
2.905760
 21
5.634640
  0
LINE
  8
0
 62
     0
  6
CONTINUOUS
 10
2.905760
 20
5.634640
 11
2.915000
 21
5.629800
  0
LINE
  8
0
 62
     0
  6
CONTINUOUS
 10
2.915000
 20
5.629800
 11
2.924240
 21
5.625400
  0
LINE
  8
0
 62
     0
  6
CONTINUOUS
 10
2.924240
 20
5.625400
 11
2.933480
 21
5.623640
  0
LINE
  8
0
 62
     0
  6
CONTINUOUS
 10
2.933480
 20
5.623640
 11
2.942720
 21
5.625400
  0
LINE
  8
0
 62
     0
  6
CONTINUOUS
 10
2.942720
 20
5.625400
 11
2.950640
 21
5.629800
  0
LINE
  8
0
 62
     0
  6
CONTINUOUS
 10
2.950640
 20
5.629800
 11
2.961200
 21
5.634640
  0
LINE
  8
0
 62
     0
  6
CONTINUOUS
 10
2.979680
 20
5.722640
 11
2.987600
 21
5.716480
  0
LINE
  8
0
 62
     0
  6
CONTINUOUS
 10
2.987600
 20
5.716480
 11
2.998600
 21
5.713400
  0
LINE
  8
0
 62
     0
  6
CONTINUOUS
 10
2.998600
 20
5.713400
 11
3.006080
 21
5.711640
  0
LINE
  8
0
 62
     0
  6
CONTINUOUS
 10
3.006080
 20
5.711640
 11
3.017080
 21
5.713400
  0
LINE
  8
0
 62
     0
  6
CONTINUOUS
 10
3.017080
 20
5.713400
 11
3.024560
 21
5.716480
  0
LINE
  8
0
 62
     0
  6
CONTINUOUS
 10
3.024560
 20
5.716480
 11
3.033800
 21
5.722640
  0
LINE
  8
0
 62
     0
  6
CONTINUOUS
 10
3.033800
 20
5.722640
 11
3.035560
 21
5.730120
  0
LINE
  8
0
 62
     0
  6
CONTINUOUS
 10
3.035560
 20
5.730120
 11
3.041720
 21
5.738040
  0
LINE
  8
0
 62
     0
  6
CONTINUOUS
 10
3.041720
 20
5.738040
 11
3.043040
 21
5.749040
  0
LINE
  8
0
 62
     0
  6
CONTINUOUS
 10
3.043040
 20
5.749040
 11
3.041720
 21
5.758280
  0
LINE
  8
0
 62
     0
  6
CONTINUOUS
 10
3.041720
 20
5.758280
 11
3.035560
 21
5.765760
  0
LINE
  8
0
 62
     0
  6
CONTINUOUS
 10
3.035560
 20
5.765760
 11
3.033800
 21
5.775000
  0
LINE
  8
0
 62
     0
  6
CONTINUOUS
 10
3.033800
 20
5.775000
 11
3.024560
 21
5.781160
  0
LINE
  8
0
 62
     0
  6
CONTINUOUS
 10
3.024560
 20
5.781160
 11
3.017080
 21
5.784240
  0
LINE
  8
0
 62
     0
  6
CONTINUOUS
 10
3.017080
 20
5.784240
 11
3.006080
 21
5.784240
  0
LINE
  8
0
 62
     0
  6
CONTINUOUS
 10
3.006080
 20
5.784240
 11
2.998600
 21
5.784240
  0
LINE
  8
0
 62
     0
  6
CONTINUOUS
 10
2.998600
 20
5.784240
 11
2.987600
 21
5.781160
  0
LINE
  8
0
 62
     0
  6
CONTINUOUS
 10
2.987600
 20
5.781160
 11
2.979680
 21
5.775000
  0
LINE
  8
0
 62
     0
  6
CONTINUOUS
 10
2.979680
 20
5.775000
 11
2.976600
 21
5.765760
  0
LINE
  8
0
 62
     0
  6
CONTINUOUS
 10
2.976600
 20
5.765760
 11
2.970440
 21
5.758280
  0
LINE
  8
0
 62
     0
  6
CONTINUOUS
 10
2.970440
 20
5.758280
 11
2.969120
 21
5.749040
  0
LINE
  8
0
 62
     0
  6
CONTINUOUS
 10
2.969120
 20
5.749040
 11
2.970440
 21
5.738040
  0
LINE
  8
0
 62
     0
  6
CONTINUOUS
 10
2.970440
 20
5.738040
 11
2.976600
 21
5.730120
  0
LINE
  8
0
 62
     0
  6
CONTINUOUS
 10
2.976600
 20
5.730120
 11
2.979680
 21
5.722640
  0
LINE
  8
0
 62
     0
  6
CONTINUOUS
 10
2.947120
 20
5.823400
 11
2.911480
 21
5.823400
  0
POLYLINE
  8
0
 62
     0
  6
CONTINUOUS
 66
     1
 40
0.002200
 41
0.002200
  0
VERTEX
  8
0
 62
     0
  6
CONTINUOUS
 10
4.339720
 20
4.343680
  0
VERTEX
  8
0
 62
     0
  6
CONTINUOUS
 10
4.339720
 20
5.070560
  0
SEQEND
  8
0
  0
POLYLINE
  8
0
 62
     0
  6
CONTINUOUS
 66
     1
 40
0.002200
 41
0.002200
  0
VERTEX
  8
0
 62
     0
  6
CONTINUOUS
 10
4.182200
 20
4.276800
  0
VERTEX
  8
0
 62
     0
  6
CONTINUOUS
 10
4.182200
 20
4.191440
  0
VERTEX
  8
0
 62
     0
  6
CONTINUOUS
 10
4.228840
 20
4.191880
  0
VERTEX
  8
0
 62
     0
  6
CONTINUOUS
 10
4.228840
 20
4.192320
  0
VERTEX
  8
0
 62
     0
  6
CONTINUOUS
 10
4.239400
 20
4.194960
  0
VERTEX
  8
0
 62
     0
  6
CONTINUOUS
 10
4.250400
 20
4.202000
  0
VERTEX
  8
0
 62
     0
  6
CONTINUOUS
 10
4.254360
 20
4.207720
  0
VERTEX
  8
0
 62
     0
  6
CONTINUOUS
 10
4.257000
 20
4.211680
  0
VERTEX
  8
0
 62
     0
  6
CONTINUOUS
 10
4.261840
 20
4.226640
  0
VERTEX
  8
0
 62
     0
  6
CONTINUOUS
 10
4.262720
 20
4.242920
  0
VERTEX
  8
0
 62
     0
  6
CONTINUOUS
 10
4.262280
 20
4.242920
  0
VERTEX
  8
0
 62
     0
  6
CONTINUOUS
 10
4.260960
 20
4.258760
  0
VERTEX
  8
0
 62
     0
  6
CONTINUOUS
 10
4.260520
 20
4.258760
  0
VERTEX
  8
0
 62
     0
  6
CONTINUOUS
 10
4.253480
 20
4.274160
  0
VERTEX
  8
0
 62
     0
  6
CONTINUOUS
 10
4.240720
 20
4.284280
  0
VERTEX
  8
0
 62
     0
  6
CONTINUOUS
 10
4.227520
 20
4.288240
  0
VERTEX
  8
0
 62
     0
  6
CONTINUOUS
 10
4.182200
 20
4.288680
  0
VERTEX
  8
0
 62
     0
  6
CONTINUOUS
 10
4.182200
 20
4.276800
  0
VERTEX
  8
0
 62
     0
  6
CONTINUOUS
 10
4.226640
 20
4.276360
  0
VERTEX
  8
0
 62
     0
  6
CONTINUOUS
 10
4.227960
 20
4.275480
  0
VERTEX
  8
0
 62
     0
  6
CONTINUOUS
 10
4.233680
 20
4.274160
  0
VERTEX
  8
0
 62
     0
  6
CONTINUOUS
 10
4.242480
 20
4.266680
  0
VERTEX
  8
0
 62
     0
  6
CONTINUOUS
 10
4.248200
 20
4.254800
  0
VERTEX
  8
0
 62
     0
  6
CONTINUOUS
 10
4.249080
 20
4.235440
  0
VERTEX
  8
0
 62
     0
  6
CONTINUOUS
 10
4.248640
 20
4.235440
  0
VERTEX
  8
0
 62
     0
  6
CONTINUOUS
 10
4.247760
 20
4.225760
  0
VERTEX
  8
0
 62
     0
  6
CONTINUOUS
 10
4.247320
 20
4.225760
  0
VERTEX
  8
0
 62
     0
  6
CONTINUOUS
 10
4.242920
 20
4.213000
  0
VERTEX
  8
0
 62
     0
  6
CONTINUOUS
 10
4.233680
 20
4.205520
  0
VERTEX
  8
0
 62
     0
  6
CONTINUOUS
 10
4.222680
 20
4.202880
  0
VERTEX
  8
0
 62
     0
  6
CONTINUOUS
 10
4.195400
 20
4.202880
  0
VERTEX
  8
0
 62
     0
  6
CONTINUOUS
 10
4.195400
 20
4.276800
  0
VERTEX
  8
0
 62
     0
  6
CONTINUOUS
 10
4.182200
 20
4.276800
  0
SEQEND
  8
0
  0
POLYLINE
  8
0
 62
     0
  6
CONTINUOUS
 66
     1
 40
0.002200
 41
0.002200
  0
VERTEX
  8
0
 62
     0
  6
CONTINUOUS
 10
4.324760
 20
4.278560
  0
VERTEX
  8
0
 62
     0
  6
CONTINUOUS
 10
4.324760
 20
4.278120
  0
VERTEX
  8
0
 62
     0
  6
CONTINUOUS
 10
4.332240
 20
4.277240
  0
VERTEX
  8
0
 62
     0
  6
CONTINUOUS
 10
4.332240
 20
4.276800
  0
VERTEX
  8
0
 62
     0
  6
CONTINUOUS
 10
4.343240
 20
4.271520
  0
VERTEX
  8
0
 62
     0
  6
CONTINUOUS
 10
4.350720
 20
4.261840
  0
VERTEX
  8
0
 62
     0
  6
CONTINUOUS
 10
4.354680
 20
4.251720
  0
VERTEX
  8
0
 62
     0
  6
CONTINUOUS
 10
4.355560
 20
4.235000
  0
VERTEX
  8
0
 62
     0
  6
CONTINUOUS
 10
4.355120
 20
4.235000
  0
VERTEX
  8
0
 62
     0
  6
CONTINUOUS
 10
4.353800
 20
4.224000
  0
VERTEX
  8
0
 62
     0
  6
CONTINUOUS
 10
4.353360
 20
4.224000
  0
VERTEX
  8
0
 62
     0
  6
CONTINUOUS
 10
4.351160
 20
4.217840
  0
VERTEX
  8
0
 62
     0
  6
CONTINUOUS
 10
4.341480
 20
4.206400
  0
VERTEX
  8
0
 62
     0
  6
CONTINUOUS
 10
4.330480
 20
4.201120
  0
VERTEX
  8
0
 62
     0
  6
CONTINUOUS
 10
4.313760
 20
4.201120
  0
VERTEX
  8
0
 62
     0
  6
CONTINUOUS
 10
4.313760
 20
4.201560
  0
VERTEX
  8
0
 62
     0
  6
CONTINUOUS
 10
4.303200
 20
4.206400
  0
VERTEX
  8
0
 62
     0
  6
CONTINUOUS
 10
4.298360
 20
4.210800
  0
VERTEX
  8
0
 62
     0
  6
CONTINUOUS
 10
4.291320
 20
4.223560
  0
VERTEX
  8
0
 62
     0
  6
CONTINUOUS
 10
4.289560
 20
4.234120
  0
VERTEX
  8
0
 62
     0
  6
CONTINUOUS
 10
4.290880
 20
4.253920
  0
VERTEX
  8
0
 62
     0
  6
CONTINUOUS
 10
4.291320
 20
4.253920
  0
VERTEX
  8
0
 62
     0
  6
CONTINUOUS
 10
4.293520
 20
4.261840
  0
VERTEX
  8
0
 62
     0
  6
CONTINUOUS
 10
4.301440
 20
4.271520
  0
VERTEX
  8
0
 62
     0
  6
CONTINUOUS
 10
4.314200
 20
4.278120
  0
VERTEX
  8
0
 62
     0
  6
CONTINUOUS
 10
4.353360
 20
4.278560
  0
VERTEX
  8
0
 62
     0
  6
CONTINUOUS
 10
4.341480
 20
4.286480
  0
VERTEX
  8
0
 62
     0
  6
CONTINUOUS
 10
4.325200
 20
4.290000
  0
VERTEX
  8
0
 62
     0
  6
CONTINUOUS
 10
4.311560
 20
4.288680
  0
VERTEX
  8
0
 62
     0
  6
CONTINUOUS
 10
4.300560
 20
4.284720
  0
VERTEX
  8
0
 62
     0
  6
CONTINUOUS
 10
4.290000
 20
4.277240
  0
VERTEX
  8
0
 62
     0
  6
CONTINUOUS
 10
4.281640
 20
4.266240
  0
VERTEX
  8
0
 62
     0
  6
CONTINUOUS
 10
4.276800
 20
4.250840
  0
VERTEX
  8
0
 62
     0
  6
CONTINUOUS
 10
4.276360
 20
4.230600
  0
VERTEX
  8
0
 62
     0
  6
CONTINUOUS
 10
4.276800
 20
4.230600
  0
VERTEX
  8
0
 62
     0
  6
CONTINUOUS
 10
4.279440
 20
4.218280
  0
VERTEX
  8
0
 62
     0
  6
CONTINUOUS
 10
4.280320
 20
4.217400
  0
VERTEX
  8
0
 62
     0
  6
CONTINUOUS
 10
4.285600
 20
4.206840
  0
VERTEX
  8
0
 62
     0
  6
CONTINUOUS
 10
4.297920
 20
4.195840
  0
VERTEX
  8
0
 62
     0
  6
CONTINUOUS
 10
4.308480
 20
4.191000
  0
VERTEX
  8
0
 62
     0
  6
CONTINUOUS
 10
4.314200
 20
4.189680
  0
VERTEX
  8
0
 62
     0
  6
CONTINUOUS
 10
4.330920
 20
4.190120
  0
VERTEX
  8
0
 62
     0
  6
CONTINUOUS
 10
4.330920
 20
4.190560
  0
VERTEX
  8
0
 62
     0
  6
CONTINUOUS
 10
4.342360
 20
4.193640
  0
VERTEX
  8
0
 62
     0
  6
CONTINUOUS
 10
4.344120
 20
4.194960
  0
VERTEX
  8
0
 62
     0
  6
CONTINUOUS
 10
4.357760
 20
4.204640
  0
VERTEX
  8
0
 62
     0
  6
CONTINUOUS
 10
4.360400
 20
4.208600
  0
VERTEX
  8
0
 62
     0
  6
CONTINUOUS
 10
4.362160
 20
4.211240
  0
VERTEX
  8
0
 62
     0
  6
CONTINUOUS
 10
4.367440
 20
4.224880
  0
VERTEX
  8
0
 62
     0
  6
CONTINUOUS
 10
4.369200
 20
4.242920
  0
VERTEX
  8
0
 62
     0
  6
CONTINUOUS
 10
4.368760
 20
4.242920
  0
VERTEX
  8
0
 62
     0
  6
CONTINUOUS
 10
4.367000
 20
4.257440
  0
VERTEX
  8
0
 62
     0
  6
CONTINUOUS
 10
4.366560
 20
4.257440
  0
VERTEX
  8
0
 62
     0
  6
CONTINUOUS
 10
4.363480
 20
4.265800
  0
VERTEX
  8
0
 62
     0
  6
CONTINUOUS
 10
4.353800
 20
4.278560
  0
VERTEX
  8
0
 62
     0
  6
CONTINUOUS
 10
4.324760
 20
4.278560
  0
SEQEND
  8
0
  0
POLYLINE
  8
0
 62
     0
  6
CONTINUOUS
 66
     1
 40
0.002200
 41
0.002200
  0
VERTEX
  8
0
 62
     0
  6
CONTINUOUS
 10
4.424640
 20
4.191440
  0
VERTEX
  8
0
 62
     0
  6
CONTINUOUS
 10
4.423760
 20
4.191440
  0
VERTEX
  8
0
 62
     0
  6
CONTINUOUS
 10
4.422440
 20
4.191440
  0
VERTEX
  8
0
 62
     0
  6
CONTINUOUS
 10
4.420680
 20
4.191440
  0
VERTEX
  8
0
 62
     0
  6
CONTINUOUS
 10
4.418480
 20
4.191440
  0
VERTEX
  8
0
 62
     0
  6
CONTINUOUS
 10
4.416280
 20
4.191440
  0
VERTEX
  8
0
 62
     0
  6
CONTINUOUS
 10
4.414520
 20
4.191440
  0
VERTEX
  8
0
 62
     0
  6
CONTINUOUS
 10
4.413200
 20
4.191440
  0
VERTEX
  8
0
 62
     0
  6
CONTINUOUS
 10
4.412760
 20
4.191440
  0
SEQEND
  8
0
  0
POLYLINE
  8
0
 62
     0
  6
CONTINUOUS
 66
     1
 40
0.002200
 41
0.002200
  0
VERTEX
  8
0
 62
     0
  6
CONTINUOUS
 10
4.412760
 20
4.191440
  0
VERTEX
  8
0
 62
     0
  6
CONTINUOUS
 10
4.412760
 20
4.194520
  0
VERTEX
  8
0
 62
     0
  6
CONTINUOUS
 10
4.412760
 20
4.203320
  0
VERTEX
  8
0
 62
     0
  6
CONTINUOUS
 10
4.412760
 20
4.215200
  0
VERTEX
  8
0
 62
     0
  6
CONTINUOUS
 10
4.412760
 20
4.229280
  0
VERTEX
  8
0
 62
     0
  6
CONTINUOUS
 10
4.412760
 20
4.243360
  0
VERTEX
  8
0
 62
     0
  6
CONTINUOUS
 10
4.412760
 20
4.255240
  0
VERTEX
  8
0
 62
     0
  6
CONTINUOUS
 10
4.412760
 20
4.264040
  0
VERTEX
  8
0
 62
     0
  6
CONTINUOUS
 10
4.412760
 20
4.267560
  0
SEQEND
  8
0
  0
POLYLINE
  8
0
 62
     0
  6
CONTINUOUS
 66
     1
 40
0.002200
 41
0.002200
  0
VERTEX
  8
0
 62
     0
  6
CONTINUOUS
 10
4.412760
 20
4.267560
  0
VERTEX
  8
0
 62
     0
  6
CONTINUOUS
 10
4.411440
 20
4.266240
  0
VERTEX
  8
0
 62
     0
  6
CONTINUOUS
 10
4.410120
 20
4.264920
  0
VERTEX
  8
0
 62
     0
  6
CONTINUOUS
 10
4.409240
 20
4.264040
  0
VERTEX
  8
0
 62
     0
  6
CONTINUOUS
 10
4.407920
 20
4.263160
  0
VERTEX
  8
0
 62
     0
  6
CONTINUOUS
 10
4.406160
 20
4.261840
  0
VERTEX
  8
0
 62
     0
  6
CONTINUOUS
 10
4.404840
 20
4.260960
  0
VERTEX
  8
0
 62
     0
  6
CONTINUOUS
 10
4.403080
 20
4.260080
  0
VERTEX
  8
0
 62
     0
  6
CONTINUOUS
 10
4.401760
 20
4.259200
  0
SEQEND
  8
0
  0
POLYLINE
  8
0
 62
     0
  6
CONTINUOUS
 66
     1
 40
0.002200
 41
0.002200
  0
VERTEX
  8
0
 62
     0
  6
CONTINUOUS
 10
4.401760
 20
4.259200
  0
VERTEX
  8
0
 62
     0
  6
CONTINUOUS
 10
4.399560
 20
4.257880
  0
VERTEX
  8
0
 62
     0
  6
CONTINUOUS
 10
4.397800
 20
4.257000
  0
VERTEX
  8
0
 62
     0
  6
CONTINUOUS
 10
4.396480
 20
4.256120
  0
VERTEX
  8
0
 62
     0
  6
CONTINUOUS
 10
4.394720
 20
4.255240
  0
VERTEX
  8
0
 62
     0
  6
CONTINUOUS
 10
4.392960
 20
4.254800
  0
VERTEX
  8
0
 62
     0
  6
CONTINUOUS
 10
4.391640
 20
4.253920
  0
VERTEX
  8
0
 62
     0
  6
CONTINUOUS
 10
4.390320
 20
4.253480
  0
VERTEX
  8
0
 62
     0
  6
CONTINUOUS
 10
4.389000
 20
4.253040
  0
SEQEND
  8
0
  0
POLYLINE
  8
0
 62
     0
  6
CONTINUOUS
 66
     1
 40
0.002200
 41
0.002200
  0
VERTEX
  8
0
 62
     0
  6
CONTINUOUS
 10
4.389000
 20
4.253040
  0
VERTEX
  8
0
 62
     0
  6
CONTINUOUS
 10
4.389000
 20
4.253480
  0
VERTEX
  8
0
 62
     0
  6
CONTINUOUS
 10
4.389000
 20
4.254800
  0
VERTEX
  8
0
 62
     0
  6
CONTINUOUS
 10
4.389000
 20
4.256560
  0
VERTEX
  8
0
 62
     0
  6
CONTINUOUS
 10
4.389000
 20
4.258760
  0
VERTEX
  8
0
 62
     0
  6
CONTINUOUS
 10
4.389000
 20
4.260520
  0
VERTEX
  8
0
 62
     0
  6
CONTINUOUS
 10
4.389000
 20
4.262280
  0
VERTEX
  8
0
 62
     0
  6
CONTINUOUS
 10
4.389000
 20
4.263600
  0
VERTEX
  8
0
 62
     0
  6
CONTINUOUS
 10
4.389000
 20
4.264480
  0
SEQEND
  8
0
  0
POLYLINE
  8
0
 62
     0
  6
CONTINUOUS
 66
     1
 40
0.002200
 41
0.002200
  0
VERTEX
  8
0
 62
     0
  6
CONTINUOUS
 10
4.389000
 20
4.264480
  0
VERTEX
  8
0
 62
     0
  6
CONTINUOUS
 10
4.391200
 20
4.265360
  0
VERTEX
  8
0
 62
     0
  6
CONTINUOUS
 10
4.393400
 20
4.266680
  0
VERTEX
  8
0
 62
     0
  6
CONTINUOUS
 10
4.396040
 20
4.268000
  0
VERTEX
  8
0
 62
     0
  6
CONTINUOUS
 10
4.398240
 20
4.269320
  0
VERTEX
  8
0
 62
     0
  6
CONTINUOUS
 10
4.400440
 20
4.271080
  0
VERTEX
  8
0
 62
     0
  6
CONTINUOUS
 10
4.402200
 20
4.272400
  0
VERTEX
  8
0
 62
     0
  6
CONTINUOUS
 10
4.404400
 20
4.274160
  0
VERTEX
  8
0
 62
     0
  6
CONTINUOUS
 10
4.406600
 20
4.275920
  0
SEQEND
  8
0
  0
POLYLINE
  8
0
 62
     0
  6
CONTINUOUS
 66
     1
 40
0.002200
 41
0.002200
  0
VERTEX
  8
0
 62
     0
  6
CONTINUOUS
 10
4.406600
 20
4.275920
  0
VERTEX
  8
0
 62
     0
  6
CONTINUOUS
 10
4.407920
 20
4.277240
  0
VERTEX
  8
0
 62
     0
  6
CONTINUOUS
 10
4.409680
 20
4.279000
  0
VERTEX
  8
0
 62
     0
  6
CONTINUOUS
 10
4.411440
 20
4.280760
  0
VERTEX
  8
0
 62
     0
  6
CONTINUOUS
 10
4.412760
 20
4.282520
  0
VERTEX
  8
0
 62
     0
  6
CONTINUOUS
 10
4.414080
 20
4.283840
  0
VERTEX
  8
0
 62
     0
  6
CONTINUOUS
 10
4.414960
 20
4.285600
  0
VERTEX
  8
0
 62
     0
  6
CONTINUOUS
 10
4.415840
 20
4.287360
  0
VERTEX
  8
0
 62
     0
  6
CONTINUOUS
 10
4.417160
 20
4.289120
  0
SEQEND
  8
0
  0
POLYLINE
  8
0
 62
     0
  6
CONTINUOUS
 66
     1
 40
0.002200
 41
0.002200
  0
VERTEX
  8
0
 62
     0
  6
CONTINUOUS
 10
4.417160
 20
4.289120
  0
VERTEX
  8
0
 62
     0
  6
CONTINUOUS
 10
4.418040
 20
4.289120
  0
VERTEX
  8
0
 62
     0
  6
CONTINUOUS
 10
4.419360
 20
4.289120
  0
VERTEX
  8
0
 62
     0
  6
CONTINUOUS
 10
4.420680
 20
4.289120
  0
VERTEX
  8
0
 62
     0
  6
CONTINUOUS
 10
4.422000
 20
4.289120
  0
VERTEX
  8
0
 62
     0
  6
CONTINUOUS
 10
4.423320
 20
4.289120
  0
VERTEX
  8
0
 62
     0
  6
CONTINUOUS
 10
4.424200
 20
4.289120
  0
VERTEX
  8
0
 62
     0
  6
CONTINUOUS
 10
4.424640
 20
4.289120
  0
SEQEND
  8
0
  0
POLYLINE
  8
0
 62
     0
  6
CONTINUOUS
 66
     1
 40
0.002200
 41
0.002200
  0
VERTEX
  8
0
 62
     0
  6
CONTINUOUS
 10
4.424640
 20
4.289120
  0
VERTEX
  8
0
 62
     0
  6
CONTINUOUS
 10
4.424640
 20
4.284720
  0
VERTEX
  8
0
 62
     0
  6
CONTINUOUS
 10
4.424640
 20
4.273720
  0
VERTEX
  8
0
 62
     0
  6
CONTINUOUS
 10
4.424640
 20
4.257880
  0
VERTEX
  8
0
 62
     0
  6
CONTINUOUS
 10
4.424640
 20
4.240280
  0
VERTEX
  8
0
 62
     0
  6
CONTINUOUS
 10
4.424640
 20
4.222240
  0
VERTEX
  8
0
 62
     0
  6
CONTINUOUS
 10
4.424640
 20
4.206400
  0
VERTEX
  8
0
 62
     0
  6
CONTINUOUS
 10
4.424640
 20
4.195400
  0
VERTEX
  8
0
 62
     0
  6
CONTINUOUS
 10
4.424640
 20
4.191440
  0
SEQEND
  8
0
  0
POLYLINE
  8
0
 62
     0
  6
CONTINUOUS
 66
     1
 40
0.014080
 41
0.014080
  0
VERTEX
  8
0
 62
     0
  6
CONTINUOUS
 10
4.142160
 20
4.327400
  0
VERTEX
  8
0
 62
     0
  6
CONTINUOUS
 10
4.468200
 20
4.327400
  0
VERTEX
  8
0
 62
     0
  6
CONTINUOUS
 10
4.468200
 20
4.135120
  0
VERTEX
  8
0
 62
     0
  6
CONTINUOUS
 10
4.142160
 20
4.135120
  0
VERTEX
  8
0
 62
     0
  6
CONTINUOUS
 10
4.142160
 20
4.327400
  0
SEQEND
  8
0
  0
LINE
  8
0
 62
     0
  6
CONTINUOUS
 10
2.166560
 20
5.862120
 11
2.154240
 21
5.862120
  0
LINE
  8
0
 62
     0
  6
CONTINUOUS
 10
2.149400
 20
5.809760
 11
2.170960
 21
5.809760
  0
LINE
  8
0
 62
     0
  6
CONTINUOUS
 10
2.173600
 20
5.809760
 11
2.173600
 21
5.793920
  0
LINE
  8
0
 62
     0
  6
CONTINUOUS
 10
2.173600
 20
5.793920
 11
2.174040
 21
5.793920
  0
LINE
  8
0
 62
     0
  6
CONTINUOUS
 10
2.174040
 20
5.793920
 11
2.174040
 21
5.809760
  0
LINE
  8
0
 62
     0
  6
CONTINUOUS
 10
2.174040
 20
5.809760
 11
2.174040
 21
5.793920
  0
LINE
  8
0
 62
     0
  6
CONTINUOUS
 10
2.174040
 20
5.793920
 11
2.174040
 21
5.809760
  0
LINE
  8
0
 62
     0
  6
CONTINUOUS
 10
2.174040
 20
5.809760
 11
2.174480
 21
5.809760
  0
LINE
  8
0
 62
     0
  6
CONTINUOUS
 10
2.174480
 20
5.809760
 11
2.174480
 21
5.793920
  0
LINE
  8
0
 62
     0
  6
CONTINUOUS
 10
2.174480
 20
5.793920
 11
2.174480
 21
5.809760
  0
LINE
  8
0
 62
     0
  6
CONTINUOUS
 10
2.174480
 20
5.809760
 11
2.174480
 21
5.793920
  0
LINE
  8
0
 62
     0
  6
CONTINUOUS
 10
2.174480
 20
5.793920
 11
2.174920
 21
5.793920
  0
LINE
  8
0
 62
     0
  6
CONTINUOUS
 10
2.174920
 20
5.793920
 11
2.174920
 21
5.809760
  0
LINE
  8
0
 62
     0
  6
CONTINUOUS
 10
2.174920
 20
5.809760
 11
2.174920
 21
5.793920
  0
LINE
  8
0
 62
     0
  6
CONTINUOUS
 10
2.174920
 20
5.793920
 11
2.174920
 21
5.809760
  0
LINE
  8
0
 62
     0
  6
CONTINUOUS
 10
2.174920
 20
5.809760
 11
2.175360
 21
5.809760
  0
LINE
  8
0
 62
     0
  6
CONTINUOUS
 10
2.175360
 20
5.809760
 11
2.175360
 21
5.793920
  0
LINE
  8
0
 62
     0
  6
CONTINUOUS
 10
2.175360
 20
5.793920
 11
2.175360
 21
5.809760
  0
LINE
  8
0
 62
     0
  6
CONTINUOUS
 10
2.175360
 20
5.809760
 11
2.175360
 21
5.793920
  0
LINE
  8
0
 62
     0
  6
CONTINUOUS
 10
2.175360
 20
5.793920
 11
2.175800
 21
5.793920
  0
LINE
  8
0
 62
     0
  6
CONTINUOUS
 10
2.175800
 20
5.793920
 11
2.175800
 21
5.809760
  0
LINE
  8
0
 62
     0
  6
CONTINUOUS
 10
2.175800
 20
5.809760
 11
2.175800
 21
5.793920
  0
LINE
  8
0
 62
     0
  6
CONTINUOUS
 10
2.175800
 20
5.793920
 11
2.175800
 21
5.809760
  0
LINE
  8
0
 62
     0
  6
CONTINUOUS
 10
2.175800
 20
5.809760
 11
2.176240
 21
5.809760
  0
LINE
  8
0
 62
     0
  6
CONTINUOUS
 10
2.176240
 20
5.809760
 11
2.176240
 21
5.793920
  0
LINE
  8
0
 62
     0
  6
CONTINUOUS
 10
2.176240
 20
5.793920
 11
2.176240
 21
5.809760
  0
LINE
  8
0
 62
     0
  6
CONTINUOUS
 10
2.176240
 20
5.809760
 11
2.176240
 21
5.793920
  0
LINE
  8
0
 62
     0
  6
CONTINUOUS
 10
2.176240
 20
5.793920
 11
2.176680
 21
5.793920
  0
LINE
  8
0
 62
     0
  6
CONTINUOUS
 10
2.176680
 20
5.793920
 11
2.176680
 21
5.809760
  0
LINE
  8
0
 62
     0
  6
CONTINUOUS
 10
2.176680
 20
5.809760
 11
2.176680
 21
5.793920
  0
LINE
  8
0
 62
     0
  6
CONTINUOUS
 10
2.176680
 20
5.793920
 11
2.176680
 21
5.809760
  0
LINE
  8
0
 62
     0
  6
CONTINUOUS
 10
2.176680
 20
5.809760
 11
2.177120
 21
5.809760
  0
LINE
  8
0
 62
     0
  6
CONTINUOUS
 10
2.177120
 20
5.809760
 11
2.177120
 21
5.793920
  0
LINE
  8
0
 62
     0
  6
CONTINUOUS
 10
2.177120
 20
5.793920
 11
2.177120
 21
5.809760
  0
LINE
  8
0
 62
     0
  6
CONTINUOUS
 10
2.177120
 20
5.809760
 11
2.177120
 21
5.793920
  0
LINE
  8
0
 62
     0
  6
CONTINUOUS
 10
2.177120
 20
5.793920
 11
2.177120
 21
5.809760
  0
LINE
  8
0
 62
     0
  6
CONTINUOUS
 10
2.177120
 20
5.809760
 11
2.177560
 21
5.809760
  0
LINE
  8
0
 62
     0
  6
CONTINUOUS
 10
2.177560
 20
5.809760
 11
2.177560
 21
5.793920
  0
LINE
  8
0
 62
     0
  6
CONTINUOUS
 10
2.177560
 20
5.793920
 11
2.177560
 21
5.809760
  0
LINE
  8
0
 62
     0
  6
CONTINUOUS
 10
2.177560
 20
5.809760
 11
2.177560
 21
5.793920
  0
LINE
  8
0
 62
     0
  6
CONTINUOUS
 10
2.177560
 20
5.793920
 11
2.178000
 21
5.793920
  0
LINE
  8
0
 62
     0
  6
CONTINUOUS
 10
2.178000
 20
5.793920
 11
2.178000
 21
5.809760
  0
LINE
  8
0
 62
     0
  6
CONTINUOUS
 10
2.178000
 20
5.809760
 11
2.178000
 21
5.793920
  0
LINE
  8
0
 62
     0
  6
CONTINUOUS
 10
2.178000
 20
5.793920
 11
2.178000
 21
5.809760
  0
LINE
  8
0
 62
     0
  6
CONTINUOUS
 10
2.178000
 20
5.809760
 11
2.178440
 21
5.809760
  0
LINE
  8
0
 62
     0
  6
CONTINUOUS
 10
2.178440
 20
5.809760
 11
2.178440
 21
5.793920
  0
LINE
  8
0
 62
     0
  6
CONTINUOUS
 10
2.178440
 20
5.793920
 11
2.178440
 21
5.809760
  0
LINE
  8
0
 62
     0
  6
CONTINUOUS
 10
2.178440
 20
5.809760
 11
2.178440
 21
5.793920
  0
LINE
  8
0
 62
     0
  6
CONTINUOUS
 10
2.178440
 20
5.793920
 11
2.178880
 21
5.793920
  0
LINE
  8
0
 62
     0
  6
CONTINUOUS
 10
2.178880
 20
5.793920
 11
2.178880
 21
5.809760
  0
LINE
  8
0
 62
     0
  6
CONTINUOUS
 10
2.178880
 20
5.809760
 11
2.178880
 21
5.793920
  0
LINE
  8
0
 62
     0
  6
CONTINUOUS
 10
2.178880
 20
5.793920
 11
2.178880
 21
5.809760
  0
LINE
  8
0
 62
     0
  6
CONTINUOUS
 10
2.178880
 20
5.809760
 11
2.179320
 21
5.809760
  0
LINE
  8
0
 62
     0
  6
CONTINUOUS
 10
2.179320
 20
5.809760
 11
2.179320
 21
5.793920
  0
LINE
  8
0
 62
     0
  6
CONTINUOUS
 10
2.179320
 20
5.793920
 11
2.179320
 21
5.809760
  0
LINE
  8
0
 62
     0
  6
CONTINUOUS
 10
2.179320
 20
5.809760
 11
2.179320
 21
5.793920
  0
LINE
  8
0
 62
     0
  6
CONTINUOUS
 10
2.179320
 20
5.793920
 11
2.179760
 21
5.793920
  0
LINE
  8
0
 62
     0
  6
CONTINUOUS
 10
2.179760
 20
5.793920
 11
2.179760
 21
5.809760
  0
LINE
  8
0
 62
     0
  6
CONTINUOUS
 10
2.179760
 20
5.809760
 11
2.179760
 21
5.793920
  0
LINE
  8
0
 62
     0
  6
CONTINUOUS
 10
2.179760
 20
5.793920
 11
2.179760
 21
5.809760
  0
LINE
  8
0
 62
     0
  6
CONTINUOUS
 10
2.179760
 20
5.809760
 11
2.180200
 21
5.809760
  0
LINE
  8
0
 62
     0
  6
CONTINUOUS
 10
2.180200
 20
5.809760
 11
2.180200
 21
5.793920
  0
LINE
  8
0
 62
     0
  6
CONTINUOUS
 10
2.180200
 20
5.793920
 11
2.180200
 21
5.809760
  0
LINE
  8
0
 62
     0
  6
CONTINUOUS
 10
2.180200
 20
5.809760
 11
2.180640
 21
5.793920
  0
LINE
  8
0
 62
     0
  6
CONTINUOUS
 10
2.180640
 20
5.793920
 11
2.170520
 21
5.793920
  0
LINE
  8
0
 62
     0
  6
CONTINUOUS
 10
2.170520
 20
5.793920
 11
2.170960
 21
5.809760
  0
LINE
  8
0
 62
     0
  6
CONTINUOUS
 10
2.170960
 20
5.809760
 11
2.180200
 21
5.809760
  0
LINE
  8
0
 62
     0
  6
CONTINUOUS
 10
2.180200
 20
5.809760
 11
2.201760
 21
5.809760
  0
LINE
  8
0
 62
     0
  6
CONTINUOUS
 10
2.180200
 20
5.809760
 11
2.180200
 21
5.793920
  0
LINE
  8
0
 62
     0
  6
CONTINUOUS
 10
2.180200
 20
5.793920
 11
2.180640
 21
5.793920
  0
LINE
  8
0
 62
     0
  6
CONTINUOUS
 10
2.180640
 20
5.793920
 11
2.180640
 21
5.804480
  0
LINE
  8
0
 62
     0
  6
CONTINUOUS
 10
2.180640
 20
5.804480
 11
2.180640
 21
5.799200
  0
LINE
  8
0
 62
     0
  6
CONTINUOUS
 10
2.180640
 20
5.799200
 11
2.180640
 21
5.793920
  0
LINE
  8
0
 62
     0
  6
CONTINUOUS
 10
2.173600
 20
5.793920
 11
2.173600
 21
5.809760
  0
LINE
  8
0
 62
     0
  6
CONTINUOUS
 10
2.173600
 20
5.809760
 11
2.173600
 21
5.793920
  0
LINE
  8
0
 62
     0
  6
CONTINUOUS
 10
2.173600
 20
5.793920
 11
2.173160
 21
5.793920
  0
LINE
  8
0
 62
     0
  6
CONTINUOUS
 10
2.173160
 20
5.793920
 11
2.173160
 21
5.809760
  0
LINE
  8
0
 62
     0
  6
CONTINUOUS
 10
2.173160
 20
5.809760
 11
2.173160
 21
5.793920
  0
LINE
  8
0
 62
     0
  6
CONTINUOUS
 10
2.173160
 20
5.793920
 11
2.173160
 21
5.809760
  0
LINE
  8
0
 62
     0
  6
CONTINUOUS
 10
2.173160
 20
5.809760
 11
2.172720
 21
5.809760
  0
LINE
  8
0
 62
     0
  6
CONTINUOUS
 10
2.172720
 20
5.809760
 11
2.172720
 21
5.793920
  0
LINE
  8
0
 62
     0
  6
CONTINUOUS
 10
2.172720
 20
5.793920
 11
2.172720
 21
5.809760
  0
LINE
  8
0
 62
     0
  6
CONTINUOUS
 10
2.172720
 20
5.809760
 11
2.172720
 21
5.793920
  0
LINE
  8
0
 62
     0
  6
CONTINUOUS
 10
2.172720
 20
5.793920
 11
2.172280
 21
5.793920
  0
LINE
  8
0
 62
     0
  6
CONTINUOUS
 10
2.172280
 20
5.793920
 11
2.172280
 21
5.809760
  0
LINE
  8
0
 62
     0
  6
CONTINUOUS
 10
2.172280
 20
5.809760
 11
2.172280
 21
5.793920
  0
LINE
  8
0
 62
     0
  6
CONTINUOUS
 10
2.172280
 20
5.793920
 11
2.172280
 21
5.809760
  0
LINE
  8
0
 62
     0
  6
CONTINUOUS
 10
2.172280
 20
5.809760
 11
2.171840
 21
5.809760
  0
LINE
  8
0
 62
     0
  6
CONTINUOUS
 10
2.171840
 20
5.809760
 11
2.171840
 21
5.793920
  0
LINE
  8
0
 62
     0
  6
CONTINUOUS
 10
2.171840
 20
5.793920
 11
2.171840
 21
5.809760
  0
LINE
  8
0
 62
     0
  6
CONTINUOUS
 10
2.171840
 20
5.809760
 11
2.171840
 21
5.793920
  0
LINE
  8
0
 62
     0
  6
CONTINUOUS
 10
2.171840
 20
5.793920
 11
2.171400
 21
5.793920
  0
LINE
  8
0
 62
     0
  6
CONTINUOUS
 10
2.171400
 20
5.793920
 11
2.171400
 21
5.809760
  0
LINE
  8
0
 62
     0
  6
CONTINUOUS
 10
2.171400
 20
5.809760
 11
2.171400
 21
5.793920
  0
LINE
  8
0
 62
     0
  6
CONTINUOUS
 10
2.171400
 20
5.793920
 11
2.171400
 21
5.809760
  0
LINE
  8
0
 62
     0
  6
CONTINUOUS
 10
2.171400
 20
5.809760
 11
2.170960
 21
5.809760
  0
LINE
  8
0
 62
     0
  6
CONTINUOUS
 10
2.170960
 20
5.809760
 11
2.170960
 21
5.793920
  0
LINE
  8
0
 62
     0
  6
CONTINUOUS
 10
2.170960
 20
5.793920
 11
2.170960
 21
5.807560
  0
LINE
  8
0
 62
     0
  6
CONTINUOUS
 10
2.170960
 20
5.807560
 11
2.170960
 21
5.803600
  0
LINE
  8
0
 62
     0
  6
CONTINUOUS
 10
2.170960
 20
5.803600
 11
2.170960
 21
5.793920
  0
LINE
  8
0
 62
     0
  6
CONTINUOUS
 10
2.170960
 20
5.793920
 11
2.170520
 21
5.793920
  0
LINE
  8
0
 62
     0
  6
CONTINUOUS
 10
2.170520
 20
5.793920
 11
2.170520
 21
5.799640
  0
LINE
  8
0
 62
     0
  6
CONTINUOUS
 10
2.170520
 20
5.799640
 11
2.170520
 21
5.795680
  0
LINE
  8
0
 62
     0
  6
CONTINUOUS
 10
2.170520
 20
5.795680
 11
2.170520
 21
5.793920
  0
LINE
  8
0
 62
     0
  6
CONTINUOUS
 10
2.173600
 20
5.793920
 11
2.173600
 21
5.809760
  0
LINE
  8
0
 62
     0
  6
CONTINUOUS
 10
2.277440
 20
5.809760
 11
2.277440
 21
5.825160
  0
LINE
  8
0
 62
     0
  6
CONTINUOUS
 10
2.277440
 20
5.809760
 11
2.061400
 21
5.809760
  0
LINE
  8
0
 62
     0
  6
CONTINUOUS
 10
2.061400
 20
5.809760
 11
2.061400
 21
5.825160
  0
LINE
  8
0
 62
     0
  6
CONTINUOUS
 10
2.173600
 20
5.655320
 11
2.173600
 21
5.615280
  0
LINE
  8
0
 62
     0
  6
CONTINUOUS
 10
2.173600
 20
5.615280
 11
2.173600
 21
5.655320
  0
LINE
  8
0
 62
     0
  6
CONTINUOUS
 10
2.173600
 20
5.655320
 11
2.173160
 21
5.655320
  0
LINE
  8
0
 62
     0
  6
CONTINUOUS
 10
2.173160
 20
5.655320
 11
2.173160
 21
5.615280
  0
LINE
  8
0
 62
     0
  6
CONTINUOUS
 10
2.173160
 20
5.615280
 11
2.173160
 21
5.655320
  0
LINE
  8
0
 62
     0
  6
CONTINUOUS
 10
2.173160
 20
5.655320
 11
2.173160
 21
5.615280
  0
LINE
  8
0
 62
     0
  6
CONTINUOUS
 10
2.173160
 20
5.615280
 11
2.172720
 21
5.615280
  0
LINE
  8
0
 62
     0
  6
CONTINUOUS
 10
2.172720
 20
5.615280
 11
2.172720
 21
5.655320
  0
LINE
  8
0
 62
     0
  6
CONTINUOUS
 10
2.172720
 20
5.655320
 11
2.172720
 21
5.615280
  0
LINE
  8
0
 62
     0
  6
CONTINUOUS
 10
2.172720
 20
5.615280
 11
2.172720
 21
5.655320
  0
LINE
  8
0
 62
     0
  6
CONTINUOUS
 10
2.172720
 20
5.655320
 11
2.172280
 21
5.655320
  0
LINE
  8
0
 62
     0
  6
CONTINUOUS
 10
2.172280
 20
5.655320
 11
2.172280
 21
5.615280
  0
LINE
  8
0
 62
     0
  6
CONTINUOUS
 10
2.172280
 20
5.615280
 11
2.172280
 21
5.655320
  0
LINE
  8
0
 62
     0
  6
CONTINUOUS
 10
2.172280
 20
5.655320
 11
2.172280
 21
5.615280
  0
LINE
  8
0
 62
     0
  6
CONTINUOUS
 10
2.172280
 20
5.615280
 11
2.171840
 21
5.615280
  0
LINE
  8
0
 62
     0
  6
CONTINUOUS
 10
2.171840
 20
5.615280
 11
2.171840
 21
5.655320
  0
LINE
  8
0
 62
     0
  6
CONTINUOUS
 10
2.171840
 20
5.655320
 11
2.171840
 21
5.615280
  0
LINE
  8
0
 62
     0
  6
CONTINUOUS
 10
2.171840
 20
5.615280
 11
2.171840
 21
5.655320
  0
LINE
  8
0
 62
     0
  6
CONTINUOUS
 10
2.171840
 20
5.655320
 11
2.171400
 21
5.655320
  0
LINE
  8
0
 62
     0
  6
CONTINUOUS
 10
2.171400
 20
5.655320
 11
2.171400
 21
5.615280
  0
LINE
  8
0
 62
     0
  6
CONTINUOUS
 10
2.171400
 20
5.615280
 11
2.171400
 21
5.655320
  0
LINE
  8
0
 62
     0
  6
CONTINUOUS
 10
2.171400
 20
5.655320
 11
2.171400
 21
5.615280
  0
LINE
  8
0
 62
     0
  6
CONTINUOUS
 10
2.173600
 20
5.615280
 11
2.173600
 21
5.655320
  0
LINE
  8
0
 62
     0
  6
CONTINUOUS
 10
2.173600
 20
5.655320
 11
2.173600
 21
5.615280
  0
LINE
  8
0
 62
     0
  6
CONTINUOUS
 10
2.174040
 20
5.615280
 11
2.174040
 21
5.655320
  0
LINE
  8
0
 62
     0
  6
CONTINUOUS
 10
2.174040
 20
5.655320
 11
2.173600
 21
5.655320
  0
LINE
  8
0
 62
     0
  6
CONTINUOUS
 10
2.174040
 20
5.655320
 11
2.174040
 21
5.615280
  0
LINE
  8
0
 62
     0
  6
CONTINUOUS
 10
2.174040
 20
5.615280
 11
2.174040
 21
5.655320
  0
LINE
  8
0
 62
     0
  6
CONTINUOUS
 10
2.174480
 20
5.655320
 11
2.174480
 21
5.615280
  0
LINE
  8
0
 62
     0
  6
CONTINUOUS
 10
2.174480
 20
5.615280
 11
2.174040
 21
5.615280
  0
LINE
  8
0
 62
     0
  6
CONTINUOUS
 10
2.174480
 20
5.615280
 11
2.174480
 21
5.655320
  0
LINE
  8
0
 62
     0
  6
CONTINUOUS
 10
2.174480
 20
5.655320
 11
2.174480
 21
5.615280
  0
LINE
  8
0
 62
     0
  6
CONTINUOUS
 10
2.174920
 20
5.615280
 11
2.174920
 21
5.655320
  0
LINE
  8
0
 62
     0
  6
CONTINUOUS
 10
2.174920
 20
5.655320
 11
2.174480
 21
5.655320
  0
LINE
  8
0
 62
     0
  6
CONTINUOUS
 10
2.174920
 20
5.655320
 11
2.174920
 21
5.615280
  0
LINE
  8
0
 62
     0
  6
CONTINUOUS
 10
2.174920
 20
5.615280
 11
2.174920
 21
5.655320
  0
LINE
  8
0
 62
     0
  6
CONTINUOUS
 10
2.175360
 20
5.655320
 11
2.175360
 21
5.615280
  0
LINE
  8
0
 62
     0
  6
CONTINUOUS
 10
2.175360
 20
5.615280
 11
2.174920
 21
5.615280
  0
LINE
  8
0
 62
     0
  6
CONTINUOUS
 10
2.175360
 20
5.615280
 11
2.175360
 21
5.655320
  0
LINE
  8
0
 62
     0
  6
CONTINUOUS
 10
2.175360
 20
5.655320
 11
2.175360
 21
5.615280
  0
LINE
  8
0
 62
     0
  6
CONTINUOUS
 10
2.175800
 20
5.615280
 11
2.175800
 21
5.655320
  0
LINE
  8
0
 62
     0
  6
CONTINUOUS
 10
2.175800
 20
5.655320
 11
2.175360
 21
5.655320
  0
LINE
  8
0
 62
     0
  6
CONTINUOUS
 10
2.175800
 20
5.655320
 11
2.175800
 21
5.615280
  0
LINE
  8
0
 62
     0
  6
CONTINUOUS
 10
2.175800
 20
5.615280
 11
2.175800
 21
5.655320
  0
LINE
  8
0
 62
     0
  6
CONTINUOUS
 10
2.176240
 20
5.655320
 11
2.176240
 21
5.615280
  0
LINE
  8
0
 62
     0
  6
CONTINUOUS
 10
2.176240
 20
5.615280
 11
2.175800
 21
5.615280
  0
LINE
  8
0
 62
     0
  6
CONTINUOUS
 10
2.176240
 20
5.615280
 11
2.176240
 21
5.655320
  0
LINE
  8
0
 62
     0
  6
CONTINUOUS
 10
2.176240
 20
5.655320
 11
2.176240
 21
5.615280
  0
LINE
  8
0
 62
     0
  6
CONTINUOUS
 10
2.176680
 20
5.615280
 11
2.176680
 21
5.655320
  0
LINE
  8
0
 62
     0
  6
CONTINUOUS
 10
2.176680
 20
5.655320
 11
2.176240
 21
5.655320
  0
LINE
  8
0
 62
     0
  6
CONTINUOUS
 10
2.176680
 20
5.655320
 11
2.176680
 21
5.615280
  0
LINE
  8
0
 62
     0
  6
CONTINUOUS
 10
2.176680
 20
5.615280
 11
2.176680
 21
5.655320
  0
LINE
  8
0
 62
     0
  6
CONTINUOUS
 10
2.177120
 20
5.655320
 11
2.177120
 21
5.615280
  0
LINE
  8
0
 62
     0
  6
CONTINUOUS
 10
2.177120
 20
5.615280
 11
2.176680
 21
5.615280
  0
LINE
  8
0
 62
     0
  6
CONTINUOUS
 10
2.177120
 20
5.615280
 11
2.177120
 21
5.655320
  0
LINE
  8
0
 62
     0
  6
CONTINUOUS
 10
2.177120
 20
5.655320
 11
2.177120
 21
5.615280
  0
LINE
  8
0
 62
     0
  6
CONTINUOUS
 10
2.177120
 20
5.615280
 11
2.177120
 21
5.655320
  0
LINE
  8
0
 62
     0
  6
CONTINUOUS
 10
2.177560
 20
5.655320
 11
2.177560
 21
5.615280
  0
LINE
  8
0
 62
     0
  6
CONTINUOUS
 10
2.177560
 20
5.615280
 11
2.177120
 21
5.615280
  0
LINE
  8
0
 62
     0
  6
CONTINUOUS
 10
2.177560
 20
5.615280
 11
2.177560
 21
5.655320
  0
LINE
  8
0
 62
     0
  6
CONTINUOUS
 10
2.177560
 20
5.655320
 11
2.177560
 21
5.615280
  0
LINE
  8
0
 62
     0
  6
CONTINUOUS
 10
2.178000
 20
5.615280
 11
2.178000
 21
5.655320
  0
LINE
  8
0
 62
     0
  6
CONTINUOUS
 10
2.178000
 20
5.655320
 11
2.177560
 21
5.655320
  0
LINE
  8
0
 62
     0
  6
CONTINUOUS
 10
2.178000
 20
5.655320
 11
2.178000
 21
5.615280
  0
LINE
  8
0
 62
     0
  6
CONTINUOUS
 10
2.178000
 20
5.615280
 11
2.178000
 21
5.655320
  0
LINE
  8
0
 62
     0
  6
CONTINUOUS
 10
2.178440
 20
5.655320
 11
2.178440
 21
5.615280
  0
LINE
  8
0
 62
     0
  6
CONTINUOUS
 10
2.178440
 20
5.615280
 11
2.178000
 21
5.615280
  0
LINE
  8
0
 62
     0
  6
CONTINUOUS
 10
2.178440
 20
5.615280
 11
2.178440
 21
5.655320
  0
LINE
  8
0
 62
     0
  6
CONTINUOUS
 10
2.178440
 20
5.655320
 11
2.178440
 21
5.615280
  0
LINE
  8
0
 62
     0
  6
CONTINUOUS
 10
2.178880
 20
5.615280
 11
2.178880
 21
5.655320
  0
LINE
  8
0
 62
     0
  6
CONTINUOUS
 10
2.178880
 20
5.655320
 11
2.178440
 21
5.655320
  0
LINE
  8
0
 62
     0
  6
CONTINUOUS
 10
2.178880
 20
5.655320
 11
2.178880
 21
5.615280
  0
LINE
  8
0
 62
     0
  6
CONTINUOUS
 10
2.178880
 20
5.615280
 11
2.178880
 21
5.655320
  0
LINE
  8
0
 62
     0
  6
CONTINUOUS
 10
2.179320
 20
5.655320
 11
2.179320
 21
5.615280
  0
LINE
  8
0
 62
     0
  6
CONTINUOUS
 10
2.179320
 20
5.615280
 11
2.178880
 21
5.615280
  0
LINE
  8
0
 62
     0
  6
CONTINUOUS
 10
2.179320
 20
5.615280
 11
2.179320
 21
5.655320
  0
LINE
  8
0
 62
     0
  6
CONTINUOUS
 10
2.179320
 20
5.655320
 11
2.179320
 21
5.615280
  0
LINE
  8
0
 62
     0
  6
CONTINUOUS
 10
2.179760
 20
5.615280
 11
2.179760
 21
5.655320
  0
LINE
  8
0
 62
     0
  6
CONTINUOUS
 10
2.179760
 20
5.655320
 11
2.179320
 21
5.655320
  0
LINE
  8
0
 62
     0
  6
CONTINUOUS
 10
2.179760
 20
5.655320
 11
2.179760
 21
5.615280
  0
LINE
  8
0
 62
     0
  6
CONTINUOUS
 10
2.179760
 20
5.615280
 11
2.179760
 21
5.655320
  0
LINE
  8
0
 62
     0
  6
CONTINUOUS
 10
2.180200
 20
5.655320
 11
2.180200
 21
5.615280
  0
LINE
  8
0
 62
     0
  6
CONTINUOUS
 10
2.180200
 20
5.615280
 11
2.179760
 21
5.615280
  0
LINE
  8
0
 62
     0
  6
CONTINUOUS
 10
2.180200
 20
5.615280
 11
2.180200
 21
5.655320
  0
LINE
  8
0
 62
     0
  6
CONTINUOUS
 10
2.180200
 20
5.655320
 11
2.180640
 21
5.615280
  0
LINE
  8
0
 62
     0
  6
CONTINUOUS
 10
2.180640
 20
5.615280
 11
2.171400
 21
5.615280
  0
LINE
  8
0
 62
     0
  6
CONTINUOUS
 10
2.171400
 20
5.615280
 11
2.170960
 21
5.655320
  0
LINE
  8
0
 62
     0
  6
CONTINUOUS
 10
2.170960
 20
5.655320
 11
2.180200
 21
5.655320
  0
LINE
  8
0
 62
     0
  6
CONTINUOUS
 10
2.180200
 20
5.655320
 11
2.180200
 21
5.615280
  0
LINE
  8
0
 62
     0
  6
CONTINUOUS
 10
2.180640
 20
5.615280
 11
2.180640
 21
5.635080
  0
LINE
  8
0
 62
     0
  6
CONTINUOUS
 10
2.180640
 20
5.635080
 11
2.180200
 21
5.655320
  0
LINE
  8
0
 62
     0
  6
CONTINUOUS
 10
2.170960
 20
5.655320
 11
2.170960
 21
5.635080
  0
LINE
  8
0
 62
     0
  6
CONTINUOUS
 10
2.152480
 20
5.498240
 11
2.152480
 21
5.492080
  0
LINE
  8
0
 62
     0
  6
CONTINUOUS
 10
2.152480
 20
5.492080
 11
2.198680
 21
5.492080
  0
LINE
  8
0
 62
     0
  6
CONTINUOUS
 10
2.198680
 20
5.492080
 11
2.198680
 21
5.498240
  0
LINE
  8
0
 62
     0
  6
CONTINUOUS
 10
2.278320
 20
5.822080
 11
2.277880
 21
5.822080
  0
LINE
  8
0
 62
     0
  6
CONTINUOUS
 10
2.075040
 20
5.809760
 11
2.090880
 21
5.825160
  0
LINE
  8
0
 62
     0
  6
CONTINUOUS
 10
2.096160
 20
5.825160
 11
2.080760
 21
5.809760
  0
LINE
  8
0
 62
     0
  6
CONTINUOUS
 10
2.086040
 20
5.809760
 11
2.101440
 21
5.825160
  0
LINE
  8
0
 62
     0
  6
CONTINUOUS
 10
2.107160
 20
5.825160
 11
2.091760
 21
5.809760
  0
LINE
  8
0
 62
     0
  6
CONTINUOUS
 10
2.108040
 20
5.809760
 11
2.123440
 21
5.825160
  0
LINE
  8
0
 62
     0
  6
CONTINUOUS
 10
2.128720
 20
5.825160
 11
2.113320
 21
5.809760
  0
LINE
  8
0
 62
     0
  6
CONTINUOUS
 10
2.119040
 20
5.809760
 11
2.134440
 21
5.825160
  0
LINE
  8
0
 62
     0
  6
CONTINUOUS
 10
2.139720
 20
5.825160
 11
2.124320
 21
5.809760
  0
LINE
  8
0
 62
     0
  6
CONTINUOUS
 10
2.140600
 20
5.809760
 11
2.156000
 21
5.825160
  0
LINE
  8
0
 62
     0
  6
CONTINUOUS
 10
2.161280
 20
5.825160
 11
2.145880
 21
5.809760
  0
LINE
  8
0
 62
     0
  6
CONTINUOUS
 10
2.151600
 20
5.809760
 11
2.167000
 21
5.825160
  0
LINE
  8
0
 62
     0
  6
CONTINUOUS
 10
2.172280
 20
5.825160
 11
2.156880
 21
5.809760
  0
LINE
  8
0
 62
     0
  6
CONTINUOUS
 10
2.173160
 20
5.809760
 11
2.188560
 21
5.825160
  0
LINE
  8
0
 62
     0
  6
CONTINUOUS
 10
2.194280
 20
5.825160
 11
2.178880
 21
5.809760
  0
LINE
  8
0
 62
     0
  6
CONTINUOUS
 10
2.184160
 20
5.809760
 11
2.199560
 21
5.825160
  0
LINE
  8
0
 62
     0
  6
CONTINUOUS
 10
2.205280
 20
5.825160
 11
2.189880
 21
5.809760
  0
LINE
  8
0
 62
     0
  6
CONTINUOUS
 10
2.201760
 20
5.809760
 11
2.201760
 21
5.781600
  0
LINE
  8
0
 62
     0
  6
CONTINUOUS
 10
2.201760
 20
5.781600
 11
2.201320
 21
5.774560
  0
LINE
  8
0
 62
     0
  6
CONTINUOUS
 10
2.201320
 20
5.774560
 11
2.201320
 21
5.806240
  0
LINE
  8
0
 62
     0
  6
CONTINUOUS
 10
2.201320
 20
5.806240
 11
2.201320
 21
5.799200
  0
LINE
  8
0
 62
     0
  6
CONTINUOUS
 10
2.201320
 20
5.799200
 11
2.201320
 21
5.767520
  0
LINE
  8
0
 62
     0
  6
CONTINUOUS
 10
2.201320
 20
5.767520
 11
2.201320
 21
5.760480
  0
LINE
  8
0
 62
     0
  6
CONTINUOUS
 10
2.201320
 20
5.760480
 11
2.201320
 21
5.792160
  0
LINE
  8
0
 62
     0
  6
CONTINUOUS
 10
2.201320
 20
5.792160
 11
2.200880
 21
5.785120
  0
LINE
  8
0
 62
     0
  6
CONTINUOUS
 10
2.200880
 20
5.785120
 11
2.200880
 21
5.753440
  0
LINE
  8
0
 62
     0
  6
CONTINUOUS
 10
2.200880
 20
5.753440
 11
2.200880
 21
5.746400
  0
LINE
  8
0
 62
     0
  6
CONTINUOUS
 10
2.200880
 20
5.746400
 11
2.200880
 21
5.778080
  0
LINE
  8
0
 62
     0
  6
CONTINUOUS
 10
2.200880
 20
5.778080
 11
2.200880
 21
5.771040
  0
LINE
  8
0
 62
     0
  6
CONTINUOUS
 10
2.200880
 20
5.771040
 11
2.200880
 21
5.739360
  0
LINE
  8
0
 62
     0
  6
CONTINUOUS
 10
2.200880
 20
5.739360
 11
2.200440
 21
5.732320
  0
LINE
  8
0
 62
     0
  6
CONTINUOUS
 10
2.200440
 20
5.732320
 11
2.200440
 21
5.764000
  0
LINE
  8
0
 62
     0
  6
CONTINUOUS
 10
2.200440
 20
5.764000
 11
2.200440
 21
5.756960
  0
LINE
  8
0
 62
     0
  6
CONTINUOUS
 10
2.200440
 20
5.756960
 11
2.200440
 21
5.725720
  0
LINE
  8
0
 62
     0
  6
CONTINUOUS
 10
2.200440
 20
5.725720
 11
2.200440
 21
5.718680
  0
LINE
  8
0
 62
     0
  6
CONTINUOUS
 10
2.200440
 20
5.718680
 11
2.200440
 21
5.749920
  0
LINE
  8
0
 62
     0
  6
CONTINUOUS
 10
2.200440
 20
5.749920
 11
2.200000
 21
5.742880
  0
LINE
  8
0
 62
     0
  6
CONTINUOUS
 10
2.200000
 20
5.742880
 11
2.200000
 21
5.711640
  0
LINE
  8
0
 62
     0
  6
CONTINUOUS
 10
2.200000
 20
5.711640
 11
2.200000
 21
5.704600
  0
LINE
  8
0
 62
     0
  6
CONTINUOUS
 10
2.200000
 20
5.704600
 11
2.200000
 21
5.735840
  0
LINE
  8
0
 62
     0
  6
CONTINUOUS
 10
2.200000
 20
5.735840
 11
2.200000
 21
5.729240
  0
LINE
  8
0
 62
     0
  6
CONTINUOUS
 10
2.200000
 20
5.729240
 11
2.200000
 21
5.697560
  0
LINE
  8
0
 62
     0
  6
CONTINUOUS
 10
2.200000
 20
5.697560
 11
2.200000
 21
5.690520
  0
LINE
  8
0
 62
     0
  6
CONTINUOUS
 10
2.200000
 20
5.690520
 11
2.200000
 21
5.722200
  0
LINE
  8
0
 62
     0
  6
CONTINUOUS
 10
2.200000
 20
5.722200
 11
2.199560
 21
5.715160
  0
LINE
  8
0
 62
     0
  6
CONTINUOUS
 10
2.199560
 20
5.715160
 11
2.199560
 21
5.683480
  0
LINE
  8
0
 62
     0
  6
CONTINUOUS
 10
2.199560
 20
5.683480
 11
2.199560
 21
5.676440
  0
LINE
  8
0
 62
     0
  6
CONTINUOUS
 10
2.199560
 20
5.676440
 11
2.199560
 21
5.708120
  0
LINE
  8
0
 62
     0
  6
CONTINUOUS
 10
2.199560
 20
5.708120
 11
2.199560
 21
5.701080
  0
LINE
  8
0
 62
     0
  6
CONTINUOUS
 10
2.199560
 20
5.701080
 11
2.199560
 21
5.669400
  0
LINE
  8
0
 62
     0
  6
CONTINUOUS
 10
2.199560
 20
5.669400
 11
2.199120
 21
5.662360
  0
LINE
  8
0
 62
     0
  6
CONTINUOUS
 10
2.199120
 20
5.662360
 11
2.199120
 21
5.694040
  0
LINE
  8
0
 62
     0
  6
CONTINUOUS
 10
2.199120
 20
5.694040
 11
2.199120
 21
5.687000
  0
LINE
  8
0
 62
     0
  6
CONTINUOUS
 10
2.199120
 20
5.687000
 11
2.199120
 21
5.655320
  0
LINE
  8
0
 62
     0
  6
CONTINUOUS
 10
2.199120
 20
5.655320
 11
2.199120
 21
5.679960
  0
LINE
  8
0
 62
     0
  6
CONTINUOUS
 10
2.199120
 20
5.679960
 11
2.198680
 21
5.672920
  0
LINE
  8
0
 62
     0
  6
CONTINUOUS
 10
2.198680
 20
5.672920
 11
2.198680
 21
5.655320
  0
LINE
  8
0
 62
     0
  6
CONTINUOUS
 10
2.198680
 20
5.655320
 11
2.198680
 21
5.665880
  0
LINE
  8
0
 62
     0
  6
CONTINUOUS
 10
2.198680
 20
5.665880
 11
2.198680
 21
5.658840
  0
LINE
  8
0
 62
     0
  6
CONTINUOUS
 10
2.198680
 20
5.658840
 11
2.198680
 21
5.655320
  0
LINE
  8
0
 62
     0
  6
CONTINUOUS
 10
2.198680
 20
5.655320
 11
2.198240
 21
5.655320
  0
LINE
  8
0
 62
     0
  6
CONTINUOUS
 10
2.198240
 20
5.655320
 11
2.201760
 21
5.809760
  0
LINE
  8
0
 62
     0
  6
CONTINUOUS
 10
2.201760
 20
5.809760
 11
2.202200
 21
5.809760
  0
LINE
  8
0
 62
     0
  6
CONTINUOUS
 10
2.202200
 20
5.809760
 11
2.199120
 21
5.655320
  0
LINE
  8
0
 62
     0
  6
CONTINUOUS
 10
2.199120
 20
5.655320
 11
2.198240
 21
5.655320
  0
LINE
  8
0
 62
     0
  6
CONTINUOUS
 10
2.183720
 20
5.655320
 11
2.183720
 21
5.662360
  0
LINE
  8
0
 62
     0
  6
CONTINUOUS
 10
2.183720
 20
5.662360
 11
2.183280
 21
5.669400
  0
LINE
  8
0
 62
     0
  6
CONTINUOUS
 10
2.183280
 20
5.669400
 11
2.183280
 21
5.655320
  0
LINE
  8
0
 62
     0
  6
CONTINUOUS
 10
2.183280
 20
5.655320
 11
2.183280
 21
5.676440
  0
LINE
  8
0
 62
     0
  6
CONTINUOUS
 10
2.183280
 20
5.676440
 11
2.183280
 21
5.683480
  0
LINE
  8
0
 62
     0
  6
CONTINUOUS
 10
2.183280
 20
5.683480
 11
2.183280
 21
5.655320
  0
LINE
  8
0
 62
     0
  6
CONTINUOUS
 10
2.182840
 20
5.658840
 11
2.182840
 21
5.690520
  0
LINE
  8
0
 62
     0
  6
CONTINUOUS
 10
2.182840
 20
5.690520
 11
2.182840
 21
5.697560
  0
LINE
  8
0
 62
     0
  6
CONTINUOUS
 10
2.182840
 20
5.697560
 11
2.182840
 21
5.666320
  0
LINE
  8
0
 62
     0
  6
CONTINUOUS
 10
2.182840
 20
5.666320
 11
2.182840
 21
5.673360
  0
LINE
  8
0
 62
     0
  6
CONTINUOUS
 10
2.182840
 20
5.673360
 11
2.182840
 21
5.704600
  0
LINE
  8
0
 62
     0
  6
CONTINUOUS
 10
2.182840
 20
5.704600
 11
2.182400
 21
5.711640
  0
LINE
  8
0
 62
     0
  6
CONTINUOUS
 10
2.182400
 20
5.711640
 11
2.182400
 21
5.680400
  0
LINE
  8
0
 62
     0
  6
CONTINUOUS
 10
2.182400
 20
5.680400
 11
2.182400
 21
5.687880
  0
LINE
  8
0
 62
     0
  6
CONTINUOUS
 10
2.182400
 20
5.687880
 11
2.182400
 21
5.718680
  0
LINE
  8
0
 62
     0
  6
CONTINUOUS
 10
2.182400
 20
5.718680
 11
2.182400
 21
5.725720
  0
LINE
  8
0
 62
     0
  6
CONTINUOUS
 10
2.182400
 20
5.725720
 11
2.182400
 21
5.694920
  0
LINE
  8
0
 62
     0
  6
CONTINUOUS
 10
2.182400
 20
5.694920
 11
2.181960
 21
5.701960
  0
LINE
  8
0
 62
     0
  6
CONTINUOUS
 10
2.181960
 20
5.701960
 11
2.181960
 21
5.732760
  0
LINE
  8
0
 62
     0
  6
CONTINUOUS
 10
2.181960
 20
5.732760
 11
2.181960
 21
5.739360
  0
LINE
  8
0
 62
     0
  6
CONTINUOUS
 10
2.181960
 20
5.739360
 11
2.181960
 21
5.709000
  0
LINE
  8
0
 62
     0
  6
CONTINUOUS
 10
2.181960
 20
5.709000
 11
2.181960
 21
5.716480
  0
LINE
  8
0
 62
     0
  6
CONTINUOUS
 10
2.181960
 20
5.716480
 11
2.181960
 21
5.746400
  0
LINE
  8
0
 62
     0
  6
CONTINUOUS
 10
2.181960
 20
5.746400
 11
2.181520
 21
5.753440
  0
LINE
  8
0
 62
     0
  6
CONTINUOUS
 10
2.181520
 20
5.753440
 11
2.181520
 21
5.723520
  0
LINE
  8
0
 62
     0
  6
CONTINUOUS
 10
2.181520
 20
5.723520
 11
2.181520
 21
5.730560
  0
LINE
  8
0
 62
     0
  6
CONTINUOUS
 10
2.181520
 20
5.730560
 11
2.181520
 21
5.760480
  0
LINE
  8
0
 62
     0
  6
CONTINUOUS
 10
2.181520
 20
5.760480
 11
2.181520
 21
5.767520
  0
LINE
  8
0
 62
     0
  6
CONTINUOUS
 10
2.181520
 20
5.767520
 11
2.181520
 21
5.738040
  0
LINE
  8
0
 62
     0
  6
CONTINUOUS
 10
2.181520
 20
5.738040
 11
2.181080
 21
5.745080
  0
LINE
  8
0
 62
     0
  6
CONTINUOUS
 10
2.181080
 20
5.745080
 11
2.181080
 21
5.774560
  0
LINE
  8
0
 62
     0
  6
CONTINUOUS
 10
2.181080
 20
5.774560
 11
2.181080
 21
5.781600
  0
LINE
  8
0
 62
     0
  6
CONTINUOUS
 10
2.181080
 20
5.781600
 11
2.181080
 21
5.752120
  0
LINE
  8
0
 62
     0
  6
CONTINUOUS
 10
2.181080
 20
5.752120
 11
2.181080
 21
5.759600
  0
LINE
  8
0
 62
     0
  6
CONTINUOUS
 10
2.181080
 20
5.759600
 11
2.181080
 21
5.788640
  0
LINE
  8
0
 62
     0
  6
CONTINUOUS
 10
2.181080
 20
5.788640
 11
2.180640
 21
5.795680
  0
LINE
  8
0
 62
     0
  6
CONTINUOUS
 10
2.180640
 20
5.795680
 11
2.180640
 21
5.766640
  0
LINE
  8
0
 62
     0
  6
CONTINUOUS
 10
2.180640
 20
5.766640
 11
2.180640
 21
5.773680
  0
LINE
  8
0
 62
     0
  6
CONTINUOUS
 10
2.180640
 20
5.773680
 11
2.180640
 21
5.802720
  0
LINE
  8
0
 62
     0
  6
CONTINUOUS
 10
2.180640
 20
5.802720
 11
2.180640
 21
5.809760
  0
LINE
  8
0
 62
     0
  6
CONTINUOUS
 10
2.180640
 20
5.809760
 11
2.180640
 21
5.780720
  0
LINE
  8
0
 62
     0
  6
CONTINUOUS
 10
2.180640
 20
5.780720
 11
2.180640
 21
5.788200
  0
LINE
  8
0
 62
     0
  6
CONTINUOUS
 10
2.180640
 20
5.788200
 11
2.180640
 21
5.809760
  0
LINE
  8
0
 62
     0
  6
CONTINUOUS
 10
2.180640
 20
5.809760
 11
2.180200
 21
5.809760
  0
LINE
  8
0
 62
     0
  6
CONTINUOUS
 10
2.180200
 20
5.809760
 11
2.180200
 21
5.795240
  0
LINE
  8
0
 62
     0
  6
CONTINUOUS
 10
2.180200
 20
5.795240
 11
2.180200
 21
5.802280
  0
LINE
  8
0
 62
     0
  6
CONTINUOUS
 10
2.180200
 20
5.802280
 11
2.180200
 21
5.809760
  0
LINE
  8
0
 62
     0
  6
CONTINUOUS
 10
2.180200
 20
5.809760
 11
2.180640
 21
5.809760
  0
LINE
  8
0
 62
     0
  6
CONTINUOUS
 10
2.180640
 20
5.809760
 11
2.183720
 21
5.655320
  0
LINE
  8
0
 62
     0
  6
CONTINUOUS
 10
2.183720
 20
5.655320
 11
2.182840
 21
5.655320
  0
LINE
  8
0
 62
     0
  6
CONTINUOUS
 10
2.182840
 20
5.655320
 11
2.180200
 21
5.809760
  0
LINE
  8
0
 62
     0
  6
CONTINUOUS
 10
2.171400
 20
5.809760
 11
2.170960
 21
5.809760
  0
LINE
  8
0
 62
     0
  6
CONTINUOUS
 10
2.170960
 20
5.809760
 11
2.170960
 21
5.795680
  0
LINE
  8
0
 62
     0
  6
CONTINUOUS
 10
2.170960
 20
5.795680
 11
2.170960
 21
5.788640
  0
LINE
  8
0
 62
     0
  6
CONTINUOUS
 10
2.170960
 20
5.788640
 11
2.170960
 21
5.809760
  0
LINE
  8
0
 62
     0
  6
CONTINUOUS
 10
2.170960
 20
5.809760
 11
2.170960
 21
5.781600
  0
LINE
  8
0
 62
     0
  6
CONTINUOUS
 10
2.170960
 20
5.781600
 11
2.170520
 21
5.774560
  0
LINE
  8
0
 62
     0
  6
CONTINUOUS
 10
2.170520
 20
5.774560
 11
2.170520
 21
5.806240
  0
LINE
  8
0
 62
     0
  6
CONTINUOUS
 10
2.170520
 20
5.806240
 11
2.170520
 21
5.799200
  0
LINE
  8
0
 62
     0
  6
CONTINUOUS
 10
2.170520
 20
5.799200
 11
2.170520
 21
5.767520
  0
LINE
  8
0
 62
     0
  6
CONTINUOUS
 10
2.170520
 20
5.767520
 11
2.170520
 21
5.760480
  0
LINE
  8
0
 62
     0
  6
CONTINUOUS
 10
2.170520
 20
5.760480
 11
2.170520
 21
5.792160
  0
LINE
  8
0
 62
     0
  6
CONTINUOUS
 10
2.170520
 20
5.792160
 11
2.170080
 21
5.785120
  0
LINE
  8
0
 62
     0
  6
CONTINUOUS
 10
2.170080
 20
5.785120
 11
2.170080
 21
5.753440
  0
LINE
  8
0
 62
     0
  6
CONTINUOUS
 10
2.170080
 20
5.753440
 11
2.170080
 21
5.746400
  0
LINE
  8
0
 62
     0
  6
CONTINUOUS
 10
2.170080
 20
5.746400
 11
2.170080
 21
5.778080
  0
LINE
  8
0
 62
     0
  6
CONTINUOUS
 10
2.170080
 20
5.778080
 11
2.170080
 21
5.771040
  0
LINE
  8
0
 62
     0
  6
CONTINUOUS
 10
2.170080
 20
5.771040
 11
2.170080
 21
5.739360
  0
LINE
  8
0
 62
     0
  6
CONTINUOUS
 10
2.170080
 20
5.739360
 11
2.169640
 21
5.732320
  0
LINE
  8
0
 62
     0
  6
CONTINUOUS
 10
2.169640
 20
5.732320
 11
2.169640
 21
5.764000
  0
LINE
  8
0
 62
     0
  6
CONTINUOUS
 10
2.169640
 20
5.764000
 11
2.169640
 21
5.756960
  0
LINE
  8
0
 62
     0
  6
CONTINUOUS
 10
2.169640
 20
5.756960
 11
2.169640
 21
5.725720
  0
LINE
  8
0
 62
     0
  6
CONTINUOUS
 10
2.169640
 20
5.725720
 11
2.169640
 21
5.718680
  0
LINE
  8
0
 62
     0
  6
CONTINUOUS
 10
2.169640
 20
5.718680
 11
2.169640
 21
5.749920
  0
LINE
  8
0
 62
     0
  6
CONTINUOUS
 10
2.169640
 20
5.749920
 11
2.169200
 21
5.742880
  0
LINE
  8
0
 62
     0
  6
CONTINUOUS
 10
2.169200
 20
5.742880
 11
2.169200
 21
5.711640
  0
LINE
  8
0
 62
     0
  6
CONTINUOUS
 10
2.169200
 20
5.711640
 11
2.169200
 21
5.704600
  0
LINE
  8
0
 62
     0
  6
CONTINUOUS
 10
2.169200
 20
5.704600
 11
2.169200
 21
5.735840
  0
LINE
  8
0
 62
     0
  6
CONTINUOUS
 10
2.169200
 20
5.735840
 11
2.169200
 21
5.729240
  0
LINE
  8
0
 62
     0
  6
CONTINUOUS
 10
2.169200
 20
5.729240
 11
2.169200
 21
5.697560
  0
LINE
  8
0
 62
     0
  6
CONTINUOUS
 10
2.169200
 20
5.697560
 11
2.168760
 21
5.690520
  0
LINE
  8
0
 62
     0
  6
CONTINUOUS
 10
2.168760
 20
5.690520
 11
2.168760
 21
5.722200
  0
LINE
  8
0
 62
     0
  6
CONTINUOUS
 10
2.168760
 20
5.722200
 11
2.168760
 21
5.715160
  0
LINE
  8
0
 62
     0
  6
CONTINUOUS
 10
2.168760
 20
5.715160
 11
2.168760
 21
5.683480
  0
LINE
  8
0
 62
     0
  6
CONTINUOUS
 10
2.168760
 20
5.683480
 11
2.168760
 21
5.676440
  0
LINE
  8
0
 62
     0
  6
CONTINUOUS
 10
2.168760
 20
5.676440
 11
2.168760
 21
5.708120
  0
LINE
  8
0
 62
     0
  6
CONTINUOUS
 10
2.168760
 20
5.708120
 11
2.168320
 21
5.701080
  0
LINE
  8
0
 62
     0
  6
CONTINUOUS
 10
2.168320
 20
5.701080
 11
2.168320
 21
5.669400
  0
LINE
  8
0
 62
     0
  6
CONTINUOUS
 10
2.168320
 20
5.669400
 11
2.168320
 21
5.662360
  0
LINE
  8
0
 62
     0
  6
CONTINUOUS
 10
2.168320
 20
5.662360
 11
2.168320
 21
5.694040
  0
LINE
  8
0
 62
     0
  6
CONTINUOUS
 10
2.168320
 20
5.694040
 11
2.168320
 21
5.687000
  0
LINE
  8
0
 62
     0
  6
CONTINUOUS
 10
2.168320
 20
5.687000
 11
2.168320
 21
5.655320
  0
LINE
  8
0
 62
     0
  6
CONTINUOUS
 10
2.168320
 20
5.655320
 11
2.168320
 21
5.679960
  0
LINE
  8
0
 62
     0
  6
CONTINUOUS
 10
2.168320
 20
5.679960
 11
2.167880
 21
5.672920
  0
LINE
  8
0
 62
     0
  6
CONTINUOUS
 10
2.167880
 20
5.672920
 11
2.167880
 21
5.655320
  0
LINE
  8
0
 62
     0
  6
CONTINUOUS
 10
2.167880
 20
5.655320
 11
2.167880
 21
5.665880
  0
LINE
  8
0
 62
     0
  6
CONTINUOUS
 10
2.167880
 20
5.665880
 11
2.167880
 21
5.658840
  0
LINE
  8
0
 62
     0
  6
CONTINUOUS
 10
2.167880
 20
5.658840
 11
2.167880
 21
5.655320
  0
LINE
  8
0
 62
     0
  6
CONTINUOUS
 10
2.167880
 20
5.655320
 11
2.167440
 21
5.655320
  0
LINE
  8
0
 62
     0
  6
CONTINUOUS
 10
2.167440
 20
5.655320
 11
2.170520
 21
5.809760
  0
LINE
  8
0
 62
     0
  6
CONTINUOUS
 10
2.170520
 20
5.809760
 11
2.171400
 21
5.809760
  0
LINE
  8
0
 62
     0
  6
CONTINUOUS
 10
2.171400
 20
5.809760
 11
2.168320
 21
5.655320
  0
LINE
  8
0
 62
     0
  6
CONTINUOUS
 10
2.168320
 20
5.655320
 11
2.167440
 21
5.655320
  0
LINE
  8
0
 62
     0
  6
CONTINUOUS
 10
2.152480
 20
5.655320
 11
2.152480
 21
5.662360
  0
LINE
  8
0
 62
     0
  6
CONTINUOUS
 10
2.152480
 20
5.662360
 11
2.152480
 21
5.669400
  0
LINE
  8
0
 62
     0
  6
CONTINUOUS
 10
2.152480
 20
5.669400
 11
2.152480
 21
5.655320
  0
LINE
  8
0
 62
     0
  6
CONTINUOUS
 10
2.152480
 20
5.655320
 11
2.152480
 21
5.676440
  0
LINE
  8
0
 62
     0
  6
CONTINUOUS
 10
2.152480
 20
5.676440
 11
2.152480
 21
5.683480
  0
LINE
  8
0
 62
     0
  6
CONTINUOUS
 10
2.152480
 20
5.683480
 11
2.152480
 21
5.655320
  0
LINE
  8
0
 62
     0
  6
CONTINUOUS
 10
2.152040
 20
5.658840
 11
2.152040
 21
5.690520
  0
LINE
  8
0
 62
     0
  6
CONTINUOUS
 10
2.152040
 20
5.690520
 11
2.152040
 21
5.697560
  0
LINE
  8
0
 62
     0
  6
CONTINUOUS
 10
2.152040
 20
5.697560
 11
2.152040
 21
5.666320
  0
LINE
  8
0
 62
     0
  6
CONTINUOUS
 10
2.152040
 20
5.666320
 11
2.152040
 21
5.673360
  0
LINE
  8
0
 62
     0
  6
CONTINUOUS
 10
2.152040
 20
5.673360
 11
2.152040
 21
5.704600
  0
LINE
  8
0
 62
     0
  6
CONTINUOUS
 10
2.152040
 20
5.704600
 11
2.151600
 21
5.711640
  0
LINE
  8
0
 62
     0
  6
CONTINUOUS
 10
2.151600
 20
5.711640
 11
2.151600
 21
5.680400
  0
LINE
  8
0
 62
     0
  6
CONTINUOUS
 10
2.151600
 20
5.680400
 11
2.151600
 21
5.687880
  0
LINE
  8
0
 62
     0
  6
CONTINUOUS
 10
2.151600
 20
5.687880
 11
2.151600
 21
5.718680
  0
LINE
  8
0
 62
     0
  6
CONTINUOUS
 10
2.151600
 20
5.718680
 11
2.151600
 21
5.725720
  0
LINE
  8
0
 62
     0
  6
CONTINUOUS
 10
2.151600
 20
5.725720
 11
2.151600
 21
5.694920
  0
LINE
  8
0
 62
     0
  6
CONTINUOUS
 10
2.151600
 20
5.694920
 11
2.151160
 21
5.701960
  0
LINE
  8
0
 62
     0
  6
CONTINUOUS
 10
2.151160
 20
5.701960
 11
2.151160
 21
5.732760
  0
LINE
  8
0
 62
     0
  6
CONTINUOUS
 10
2.151160
 20
5.732760
 11
2.151160
 21
5.739360
  0
LINE
  8
0
 62
     0
  6
CONTINUOUS
 10
2.151160
 20
5.739360
 11
2.151160
 21
5.709000
  0
LINE
  8
0
 62
     0
  6
CONTINUOUS
 10
2.151160
 20
5.709000
 11
2.151160
 21
5.716480
  0
LINE
  8
0
 62
     0
  6
CONTINUOUS
 10
2.151160
 20
5.716480
 11
2.151160
 21
5.746400
  0
LINE
  8
0
 62
     0
  6
CONTINUOUS
 10
2.151160
 20
5.746400
 11
2.150720
 21
5.753440
  0
LINE
  8
0
 62
     0
  6
CONTINUOUS
 10
2.150720
 20
5.753440
 11
2.150720
 21
5.723520
  0
LINE
  8
0
 62
     0
  6
CONTINUOUS
 10
2.150720
 20
5.723520
 11
2.150720
 21
5.730560
  0
LINE
  8
0
 62
     0
  6
CONTINUOUS
 10
2.150720
 20
5.730560
 11
2.150720
 21
5.760480
  0
LINE
  8
0
 62
     0
  6
CONTINUOUS
 10
2.150720
 20
5.760480
 11
2.150720
 21
5.767520
  0
LINE
  8
0
 62
     0
  6
CONTINUOUS
 10
2.150720
 20
5.767520
 11
2.150720
 21
5.738040
  0
LINE
  8
0
 62
     0
  6
CONTINUOUS
 10
2.150720
 20
5.738040
 11
2.150280
 21
5.745080
  0
LINE
  8
0
 62
     0
  6
CONTINUOUS
 10
2.150280
 20
5.745080
 11
2.150280
 21
5.774560
  0
LINE
  8
0
 62
     0
  6
CONTINUOUS
 10
2.150280
 20
5.774560
 11
2.150280
 21
5.781600
  0
LINE
  8
0
 62
     0
  6
CONTINUOUS
 10
2.150280
 20
5.781600
 11
2.150280
 21
5.752120
  0
LINE
  8
0
 62
     0
  6
CONTINUOUS
 10
2.150280
 20
5.752120
 11
2.150280
 21
5.759600
  0
LINE
  8
0
 62
     0
  6
CONTINUOUS
 10
2.150280
 20
5.759600
 11
2.150280
 21
5.788640
  0
LINE
  8
0
 62
     0
  6
CONTINUOUS
 10
2.150280
 20
5.788640
 11
2.149840
 21
5.795680
  0
LINE
  8
0
 62
     0
  6
CONTINUOUS
 10
2.149840
 20
5.795680
 11
2.149840
 21
5.766640
  0
LINE
  8
0
 62
     0
  6
CONTINUOUS
 10
2.149840
 20
5.766640
 11
2.149840
 21
5.773680
  0
LINE
  8
0
 62
     0
  6
CONTINUOUS
 10
2.149840
 20
5.773680
 11
2.149840
 21
5.802720
  0
LINE
  8
0
 62
     0
  6
CONTINUOUS
 10
2.149840
 20
5.802720
 11
2.149840
 21
5.809760
  0
LINE
  8
0
 62
     0
  6
CONTINUOUS
 10
2.149840
 20
5.809760
 11
2.149840
 21
5.780720
  0
LINE
  8
0
 62
     0
  6
CONTINUOUS
 10
2.149840
 20
5.780720
 11
2.149400
 21
5.788200
  0
LINE
  8
0
 62
     0
  6
CONTINUOUS
 10
2.149400
 20
5.788200
 11
2.149400
 21
5.809760
  0
LINE
  8
0
 62
     0
  6
CONTINUOUS
 10
2.149400
 20
5.809760
 11
2.149400
 21
5.795240
  0
LINE
  8
0
 62
     0
  6
CONTINUOUS
 10
2.149400
 20
5.795240
 11
2.149400
 21
5.802280
  0
LINE
  8
0
 62
     0
  6
CONTINUOUS
 10
2.149400
 20
5.802280
 11
2.149400
 21
5.809760
  0
LINE
  8
0
 62
     0
  6
CONTINUOUS
 10
2.149400
 20
5.809760
 11
2.148960
 21
5.809760
  0
LINE
  8
0
 62
     0
  6
CONTINUOUS
 10
2.148960
 20
5.809760
 11
2.149840
 21
5.809760
  0
LINE
  8
0
 62
     0
  6
CONTINUOUS
 10
2.149840
 20
5.809760
 11
2.152920
 21
5.655320
  0
LINE
  8
0
 62
     0
  6
CONTINUOUS
 10
2.152920
 20
5.655320
 11
2.152040
 21
5.655320
  0
LINE
  8
0
 62
     0
  6
CONTINUOUS
 10
2.152040
 20
5.655320
 11
2.148960
 21
5.809760
  0
LINE
  8
0
 62
     0
  6
CONTINUOUS
 10
2.171400
 20
5.809760
 11
2.171400
 21
5.802720
  0
LINE
  8
0
 62
     0
  6
CONTINUOUS
 10
2.202200
 20
5.802720
 11
2.202200
 21
5.809760
  0
LINE
  8
0
 62
     0
  6
CONTINUOUS
 10
2.202200
 20
5.809760
 11
2.201760
 21
5.809760
  0
LINE
  8
0
 62
     0
  6
CONTINUOUS
 10
2.201760
 20
5.809760
 11
2.201760
 21
5.795680
  0
LINE
  8
0
 62
     0
  6
CONTINUOUS
 10
2.201760
 20
5.795680
 11
2.201760
 21
5.788640
  0
LINE
  8
0
 62
     0
  6
CONTINUOUS
 10
2.201760
 20
5.788640
 11
2.201760
 21
5.809760
  0
LINE
  8
0
 62
     0
  6
CONTINUOUS
 10
2.206160
 20
5.809760
 11
2.221560
 21
5.825160
  0
LINE
  8
0
 62
     0
  6
CONTINUOUS
 10
2.226840
 20
5.825160
 11
2.211440
 21
5.809760
  0
LINE
  8
0
 62
     0
  6
CONTINUOUS
 10
2.217160
 20
5.809760
 11
2.232560
 21
5.825160
  0
LINE
  8
0
 62
     0
  6
CONTINUOUS
 10
2.237840
 20
5.825160
 11
2.222440
 21
5.809760
  0
LINE
  8
0
 62
     0
  6
CONTINUOUS
 10
2.238720
 20
5.809760
 11
2.254120
 21
5.825160
  0
LINE
  8
0
 62
     0
  6
CONTINUOUS
 10
2.259840
 20
5.825160
 11
2.244000
 21
5.809760
  0
LINE
  8
0
 62
     0
  6
CONTINUOUS
 10
2.249720
 20
5.809760
 11
2.265120
 21
5.825160
  0
LINE
  8
0
 62
     0
  6
CONTINUOUS
 10
2.270400
 20
5.825160
 11
2.255000
 21
5.809760
  0
LINE
  8
0
 62
     0
  6
CONTINUOUS
 10
2.202200
 20
5.655320
 11
2.201760
 21
5.655320
  0
LINE
  8
0
 62
     0
  6
CONTINUOUS
 10
2.201760
 20
5.655320
 11
2.201760
 21
5.641240
  0
LINE
  8
0
 62
     0
  6
CONTINUOUS
 10
2.201760
 20
5.641240
 11
2.201760
 21
5.634200
  0
LINE
  8
0
 62
     0
  6
CONTINUOUS
 10
2.201760
 20
5.634200
 11
2.201760
 21
5.655320
  0
LINE
  8
0
 62
     0
  6
CONTINUOUS
 10
2.201760
 20
5.655320
 11
2.201760
 21
5.626720
  0
LINE
  8
0
 62
     0
  6
CONTINUOUS
 10
2.201760
 20
5.626720
 11
2.201320
 21
5.619680
  0
LINE
  8
0
 62
     0
  6
CONTINUOUS
 10
2.201320
 20
5.619680
 11
2.201320
 21
5.651800
  0
LINE
  8
0
 62
     0
  6
CONTINUOUS
 10
2.201320
 20
5.651800
 11
2.201320
 21
5.644760
  0
LINE
  8
0
 62
     0
  6
CONTINUOUS
 10
2.201320
 20
5.644760
 11
2.201320
 21
5.612640
  0
LINE
  8
0
 62
     0
  6
CONTINUOUS
 10
2.201320
 20
5.612640
 11
2.201320
 21
5.605600
  0
LINE
  8
0
 62
     0
  6
CONTINUOUS
 10
2.201320
 20
5.605600
 11
2.201320
 21
5.637720
  0
LINE
  8
0
 62
     0
  6
CONTINUOUS
 10
2.201320
 20
5.637720
 11
2.200880
 21
5.630240
  0
LINE
  8
0
 62
     0
  6
CONTINUOUS
 10
2.200880
 20
5.630240
 11
2.200880
 21
5.598120
  0
LINE
  8
0
 62
     0
  6
CONTINUOUS
 10
2.200880
 20
5.598120
 11
2.200880
 21
5.591080
  0
LINE
  8
0
 62
     0
  6
CONTINUOUS
 10
2.200880
 20
5.591080
 11
2.200880
 21
5.623200
  0
LINE
  8
0
 62
     0
  6
CONTINUOUS
 10
2.200880
 20
5.623200
 11
2.200880
 21
5.616160
  0
LINE
  8
0
 62
     0
  6
CONTINUOUS
 10
2.200880
 20
5.616160
 11
2.200880
 21
5.584040
  0
LINE
  8
0
 62
     0
  6
CONTINUOUS
 10
2.200880
 20
5.584040
 11
2.200440
 21
5.576560
  0
LINE
  8
0
 62
     0
  6
CONTINUOUS
 10
2.200440
 20
5.576560
 11
2.200440
 21
5.609120
  0
LINE
  8
0
 62
     0
  6
CONTINUOUS
 10
2.200440
 20
5.609120
 11
2.200440
 21
5.601640
  0
LINE
  8
0
 62
     0
  6
CONTINUOUS
 10
2.200440
 20
5.601640
 11
2.200440
 21
5.569520
  0
LINE
  8
0
 62
     0
  6
CONTINUOUS
 10
2.200440
 20
5.569520
 11
2.200440
 21
5.562480
  0
LINE
  8
0
 62
     0
  6
CONTINUOUS
 10
2.200440
 20
5.562480
 11
2.200440
 21
5.594600
  0
LINE
  8
0
 62
     0
  6
CONTINUOUS
 10
2.200440
 20
5.594600
 11
2.200000
 21
5.587560
  0
LINE
  8
0
 62
     0
  6
CONTINUOUS
 10
2.200000
 20
5.587560
 11
2.200000
 21
5.555440
  0
LINE
  8
0
 62
     0
  6
CONTINUOUS
 10
2.200000
 20
5.555440
 11
2.200000
 21
5.548400
  0
LINE
  8
0
 62
     0
  6
CONTINUOUS
 10
2.200000
 20
5.548400
 11
2.200000
 21
5.580520
  0
LINE
  8
0
 62
     0
  6
CONTINUOUS
 10
2.200000
 20
5.580520
 11
2.200000
 21
5.573040
  0
LINE
  8
0
 62
     0
  6
CONTINUOUS
 10
2.200000
 20
5.573040
 11
2.200000
 21
5.541360
  0
LINE
  8
0
 62
     0
  6
CONTINUOUS
 10
2.200000
 20
5.541360
 11
2.200000
 21
5.533880
  0
LINE
  8
0
 62
     0
  6
CONTINUOUS
 10
2.200000
 20
5.533880
 11
2.200000
 21
5.566000
  0
LINE
  8
0
 62
     0
  6
CONTINUOUS
 10
2.200000
 20
5.566000
 11
2.199560
 21
5.558960
  0
LINE
  8
0
 62
     0
  6
CONTINUOUS
 10
2.199560
 20
5.558960
 11
2.199560
 21
5.526840
  0
LINE
  8
0
 62
     0
  6
CONTINUOUS
 10
2.199560
 20
5.526840
 11
2.199560
 21
5.519800
  0
LINE
  8
0
 62
     0
  6
CONTINUOUS
 10
2.199560
 20
5.519800
 11
2.199560
 21
5.551920
  0
LINE
  8
0
 62
     0
  6
CONTINUOUS
 10
2.199560
 20
5.551920
 11
2.199560
 21
5.544880
  0
LINE
  8
0
 62
     0
  6
CONTINUOUS
 10
2.199560
 20
5.544880
 11
2.199560
 21
5.512760
  0
LINE
  8
0
 62
     0
  6
CONTINUOUS
 10
2.199560
 20
5.512760
 11
2.199120
 21
5.505280
  0
LINE
  8
0
 62
     0
  6
CONTINUOUS
 10
2.199120
 20
5.505280
 11
2.199120
 21
5.537840
  0
LINE
  8
0
 62
     0
  6
CONTINUOUS
 10
2.199120
 20
5.537840
 11
2.199120
 21
5.530360
  0
LINE
  8
0
 62
     0
  6
CONTINUOUS
 10
2.199120
 20
5.530360
 11
2.199120
 21
5.498240
  0
LINE
  8
0
 62
     0
  6
CONTINUOUS
 10
2.199120
 20
5.498240
 11
2.199120
 21
5.523320
  0
LINE
  8
0
 62
     0
  6
CONTINUOUS
 10
2.199120
 20
5.523320
 11
2.198680
 21
5.516280
  0
LINE
  8
0
 62
     0
  6
CONTINUOUS
 10
2.198680
 20
5.516280
 11
2.198680
 21
5.498240
  0
LINE
  8
0
 62
     0
  6
CONTINUOUS
 10
2.198680
 20
5.498240
 11
2.198680
 21
5.509240
  0
LINE
  8
0
 62
     0
  6
CONTINUOUS
 10
2.198680
 20
5.509240
 11
2.198680
 21
5.501760
  0
LINE
  8
0
 62
     0
  6
CONTINUOUS
 10
2.198680
 20
5.501760
 11
2.198680
 21
5.498240
  0
LINE
  8
0
 62
     0
  6
CONTINUOUS
 10
2.198680
 20
5.498240
 11
2.198240
 21
5.498240
  0
LINE
  8
0
 62
     0
  6
CONTINUOUS
 10
2.198240
 20
5.498240
 11
2.201760
 21
5.655320
  0
LINE
  8
0
 62
     0
  6
CONTINUOUS
 10
2.201760
 20
5.655320
 11
2.202200
 21
5.655320
  0
LINE
  8
0
 62
     0
  6
CONTINUOUS
 10
2.202200
 20
5.655320
 11
2.199120
 21
5.498240
  0
LINE
  8
0
 62
     0
  6
CONTINUOUS
 10
2.199120
 20
5.498240
 11
2.198240
 21
5.498240
  0
LINE
  8
0
 62
     0
  6
CONTINUOUS
 10
2.198680
 20
5.495160
 11
2.152480
 21
5.495160
  0
LINE
  8
0
 62
     0
  6
CONTINUOUS
 10
2.152480
 20
5.495160
 11
2.198680
 21
5.495160
  0
LINE
  8
0
 62
     0
  6
CONTINUOUS
 10
2.198680
 20
5.495160
 11
2.152480
 21
5.495160
  0
LINE
  8
0
 62
     0
  6
CONTINUOUS
 10
2.152480
 20
5.495160
 11
2.152480
 21
5.494720
  0
LINE
  8
0
 62
     0
  6
CONTINUOUS
 10
2.152480
 20
5.494720
 11
2.198680
 21
5.494720
  0
LINE
  8
0
 62
     0
  6
CONTINUOUS
 10
2.198680
 20
5.494720
 11
2.152480
 21
5.494720
  0
LINE
  8
0
 62
     0
  6
CONTINUOUS
 10
2.152480
 20
5.494720
 11
2.198680
 21
5.494720
  0
LINE
  8
0
 62
     0
  6
CONTINUOUS
 10
2.198680
 20
5.494720
 11
2.198680
 21
5.494280
  0
LINE
  8
0
 62
     0
  6
CONTINUOUS
 10
2.198680
 20
5.494280
 11
2.152480
 21
5.494280
  0
LINE
  8
0
 62
     0
  6
CONTINUOUS
 10
2.152480
 20
5.494280
 11
2.198680
 21
5.494280
  0
LINE
  8
0
 62
     0
  6
CONTINUOUS
 10
2.198680
 20
5.494280
 11
2.152480
 21
5.494280
  0
LINE
  8
0
 62
     0
  6
CONTINUOUS
 10
2.152480
 20
5.494280
 11
2.152480
 21
5.493840
  0
LINE
  8
0
 62
     0
  6
CONTINUOUS
 10
2.152480
 20
5.493840
 11
2.198680
 21
5.493840
  0
LINE
  8
0
 62
     0
  6
CONTINUOUS
 10
2.198680
 20
5.493840
 11
2.152480
 21
5.493840
  0
LINE
  8
0
 62
     0
  6
CONTINUOUS
 10
2.152480
 20
5.493840
 11
2.198680
 21
5.493840
  0
LINE
  8
0
 62
     0
  6
CONTINUOUS
 10
2.198680
 20
5.493840
 11
2.198680
 21
5.493400
  0
LINE
  8
0
 62
     0
  6
CONTINUOUS
 10
2.198680
 20
5.493400
 11
2.152480
 21
5.493400
  0
LINE
  8
0
 62
     0
  6
CONTINUOUS
 10
2.152480
 20
5.493400
 11
2.198680
 21
5.493400
  0
LINE
  8
0
 62
     0
  6
CONTINUOUS
 10
2.198680
 20
5.493400
 11
2.152480
 21
5.493400
  0
LINE
  8
0
 62
     0
  6
CONTINUOUS
 10
2.152480
 20
5.493400
 11
2.152480
 21
5.492960
  0
LINE
  8
0
 62
     0
  6
CONTINUOUS
 10
2.152480
 20
5.492960
 11
2.198680
 21
5.492960
  0
LINE
  8
0
 62
     0
  6
CONTINUOUS
 10
2.198680
 20
5.492960
 11
2.152480
 21
5.492960
  0
LINE
  8
0
 62
     0
  6
CONTINUOUS
 10
2.152480
 20
5.492960
 11
2.198680
 21
5.492960
  0
LINE
  8
0
 62
     0
  6
CONTINUOUS
 10
2.198680
 20
5.492960
 11
2.198680
 21
5.492520
  0
LINE
  8
0
 62
     0
  6
CONTINUOUS
 10
2.198680
 20
5.492520
 11
2.152480
 21
5.492520
  0
LINE
  8
0
 62
     0
  6
CONTINUOUS
 10
2.152480
 20
5.492520
 11
2.198680
 21
5.492520
  0
LINE
  8
0
 62
     0
  6
CONTINUOUS
 10
2.198680
 20
5.492520
 11
2.152480
 21
5.492520
  0
LINE
  8
0
 62
     0
  6
CONTINUOUS
 10
2.152480
 20
5.492520
 11
2.152480
 21
5.492080
  0
LINE
  8
0
 62
     0
  6
CONTINUOUS
 10
2.152480
 20
5.492080
 11
2.198680
 21
5.492080
  0
LINE
  8
0
 62
     0
  6
CONTINUOUS
 10
2.198680
 20
5.492080
 11
2.152480
 21
5.492080
  0
LINE
  8
0
 62
     0
  6
CONTINUOUS
 10
2.152480
 20
5.492080
 11
2.152480
 21
5.495160
  0
LINE
  8
0
 62
     0
  6
CONTINUOUS
 10
2.152480
 20
5.495160
 11
2.198680
 21
5.495160
  0
LINE
  8
0
 62
     0
  6
CONTINUOUS
 10
2.198680
 20
5.495160
 11
2.198680
 21
5.492080
  0
LINE
  8
0
 62
     0
  6
CONTINUOUS
 10
2.198680
 20
5.492080
 11
2.152480
 21
5.492080
  0
LINE
  8
0
 62
     0
  6
CONTINUOUS
 10
2.152480
 20
5.495160
 11
2.167880
 21
5.495160
  0
LINE
  8
0
 62
     0
  6
CONTINUOUS
 10
2.167880
 20
5.495160
 11
2.168320
 21
5.495160
  0
LINE
  8
0
 62
     0
  6
CONTINUOUS
 10
2.168320
 20
5.495160
 11
2.168320
 21
5.528160
  0
LINE
  8
0
 62
     0
  6
CONTINUOUS
 10
2.168320
 20
5.528160
 11
2.168320
 21
5.535200
  0
LINE
  8
0
 62
     0
  6
CONTINUOUS
 10
2.168320
 20
5.535200
 11
2.168320
 21
5.502640
  0
LINE
  8
0
 62
     0
  6
CONTINUOUS
 10
2.168320
 20
5.502640
 11
2.168320
 21
5.509680
  0
LINE
  8
0
 62
     0
  6
CONTINUOUS
 10
2.168320
 20
5.509680
 11
2.168320
 21
5.542680
  0
LINE
  8
0
 62
     0
  6
CONTINUOUS
 10
2.168320
 20
5.542680
 11
2.168760
 21
5.549720
  0
LINE
  8
0
 62
     0
  6
CONTINUOUS
 10
2.168760
 20
5.549720
 11
2.168760
 21
5.517160
  0
LINE
  8
0
 62
     0
  6
CONTINUOUS
 10
2.168760
 20
5.517160
 11
2.168760
 21
5.524200
  0
LINE
  8
0
 62
     0
  6
CONTINUOUS
 10
2.168760
 20
5.524200
 11
2.168760
 21
5.557200
  0
LINE
  8
0
 62
     0
  6
CONTINUOUS
 10
2.168760
 20
5.557200
 11
2.168760
 21
5.564240
  0
LINE
  8
0
 62
     0
  6
CONTINUOUS
 10
2.168760
 20
5.564240
 11
2.168760
 21
5.531680
  0
LINE
  8
0
 62
     0
  6
CONTINUOUS
 10
2.168760
 20
5.531680
 11
2.169200
 21
5.539160
  0
LINE
  8
0
 62
     0
  6
CONTINUOUS
 10
2.169200
 20
5.539160
 11
2.169200
 21
5.571720
  0
LINE
  8
0
 62
     0
  6
CONTINUOUS
 10
2.169200
 20
5.571720
 11
2.169200
 21
5.578760
  0
LINE
  8
0
 62
     0
  6
CONTINUOUS
 10
2.169200
 20
5.578760
 11
2.169200
 21
5.546200
  0
LINE
  8
0
 62
     0
  6
CONTINUOUS
 10
2.169200
 20
5.546200
 11
2.169200
 21
5.553680
  0
LINE
  8
0
 62
     0
  6
CONTINUOUS
 10
2.169200
 20
5.553680
 11
2.169200
 21
5.586240
  0
LINE
  8
0
 62
     0
  6
CONTINUOUS
 10
2.169200
 20
5.586240
 11
2.169640
 21
5.593280
  0
LINE
  8
0
 62
     0
  6
CONTINUOUS
 10
2.169640
 20
5.593280
 11
2.169640
 21
5.560720
  0
LINE
  8
0
 62
     0
  6
CONTINUOUS
 10
2.169640
 20
5.560720
 11
2.169640
 21
5.567760
  0
LINE
  8
0
 62
     0
  6
CONTINUOUS
 10
2.169640
 20
5.567760
 11
2.169640
 21
5.600760
  0
LINE
  8
0
 62
     0
  6
CONTINUOUS
 10
2.169640
 20
5.600760
 11
2.169640
 21
5.608240
  0
LINE
  8
0
 62
     0
  6
CONTINUOUS
 10
2.169640
 20
5.608240
 11
2.169640
 21
5.575240
  0
LINE
  8
0
 62
     0
  6
CONTINUOUS
 10
2.169640
 20
5.575240
 11
2.170080
 21
5.582720
  0
LINE
  8
0
 62
     0
  6
CONTINUOUS
 10
2.170080
 20
5.582720
 11
2.170080
 21
5.615280
  0
LINE
  8
0
 62
     0
  6
CONTINUOUS
 10
2.170080
 20
5.615280
 11
2.170080
 21
5.622760
  0
LINE
  8
0
 62
     0
  6
CONTINUOUS
 10
2.170080
 20
5.622760
 11
2.170080
 21
5.589760
  0
LINE
  8
0
 62
     0
  6
CONTINUOUS
 10
2.170080
 20
5.589760
 11
2.170080
 21
5.597240
  0
LINE
  8
0
 62
     0
  6
CONTINUOUS
 10
2.170080
 20
5.597240
 11
2.170080
 21
5.629800
  0
LINE
  8
0
 62
     0
  6
CONTINUOUS
 10
2.170080
 20
5.629800
 11
2.170520
 21
5.637280
  0
LINE
  8
0
 62
     0
  6
CONTINUOUS
 10
2.170520
 20
5.637280
 11
2.170520
 21
5.604280
  0
LINE
  8
0
 62
     0
  6
CONTINUOUS
 10
2.170520
 20
5.604280
 11
2.170520
 21
5.611760
  0
LINE
  8
0
 62
     0
  6
CONTINUOUS
 10
2.170520
 20
5.611760
 11
2.170520
 21
5.644320
  0
LINE
  8
0
 62
     0
  6
CONTINUOUS
 10
2.170520
 20
5.644320
 11
2.170520
 21
5.651800
  0
LINE
  8
0
 62
     0
  6
CONTINUOUS
 10
2.170520
 20
5.651800
 11
2.170520
 21
5.618800
  0
LINE
  8
0
 62
     0
  6
CONTINUOUS
 10
2.170520
 20
5.618800
 11
2.170960
 21
5.626280
  0
LINE
  8
0
 62
     0
  6
CONTINUOUS
 10
2.170960
 20
5.626280
 11
2.170960
 21
5.655320
  0
LINE
  8
0
 62
     0
  6
CONTINUOUS
 10
2.170960
 20
5.655320
 11
2.170960
 21
5.633760
  0
LINE
  8
0
 62
     0
  6
CONTINUOUS
 10
2.170960
 20
5.633760
 11
2.170960
 21
5.640800
  0
LINE
  8
0
 62
     0
  6
CONTINUOUS
 10
2.170960
 20
5.640800
 11
2.170960
 21
5.655320
  0
LINE
  8
0
 62
     0
  6
CONTINUOUS
 10
2.170960
 20
5.655320
 11
2.171400
 21
5.655320
  0
LINE
  8
0
 62
     0
  6
CONTINUOUS
 10
2.171400
 20
5.655320
 11
2.171400
 21
5.648280
  0
LINE
  8
0
 62
     0
  6
CONTINUOUS
 10
2.171400
 20
5.655320
 11
2.168320
 21
5.495160
  0
LINE
  8
0
 62
     0
  6
CONTINUOUS
 10
2.168320
 20
5.495160
 11
2.167440
 21
5.495160
  0
LINE
  8
0
 62
     0
  6
CONTINUOUS
 10
2.167440
 20
5.495160
 11
2.170520
 21
5.655320
  0
LINE
  8
0
 62
     0
  6
CONTINUOUS
 10
2.170520
 20
5.655320
 11
2.171400
 21
5.655320
  0
LINE
  8
0
 62
     0
  6
CONTINUOUS
 10
2.180200
 20
5.655320
 11
2.180640
 21
5.655320
  0
LINE
  8
0
 62
     0
  6
CONTINUOUS
 10
2.180640
 20
5.655320
 11
2.183720
 21
5.495160
  0
LINE
  8
0
 62
     0
  6
CONTINUOUS
 10
2.183720
 20
5.495160
 11
2.182840
 21
5.495160
  0
LINE
  8
0
 62
     0
  6
CONTINUOUS
 10
2.182840
 20
5.495160
 11
2.180200
 21
5.655320
  0
LINE
  8
0
 62
     0
  6
CONTINUOUS
 10
2.180200
 20
5.655320
 11
2.180200
 21
5.647840
  0
LINE
  8
0
 62
     0
  6
CONTINUOUS
 10
2.180200
 20
5.647840
 11
2.180200
 21
5.640360
  0
LINE
  8
0
 62
     0
  6
CONTINUOUS
 10
2.180200
 20
5.640360
 11
2.180200
 21
5.655320
  0
LINE
  8
0
 62
     0
  6
CONTINUOUS
 10
2.180200
 20
5.655320
 11
2.180640
 21
5.655320
  0
LINE
  8
0
 62
     0
  6
CONTINUOUS
 10
2.180640
 20
5.655320
 11
2.180640
 21
5.632880
  0
LINE
  8
0
 62
     0
  6
CONTINUOUS
 10
2.180640
 20
5.632880
 11
2.180640
 21
5.625840
  0
LINE
  8
0
 62
     0
  6
CONTINUOUS
 10
2.180640
 20
5.625840
 11
2.180640
 21
5.655320
  0
LINE
  8
0
 62
     0
  6
CONTINUOUS
 10
2.180640
 20
5.655320
 11
2.180640
 21
5.648280
  0
LINE
  8
0
 62
     0
  6
CONTINUOUS
 10
2.180640
 20
5.648280
 11
2.180640
 21
5.618360
  0
LINE
  8
0
 62
     0
  6
CONTINUOUS
 10
2.180640
 20
5.618360
 11
2.180640
 21
5.610880
  0
LINE
  8
0
 62
     0
  6
CONTINUOUS
 10
2.180640
 20
5.610880
 11
2.180640
 21
5.640800
  0
LINE
  8
0
 62
     0
  6
CONTINUOUS
 10
2.180640
 20
5.640800
 11
2.181080
 21
5.633760
  0
LINE
  8
0
 62
     0
  6
CONTINUOUS
 10
2.181080
 20
5.633760
 11
2.181080
 21
5.603400
  0
LINE
  8
0
 62
     0
  6
CONTINUOUS
 10
2.181080
 20
5.603400
 11
2.181080
 21
5.595920
  0
LINE
  8
0
 62
     0
  6
CONTINUOUS
 10
2.181080
 20
5.595920
 11
2.181080
 21
5.626280
  0
LINE
  8
0
 62
     0
  6
CONTINUOUS
 10
2.181080
 20
5.626280
 11
2.181080
 21
5.618800
  0
LINE
  8
0
 62
     0
  6
CONTINUOUS
 10
2.181080
 20
5.618800
 11
2.181080
 21
5.588440
  0
LINE
  8
0
 62
     0
  6
CONTINUOUS
 10
2.181080
 20
5.588440
 11
2.181520
 21
5.580960
  0
LINE
  8
0
 62
     0
  6
CONTINUOUS
 10
2.181520
 20
5.580960
 11
2.181520
 21
5.611760
  0
LINE
  8
0
 62
     0
  6
CONTINUOUS
 10
2.181520
 20
5.611760
 11
2.181520
 21
5.604280
  0
LINE
  8
0
 62
     0
  6
CONTINUOUS
 10
2.181520
 20
5.604280
 11
2.181520
 21
5.573480
  0
LINE
  8
0
 62
     0
  6
CONTINUOUS
 10
2.181520
 20
5.573480
 11
2.181520
 21
5.566000
  0
LINE
  8
0
 62
     0
  6
CONTINUOUS
 10
2.181520
 20
5.566000
 11
2.181520
 21
5.597240
  0
LINE
  8
0
 62
     0
  6
CONTINUOUS
 10
2.181520
 20
5.597240
 11
2.181960
 21
5.589760
  0
LINE
  8
0
 62
     0
  6
CONTINUOUS
 10
2.181960
 20
5.589760
 11
2.181960
 21
5.558520
  0
LINE
  8
0
 62
     0
  6
CONTINUOUS
 10
2.181960
 20
5.558520
 11
2.181960
 21
5.551040
  0
LINE
  8
0
 62
     0
  6
CONTINUOUS
 10
2.181960
 20
5.551040
 11
2.181960
 21
5.582720
  0
LINE
  8
0
 62
     0
  6
CONTINUOUS
 10
2.181960
 20
5.582720
 11
2.181960
 21
5.575240
  0
LINE
  8
0
 62
     0
  6
CONTINUOUS
 10
2.181960
 20
5.575240
 11
2.181960
 21
5.543560
  0
LINE
  8
0
 62
     0
  6
CONTINUOUS
 10
2.181960
 20
5.543560
 11
2.182400
 21
5.536080
  0
LINE
  8
0
 62
     0
  6
CONTINUOUS
 10
2.182400
 20
5.536080
 11
2.182400
 21
5.567760
  0
LINE
  8
0
 62
     0
  6
CONTINUOUS
 10
2.182400
 20
5.567760
 11
2.182400
 21
5.560720
  0
LINE
  8
0
 62
     0
  6
CONTINUOUS
 10
2.182400
 20
5.560720
 11
2.182400
 21
5.528600
  0
LINE
  8
0
 62
     0
  6
CONTINUOUS
 10
2.182400
 20
5.528600
 11
2.182400
 21
5.521120
  0
LINE
  8
0
 62
     0
  6
CONTINUOUS
 10
2.182400
 20
5.521120
 11
2.182400
 21
5.553680
  0
LINE
  8
0
 62
     0
  6
CONTINUOUS
 10
2.182400
 20
5.553680
 11
2.182840
 21
5.546200
  0
LINE
  8
0
 62
     0
  6
CONTINUOUS
 10
2.182840
 20
5.546200
 11
2.182840
 21
5.513640
  0
LINE
  8
0
 62
     0
  6
CONTINUOUS
 10
2.182840
 20
5.513640
 11
2.182840
 21
5.506160
  0
LINE
  8
0
 62
     0
  6
CONTINUOUS
 10
2.182840
 20
5.506160
 11
2.182840
 21
5.539160
  0
LINE
  8
0
 62
     0
  6
CONTINUOUS
 10
2.182840
 20
5.539160
 11
2.182840
 21
5.531680
  0
LINE
  8
0
 62
     0
  6
CONTINUOUS
 10
2.182840
 20
5.531680
 11
2.182840
 21
5.499120
  0
LINE
  8
0
 62
     0
  6
CONTINUOUS
 10
2.183280
 20
5.495160
 11
2.183280
 21
5.524200
  0
LINE
  8
0
 62
     0
  6
CONTINUOUS
 10
2.183280
 20
5.524200
 11
2.183280
 21
5.517160
  0
LINE
  8
0
 62
     0
  6
CONTINUOUS
 10
2.183280
 20
5.517160
 11
2.183280
 21
5.495160
  0
LINE
  8
0
 62
     0
  6
CONTINUOUS
 10
2.183280
 20
5.495160
 11
2.198680
 21
5.495160
  0
LINE
  8
0
 62
     0
  6
CONTINUOUS
 10
2.183720
 20
5.495160
 11
2.183720
 21
5.502640
  0
LINE
  8
0
 62
     0
  6
CONTINUOUS
 10
2.183720
 20
5.502640
 11
2.183280
 21
5.509680
  0
LINE
  8
0
 62
     0
  6
CONTINUOUS
 10
2.183280
 20
5.509680
 11
2.183280
 21
5.495160
  0
LINE
  8
0
 62
     0
  6
CONTINUOUS
 10
2.168320
 20
5.495160
 11
2.168320
 21
5.520680
  0
LINE
  8
0
 62
     0
  6
CONTINUOUS
 10
2.168320
 20
5.520680
 11
2.167880
 21
5.513200
  0
LINE
  8
0
 62
     0
  6
CONTINUOUS
 10
2.167880
 20
5.513200
 11
2.167880
 21
5.495160
  0
LINE
  8
0
 62
     0
  6
CONTINUOUS
 10
2.167880
 20
5.495160
 11
2.167880
 21
5.506160
  0
LINE
  8
0
 62
     0
  6
CONTINUOUS
 10
2.167880
 20
5.506160
 11
2.167880
 21
5.498680
  0
LINE
  8
0
 62
     0
  6
CONTINUOUS
 10
2.167880
 20
5.498680
 11
2.167880
 21
5.495160
  0
LINE
  8
0
 62
     0
  6
CONTINUOUS
 10
2.152920
 20
5.498240
 11
2.152040
 21
5.498240
  0
LINE
  8
0
 62
     0
  6
CONTINUOUS
 10
2.152040
 20
5.498240
 11
2.148960
 21
5.655320
  0
LINE
  8
0
 62
     0
  6
CONTINUOUS
 10
2.148960
 20
5.655320
 11
2.149840
 21
5.655320
  0
LINE
  8
0
 62
     0
  6
CONTINUOUS
 10
2.149840
 20
5.655320
 11
2.152920
 21
5.498240
  0
LINE
  8
0
 62
     0
  6
CONTINUOUS
 10
2.152920
 20
5.498240
 11
2.152480
 21
5.498240
  0
LINE
  8
0
 62
     0
  6
CONTINUOUS
 10
2.152480
 20
5.498240
 11
2.152480
 21
5.505280
  0
LINE
  8
0
 62
     0
  6
CONTINUOUS
 10
2.152480
 20
5.505280
 11
2.152480
 21
5.512760
  0
LINE
  8
0
 62
     0
  6
CONTINUOUS
 10
2.152480
 20
5.512760
 11
2.152480
 21
5.498240
  0
LINE
  8
0
 62
     0
  6
CONTINUOUS
 10
2.152480
 20
5.498240
 11
2.152480
 21
5.519800
  0
LINE
  8
0
 62
     0
  6
CONTINUOUS
 10
2.152480
 20
5.519800
 11
2.152480
 21
5.526840
  0
LINE
  8
0
 62
     0
  6
CONTINUOUS
 10
2.152480
 20
5.526840
 11
2.152480
 21
5.498240
  0
LINE
  8
0
 62
     0
  6
CONTINUOUS
 10
2.152040
 20
5.501760
 11
2.152040
 21
5.533880
  0
LINE
  8
0
 62
     0
  6
CONTINUOUS
 10
2.152040
 20
5.533880
 11
2.152040
 21
5.541360
  0
LINE
  8
0
 62
     0
  6
CONTINUOUS
 10
2.152040
 20
5.541360
 11
2.152040
 21
5.509240
  0
LINE
  8
0
 62
     0
  6
CONTINUOUS
 10
2.152040
 20
5.509240
 11
2.152040
 21
5.516720
  0
LINE
  8
0
 62
     0
  6
CONTINUOUS
 10
2.152040
 20
5.516720
 11
2.152040
 21
5.548400
  0
LINE
  8
0
 62
     0
  6
CONTINUOUS
 10
2.152040
 20
5.548400
 11
2.151600
 21
5.555440
  0
LINE
  8
0
 62
     0
  6
CONTINUOUS
 10
2.151600
 20
5.555440
 11
2.151600
 21
5.523760
  0
LINE
  8
0
 62
     0
  6
CONTINUOUS
 10
2.151600
 20
5.523760
 11
2.151600
 21
5.531240
  0
LINE
  8
0
 62
     0
  6
CONTINUOUS
 10
2.151600
 20
5.531240
 11
2.151600
 21
5.562480
  0
LINE
  8
0
 62
     0
  6
CONTINUOUS
 10
2.151600
 20
5.562480
 11
2.151600
 21
5.569520
  0
LINE
  8
0
 62
     0
  6
CONTINUOUS
 10
2.151600
 20
5.569520
 11
2.151600
 21
5.538720
  0
LINE
  8
0
 62
     0
  6
CONTINUOUS
 10
2.151600
 20
5.538720
 11
2.151160
 21
5.545760
  0
LINE
  8
0
 62
     0
  6
CONTINUOUS
 10
2.151160
 20
5.545760
 11
2.151160
 21
5.577000
  0
LINE
  8
0
 62
     0
  6
CONTINUOUS
 10
2.151160
 20
5.577000
 11
2.151160
 21
5.584040
  0
LINE
  8
0
 62
     0
  6
CONTINUOUS
 10
2.151160
 20
5.584040
 11
2.151160
 21
5.553240
  0
LINE
  8
0
 62
     0
  6
CONTINUOUS
 10
2.151160
 20
5.553240
 11
2.151160
 21
5.560280
  0
LINE
  8
0
 62
     0
  6
CONTINUOUS
 10
2.151160
 20
5.560280
 11
2.151160
 21
5.591080
  0
LINE
  8
0
 62
     0
  6
CONTINUOUS
 10
2.151160
 20
5.591080
 11
2.150720
 21
5.598120
  0
LINE
  8
0
 62
     0
  6
CONTINUOUS
 10
2.150720
 20
5.598120
 11
2.150720
 21
5.567760
  0
LINE
  8
0
 62
     0
  6
CONTINUOUS
 10
2.150720
 20
5.567760
 11
2.150720
 21
5.574800
  0
LINE
  8
0
 62
     0
  6
CONTINUOUS
 10
2.150720
 20
5.574800
 11
2.150720
 21
5.605600
  0
LINE
  8
0
 62
     0
  6
CONTINUOUS
 10
2.150720
 20
5.605600
 11
2.150720
 21
5.612640
  0
LINE
  8
0
 62
     0
  6
CONTINUOUS
 10
2.150720
 20
5.612640
 11
2.150720
 21
5.582280
  0
LINE
  8
0
 62
     0
  6
CONTINUOUS
 10
2.150720
 20
5.582280
 11
2.150280
 21
5.589760
  0
LINE
  8
0
 62
     0
  6
CONTINUOUS
 10
2.150280
 20
5.589760
 11
2.150280
 21
5.619680
  0
LINE
  8
0
 62
     0
  6
CONTINUOUS
 10
2.150280
 20
5.619680
 11
2.150280
 21
5.626720
  0
LINE
  8
0
 62
     0
  6
CONTINUOUS
 10
2.150280
 20
5.626720
 11
2.150280
 21
5.596800
  0
LINE
  8
0
 62
     0
  6
CONTINUOUS
 10
2.150280
 20
5.596800
 11
2.150280
 21
5.604280
  0
LINE
  8
0
 62
     0
  6
CONTINUOUS
 10
2.150280
 20
5.604280
 11
2.150280
 21
5.634200
  0
LINE
  8
0
 62
     0
  6
CONTINUOUS
 10
2.150280
 20
5.634200
 11
2.149840
 21
5.641240
  0
LINE
  8
0
 62
     0
  6
CONTINUOUS
 10
2.149840
 20
5.641240
 11
2.149840
 21
5.611760
  0
LINE
  8
0
 62
     0
  6
CONTINUOUS
 10
2.149840
 20
5.611760
 11
2.149840
 21
5.618800
  0
LINE
  8
0
 62
     0
  6
CONTINUOUS
 10
2.149840
 20
5.618800
 11
2.149840
 21
5.648280
  0
LINE
  8
0
 62
     0
  6
CONTINUOUS
 10
2.149840
 20
5.648280
 11
2.149840
 21
5.655320
  0
LINE
  8
0
 62
     0
  6
CONTINUOUS
 10
2.149840
 20
5.655320
 11
2.149840
 21
5.626280
  0
LINE
  8
0
 62
     0
  6
CONTINUOUS
 10
2.149840
 20
5.626280
 11
2.149400
 21
5.633320
  0
LINE
  8
0
 62
     0
  6
CONTINUOUS
 10
2.149400
 20
5.633320
 11
2.149400
 21
5.655320
  0
LINE
  8
0
 62
     0
  6
CONTINUOUS
 10
2.149400
 20
5.655320
 11
2.149400
 21
5.640800
  0
LINE
  8
0
 62
     0
  6
CONTINUOUS
 10
2.149400
 20
5.640800
 11
2.149400
 21
5.648280
  0
LINE
  8
0
 62
     0
  6
CONTINUOUS
 10
2.149400
 20
5.648280
 11
2.149400
 21
5.655320
  0
LINE
  8
0
 62
     0
  6
CONTINUOUS
 10
2.149400
 20
5.655320
 11
2.170960
 21
5.655320
  0
LINE
  8
0
 62
     0
  6
CONTINUOUS
 10
2.170960
 20
5.655320
 11
2.149400
 21
5.655320
  0
LINE
  8
0
 62
     0
  6
CONTINUOUS
 10
2.149400
 20
5.655320
 11
2.149400
 21
5.655760
  0
LINE
  8
0
 62
     0
  6
CONTINUOUS
 10
2.149400
 20
5.655760
 11
2.170960
 21
5.655760
  0
LINE
  8
0
 62
     0
  6
CONTINUOUS
 10
2.170960
 20
5.655760
 11
2.170960
 21
5.655320
  0
LINE
  8
0
 62
     0
  6
CONTINUOUS
 10
2.170960
 20
5.655320
 11
2.170960
 21
5.655760
  0
LINE
  8
0
 62
     0
  6
CONTINUOUS
 10
2.170960
 20
5.655760
 11
2.201760
 21
5.655760
  0
LINE
  8
0
 62
     0
  6
CONTINUOUS
 10
2.201760
 20
5.655760
 11
2.201760
 21
5.655320
  0
LINE
  8
0
 62
     0
  6
CONTINUOUS
 10
2.201760
 20
5.655320
 11
2.170960
 21
5.655320
  0
LINE
  8
0
 62
     0
  6
CONTINUOUS
 10
2.170960
 20
5.655320
 11
2.149400
 21
5.655320
  0
LINE
  8
0
 62
     0
  6
CONTINUOUS
 10
2.149400
 20
5.655320
 11
2.170960
 21
5.655320
  0
LINE
  8
0
 62
     0
  6
CONTINUOUS
 10
2.170960
 20
5.655320
 11
2.201760
 21
5.655320
  0
LINE
  8
0
 62
     0
  6
CONTINUOUS
 10
2.201760
 20
5.655320
 11
2.170960
 21
5.655320
  0
LINE
  8
0
 62
     0
  6
CONTINUOUS
 10
2.170960
 20
5.655320
 11
2.170960
 21
5.655760
  0
LINE
  8
0
 62
     0
  6
CONTINUOUS
 10
2.170960
 20
5.655760
 11
2.201760
 21
5.655760
  0
LINE
  8
0
 62
     0
  6
CONTINUOUS
 10
2.201760
 20
5.655760
 11
2.201760
 21
5.655320
  0
LINE
  8
0
 62
     0
  6
CONTINUOUS
 10
2.201760
 20
5.655320
 11
2.170960
 21
5.655320
  0
LINE
  8
0
 62
     0
  6
CONTINUOUS
 10
2.170960
 20
5.655320
 11
2.170960
 21
5.655760
  0
LINE
  8
0
 62
     0
  6
CONTINUOUS
 10
2.170960
 20
5.655760
 11
2.149400
 21
5.655760
  0
LINE
  8
0
 62
     0
  6
CONTINUOUS
 10
2.149400
 20
5.655760
 11
2.170960
 21
5.655760
  0
LINE
  8
0
 62
     0
  6
CONTINUOUS
 10
2.170960
 20
5.655760
 11
2.201760
 21
5.655760
  0
LINE
  8
0
 62
     0
  6
CONTINUOUS
 10
2.202200
 20
5.655320
 11
2.202200
 21
5.648280
  0
LINE
  8
0
 62
     0
  6
CONTINUOUS
 10
2.061400
 20
5.834840
 11
2.061400
 21
5.834400
  0
LINE
  8
0
 62
     0
  6
CONTINUOUS
 10
2.061400
 20
5.834400
 11
2.277440
 21
5.834400
  0
LINE
  8
0
 62
     0
  6
CONTINUOUS
 10
2.277440
 20
5.834400
 11
2.061400
 21
5.834400
  0
LINE
  8
0
 62
     0
  6
CONTINUOUS
 10
2.061400
 20
5.834400
 11
2.277440
 21
5.834400
  0
LINE
  8
0
 62
     0
  6
CONTINUOUS
 10
2.277440
 20
5.834400
 11
2.277440
 21
5.833960
  0
LINE
  8
0
 62
     0
  6
CONTINUOUS
 10
2.277440
 20
5.833960
 11
2.061400
 21
5.833960
  0
LINE
  8
0
 62
     0
  6
CONTINUOUS
 10
2.061400
 20
5.833960
 11
2.061400
 21
5.834840
  0
LINE
  8
0
 62
     0
  6
CONTINUOUS
 10
2.061400
 20
5.834840
 11
2.277440
 21
5.834840
  0
LINE
  8
0
 62
     0
  6
CONTINUOUS
 10
2.277440
 20
5.834840
 11
2.277440
 21
5.833960
  0
LINE
  8
0
 62
     0
  6
CONTINUOUS
 10
2.277440
 20
5.833960
 11
2.061400
 21
5.833960
  0
LINE
  8
0
 62
     0
  6
CONTINUOUS
 10
2.061400
 20
5.834840
 11
2.277440
 21
5.834840
  0
LINE
  8
0
 62
     0
  6
CONTINUOUS
 10
2.197360
 20
5.834400
 11
2.197360
 21
5.862120
  0
LINE
  8
0
 62
     0
  6
CONTINUOUS
 10
2.197360
 20
5.862120
 11
2.197360
 21
5.834400
  0
LINE
  8
0
 62
     0
  6
CONTINUOUS
 10
2.197360
 20
5.834400
 11
2.196920
 21
5.834400
  0
LINE
  8
0
 62
     0
  6
CONTINUOUS
 10
2.196920
 20
5.834400
 11
2.196920
 21
5.862120
  0
LINE
  8
0
 62
     0
  6
CONTINUOUS
 10
2.196920
 20
5.862120
 11
2.196920
 21
5.834400
  0
LINE
  8
0
 62
     0
  6
CONTINUOUS
 10
2.196920
 20
5.834400
 11
2.196920
 21
5.862120
  0
LINE
  8
0
 62
     0
  6
CONTINUOUS
 10
2.196920
 20
5.862120
 11
2.197360
 21
5.862120
  0
LINE
  8
0
 62
     0
  6
CONTINUOUS
 10
2.197360
 20
5.862120
 11
2.197360
 21
5.834400
  0
LINE
  8
0
 62
     0
  6
CONTINUOUS
 10
2.197360
 20
5.834400
 11
2.196920
 21
5.834400
  0
LINE
  8
0
 62
     0
  6
CONTINUOUS
 10
2.197360
 20
5.834400
 11
2.197360
 21
5.862120
  0
LINE
  8
0
 62
     0
  6
CONTINUOUS
 10
2.197360
 20
5.862120
 11
2.185040
 21
5.862120
  0
LINE
  8
0
 62
     0
  6
CONTINUOUS
 10
2.185040
 20
5.862120
 11
2.197360
 21
5.862120
  0
LINE
  8
0
 62
     0
  6
CONTINUOUS
 10
2.197360
 20
5.862120
 11
2.197360
 21
5.861680
  0
LINE
  8
0
 62
     0
  6
CONTINUOUS
 10
2.197360
 20
5.861680
 11
2.185040
 21
5.861680
  0
LINE
  8
0
 62
     0
  6
CONTINUOUS
 10
2.185040
 20
5.861680
 11
2.185040
 21
5.862560
  0
LINE
  8
0
 62
     0
  6
CONTINUOUS
 10
2.185040
 20
5.862560
 11
2.197360
 21
5.862560
  0
LINE
  8
0
 62
     0
  6
CONTINUOUS
 10
2.197360
 20
5.862560
 11
2.197360
 21
5.861680
  0
LINE
  8
0
 62
     0
  6
CONTINUOUS
 10
2.197360
 20
5.861680
 11
2.185040
 21
5.861680
  0
LINE
  8
0
 62
     0
  6
CONTINUOUS
 10
2.185040
 20
5.862120
 11
2.185040
 21
5.834400
  0
LINE
  8
0
 62
     0
  6
CONTINUOUS
 10
2.185040
 20
5.834400
 11
2.184600
 21
5.834400
  0
LINE
  8
0
 62
     0
  6
CONTINUOUS
 10
2.184600
 20
5.834400
 11
2.184600
 21
5.862120
  0
LINE
  8
0
 62
     0
  6
CONTINUOUS
 10
2.184600
 20
5.862120
 11
2.184600
 21
5.834400
  0
LINE
  8
0
 62
     0
  6
CONTINUOUS
 10
2.184600
 20
5.834400
 11
2.184600
 21
5.862120
  0
LINE
  8
0
 62
     0
  6
CONTINUOUS
 10
2.184600
 20
5.862120
 11
2.185040
 21
5.862120
  0
LINE
  8
0
 62
     0
  6
CONTINUOUS
 10
2.185040
 20
5.862120
 11
2.185040
 21
5.834400
  0
LINE
  8
0
 62
     0
  6
CONTINUOUS
 10
2.185040
 20
5.834400
 11
2.185040
 21
5.862120
  0
LINE
  8
0
 62
     0
  6
CONTINUOUS
 10
2.185040
 20
5.862120
 11
2.197360
 21
5.862120
  0
LINE
  8
0
 62
     0
  6
CONTINUOUS
 10
2.197360
 20
5.862120
 11
2.196920
 21
5.862120
  0
LINE
  8
0
 62
     0
  6
CONTINUOUS
 10
2.196920
 20
5.861680
 11
2.193840
 21
5.864760
  0
LINE
  8
0
 62
     0
  6
CONTINUOUS
 10
2.193840
 20
5.864760
 11
2.194280
 21
5.865200
  0
LINE
  8
0
 62
     0
  6
CONTINUOUS
 10
2.194280
 20
5.865200
 11
2.197360
 21
5.862120
  0
LINE
  8
0
 62
     0
  6
CONTINUOUS
 10
2.197360
 20
5.862120
 11
2.196920
 21
5.861680
  0
LINE
  8
0
 62
     0
  6
CONTINUOUS
 10
2.197360
 20
5.862120
 11
2.196920
 21
5.862120
  0
LINE
  8
0
 62
     0
  6
CONTINUOUS
 10
2.196920
 20
5.862120
 11
2.196480
 21
5.862120
  0
LINE
  8
0
 62
     0
  6
CONTINUOUS
 10
2.196480
 20
5.862120
 11
2.197360
 21
5.862120
  0
LINE
  8
0
 62
     0
  6
CONTINUOUS
 10
2.197360
 20
5.862560
 11
2.196480
 21
5.862560
  0
LINE
  8
0
 62
     0
  6
CONTINUOUS
 10
2.196480
 20
5.862560
 11
2.197360
 21
5.862560
  0
LINE
  8
0
 62
     0
  6
CONTINUOUS
 10
2.197360
 20
5.862560
 11
2.196920
 21
5.862560
  0
LINE
  8
0
 62
     0
  6
CONTINUOUS
 10
2.196920
 20
5.862560
 11
2.196040
 21
5.862560
  0
LINE
  8
0
 62
     0
  6
CONTINUOUS
 10
2.196040
 20
5.862560
 11
2.196040
 21
5.863000
  0
LINE
  8
0
 62
     0
  6
CONTINUOUS
 10
2.196040
 20
5.863000
 11
2.196920
 21
5.863000
  0
LINE
  8
0
 62
     0
  6
CONTINUOUS
 10
2.196920
 20
5.863000
 11
2.196040
 21
5.863000
  0
LINE
  8
0
 62
     0
  6
CONTINUOUS
 10
2.196040
 20
5.863000
 11
2.195600
 21
5.863000
  0
LINE
  8
0
 62
     0
  6
CONTINUOUS
 10
2.195600
 20
5.863000
 11
2.196480
 21
5.863000
  0
LINE
  8
0
 62
     0
  6
CONTINUOUS
 10
2.196480
 20
5.863000
 11
2.196480
 21
5.863440
  0
LINE
  8
0
 62
     0
  6
CONTINUOUS
 10
2.196480
 20
5.863440
 11
2.195600
 21
5.863440
  0
LINE
  8
0
 62
     0
  6
CONTINUOUS
 10
2.195600
 20
5.863440
 11
2.196480
 21
5.863440
  0
LINE
  8
0
 62
     0
  6
CONTINUOUS
 10
2.196480
 20
5.863440
 11
2.196040
 21
5.863440
  0
LINE
  8
0
 62
     0
  6
CONTINUOUS
 10
2.196040
 20
5.863440
 11
2.195160
 21
5.863440
  0
LINE
  8
0
 62
     0
  6
CONTINUOUS
 10
2.195160
 20
5.863440
 11
2.196040
 21
5.863440
  0
LINE
  8
0
 62
     0
  6
CONTINUOUS
 10
2.196040
 20
5.863440
 11
2.196040
 21
5.863880
  0
LINE
  8
0
 62
     0
  6
CONTINUOUS
 10
2.196040
 20
5.863880
 11
2.195160
 21
5.863880
  0
LINE
  8
0
 62
     0
  6
CONTINUOUS
 10
2.195160
 20
5.863880
 11
2.194720
 21
5.863880
  0
LINE
  8
0
 62
     0
  6
CONTINUOUS
 10
2.194720
 20
5.863880
 11
2.195600
 21
5.863880
  0
LINE
  8
0
 62
     0
  6
CONTINUOUS
 10
2.195600
 20
5.863880
 11
2.194720
 21
5.863880
  0
LINE
  8
0
 62
     0
  6
CONTINUOUS
 10
2.194720
 20
5.863880
 11
2.194720
 21
5.864320
  0
LINE
  8
0
 62
     0
  6
CONTINUOUS
 10
2.194720
 20
5.864320
 11
2.195600
 21
5.864320
  0
LINE
  8
0
 62
     0
  6
CONTINUOUS
 10
2.195600
 20
5.864320
 11
2.195160
 21
5.864320
  0
LINE
  8
0
 62
     0
  6
CONTINUOUS
 10
2.195160
 20
5.864320
 11
2.194720
 21
5.864320
  0
LINE
  8
0
 62
     0
  6
CONTINUOUS
 10
2.194720
 20
5.864320
 11
2.194280
 21
5.864320
  0
LINE
  8
0
 62
     0
  6
CONTINUOUS
 10
2.194280
 20
5.864320
 11
2.195160
 21
5.864320
  0
LINE
  8
0
 62
     0
  6
CONTINUOUS
 10
2.195160
 20
5.864320
 11
2.195160
 21
5.864760
  0
LINE
  8
0
 62
     0
  6
CONTINUOUS
 10
2.195160
 20
5.864760
 11
2.194280
 21
5.864760
  0
LINE
  8
0
 62
     0
  6
CONTINUOUS
 10
2.194280
 20
5.864760
 11
2.194720
 21
5.864760
  0
LINE
  8
0
 62
     0
  6
CONTINUOUS
 10
2.194720
 20
5.864760
 11
2.193840
 21
5.864760
  0
LINE
  8
0
 62
     0
  6
CONTINUOUS
 10
2.193840
 20
5.864760
 11
2.194280
 21
5.865200
  0
LINE
  8
0
 62
     0
  6
CONTINUOUS
 10
2.194280
 20
5.865200
 11
2.194720
 21
5.865200
  0
LINE
  8
0
 62
     0
  6
CONTINUOUS
 10
2.194720
 20
5.865200
 11
2.194280
 21
5.865200
  0
LINE
  8
0
 62
     0
  6
CONTINUOUS
 10
2.194280
 20
5.865200
 11
2.188120
 21
5.865200
  0
LINE
  8
0
 62
     0
  6
CONTINUOUS
 10
2.188120
 20
5.865200
 11
2.194280
 21
5.865200
  0
LINE
  8
0
 62
     0
  6
CONTINUOUS
 10
2.194280
 20
5.865200
 11
2.194280
 21
5.864760
  0
LINE
  8
0
 62
     0
  6
CONTINUOUS
 10
2.194280
 20
5.864760
 11
2.188120
 21
5.864760
  0
LINE
  8
0
 62
     0
  6
CONTINUOUS
 10
2.188120
 20
5.864760
 11
2.188120
 21
5.865640
  0
LINE
  8
0
 62
     0
  6
CONTINUOUS
 10
2.188120
 20
5.865640
 11
2.188120
 21
5.865200
  0
LINE
  8
0
 62
     0
  6
CONTINUOUS
 10
2.188120
 20
5.865200
 11
2.194280
 21
5.865200
  0
LINE
  8
0
 62
     0
  6
CONTINUOUS
 10
2.194280
 20
5.865640
 11
2.194280
 21
5.864760
  0
LINE
  8
0
 62
     0
  6
CONTINUOUS
 10
2.194280
 20
5.864760
 11
2.188120
 21
5.864760
  0
LINE
  8
0
 62
     0
  6
CONTINUOUS
 10
2.188120
 20
5.864760
 11
2.187240
 21
5.864760
  0
LINE
  8
0
 62
     0
  6
CONTINUOUS
 10
2.187240
 20
5.864760
 11
2.188120
 21
5.864760
  0
LINE
  8
0
 62
     0
  6
CONTINUOUS
 10
2.188120
 20
5.864760
 11
2.187680
 21
5.864320
  0
LINE
  8
0
 62
     0
  6
CONTINUOUS
 10
2.187680
 20
5.864320
 11
2.186800
 21
5.864320
  0
LINE
  8
0
 62
     0
  6
CONTINUOUS
 10
2.186800
 20
5.864320
 11
2.187680
 21
5.864320
  0
LINE
  8
0
 62
     0
  6
CONTINUOUS
 10
2.187680
 20
5.864320
 11
2.186800
 21
5.864320
  0
LINE
  8
0
 62
     0
  6
CONTINUOUS
 10
2.186800
 20
5.864320
 11
2.186360
 21
5.863880
  0
LINE
  8
0
 62
     0
  6
CONTINUOUS
 10
2.186360
 20
5.863880
 11
2.187240
 21
5.863880
  0
LINE
  8
0
 62
     0
  6
CONTINUOUS
 10
2.187240
 20
5.863880
 11
2.186360
 21
5.863880
  0
LINE
  8
0
 62
     0
  6
CONTINUOUS
 10
2.186360
 20
5.863880
 11
2.187240
 21
5.863880
  0
LINE
  8
0
 62
     0
  6
CONTINUOUS
 10
2.187240
 20
5.863880
 11
2.186800
 21
5.863440
  0
LINE
  8
0
 62
     0
  6
CONTINUOUS
 10
2.186800
 20
5.863440
 11
2.185920
 21
5.863440
  0
LINE
  8
0
 62
     0
  6
CONTINUOUS
 10
2.185920
 20
5.863440
 11
2.186800
 21
5.863440
  0
LINE
  8
0
 62
     0
  6
CONTINUOUS
 10
2.186800
 20
5.863440
 11
2.185920
 21
5.863440
  0
LINE
  8
0
 62
     0
  6
CONTINUOUS
 10
2.185920
 20
5.863440
 11
2.185480
 21
5.863440
  0
LINE
  8
0
 62
     0
  6
CONTINUOUS
 10
2.185480
 20
5.863440
 11
2.186360
 21
5.863440
  0
LINE
  8
0
 62
     0
  6
CONTINUOUS
 10
2.186360
 20
5.863440
 11
2.186360
 21
5.863000
  0
LINE
  8
0
 62
     0
  6
CONTINUOUS
 10
2.186360
 20
5.863000
 11
2.185480
 21
5.863000
  0
LINE
  8
0
 62
     0
  6
CONTINUOUS
 10
2.185480
 20
5.863000
 11
2.186360
 21
5.863000
  0
LINE
  8
0
 62
     0
  6
CONTINUOUS
 10
2.186360
 20
5.863000
 11
2.185920
 21
5.863000
  0
LINE
  8
0
 62
     0
  6
CONTINUOUS
 10
2.185920
 20
5.863000
 11
2.185040
 21
5.863000
  0
LINE
  8
0
 62
     0
  6
CONTINUOUS
 10
2.185040
 20
5.863000
 11
2.185040
 21
5.862560
  0
LINE
  8
0
 62
     0
  6
CONTINUOUS
 10
2.185040
 20
5.862560
 11
2.185920
 21
5.862560
  0
LINE
  8
0
 62
     0
  6
CONTINUOUS
 10
2.185920
 20
5.862560
 11
2.185040
 21
5.862560
  0
LINE
  8
0
 62
     0
  6
CONTINUOUS
 10
2.185040
 20
5.862560
 11
2.184600
 21
5.862560
  0
LINE
  8
0
 62
     0
  6
CONTINUOUS
 10
2.184600
 20
5.862560
 11
2.185920
 21
5.862560
  0
LINE
  8
0
 62
     0
  6
CONTINUOUS
 10
2.185920
 20
5.862560
 11
2.185480
 21
5.862120
  0
LINE
  8
0
 62
     0
  6
CONTINUOUS
 10
2.185480
 20
5.862120
 11
2.184600
 21
5.862120
  0
LINE
  8
0
 62
     0
  6
CONTINUOUS
 10
2.184600
 20
5.862120
 11
2.185040
 21
5.862120
  0
LINE
  8
0
 62
     0
  6
CONTINUOUS
 10
2.185040
 20
5.862120
 11
2.185480
 21
5.862120
  0
LINE
  8
0
 62
     0
  6
CONTINUOUS
 10
2.185480
 20
5.862120
 11
2.185040
 21
5.862120
  0
LINE
  8
0
 62
     0
  6
CONTINUOUS
 10
2.185040
 20
5.861680
 11
2.184600
 21
5.862120
  0
LINE
  8
0
 62
     0
  6
CONTINUOUS
 10
2.184600
 20
5.862120
 11
2.187680
 21
5.865200
  0
LINE
  8
0
 62
     0
  6
CONTINUOUS
 10
2.187680
 20
5.865200
 11
2.188120
 21
5.864760
  0
LINE
  8
0
 62
     0
  6
CONTINUOUS
 10
2.188120
 20
5.864760
 11
2.185040
 21
5.861680
  0
LINE
  8
0
 62
     0
  6
CONTINUOUS
 10
2.185040
 20
5.862120
 11
2.185040
 21
5.834400
  0
LINE
  8
0
 62
     0
  6
CONTINUOUS
 10
2.185040
 20
5.834400
 11
2.184600
 21
5.834400
  0
LINE
  8
0
 62
     0
  6
CONTINUOUS
 10
2.166560
 20
5.834400
 11
2.166560
 21
5.862120
  0
LINE
  8
0
 62
     0
  6
CONTINUOUS
 10
2.166560
 20
5.862120
 11
2.166560
 21
5.834400
  0
LINE
  8
0
 62
     0
  6
CONTINUOUS
 10
2.166560
 20
5.834400
 11
2.166120
 21
5.834400
  0
LINE
  8
0
 62
     0
  6
CONTINUOUS
 10
2.166120
 20
5.834400
 11
2.166120
 21
5.862120
  0
LINE
  8
0
 62
     0
  6
CONTINUOUS
 10
2.166120
 20
5.862120
 11
2.166120
 21
5.834400
  0
LINE
  8
0
 62
     0
  6
CONTINUOUS
 10
2.166120
 20
5.834400
 11
2.166120
 21
5.862120
  0
LINE
  8
0
 62
     0
  6
CONTINUOUS
 10
2.166120
 20
5.862120
 11
2.166560
 21
5.862120
  0
LINE
  8
0
 62
     0
  6
CONTINUOUS
 10
2.166560
 20
5.862120
 11
2.166560
 21
5.834400
  0
LINE
  8
0
 62
     0
  6
CONTINUOUS
 10
2.166560
 20
5.834400
 11
2.166120
 21
5.834400
  0
LINE
  8
0
 62
     0
  6
CONTINUOUS
 10
2.166560
 20
5.834400
 11
2.166560
 21
5.862120
  0
LINE
  8
0
 62
     0
  6
CONTINUOUS
 10
2.166560
 20
5.862120
 11
2.165680
 21
5.862120
  0
LINE
  8
0
 62
     0
  6
CONTINUOUS
 10
2.165680
 20
5.862120
 11
2.166120
 21
5.862120
  0
LINE
  8
0
 62
     0
  6
CONTINUOUS
 10
2.166120
 20
5.862120
 11
2.166560
 21
5.862120
  0
LINE
  8
0
 62
     0
  6
CONTINUOUS
 10
2.166560
 20
5.862120
 11
2.166120
 21
5.862120
  0
LINE
  8
0
 62
     0
  6
CONTINUOUS
 10
2.166120
 20
5.861680
 11
2.163040
 21
5.864760
  0
LINE
  8
0
 62
     0
  6
CONTINUOUS
 10
2.163040
 20
5.864760
 11
2.163480
 21
5.865200
  0
LINE
  8
0
 62
     0
  6
CONTINUOUS
 10
2.163480
 20
5.865200
 11
2.166560
 21
5.862120
  0
LINE
  8
0
 62
     0
  6
CONTINUOUS
 10
2.166560
 20
5.862120
 11
2.166120
 21
5.861680
  0
LINE
  8
0
 62
     0
  6
CONTINUOUS
 10
2.166120
 20
5.862560
 11
2.166560
 21
5.862560
  0
LINE
  8
0
 62
     0
  6
CONTINUOUS
 10
2.166560
 20
5.862560
 11
2.165680
 21
5.862560
  0
LINE
  8
0
 62
     0
  6
CONTINUOUS
 10
2.165680
 20
5.862560
 11
2.166560
 21
5.862560
  0
LINE
  8
0
 62
     0
  6
CONTINUOUS
 10
2.166120
 20
5.862560
 11
2.165240
 21
5.862560
  0
LINE
  8
0
 62
     0
  6
CONTINUOUS
 10
2.165240
 20
5.862560
 11
2.165240
 21
5.863000
  0
LINE
  8
0
 62
     0
  6
CONTINUOUS
 10
2.165240
 20
5.863000
 11
2.166120
 21
5.863000
  0
LINE
  8
0
 62
     0
  6
CONTINUOUS
 10
2.166120
 20
5.863000
 11
2.165240
 21
5.863000
  0
LINE
  8
0
 62
     0
  6
CONTINUOUS
 10
2.165240
 20
5.863000
 11
2.164800
 21
5.863000
  0
LINE
  8
0
 62
     0
  6
CONTINUOUS
 10
2.164800
 20
5.863000
 11
2.165680
 21
5.863000
  0
LINE
  8
0
 62
     0
  6
CONTINUOUS
 10
2.165680
 20
5.863000
 11
2.165680
 21
5.863440
  0
LINE
  8
0
 62
     0
  6
CONTINUOUS
 10
2.165680
 20
5.863440
 11
2.164800
 21
5.863440
  0
LINE
  8
0
 62
     0
  6
CONTINUOUS
 10
2.164800
 20
5.863440
 11
2.165680
 21
5.863440
  0
LINE
  8
0
 62
     0
  6
CONTINUOUS
 10
2.165680
 20
5.863440
 11
2.165240
 21
5.863440
  0
LINE
  8
0
 62
     0
  6
CONTINUOUS
 10
2.165240
 20
5.863440
 11
2.164360
 21
5.863440
  0
LINE
  8
0
 62
     0
  6
CONTINUOUS
 10
2.164360
 20
5.863440
 11
2.165240
 21
5.863440
  0
LINE
  8
0
 62
     0
  6
CONTINUOUS
 10
2.165240
 20
5.863440
 11
2.165240
 21
5.863880
  0
LINE
  8
0
 62
     0
  6
CONTINUOUS
 10
2.165240
 20
5.863880
 11
2.164360
 21
5.863880
  0
LINE
  8
0
 62
     0
  6
CONTINUOUS
 10
2.164360
 20
5.863880
 11
2.163920
 21
5.863880
  0
LINE
  8
0
 62
     0
  6
CONTINUOUS
 10
2.163920
 20
5.863880
 11
2.164800
 21
5.863880
  0
LINE
  8
0
 62
     0
  6
CONTINUOUS
 10
2.164800
 20
5.863880
 11
2.163920
 21
5.863880
  0
LINE
  8
0
 62
     0
  6
CONTINUOUS
 10
2.163920
 20
5.863880
 11
2.163920
 21
5.864320
  0
LINE
  8
0
 62
     0
  6
CONTINUOUS
 10
2.163920
 20
5.864320
 11
2.164800
 21
5.864320
  0
LINE
  8
0
 62
     0
  6
CONTINUOUS
 10
2.164800
 20
5.864320
 11
2.164360
 21
5.864320
  0
LINE
  8
0
 62
     0
  6
CONTINUOUS
 10
2.164360
 20
5.864320
 11
2.163480
 21
5.864320
  0
LINE
  8
0
 62
     0
  6
CONTINUOUS
 10
2.163480
 20
5.864320
 11
2.164360
 21
5.864320
  0
LINE
  8
0
 62
     0
  6
CONTINUOUS
 10
2.164360
 20
5.864320
 11
2.164360
 21
5.864760
  0
LINE
  8
0
 62
     0
  6
CONTINUOUS
 10
2.164360
 20
5.864760
 11
2.163480
 21
5.864760
  0
LINE
  8
0
 62
     0
  6
CONTINUOUS
 10
2.163480
 20
5.864760
 11
2.163040
 21
5.864760
  0
LINE
  8
0
 62
     0
  6
CONTINUOUS
 10
2.163040
 20
5.864760
 11
2.163920
 21
5.864760
  0
LINE
  8
0
 62
     0
  6
CONTINUOUS
 10
2.163920
 20
5.864760
 11
2.163040
 21
5.864760
  0
LINE
  8
0
 62
     0
  6
CONTINUOUS
 10
2.163040
 20
5.864760
 11
2.163040
 21
5.865200
  0
LINE
  8
0
 62
     0
  6
CONTINUOUS
 10
2.163040
 20
5.865200
 11
2.163920
 21
5.865200
  0
LINE
  8
0
 62
     0
  6
CONTINUOUS
 10
2.163920
 20
5.865200
 11
2.163480
 21
5.865200
  0
LINE
  8
0
 62
     0
  6
CONTINUOUS
 10
2.163480
 20
5.865200
 11
2.157320
 21
5.865200
  0
LINE
  8
0
 62
     0
  6
CONTINUOUS
 10
2.157320
 20
5.865200
 11
2.163480
 21
5.865200
  0
LINE
  8
0
 62
     0
  6
CONTINUOUS
 10
2.163480
 20
5.865200
 11
2.163480
 21
5.864760
  0
LINE
  8
0
 62
     0
  6
CONTINUOUS
 10
2.163480
 20
5.864760
 11
2.157320
 21
5.864760
  0
LINE
  8
0
 62
     0
  6
CONTINUOUS
 10
2.157320
 20
5.864760
 11
2.157320
 21
5.865640
  0
LINE
  8
0
 62
     0
  6
CONTINUOUS
 10
2.157320
 20
5.865640
 11
2.157320
 21
5.865200
  0
LINE
  8
0
 62
     0
  6
CONTINUOUS
 10
2.157320
 20
5.865200
 11
2.163480
 21
5.865200
  0
LINE
  8
0
 62
     0
  6
CONTINUOUS
 10
2.163480
 20
5.865640
 11
2.163480
 21
5.864760
  0
LINE
  8
0
 62
     0
  6
CONTINUOUS
 10
2.163480
 20
5.864760
 11
2.157320
 21
5.864760
  0
LINE
  8
0
 62
     0
  6
CONTINUOUS
 10
2.157320
 20
5.864760
 11
2.156440
 21
5.864760
  0
LINE
  8
0
 62
     0
  6
CONTINUOUS
 10
2.156440
 20
5.864760
 11
2.156000
 21
5.864760
  0
LINE
  8
0
 62
     0
  6
CONTINUOUS
 10
2.156000
 20
5.864760
 11
2.157320
 21
5.864760
  0
LINE
  8
0
 62
     0
  6
CONTINUOUS
 10
2.157320
 20
5.864760
 11
2.156880
 21
5.864320
  0
LINE
  8
0
 62
     0
  6
CONTINUOUS
 10
2.156880
 20
5.864320
 11
2.156000
 21
5.864320
  0
LINE
  8
0
 62
     0
  6
CONTINUOUS
 10
2.156000
 20
5.864320
 11
2.156880
 21
5.864320
  0
LINE
  8
0
 62
     0
  6
CONTINUOUS
 10
2.156880
 20
5.864320
 11
2.156000
 21
5.864320
  0
LINE
  8
0
 62
     0
  6
CONTINUOUS
 10
2.156000
 20
5.864320
 11
2.155560
 21
5.863880
  0
LINE
  8
0
 62
     0
  6
CONTINUOUS
 10
2.155560
 20
5.863880
 11
2.156440
 21
5.863880
  0
LINE
  8
0
 62
     0
  6
CONTINUOUS
 10
2.156440
 20
5.863880
 11
2.155560
 21
5.863880
  0
LINE
  8
0
 62
     0
  6
CONTINUOUS
 10
2.155560
 20
5.863880
 11
2.156440
 21
5.863880
  0
LINE
  8
0
 62
     0
  6
CONTINUOUS
 10
2.156440
 20
5.863880
 11
2.156000
 21
5.863440
  0
LINE
  8
0
 62
     0
  6
CONTINUOUS
 10
2.156000
 20
5.863440
 11
2.155120
 21
5.863440
  0
LINE
  8
0
 62
     0
  6
CONTINUOUS
 10
2.155120
 20
5.863440
 11
2.156000
 21
5.863440
  0
LINE
  8
0
 62
     0
  6
CONTINUOUS
 10
2.156000
 20
5.863440
 11
2.155120
 21
5.863440
  0
LINE
  8
0
 62
     0
  6
CONTINUOUS
 10
2.155120
 20
5.863440
 11
2.154680
 21
5.863440
  0
LINE
  8
0
 62
     0
  6
CONTINUOUS
 10
2.154680
 20
5.863440
 11
2.155560
 21
5.863440
  0
LINE
  8
0
 62
     0
  6
CONTINUOUS
 10
2.155560
 20
5.863440
 11
2.155560
 21
5.863000
  0
LINE
  8
0
 62
     0
  6
CONTINUOUS
 10
2.155560
 20
5.863000
 11
2.154680
 21
5.863000
  0
LINE
  8
0
 62
     0
  6
CONTINUOUS
 10
2.154680
 20
5.863000
 11
2.155560
 21
5.863000
  0
LINE
  8
0
 62
     0
  6
CONTINUOUS
 10
2.155560
 20
5.863000
 11
2.155120
 21
5.863000
  0
LINE
  8
0
 62
     0
  6
CONTINUOUS
 10
2.155120
 20
5.863000
 11
2.154240
 21
5.863000
  0
LINE
  8
0
 62
     0
  6
CONTINUOUS
 10
2.154240
 20
5.863000
 11
2.154240
 21
5.862560
  0
LINE
  8
0
 62
     0
  6
CONTINUOUS
 10
2.154240
 20
5.862560
 11
2.155120
 21
5.862560
  0
LINE
  8
0
 62
     0
  6
CONTINUOUS
 10
2.155120
 20
5.862560
 11
2.154240
 21
5.862560
  0
LINE
  8
0
 62
     0
  6
CONTINUOUS
 10
2.154240
 20
5.862560
 11
2.153800
 21
5.862560
  0
LINE
  8
0
 62
     0
  6
CONTINUOUS
 10
2.153800
 20
5.862560
 11
2.154680
 21
5.862560
  0
LINE
  8
0
 62
     0
  6
CONTINUOUS
 10
2.154680
 20
5.862560
 11
2.154680
 21
5.862120
  0
LINE
  8
0
 62
     0
  6
CONTINUOUS
 10
2.154680
 20
5.862120
 11
2.153800
 21
5.862120
  0
LINE
  8
0
 62
     0
  6
CONTINUOUS
 10
2.153800
 20
5.862120
 11
2.154240
 21
5.862120
  0
LINE
  8
0
 62
     0
  6
CONTINUOUS
 10
2.154240
 20
5.862120
 11
2.154680
 21
5.862120
  0
LINE
  8
0
 62
     0
  6
CONTINUOUS
 10
2.154680
 20
5.862120
 11
2.154240
 21
5.862120
  0
LINE
  8
0
 62
     0
  6
CONTINUOUS
 10
2.154240
 20
5.862120
 11
2.154240
 21
5.834400
  0
LINE
  8
0
 62
     0
  6
CONTINUOUS
 10
2.154240
 20
5.834400
 11
2.153800
 21
5.834400
  0
LINE
  8
0
 62
     0
  6
CONTINUOUS
 10
2.153800
 20
5.834400
 11
2.153800
 21
5.862120
  0
LINE
  8
0
 62
     0
  6
CONTINUOUS
 10
2.153800
 20
5.862120
 11
2.153800
 21
5.834400
  0
LINE
  8
0
 62
     0
  6
CONTINUOUS
 10
2.153800
 20
5.834400
 11
2.153800
 21
5.862120
  0
LINE
  8
0
 62
     0
  6
CONTINUOUS
 10
2.153800
 20
5.862120
 11
2.154240
 21
5.862120
  0
LINE
  8
0
 62
     0
  6
CONTINUOUS
 10
2.154240
 20
5.862120
 11
2.154240
 21
5.834400
  0
LINE
  8
0
 62
     0
  6
CONTINUOUS
 10
2.154240
 20
5.834400
 11
2.154240
 21
5.862120
  0
LINE
  8
0
 62
     0
  6
CONTINUOUS
 10
2.154240
 20
5.862120
 11
2.154240
 21
5.834400
  0
LINE
  8
0
 62
     0
  6
CONTINUOUS
 10
2.154240
 20
5.834400
 11
2.153800
 21
5.834400
  0
LINE
  8
0
 62
     0
  6
CONTINUOUS
 10
2.154240
 20
5.861680
 11
2.153800
 21
5.862120
  0
LINE
  8
0
 62
     0
  6
CONTINUOUS
 10
2.153800
 20
5.862120
 11
2.156880
 21
5.865200
  0
LINE
  8
0
 62
     0
  6
CONTINUOUS
 10
2.156880
 20
5.865200
 11
2.157320
 21
5.864760
  0
LINE
  8
0
 62
     0
  6
CONTINUOUS
 10
2.157320
 20
5.864760
 11
2.154240
 21
5.861680
  0
LINE
  8
0
 62
     0
  6
CONTINUOUS
 10
2.156440
 20
5.864760
 11
2.157320
 21
5.864760
  0
LINE
  8
0
 62
     0
  6
CONTINUOUS
 10
2.157320
 20
5.865200
 11
2.156440
 21
5.865200
  0
LINE
  8
0
 62
     0
  6
CONTINUOUS
 10
2.156440
 20
5.865200
 11
2.156440
 21
5.864760
  0
LINE
  8
0
 62
     0
  6
CONTINUOUS
 10
2.156880
 20
5.865200
 11
2.157320
 21
5.865200
  0
LINE
  8
0
 62
     0
  6
CONTINUOUS
 10
2.157320
 20
5.865640
 11
2.163480
 21
5.865640
  0
LINE
  8
0
 62
     0
  6
CONTINUOUS
 10
2.163480
 20
5.865640
 11
2.157320
 21
5.865640
  0
LINE
  8
0
 62
     0
  6
CONTINUOUS
 10
2.187680
 20
5.865200
 11
2.188120
 21
5.865200
  0
LINE
  8
0
 62
     0
  6
CONTINUOUS
 10
2.188120
 20
5.865200
 11
2.187680
 21
5.865200
  0
LINE
  8
0
 62
     0
  6
CONTINUOUS
 10
2.187680
 20
5.865200
 11
2.187240
 21
5.864760
  0
LINE
  8
0
 62
     0
  6
CONTINUOUS
 10
2.187240
 20
5.864760
 11
2.188120
 21
5.864760
  0
LINE
  8
0
 62
     0
  6
CONTINUOUS
 10
2.188120
 20
5.865640
 11
2.194280
 21
5.865640
  0
LINE
  8
0
 62
     0
  6
CONTINUOUS
 10
2.194280
 20
5.865640
 11
2.188120
 21
5.865640
  0
LINE
  8
0
 62
     0
  6
CONTINUOUS
 10
2.185040
 20
5.862560
 11
2.185040
 21
5.862120
  0
LINE
  8
0
 62
     0
  6
CONTINUOUS
 10
2.185040
 20
5.862120
 11
2.185040
 21
5.862560
  0
LINE
  8
0
 62
     0
  6
CONTINUOUS
 10
2.185040
 20
5.862560
 11
2.197360
 21
5.862560
  0
LINE
  8
0
 62
     0
  6
CONTINUOUS
 10
2.277000
 20
5.834400
 11
2.277880
 21
5.834400
  0
LINE
  8
0
 62
     0
  6
CONTINUOUS
 10
2.277880
 20
5.834400
 11
2.277880
 21
5.825160
  0
LINE
  8
0
 62
     0
  6
CONTINUOUS
 10
2.277880
 20
5.825160
 11
2.277000
 21
5.825160
  0
LINE
  8
0
 62
     0
  6
CONTINUOUS
 10
2.277000
 20
5.825160
 11
2.277000
 21
5.834400
  0
LINE
  8
0
 62
     0
  6
CONTINUOUS
 10
2.277000
 20
5.834400
 11
2.277000
 21
5.825160
  0
LINE
  8
0
 62
     0
  6
CONTINUOUS
 10
2.277000
 20
5.825160
 11
2.277440
 21
5.825160
  0
LINE
  8
0
 62
     0
  6
CONTINUOUS
 10
2.277440
 20
5.825160
 11
2.277440
 21
5.834400
  0
LINE
  8
0
 62
     0
  6
CONTINUOUS
 10
2.277440
 20
5.834400
 11
2.277000
 21
5.834400
  0
LINE
  8
0
 62
     0
  6
CONTINUOUS
 10
2.277440
 20
5.834400
 11
2.277440
 21
5.825160
  0
LINE
  8
0
 62
     0
  6
CONTINUOUS
 10
2.277440
 20
5.825160
 11
2.061400
 21
5.825160
  0
LINE
  8
0
 62
     0
  6
CONTINUOUS
 10
2.061400
 20
5.825160
 11
2.061400
 21
5.824720
  0
LINE
  8
0
 62
     0
  6
CONTINUOUS
 10
2.061400
 20
5.824720
 11
2.277440
 21
5.824720
  0
LINE
  8
0
 62
     0
  6
CONTINUOUS
 10
2.277440
 20
5.824720
 11
2.061400
 21
5.824720
  0
LINE
  8
0
 62
     0
  6
CONTINUOUS
 10
2.061400
 20
5.824720
 11
2.061400
 21
5.825160
  0
LINE
  8
0
 62
     0
  6
CONTINUOUS
 10
2.061400
 20
5.825160
 11
2.277440
 21
5.825160
  0
LINE
  8
0
 62
     0
  6
CONTINUOUS
 10
2.277440
 20
5.825160
 11
2.277440
 21
5.834400
  0
LINE
  8
0
 62
     0
  6
CONTINUOUS
 10
2.277880
 20
5.834400
 11
2.277880
 21
5.825160
  0
LINE
  8
0
 62
     0
  6
CONTINUOUS
 10
2.277880
 20
5.825160
 11
2.277440
 21
5.825160
  0
LINE
  8
0
 62
     0
  6
CONTINUOUS
 10
2.277440
 20
5.825160
 11
2.061400
 21
5.825160
  0
LINE
  8
0
 62
     0
  6
CONTINUOUS
 10
2.061400
 20
5.825160
 11
2.277440
 21
5.825160
  0
LINE
  8
0
 62
     0
  6
CONTINUOUS
 10
2.277440
 20
5.825160
 11
2.277440
 21
5.824720
  0
LINE
  8
0
 62
     0
  6
CONTINUOUS
 10
2.277440
 20
5.824720
 11
2.061400
 21
5.824720
  0
LINE
  8
0
 62
     0
  6
CONTINUOUS
 10
2.061400
 20
5.825160
 11
2.061400
 21
5.834840
  0
LINE
  8
0
 62
     0
  6
CONTINUOUS
 10
2.061400
 20
5.834840
 11
2.061400
 21
5.825160
  0
LINE
  8
0
 62
     0
  6
CONTINUOUS
 10
2.061400
 20
5.825160
 11
2.061400
 21
5.834840
  0
LINE
  8
0
 62
     0
  6
CONTINUOUS
 10
2.061400
 20
5.834840
 11
2.061840
 21
5.834840
  0
LINE
  8
0
 62
     0
  6
CONTINUOUS
 10
2.061840
 20
5.834840
 11
2.061840
 21
5.825160
  0
LINE
  8
0
 62
     0
  6
CONTINUOUS
 10
2.061840
 20
5.825160
 11
2.061400
 21
5.825160
  0
LINE
  8
0
 62
     0
  6
CONTINUOUS
 10
2.061400
 20
5.825160
 11
2.061400
 21
5.834840
  0
LINE
  8
0
 62
     0
  6
CONTINUOUS
 10
2.061400
 20
5.834840
 11
2.061840
 21
5.834840
  0
LINE
  8
0
 62
     0
  6
CONTINUOUS
 10
2.061840
 20
5.834840
 11
2.061840
 21
5.825160
  0
LINE
  8
0
 62
     0
  6
CONTINUOUS
 10
2.061840
 20
5.825160
 11
2.061840
 21
5.834840
  0
POLYLINE
  8
0
 62
     0
  6
CONTINUOUS
 66
     1
 40
0.000000
 41
0.000000
  0
VERTEX
  8
0
 62
     0
  6
CONTINUOUS
 10
2.120360
 20
5.899080
  0
VERTEX
  8
0
 62
     0
  6
CONTINUOUS
 10
2.120800
 20
5.901280
  0
VERTEX
  8
0
 62
     0
  6
CONTINUOUS
 10
2.122120
 20
5.908320
  0
VERTEX
  8
0
 62
     0
  6
CONTINUOUS
 10
2.124320
 20
5.918000
  0
VERTEX
  8
0
 62
     0
  6
CONTINUOUS
 10
2.126520
 20
5.929000
  0
VERTEX
  8
0
 62
     0
  6
CONTINUOUS
 10
2.128720
 20
5.939560
  0
VERTEX
  8
0
 62
     0
  6
CONTINUOUS
 10
2.130920
 20
5.949240
  0
VERTEX
  8
0
 62
     0
  6
CONTINUOUS
 10
2.132240
 20
5.956280
  0
VERTEX
  8
0
 62
     0
  6
CONTINUOUS
 10
2.133120
 20
5.958920
  0
SEQEND
  8
0
  0
POLYLINE
  8
0
 62
     0
  6
CONTINUOUS
 66
     1
 40
0.000000
 41
0.000000
  0
VERTEX
  8
0
 62
     0
  6
CONTINUOUS
 10
2.133120
 20
5.958920
  0
VERTEX
  8
0
 62
     0
  6
CONTINUOUS
 10
2.134000
 20
5.958920
  0
VERTEX
  8
0
 62
     0
  6
CONTINUOUS
 10
2.135320
 20
5.958920
  0
VERTEX
  8
0
 62
     0
  6
CONTINUOUS
 10
2.137080
 20
5.958920
  0
VERTEX
  8
0
 62
     0
  6
CONTINUOUS
 10
2.138400
 20
5.958920
  0
VERTEX
  8
0
 62
     0
  6
CONTINUOUS
 10
2.139720
 20
5.958920
  0
VERTEX
  8
0
 62
     0
  6
CONTINUOUS
 10
2.140600
 20
5.958920
  0
VERTEX
  8
0
 62
     0
  6
CONTINUOUS
 10
2.141040
 20
5.958920
  0
SEQEND
  8
0
  0
POLYLINE
  8
0
 62
     0
  6
CONTINUOUS
 66
     1
 40
0.000000
 41
0.000000
  0
VERTEX
  8
0
 62
     0
  6
CONTINUOUS
 10
2.141040
 20
5.958920
  0
VERTEX
  8
0
 62
     0
  6
CONTINUOUS
 10
2.140600
 20
5.957600
  0
VERTEX
  8
0
 62
     0
  6
CONTINUOUS
 10
2.140160
 20
5.954960
  0
VERTEX
  8
0
 62
     0
  6
CONTINUOUS
 10
2.139280
 20
5.950560
  0
VERTEX
  8
0
 62
     0
  6
CONTINUOUS
 10
2.138400
 20
5.946160
  0
VERTEX
  8
0
 62
     0
  6
CONTINUOUS
 10
2.137080
 20
5.941760
  0
VERTEX
  8
0
 62
     0
  6
CONTINUOUS
 10
2.136200
 20
5.937360
  0
VERTEX
  8
0
 62
     0
  6
CONTINUOUS
 10
2.135760
 20
5.934720
  0
VERTEX
  8
0
 62
     0
  6
CONTINUOUS
 10
2.135760
 20
5.933840
  0
SEQEND
  8
0
  0
POLYLINE
  8
0
 62
     0
  6
CONTINUOUS
 66
     1
 40
0.000000
 41
0.000000
  0
VERTEX
  8
0
 62
     0
  6
CONTINUOUS
 10
2.135760
 20
5.933840
  0
VERTEX
  8
0
 62
     0
  6
CONTINUOUS
 10
2.137080
 20
5.933840
  0
VERTEX
  8
0
 62
     0
  6
CONTINUOUS
 10
2.140600
 20
5.933840
  0
VERTEX
  8
0
 62
     0
  6
CONTINUOUS
 10
2.145440
 20
5.933840
  0
VERTEX
  8
0
 62
     0
  6
CONTINUOUS
 10
2.151160
 20
5.933840
  0
VERTEX
  8
0
 62
     0
  6
CONTINUOUS
 10
2.156880
 20
5.933840
  0
VERTEX
  8
0
 62
     0
  6
CONTINUOUS
 10
2.161720
 20
5.933840
  0
VERTEX
  8
0
 62
     0
  6
CONTINUOUS
 10
2.165240
 20
5.933840
  0
VERTEX
  8
0
 62
     0
  6
CONTINUOUS
 10
2.167000
 20
5.933840
  0
SEQEND
  8
0
  0
POLYLINE
  8
0
 62
     0
  6
CONTINUOUS
 66
     1
 40
0.000000
 41
0.000000
  0
VERTEX
  8
0
 62
     0
  6
CONTINUOUS
 10
2.167000
 20
5.933840
  0
VERTEX
  8
0
 62
     0
  6
CONTINUOUS
 10
2.167000
 20
5.934720
  0
VERTEX
  8
0
 62
     0
  6
CONTINUOUS
 10
2.167440
 20
5.937360
  0
VERTEX
  8
0
 62
     0
  6
CONTINUOUS
 10
2.168320
 20
5.941760
  0
VERTEX
  8
0
 62
     0
  6
CONTINUOUS
 10
2.169200
 20
5.946160
  0
VERTEX
  8
0
 62
     0
  6
CONTINUOUS
 10
2.170080
 20
5.950560
  0
VERTEX
  8
0
 62
     0
  6
CONTINUOUS
 10
2.170960
 20
5.954960
  0
VERTEX
  8
0
 62
     0
  6
CONTINUOUS
 10
2.171400
 20
5.957600
  0
VERTEX
  8
0
 62
     0
  6
CONTINUOUS
 10
2.171840
 20
5.958920
  0
SEQEND
  8
0
  0
POLYLINE
  8
0
 62
     0
  6
CONTINUOUS
 66
     1
 40
0.000000
 41
0.000000
  0
VERTEX
  8
0
 62
     0
  6
CONTINUOUS
 10
2.171840
 20
5.958920
  0
VERTEX
  8
0
 62
     0
  6
CONTINUOUS
 10
2.172720
 20
5.958920
  0
VERTEX
  8
0
 62
     0
  6
CONTINUOUS
 10
2.174040
 20
5.958920
  0
VERTEX
  8
0
 62
     0
  6
CONTINUOUS
 10
2.175800
 20
5.958920
  0
VERTEX
  8
0
 62
     0
  6
CONTINUOUS
 10
2.177120
 20
5.958920
  0
VERTEX
  8
0
 62
     0
  6
CONTINUOUS
 10
2.178440
 20
5.958920
  0
VERTEX
  8
0
 62
     0
  6
CONTINUOUS
 10
2.179320
 20
5.958920
  0
VERTEX
  8
0
 62
     0
  6
CONTINUOUS
 10
2.179760
 20
5.958920
  0
SEQEND
  8
0
  0
POLYLINE
  8
0
 62
     0
  6
CONTINUOUS
 66
     1
 40
0.000000
 41
0.000000
  0
VERTEX
  8
0
 62
     0
  6
CONTINUOUS
 10
2.179760
 20
5.958920
  0
VERTEX
  8
0
 62
     0
  6
CONTINUOUS
 10
2.178880
 20
5.956280
  0
VERTEX
  8
0
 62
     0
  6
CONTINUOUS
 10
2.177560
 20
5.949240
  0
VERTEX
  8
0
 62
     0
  6
CONTINUOUS
 10
2.175800
 20
5.939560
  0
VERTEX
  8
0
 62
     0
  6
CONTINUOUS
 10
2.173600
 20
5.929000
  0
VERTEX
  8
0
 62
     0
  6
CONTINUOUS
 10
2.170960
 20
5.918000
  0
VERTEX
  8
0
 62
     0
  6
CONTINUOUS
 10
2.169200
 20
5.908320
  0
VERTEX
  8
0
 62
     0
  6
CONTINUOUS
 10
2.167880
 20
5.901280
  0
VERTEX
  8
0
 62
     0
  6
CONTINUOUS
 10
2.167440
 20
5.899080
  0
SEQEND
  8
0
  0
POLYLINE
  8
0
 62
     0
  6
CONTINUOUS
 66
     1
 40
0.000000
 41
0.000000
  0
VERTEX
  8
0
 62
     0
  6
CONTINUOUS
 10
2.167440
 20
5.899080
  0
VERTEX
  8
0
 62
     0
  6
CONTINUOUS
 10
2.167000
 20
5.899080
  0
VERTEX
  8
0
 62
     0
  6
CONTINUOUS
 10
2.166120
 20
5.899080
  0
VERTEX
  8
0
 62
     0
  6
CONTINUOUS
 10
2.164800
 20
5.899080
  0
VERTEX
  8
0
 62
     0
  6
CONTINUOUS
 10
2.163480
 20
5.899080
  0
VERTEX
  8
0
 62
     0
  6
CONTINUOUS
 10
2.161720
 20
5.899080
  0
VERTEX
  8
0
 62
     0
  6
CONTINUOUS
 10
2.160400
 20
5.899080
  0
VERTEX
  8
0
 62
     0
  6
CONTINUOUS
 10
2.159520
 20
5.899080
  0
SEQEND
  8
0
  0
POLYLINE
  8
0
 62
     0
  6
CONTINUOUS
 66
     1
 40
0.000000
 41
0.000000
  0
VERTEX
  8
0
 62
     0
  6
CONTINUOUS
 10
2.159520
 20
5.899080
  0
VERTEX
  8
0
 62
     0
  6
CONTINUOUS
 10
2.159520
 20
5.899960
  0
VERTEX
  8
0
 62
     0
  6
CONTINUOUS
 10
2.160400
 20
5.903480
  0
VERTEX
  8
0
 62
     0
  6
CONTINUOUS
 10
2.161280
 20
5.907880
  0
VERTEX
  8
0
 62
     0
  6
CONTINUOUS
 10
2.162160
 20
5.913160
  0
VERTEX
  8
0
 62
     0
  6
CONTINUOUS
 10
2.163040
 20
5.918000
  0
VERTEX
  8
0
 62
     0
  6
CONTINUOUS
 10
2.163920
 20
5.922840
  0
VERTEX
  8
0
 62
     0
  6
CONTINUOUS
 10
2.164800
 20
5.925920
  0
VERTEX
  8
0
 62
     0
  6
CONTINUOUS
 10
2.165240
 20
5.927240
  0
SEQEND
  8
0
  0
POLYLINE
  8
0
 62
     0
  6
CONTINUOUS
 66
     1
 40
0.000000
 41
0.000000
  0
VERTEX
  8
0
 62
     0
  6
CONTINUOUS
 10
2.165240
 20
5.927240
  0
VERTEX
  8
0
 62
     0
  6
CONTINUOUS
 10
2.163480
 20
5.927240
  0
VERTEX
  8
0
 62
     0
  6
CONTINUOUS
 10
2.160400
 20
5.927240
  0
VERTEX
  8
0
 62
     0
  6
CONTINUOUS
 10
2.155120
 20
5.927240
  0
VERTEX
  8
0
 62
     0
  6
CONTINUOUS
 10
2.149840
 20
5.927240
  0
VERTEX
  8
0
 62
     0
  6
CONTINUOUS
 10
2.144120
 20
5.927240
  0
VERTEX
  8
0
 62
     0
  6
CONTINUOUS
 10
2.138840
 20
5.927240
  0
VERTEX
  8
0
 62
     0
  6
CONTINUOUS
 10
2.135760
 20
5.927240
  0
VERTEX
  8
0
 62
     0
  6
CONTINUOUS
 10
2.134440
 20
5.927240
  0
SEQEND
  8
0
  0
POLYLINE
  8
0
 62
     0
  6
CONTINUOUS
 66
     1
 40
0.000000
 41
0.000000
  0
VERTEX
  8
0
 62
     0
  6
CONTINUOUS
 10
2.134440
 20
5.927240
  0
VERTEX
  8
0
 62
     0
  6
CONTINUOUS
 10
2.134000
 20
5.925920
  0
VERTEX
  8
0
 62
     0
  6
CONTINUOUS
 10
2.133120
 20
5.922840
  0
VERTEX
  8
0
 62
     0
  6
CONTINUOUS
 10
2.132240
 20
5.918000
  0
VERTEX
  8
0
 62
     0
  6
CONTINUOUS
 10
2.131360
 20
5.913160
  0
VERTEX
  8
0
 62
     0
  6
CONTINUOUS
 10
2.130040
 20
5.907880
  0
VERTEX
  8
0
 62
     0
  6
CONTINUOUS
 10
2.129160
 20
5.903480
  0
VERTEX
  8
0
 62
     0
  6
CONTINUOUS
 10
2.128280
 20
5.899960
  0
VERTEX
  8
0
 62
     0
  6
CONTINUOUS
 10
2.128280
 20
5.899080
  0
SEQEND
  8
0
  0
POLYLINE
  8
0
 62
     0
  6
CONTINUOUS
 66
     1
 40
0.000000
 41
0.000000
  0
VERTEX
  8
0
 62
     0
  6
CONTINUOUS
 10
2.128280
 20
5.899080
  0
VERTEX
  8
0
 62
     0
  6
CONTINUOUS
 10
2.127840
 20
5.899080
  0
VERTEX
  8
0
 62
     0
  6
CONTINUOUS
 10
2.126960
 20
5.899080
  0
VERTEX
  8
0
 62
     0
  6
CONTINUOUS
 10
2.125640
 20
5.899080
  0
VERTEX
  8
0
 62
     0
  6
CONTINUOUS
 10
2.124320
 20
5.899080
  0
VERTEX
  8
0
 62
     0
  6
CONTINUOUS
 10
2.122560
 20
5.899080
  0
VERTEX
  8
0
 62
     0
  6
CONTINUOUS
 10
2.121240
 20
5.899080
  0
VERTEX
  8
0
 62
     0
  6
CONTINUOUS
 10
2.120360
 20
5.899080
  0
SEQEND
  8
0
  0
POLYLINE
  8
0
 62
     0
  6
CONTINUOUS
 66
     1
 40
0.000000
 41
0.000000
  0
VERTEX
  8
0
 62
     0
  6
CONTINUOUS
 10
2.172280
 20
5.898200
  0
VERTEX
  8
0
 62
     0
  6
CONTINUOUS
 10
2.173600
 20
5.900840
  0
VERTEX
  8
0
 62
     0
  6
CONTINUOUS
 10
2.177120
 20
5.907440
  0
VERTEX
  8
0
 62
     0
  6
CONTINUOUS
 10
2.182400
 20
5.917560
  0
VERTEX
  8
0
 62
     0
  6
CONTINUOUS
 10
2.188120
 20
5.929000
  0
VERTEX
  8
0
 62
     0
  6
CONTINUOUS
 10
2.193840
 20
5.940000
  0
VERTEX
  8
0
 62
     0
  6
CONTINUOUS
 10
2.199120
 20
5.950120
  0
VERTEX
  8
0
 62
     0
  6
CONTINUOUS
 10
2.202640
 20
5.956720
  0
VERTEX
  8
0
 62
     0
  6
CONTINUOUS
 10
2.204400
 20
5.959800
  0
SEQEND
  8
0
  0
POLYLINE
  8
0
 62
     0
  6
CONTINUOUS
 66
     1
 40
0.000000
 41
0.000000
  0
VERTEX
  8
0
 62
     0
  6
CONTINUOUS
 10
2.204400
 20
5.959800
  0
VERTEX
  8
0
 62
     0
  6
CONTINUOUS
 10
2.205280
 20
5.959800
  0
VERTEX
  8
0
 62
     0
  6
CONTINUOUS
 10
2.206160
 20
5.959800
  0
VERTEX
  8
0
 62
     0
  6
CONTINUOUS
 10
2.207480
 20
5.959800
  0
VERTEX
  8
0
 62
     0
  6
CONTINUOUS
 10
2.208800
 20
5.959800
  0
VERTEX
  8
0
 62
     0
  6
CONTINUOUS
 10
2.209680
 20
5.959800
  0
VERTEX
  8
0
 62
     0
  6
CONTINUOUS
 10
2.210560
 20
5.959800
  0
VERTEX
  8
0
 62
     0
  6
CONTINUOUS
 10
2.211000
 20
5.959800
  0
SEQEND
  8
0
  0
POLYLINE
  8
0
 62
     0
  6
CONTINUOUS
 66
     1
 40
0.000000
 41
0.000000
  0
VERTEX
  8
0
 62
     0
  6
CONTINUOUS
 10
2.211000
 20
5.959800
  0
VERTEX
  8
0
 62
     0
  6
CONTINUOUS
 10
2.209240
 20
5.956720
  0
VERTEX
  8
0
 62
     0
  6
CONTINUOUS
 10
2.205720
 20
5.950120
  0
VERTEX
  8
0
 62
     0
  6
CONTINUOUS
 10
2.200440
 20
5.940000
  0
VERTEX
  8
0
 62
     0
  6
CONTINUOUS
 10
2.194720
 20
5.929000
  0
VERTEX
  8
0
 62
     0
  6
CONTINUOUS
 10
2.189000
 20
5.917560
  0
VERTEX
  8
0
 62
     0
  6
CONTINUOUS
 10
2.183720
 20
5.907440
  0
VERTEX
  8
0
 62
     0
  6
CONTINUOUS
 10
2.180200
 20
5.900840
  0
VERTEX
  8
0
 62
     0
  6
CONTINUOUS
 10
2.178880
 20
5.898200
  0
SEQEND
  8
0
  0
POLYLINE
  8
0
 62
     0
  6
CONTINUOUS
 66
     1
 40
0.000000
 41
0.000000
  0
VERTEX
  8
0
 62
     0
  6
CONTINUOUS
 10
2.178880
 20
5.898200
  0
VERTEX
  8
0
 62
     0
  6
CONTINUOUS
 10
2.178440
 20
5.898200
  0
VERTEX
  8
0
 62
     0
  6
CONTINUOUS
 10
2.177560
 20
5.898200
  0
VERTEX
  8
0
 62
     0
  6
CONTINUOUS
 10
2.176680
 20
5.898200
  0
VERTEX
  8
0
 62
     0
  6
CONTINUOUS
 10
2.175360
 20
5.898200
  0
VERTEX
  8
0
 62
     0
  6
CONTINUOUS
 10
2.174040
 20
5.898200
  0
VERTEX
  8
0
 62
     0
  6
CONTINUOUS
 10
2.173160
 20
5.898200
  0
VERTEX
  8
0
 62
     0
  6
CONTINUOUS
 10
2.172280
 20
5.898200
  0
SEQEND
  8
0
  0
POLYLINE
  8
0
 62
     0
  6
CONTINUOUS
 66
     1
 40
0.000000
 41
0.000000
  0
VERTEX
  8
0
 62
     0
  6
CONTINUOUS
 10
2.203520
 20
5.899080
  0
VERTEX
  8
0
 62
     0
  6
CONTINUOUS
 10
2.203960
 20
5.901280
  0
VERTEX
  8
0
 62
     0
  6
CONTINUOUS
 10
2.205280
 20
5.908320
  0
VERTEX
  8
0
 62
     0
  6
CONTINUOUS
 10
2.207040
 20
5.918000
  0
VERTEX
  8
0
 62
     0
  6
CONTINUOUS
 10
2.209680
 20
5.929000
  0
VERTEX
  8
0
 62
     0
  6
CONTINUOUS
 10
2.211880
 20
5.939560
  0
VERTEX
  8
0
 62
     0
  6
CONTINUOUS
 10
2.213640
 20
5.949240
  0
VERTEX
  8
0
 62
     0
  6
CONTINUOUS
 10
2.214960
 20
5.956280
  0
VERTEX
  8
0
 62
     0
  6
CONTINUOUS
 10
2.215840
 20
5.958920
  0
SEQEND
  8
0
  0
POLYLINE
  8
0
 62
     0
  6
CONTINUOUS
 66
     1
 40
0.000000
 41
0.000000
  0
VERTEX
  8
0
 62
     0
  6
CONTINUOUS
 10
2.215840
 20
5.958920
  0
VERTEX
  8
0
 62
     0
  6
CONTINUOUS
 10
2.216720
 20
5.958920
  0
VERTEX
  8
0
 62
     0
  6
CONTINUOUS
 10
2.218040
 20
5.958920
  0
VERTEX
  8
0
 62
     0
  6
CONTINUOUS
 10
2.219800
 20
5.958920
  0
VERTEX
  8
0
 62
     0
  6
CONTINUOUS
 10
2.221120
 20
5.958920
  0
VERTEX
  8
0
 62
     0
  6
CONTINUOUS
 10
2.222440
 20
5.958920
  0
VERTEX
  8
0
 62
     0
  6
CONTINUOUS
 10
2.223320
 20
5.958920
  0
VERTEX
  8
0
 62
     0
  6
CONTINUOUS
 10
2.223760
 20
5.958920
  0
SEQEND
  8
0
  0
POLYLINE
  8
0
 62
     0
  6
CONTINUOUS
 66
     1
 40
0.000000
 41
0.000000
  0
VERTEX
  8
0
 62
     0
  6
CONTINUOUS
 10
2.223760
 20
5.958920
  0
VERTEX
  8
0
 62
     0
  6
CONTINUOUS
 10
2.222880
 20
5.956280
  0
VERTEX
  8
0
 62
     0
  6
CONTINUOUS
 10
2.222000
 20
5.950560
  0
VERTEX
  8
0
 62
     0
  6
CONTINUOUS
 10
2.220240
 20
5.942200
  0
VERTEX
  8
0
 62
     0
  6
CONTINUOUS
 10
2.218040
 20
5.932520
  0
VERTEX
  8
0
 62
     0
  6
CONTINUOUS
 10
2.215840
 20
5.922400
  0
VERTEX
  8
0
 62
     0
  6
CONTINUOUS
 10
2.214080
 20
5.914040
  0
VERTEX
  8
0
 62
     0
  6
CONTINUOUS
 10
2.213200
 20
5.908320
  0
VERTEX
  8
0
 62
     0
  6
CONTINUOUS
 10
2.212760
 20
5.906120
  0
SEQEND
  8
0
  0
POLYLINE
  8
0
 62
     0
  6
CONTINUOUS
 66
     1
 40
0.000000
 41
0.000000
  0
VERTEX
  8
0
 62
     0
  6
CONTINUOUS
 10
2.212760
 20
5.906120
  0
VERTEX
  8
0
 62
     0
  6
CONTINUOUS
 10
2.214080
 20
5.906120
  0
VERTEX
  8
0
 62
     0
  6
CONTINUOUS
 10
2.217160
 20
5.906120
  0
VERTEX
  8
0
 62
     0
  6
CONTINUOUS
 10
2.222440
 20
5.906120
  0
VERTEX
  8
0
 62
     0
  6
CONTINUOUS
 10
2.228160
 20
5.906120
  0
VERTEX
  8
0
 62
     0
  6
CONTINUOUS
 10
2.233440
 20
5.906120
  0
VERTEX
  8
0
 62
     0
  6
CONTINUOUS
 10
2.238720
 20
5.906120
  0
VERTEX
  8
0
 62
     0
  6
CONTINUOUS
 10
2.241800
 20
5.906120
  0
VERTEX
  8
0
 62
     0
  6
CONTINUOUS
 10
2.243560
 20
5.906120
  0
SEQEND
  8
0
  0
POLYLINE
  8
0
 62
     0
  6
CONTINUOUS
 66
     1
 40
0.000000
 41
0.000000
  0
VERTEX
  8
0
 62
     0
  6
CONTINUOUS
 10
2.243560
 20
5.906120
  0
VERTEX
  8
0
 62
     0
  6
CONTINUOUS
 10
2.243120
 20
5.905680
  0
VERTEX
  8
0
 62
     0
  6
CONTINUOUS
 10
2.243120
 20
5.904800
  0
VERTEX
  8
0
 62
     0
  6
CONTINUOUS
 10
2.243120
 20
5.903480
  0
VERTEX
  8
0
 62
     0
  6
CONTINUOUS
 10
2.242680
 20
5.902600
  0
VERTEX
  8
0
 62
     0
  6
CONTINUOUS
 10
2.242240
 20
5.901280
  0
VERTEX
  8
0
 62
     0
  6
CONTINUOUS
 10
2.242240
 20
5.899960
  0
VERTEX
  8
0
 62
     0
  6
CONTINUOUS
 10
2.242240
 20
5.899080
  0
SEQEND
  8
0
  0
POLYLINE
  8
0
 62
     0
  6
CONTINUOUS
 66
     1
 40
0.000000
 41
0.000000
  0
VERTEX
  8
0
 62
     0
  6
CONTINUOUS
 10
2.242240
 20
5.899080
  0
VERTEX
  8
0
 62
     0
  6
CONTINUOUS
 10
2.240480
 20
5.899080
  0
VERTEX
  8
0
 62
     0
  6
CONTINUOUS
 10
2.236080
 20
5.899080
  0
VERTEX
  8
0
 62
     0
  6
CONTINUOUS
 10
2.229920
 20
5.899080
  0
VERTEX
  8
0
 62
     0
  6
CONTINUOUS
 10
2.222880
 20
5.899080
  0
VERTEX
  8
0
 62
     0
  6
CONTINUOUS
 10
2.215400
 20
5.899080
  0
VERTEX
  8
0
 62
     0
  6
CONTINUOUS
 10
2.209240
 20
5.899080
  0
VERTEX
  8
0
 62
     0
  6
CONTINUOUS
 10
2.204840
 20
5.899080
  0
VERTEX
  8
0
 62
     0
  6
CONTINUOUS
 10
2.203520
 20
5.899080
  0
SEQEND
  8
0
  0
ENDSEC
  0
EOF
