  0
SECTION
  2
HEADER
  9
$EXTMIN
 10
1.528560
 20
1.877040
  9
$EXTMAX
 10
3.938880
 20
3.722840
  9
$LTSCALE
 40
0.044000
  9
$PDMODE
 70
    35
  9
$PDSIZE
 40
0.035200
  0
ENDSEC
  0
SECTION
  2
TABLES
  0
TABLE
  2
LTYPE
 70
     9
  0
LTYPE
  2
CONTINUOUS
 70
    64
  3
Solid line
 72
    65
 73
     0
 40
0.000000
  0
LTYPE
  2
DASHED
 70
    64
  3
__ __ __ __ __ __ __ __ __ __ __ __ __ __ __
 72
    65
 73
     2
 40
0.000330
 49
0.000220
 49
-0.000110
  0
LTYPE
  2
HIDDEN
 70
    64
  3
 _ _ _ _ _ _ _ _ _ _ _ _ _ _ _ _ _ _ _ _ _ _
 72
    65
 73
     2
 40
0.000165
 49
0.000110
 49
-0.000055
  0
LTYPE
  2
CENTER
 70
    64
  3
____ _ ____ _ ____ _ ____ _ ____ _ ____ _ ____
 72
    65
 73
     4
 40
0.000880
 49
0.000550
 49
-0.000110
 49
0.000110
 49
-0.000110
  0
LTYPE
  2
PHANTOM
 70
    64
  3
_____ _ _ _____ _ _ _____ _ _ _____ _ _ ____
 72
    65
 73
     6
 40
0.001100
 49
0.000550
 49
-0.000110
 49
0.000110
 49
-0.000110
 49
0.000110
 49
-0.000110
  0
LTYPE
  2
DOT
 70
    64
  3
...............................................
 72
    65
 73
     2
 40
0.000110
 49
0.000000
 49
-0.000110
  0
LTYPE
  2
DASHDOT
 70
    64
  3
__ . __ . __ . __ . __ . __ . __ . __ . __ . __
 72
    65
 73
     4
 40
0.000440
 49
0.000220
 49
-0.000110
 49
0.000000
 49
-0.000110
  0
LTYPE
  2
BORDER
 70
    64
  3
__ __ . __ __ . __ __ . __ __ . __ __ . __ __
 72
    65
 73
     6
 40
0.000770
 49
0.000220
 49
-0.000110
 49
0.000220
 49
-0.000110
 49
0.000000
 49
-0.000110
  0
LTYPE
  2
DIVIDE
 70
    64
  3
__ . . __ . . __ . . __ . . __ . . __ . . __
 72
    65
 73
     6
 40
0.000550
 49
0.000220
 49
-0.000110
 49
0.000000
 49
-0.000110
 49
0.000000
 49
-0.000110
  0
LTYPE
  2
DOTDOT
 70
    64
  3
 . .  . .  . .  . .  . .  . . 
 72
    65
 73
     5
 40
0.000242
 49
-0.000110
 49
0.000000
 49
-0.000110
 49
0.000000
 49
-0.000110
  0
ENDTAB
  0
TABLE
  2
STYLE
 70
     4
  0
STYLE
 70
     0
  2
SN0
 40
0.000000
 41
0.000440
 50
0.000000
 71
     0
 42
0.000000
  3
ROMANS
  0
STYLE
 70
    68
  2
SV0
 40
0.000000
 41
0.000440
 50
0.000000
 71
     0
 42
0.000000
  3
ROMANS
  0
STYLE
 70
     0
  2
SN1
 40
0.000000
 41
0.000440
 50
0.000000
 71
     0
 42
0.000000
  3
ITALICC
  0
STYLE
 70
    68
  2
SV1
 40
0.000000
 41
0.000440
 50
0.000000
 71
     0
 42
0.000000
  3
ITALICC
  0
ENDTAB
  0
TABLE
  2
LAYER
 70
     3
  0
LAYER
  2
FOREGROUND
 70
    64
 62
     7
  6
CONTINUOUS
  0
LAYER
  2
BACKGROUND
 70
    65
 62
    -7
  6
CONTINUOUS
  0
LAYER
  2
0
 70
    64
 62
     7
  6
CONTINUOUS
  0
ENDTAB
  0
ENDSEC
  0
SECTION
  2
ENTITIES
  0
LINE
  8
0
 62
     0
  6
CONTINUOUS
 10
2.816440
 20
2.894320
 11
2.819520
 21
2.886400
  0
LINE
  8
0
 62
     0
  6
CONTINUOUS
 10
2.819520
 20
2.886400
 11
2.828760
 21
2.880240
  0
LINE
  8
0
 62
     0
  6
CONTINUOUS
 10
2.828760
 20
2.880240
 11
2.838000
 21
2.877160
  0
LINE
  8
0
 62
     0
  6
CONTINUOUS
 10
2.801040
 20
2.840200
 11
2.819520
 21
2.840200
  0
LINE
  8
0
 62
     0
  6
CONTINUOUS
 10
2.803680
 20
2.840200
 11
2.814680
 21
2.840200
  0
LINE
  8
0
 62
     0
  6
CONTINUOUS
 10
2.919400
 20
2.742520
 11
2.935680
 21
2.752640
  0
LINE
  8
0
 62
     0
  6
CONTINUOUS
 10
2.931720
 20
2.750440
 11
2.925120
 21
2.746480
  0
LINE
  8
0
 62
     0
  6
CONTINUOUS
 10
2.925120
 20
2.746480
 11
2.925120
 21
2.834480
  0
LINE
  8
0
 62
     0
  6
CONTINUOUS
 10
2.935680
 20
2.834480
 11
2.935680
 21
2.752640
  0
LINE
  8
0
 62
     0
  6
CONTINUOUS
 10
2.935680
 20
2.752640
 11
2.919400
 21
2.742520
  0
LINE
  8
0
 62
     0
  6
CONTINUOUS
 10
2.919400
 20
2.742520
 11
2.919400
 21
2.834480
  0
LINE
  8
0
 62
     0
  6
CONTINUOUS
 10
2.933040
 20
2.834480
 11
2.933040
 21
2.750440
  0
LINE
  8
0
 62
     0
  6
CONTINUOUS
 10
2.933040
 20
2.750440
 11
2.925120
 21
2.746480
  0
LINE
  8
0
 62
     0
  6
CONTINUOUS
 10
2.937880
 20
2.799280
 11
2.932160
 21
2.799280
  0
POLYLINE
  8
0
 62
     0
  6
CONTINUOUS
 66
     1
 40
0.002200
 41
0.002200
  0
VERTEX
  8
0
 62
     0
  6
CONTINUOUS
 10
1.908720
 20
3.187800
  0
VERTEX
  8
0
 62
     0
  6
CONTINUOUS
 10
1.529440
 20
3.564880
  0
SEQEND
  8
0
  0
POLYLINE
  8
0
 62
     0
  6
CONTINUOUS
 66
     1
 40
0.002200
 41
0.002200
  0
VERTEX
  8
0
 62
     0
  6
CONTINUOUS
 10
2.615360
 20
3.387560
  0
VERTEX
  8
0
 62
     0
  6
CONTINUOUS
 10
2.335960
 20
3.522200
  0
SEQEND
  8
0
  0
POLYLINE
  8
0
 62
     0
  6
CONTINUOUS
 66
     1
 40
0.002200
 41
0.002200
  0
VERTEX
  8
0
 62
     0
  6
CONTINUOUS
 10
2.335960
 20
3.403840
  0
VERTEX
  8
0
 62
     0
  6
CONTINUOUS
 10
2.615360
 20
3.269200
  0
SEQEND
  8
0
  0
POLYLINE
  8
0
 62
     0
  6
CONTINUOUS
 66
     1
 40
0.002200
 41
0.002200
  0
VERTEX
  8
0
 62
     0
  6
CONTINUOUS
 10
2.615360
 20
3.130160
  0
VERTEX
  8
0
 62
     0
  6
CONTINUOUS
 10
2.335960
 20
3.265240
  0
SEQEND
  8
0
  0
POLYLINE
  8
0
 62
     0
  6
CONTINUOUS
 66
     1
 40
0.002200
 41
0.002200
  0
VERTEX
  8
0
 62
     0
  6
CONTINUOUS
 10
2.335960
 20
3.120920
  0
VERTEX
  8
0
 62
     0
  6
CONTINUOUS
 10
2.615360
 20
2.985840
  0
SEQEND
  8
0
  0
POLYLINE
  8
0
 62
     0
  6
CONTINUOUS
 66
     1
 40
0.002200
 41
0.002200
  0
VERTEX
  8
0
 62
     0
  6
CONTINUOUS
 10
2.615360
 20
2.858240
  0
VERTEX
  8
0
 62
     0
  6
CONTINUOUS
 10
2.335960
 20
2.995080
  0
SEQEND
  8
0
  0
POLYLINE
  8
0
 62
     0
  6
CONTINUOUS
 66
     1
 40
0.002200
 41
0.002200
  0
VERTEX
  8
0
 62
     0
  6
CONTINUOUS
 10
2.471040
 20
3.028520
  0
VERTEX
  8
0
 62
     0
  6
CONTINUOUS
 10
2.487760
 20
3.043480
  0
SEQEND
  8
0
  0
POLYLINE
  8
0
 62
     0
  6
CONTINUOUS
 66
     1
 40
0.002200
 41
0.002200
  0
VERTEX
  8
0
 62
     0
  6
CONTINUOUS
 10
2.487760
 20
3.043480
  0
VERTEX
  8
0
 62
     0
  6
CONTINUOUS
 10
2.489520
 20
3.022800
  0
SEQEND
  8
0
  0
POLYLINE
  8
0
 62
     0
  6
CONTINUOUS
 66
     1
 40
0.002200
 41
0.002200
  0
VERTEX
  8
0
 62
     0
  6
CONTINUOUS
 10
2.489520
 20
3.022800
  0
VERTEX
  8
0
 62
     0
  6
CONTINUOUS
 10
2.484240
 20
3.022800
  0
SEQEND
  8
0
  0
POLYLINE
  8
0
 62
     0
  6
CONTINUOUS
 66
     1
 40
0.002200
 41
0.002200
  0
VERTEX
  8
0
 62
     0
  6
CONTINUOUS
 10
2.484240
 20
3.022800
  0
VERTEX
  8
0
 62
     0
  6
CONTINUOUS
 10
2.487760
 20
3.043480
  0
SEQEND
  8
0
  0
POLYLINE
  8
0
 62
     0
  6
CONTINUOUS
 66
     1
 40
0.002200
 41
0.002200
  0
VERTEX
  8
0
 62
     0
  6
CONTINUOUS
 10
2.487760
 20
3.043480
  0
VERTEX
  8
0
 62
     0
  6
CONTINUOUS
 10
2.500520
 20
3.028520
  0
SEQEND
  8
0
  0
POLYLINE
  8
0
 62
     0
  6
CONTINUOUS
 66
     1
 40
0.002200
 41
0.002200
  0
VERTEX
  8
0
 62
     0
  6
CONTINUOUS
 10
2.495240
 20
3.025000
  0
VERTEX
  8
0
 62
     0
  6
CONTINUOUS
 10
2.487760
 20
3.043480
  0
SEQEND
  8
0
  0
POLYLINE
  8
0
 62
     0
  6
CONTINUOUS
 66
     1
 40
0.002200
 41
0.002200
  0
VERTEX
  8
0
 62
     0
  6
CONTINUOUS
 10
2.487760
 20
3.043480
  0
VERTEX
  8
0
 62
     0
  6
CONTINUOUS
 10
2.506240
 20
3.039520
  0
SEQEND
  8
0
  0
POLYLINE
  8
0
 62
     0
  6
CONTINUOUS
 66
     1
 40
0.002200
 41
0.002200
  0
VERTEX
  8
0
 62
     0
  6
CONTINUOUS
 10
2.506240
 20
3.039520
  0
VERTEX
  8
0
 62
     0
  6
CONTINUOUS
 10
2.506240
 20
3.047000
  0
SEQEND
  8
0
  0
POLYLINE
  8
0
 62
     0
  6
CONTINUOUS
 66
     1
 40
0.002200
 41
0.002200
  0
VERTEX
  8
0
 62
     0
  6
CONTINUOUS
 10
2.506240
 20
3.047000
  0
VERTEX
  8
0
 62
     0
  6
CONTINUOUS
 10
2.487760
 20
3.043480
  0
SEQEND
  8
0
  0
POLYLINE
  8
0
 62
     0
  6
CONTINUOUS
 66
     1
 40
0.002200
 41
0.002200
  0
VERTEX
  8
0
 62
     0
  6
CONTINUOUS
 10
2.487760
 20
3.043480
  0
VERTEX
  8
0
 62
     0
  6
CONTINUOUS
 10
2.506240
 20
3.054480
  0
SEQEND
  8
0
  0
POLYLINE
  8
0
 62
     0
  6
CONTINUOUS
 66
     1
 40
0.002200
 41
0.002200
  0
VERTEX
  8
0
 62
     0
  6
CONTINUOUS
 10
2.500520
 20
3.058000
  0
VERTEX
  8
0
 62
     0
  6
CONTINUOUS
 10
2.487760
 20
3.043480
  0
SEQEND
  8
0
  0
POLYLINE
  8
0
 62
     0
  6
CONTINUOUS
 66
     1
 40
0.002200
 41
0.002200
  0
VERTEX
  8
0
 62
     0
  6
CONTINUOUS
 10
2.487760
 20
3.043480
  0
VERTEX
  8
0
 62
     0
  6
CONTINUOUS
 10
2.484240
 20
3.065480
  0
SEQEND
  8
0
  0
POLYLINE
  8
0
 62
     0
  6
CONTINUOUS
 66
     1
 40
0.002200
 41
0.002200
  0
VERTEX
  8
0
 62
     0
  6
CONTINUOUS
 10
2.484240
 20
3.065480
  0
VERTEX
  8
0
 62
     0
  6
CONTINUOUS
 10
2.489520
 20
3.065480
  0
SEQEND
  8
0
  0
POLYLINE
  8
0
 62
     0
  6
CONTINUOUS
 66
     1
 40
0.002200
 41
0.002200
  0
VERTEX
  8
0
 62
     0
  6
CONTINUOUS
 10
2.489520
 20
3.065480
  0
VERTEX
  8
0
 62
     0
  6
CONTINUOUS
 10
2.487760
 20
3.043480
  0
SEQEND
  8
0
  0
POLYLINE
  8
0
 62
     0
  6
CONTINUOUS
 66
     1
 40
0.002200
 41
0.002200
  0
VERTEX
  8
0
 62
     0
  6
CONTINUOUS
 10
2.487760
 20
3.043480
  0
VERTEX
  8
0
 62
     0
  6
CONTINUOUS
 10
2.471040
 20
3.058000
  0
SEQEND
  8
0
  0
POLYLINE
  8
0
 62
     0
  6
CONTINUOUS
 66
     1
 40
0.002200
 41
0.002200
  0
VERTEX
  8
0
 62
     0
  6
CONTINUOUS
 10
2.469280
 20
3.054480
  0
VERTEX
  8
0
 62
     0
  6
CONTINUOUS
 10
2.487760
 20
3.043480
  0
SEQEND
  8
0
  0
POLYLINE
  8
0
 62
     0
  6
CONTINUOUS
 66
     1
 40
0.002200
 41
0.002200
  0
VERTEX
  8
0
 62
     0
  6
CONTINUOUS
 10
2.487760
 20
3.043480
  0
VERTEX
  8
0
 62
     0
  6
CONTINUOUS
 10
2.465760
 20
3.047000
  0
SEQEND
  8
0
  0
POLYLINE
  8
0
 62
     0
  6
CONTINUOUS
 66
     1
 40
0.002200
 41
0.002200
  0
VERTEX
  8
0
 62
     0
  6
CONTINUOUS
 10
2.465760
 20
3.047000
  0
VERTEX
  8
0
 62
     0
  6
CONTINUOUS
 10
2.465760
 20
3.039520
  0
SEQEND
  8
0
  0
POLYLINE
  8
0
 62
     0
  6
CONTINUOUS
 66
     1
 40
0.002200
 41
0.002200
  0
VERTEX
  8
0
 62
     0
  6
CONTINUOUS
 10
2.465760
 20
3.039520
  0
VERTEX
  8
0
 62
     0
  6
CONTINUOUS
 10
2.487760
 20
3.043480
  0
SEQEND
  8
0
  0
POLYLINE
  8
0
 62
     0
  6
CONTINUOUS
 66
     1
 40
0.002200
 41
0.002200
  0
VERTEX
  8
0
 62
     0
  6
CONTINUOUS
 10
2.487760
 20
3.043480
  0
VERTEX
  8
0
 62
     0
  6
CONTINUOUS
 10
2.469280
 20
3.034240
  0
SEQEND
  8
0
  0
POLYLINE
  8
0
 62
     0
  6
CONTINUOUS
 66
     1
 40
0.002200
 41
0.002200
  0
VERTEX
  8
0
 62
     0
  6
CONTINUOUS
 10
2.476760
 20
3.025000
  0
VERTEX
  8
0
 62
     0
  6
CONTINUOUS
 10
2.487760
 20
3.043480
  0
SEQEND
  8
0
  0
POLYLINE
  8
0
 62
     0
  6
CONTINUOUS
 66
     1
 40
0.002200
 41
0.002200
  0
VERTEX
  8
0
 62
     0
  6
CONTINUOUS
 10
2.487760
 20
3.043480
  0
VERTEX
  8
0
 62
     0
  6
CONTINUOUS
 10
2.506240
 20
3.034240
  0
SEQEND
  8
0
  0
POLYLINE
  8
0
 62
     0
  6
CONTINUOUS
 66
     1
 40
0.002200
 41
0.002200
  0
VERTEX
  8
0
 62
     0
  6
CONTINUOUS
 10
2.487760
 20
3.043480
  0
VERTEX
  8
0
 62
     0
  6
CONTINUOUS
 10
2.495240
 20
3.061960
  0
SEQEND
  8
0
  0
POLYLINE
  8
0
 62
     0
  6
CONTINUOUS
 66
     1
 40
0.002200
 41
0.002200
  0
VERTEX
  8
0
 62
     0
  6
CONTINUOUS
 10
2.476760
 20
3.061960
  0
VERTEX
  8
0
 62
     0
  6
CONTINUOUS
 10
2.487760
 20
3.043480
  0
SEQEND
  8
0
  0
POLYLINE
  8
0
 62
     0
  6
CONTINUOUS
 66
     1
 40
0.002200
 41
0.002200
  0
VERTEX
  8
0
 62
     0
  6
CONTINUOUS
 10
2.489520
 20
2.939640
  0
VERTEX
  8
0
 62
     0
  6
CONTINUOUS
 10
2.487760
 20
2.919400
  0
SEQEND
  8
0
  0
POLYLINE
  8
0
 62
     0
  6
CONTINUOUS
 66
     1
 40
0.002200
 41
0.002200
  0
VERTEX
  8
0
 62
     0
  6
CONTINUOUS
 10
2.487760
 20
2.919400
  0
VERTEX
  8
0
 62
     0
  6
CONTINUOUS
 10
2.484240
 20
2.939640
  0
SEQEND
  8
0
  0
POLYLINE
  8
0
 62
     0
  6
CONTINUOUS
 66
     1
 40
0.002200
 41
0.002200
  0
VERTEX
  8
0
 62
     0
  6
CONTINUOUS
 10
2.476760
 20
2.936120
  0
VERTEX
  8
0
 62
     0
  6
CONTINUOUS
 10
2.487760
 20
2.919400
  0
SEQEND
  8
0
  0
POLYLINE
  8
0
 62
     0
  6
CONTINUOUS
 66
     1
 40
0.002200
 41
0.002200
  0
VERTEX
  8
0
 62
     0
  6
CONTINUOUS
 10
2.487760
 20
2.919400
  0
VERTEX
  8
0
 62
     0
  6
CONTINUOUS
 10
2.471040
 20
2.932160
  0
SEQEND
  8
0
  0
POLYLINE
  8
0
 62
     0
  6
CONTINUOUS
 66
     1
 40
0.002200
 41
0.002200
  0
VERTEX
  8
0
 62
     0
  6
CONTINUOUS
 10
2.469280
 20
2.928640
  0
VERTEX
  8
0
 62
     0
  6
CONTINUOUS
 10
2.487760
 20
2.919400
  0
SEQEND
  8
0
  0
POLYLINE
  8
0
 62
     0
  6
CONTINUOUS
 66
     1
 40
0.002200
 41
0.002200
  0
VERTEX
  8
0
 62
     0
  6
CONTINUOUS
 10
2.487760
 20
2.919400
  0
VERTEX
  8
0
 62
     0
  6
CONTINUOUS
 10
2.465760
 20
2.921160
  0
SEQEND
  8
0
  0
POLYLINE
  8
0
 62
     0
  6
CONTINUOUS
 66
     1
 40
0.002200
 41
0.002200
  0
VERTEX
  8
0
 62
     0
  6
CONTINUOUS
 10
2.465760
 20
2.921160
  0
VERTEX
  8
0
 62
     0
  6
CONTINUOUS
 10
2.465760
 20
2.913680
  0
SEQEND
  8
0
  0
POLYLINE
  8
0
 62
     0
  6
CONTINUOUS
 66
     1
 40
0.002200
 41
0.002200
  0
VERTEX
  8
0
 62
     0
  6
CONTINUOUS
 10
2.465760
 20
2.913680
  0
VERTEX
  8
0
 62
     0
  6
CONTINUOUS
 10
2.487760
 20
2.919400
  0
SEQEND
  8
0
  0
POLYLINE
  8
0
 62
     0
  6
CONTINUOUS
 66
     1
 40
0.002200
 41
0.002200
  0
VERTEX
  8
0
 62
     0
  6
CONTINUOUS
 10
2.487760
 20
2.919400
  0
VERTEX
  8
0
 62
     0
  6
CONTINUOUS
 10
2.469280
 20
2.908400
  0
SEQEND
  8
0
  0
POLYLINE
  8
0
 62
     0
  6
CONTINUOUS
 66
     1
 40
0.002200
 41
0.002200
  0
VERTEX
  8
0
 62
     0
  6
CONTINUOUS
 10
2.471040
 20
2.902680
  0
VERTEX
  8
0
 62
     0
  6
CONTINUOUS
 10
2.487760
 20
2.919400
  0
SEQEND
  8
0
  0
POLYLINE
  8
0
 62
     0
  6
CONTINUOUS
 66
     1
 40
0.002200
 41
0.002200
  0
VERTEX
  8
0
 62
     0
  6
CONTINUOUS
 10
2.487760
 20
2.919400
  0
VERTEX
  8
0
 62
     0
  6
CONTINUOUS
 10
2.489520
 20
2.897400
  0
SEQEND
  8
0
  0
POLYLINE
  8
0
 62
     0
  6
CONTINUOUS
 66
     1
 40
0.002200
 41
0.002200
  0
VERTEX
  8
0
 62
     0
  6
CONTINUOUS
 10
2.489520
 20
2.897400
  0
VERTEX
  8
0
 62
     0
  6
CONTINUOUS
 10
2.484240
 20
2.897400
  0
SEQEND
  8
0
  0
POLYLINE
  8
0
 62
     0
  6
CONTINUOUS
 66
     1
 40
0.002200
 41
0.002200
  0
VERTEX
  8
0
 62
     0
  6
CONTINUOUS
 10
2.484240
 20
2.897400
  0
VERTEX
  8
0
 62
     0
  6
CONTINUOUS
 10
2.487760
 20
2.919400
  0
SEQEND
  8
0
  0
POLYLINE
  8
0
 62
     0
  6
CONTINUOUS
 66
     1
 40
0.002200
 41
0.002200
  0
VERTEX
  8
0
 62
     0
  6
CONTINUOUS
 10
2.487760
 20
2.919400
  0
VERTEX
  8
0
 62
     0
  6
CONTINUOUS
 10
2.500520
 20
2.902680
  0
SEQEND
  8
0
  0
POLYLINE
  8
0
 62
     0
  6
CONTINUOUS
 66
     1
 40
0.002200
 41
0.002200
  0
VERTEX
  8
0
 62
     0
  6
CONTINUOUS
 10
2.506240
 20
2.908400
  0
VERTEX
  8
0
 62
     0
  6
CONTINUOUS
 10
2.487760
 20
2.919400
  0
SEQEND
  8
0
  0
POLYLINE
  8
0
 62
     0
  6
CONTINUOUS
 66
     1
 40
0.002200
 41
0.002200
  0
VERTEX
  8
0
 62
     0
  6
CONTINUOUS
 10
2.487760
 20
2.919400
  0
VERTEX
  8
0
 62
     0
  6
CONTINUOUS
 10
2.506240
 20
2.913680
  0
SEQEND
  8
0
  0
POLYLINE
  8
0
 62
     0
  6
CONTINUOUS
 66
     1
 40
0.002200
 41
0.002200
  0
VERTEX
  8
0
 62
     0
  6
CONTINUOUS
 10
2.506240
 20
2.913680
  0
VERTEX
  8
0
 62
     0
  6
CONTINUOUS
 10
2.506240
 20
2.921160
  0
SEQEND
  8
0
  0
POLYLINE
  8
0
 62
     0
  6
CONTINUOUS
 66
     1
 40
0.002200
 41
0.002200
  0
VERTEX
  8
0
 62
     0
  6
CONTINUOUS
 10
2.506240
 20
2.921160
  0
VERTEX
  8
0
 62
     0
  6
CONTINUOUS
 10
2.487760
 20
2.919400
  0
SEQEND
  8
0
  0
POLYLINE
  8
0
 62
     0
  6
CONTINUOUS
 66
     1
 40
0.002200
 41
0.002200
  0
VERTEX
  8
0
 62
     0
  6
CONTINUOUS
 10
2.487760
 20
2.919400
  0
VERTEX
  8
0
 62
     0
  6
CONTINUOUS
 10
2.506240
 20
2.928640
  0
SEQEND
  8
0
  0
POLYLINE
  8
0
 62
     0
  6
CONTINUOUS
 66
     1
 40
0.002200
 41
0.002200
  0
VERTEX
  8
0
 62
     0
  6
CONTINUOUS
 10
2.500520
 20
2.932160
  0
VERTEX
  8
0
 62
     0
  6
CONTINUOUS
 10
2.487760
 20
2.919400
  0
SEQEND
  8
0
  0
POLYLINE
  8
0
 62
     0
  6
CONTINUOUS
 66
     1
 40
0.002200
 41
0.002200
  0
VERTEX
  8
0
 62
     0
  6
CONTINUOUS
 10
2.487760
 20
2.919400
  0
VERTEX
  8
0
 62
     0
  6
CONTINUOUS
 10
2.495240
 20
2.936120
  0
SEQEND
  8
0
  0
POLYLINE
  8
0
 62
     0
  6
CONTINUOUS
 66
     1
 40
0.002200
 41
0.002200
  0
VERTEX
  8
0
 62
     0
  6
CONTINUOUS
 10
2.487760
 20
2.919400
  0
VERTEX
  8
0
 62
     0
  6
CONTINUOUS
 10
2.476760
 20
2.899160
  0
SEQEND
  8
0
  0
POLYLINE
  8
0
 62
     0
  6
CONTINUOUS
 66
     1
 40
0.002200
 41
0.002200
  0
VERTEX
  8
0
 62
     0
  6
CONTINUOUS
 10
2.495240
 20
2.899160
  0
VERTEX
  8
0
 62
     0
  6
CONTINUOUS
 10
2.487760
 20
2.919400
  0
SEQEND
  8
0
  0
POLYLINE
  8
0
 62
     0
  6
CONTINUOUS
 66
     1
 40
0.002200
 41
0.002200
  0
VERTEX
  8
0
 62
     0
  6
CONTINUOUS
 10
2.484240
 20
3.167120
  0
VERTEX
  8
0
 62
     0
  6
CONTINUOUS
 10
2.487760
 20
3.187800
  0
SEQEND
  8
0
  0
POLYLINE
  8
0
 62
     0
  6
CONTINUOUS
 66
     1
 40
0.002200
 41
0.002200
  0
VERTEX
  8
0
 62
     0
  6
CONTINUOUS
 10
2.487760
 20
3.187800
  0
VERTEX
  8
0
 62
     0
  6
CONTINUOUS
 10
2.489520
 20
3.167120
  0
SEQEND
  8
0
  0
POLYLINE
  8
0
 62
     0
  6
CONTINUOUS
 66
     1
 40
0.002200
 41
0.002200
  0
VERTEX
  8
0
 62
     0
  6
CONTINUOUS
 10
2.495240
 20
3.168880
  0
VERTEX
  8
0
 62
     0
  6
CONTINUOUS
 10
2.487760
 20
3.187800
  0
SEQEND
  8
0
  0
POLYLINE
  8
0
 62
     0
  6
CONTINUOUS
 66
     1
 40
0.002200
 41
0.002200
  0
VERTEX
  8
0
 62
     0
  6
CONTINUOUS
 10
2.487760
 20
3.187800
  0
VERTEX
  8
0
 62
     0
  6
CONTINUOUS
 10
2.500520
 20
3.172840
  0
SEQEND
  8
0
  0
POLYLINE
  8
0
 62
     0
  6
CONTINUOUS
 66
     1
 40
0.002200
 41
0.002200
  0
VERTEX
  8
0
 62
     0
  6
CONTINUOUS
 10
2.506240
 20
3.178560
  0
VERTEX
  8
0
 62
     0
  6
CONTINUOUS
 10
2.487760
 20
3.187800
  0
SEQEND
  8
0
  0
POLYLINE
  8
0
 62
     0
  6
CONTINUOUS
 66
     1
 40
0.002200
 41
0.002200
  0
VERTEX
  8
0
 62
     0
  6
CONTINUOUS
 10
2.487760
 20
3.187800
  0
VERTEX
  8
0
 62
     0
  6
CONTINUOUS
 10
2.506240
 20
3.185600
  0
SEQEND
  8
0
  0
POLYLINE
  8
0
 62
     0
  6
CONTINUOUS
 66
     1
 40
0.002200
 41
0.002200
  0
VERTEX
  8
0
 62
     0
  6
CONTINUOUS
 10
2.506240
 20
3.185600
  0
VERTEX
  8
0
 62
     0
  6
CONTINUOUS
 10
2.506240
 20
3.191320
  0
SEQEND
  8
0
  0
POLYLINE
  8
0
 62
     0
  6
CONTINUOUS
 66
     1
 40
0.002200
 41
0.002200
  0
VERTEX
  8
0
 62
     0
  6
CONTINUOUS
 10
2.506240
 20
3.191320
  0
VERTEX
  8
0
 62
     0
  6
CONTINUOUS
 10
2.487760
 20
3.187800
  0
SEQEND
  8
0
  0
POLYLINE
  8
0
 62
     0
  6
CONTINUOUS
 66
     1
 40
0.002200
 41
0.002200
  0
VERTEX
  8
0
 62
     0
  6
CONTINUOUS
 10
2.487760
 20
3.187800
  0
VERTEX
  8
0
 62
     0
  6
CONTINUOUS
 10
2.506240
 20
3.198800
  0
SEQEND
  8
0
  0
POLYLINE
  8
0
 62
     0
  6
CONTINUOUS
 66
     1
 40
0.002200
 41
0.002200
  0
VERTEX
  8
0
 62
     0
  6
CONTINUOUS
 10
2.500520
 20
3.202320
  0
VERTEX
  8
0
 62
     0
  6
CONTINUOUS
 10
2.487760
 20
3.187800
  0
SEQEND
  8
0
  0
POLYLINE
  8
0
 62
     0
  6
CONTINUOUS
 66
     1
 40
0.002200
 41
0.002200
  0
VERTEX
  8
0
 62
     0
  6
CONTINUOUS
 10
2.487760
 20
3.187800
  0
VERTEX
  8
0
 62
     0
  6
CONTINUOUS
 10
2.489520
 20
3.209800
  0
SEQEND
  8
0
  0
POLYLINE
  8
0
 62
     0
  6
CONTINUOUS
 66
     1
 40
0.002200
 41
0.002200
  0
VERTEX
  8
0
 62
     0
  6
CONTINUOUS
 10
2.489520
 20
3.209800
  0
VERTEX
  8
0
 62
     0
  6
CONTINUOUS
 10
2.484240
 20
3.209800
  0
SEQEND
  8
0
  0
POLYLINE
  8
0
 62
     0
  6
CONTINUOUS
 66
     1
 40
0.002200
 41
0.002200
  0
VERTEX
  8
0
 62
     0
  6
CONTINUOUS
 10
2.484240
 20
3.209800
  0
VERTEX
  8
0
 62
     0
  6
CONTINUOUS
 10
2.487760
 20
3.187800
  0
SEQEND
  8
0
  0
POLYLINE
  8
0
 62
     0
  6
CONTINUOUS
 66
     1
 40
0.002200
 41
0.002200
  0
VERTEX
  8
0
 62
     0
  6
CONTINUOUS
 10
2.487760
 20
3.187800
  0
VERTEX
  8
0
 62
     0
  6
CONTINUOUS
 10
2.471040
 20
3.202320
  0
SEQEND
  8
0
  0
POLYLINE
  8
0
 62
     0
  6
CONTINUOUS
 66
     1
 40
0.002200
 41
0.002200
  0
VERTEX
  8
0
 62
     0
  6
CONTINUOUS
 10
2.469280
 20
3.198800
  0
VERTEX
  8
0
 62
     0
  6
CONTINUOUS
 10
2.487760
 20
3.187800
  0
SEQEND
  8
0
  0
POLYLINE
  8
0
 62
     0
  6
CONTINUOUS
 66
     1
 40
0.002200
 41
0.002200
  0
VERTEX
  8
0
 62
     0
  6
CONTINUOUS
 10
2.487760
 20
3.187800
  0
VERTEX
  8
0
 62
     0
  6
CONTINUOUS
 10
2.465760
 20
3.191320
  0
SEQEND
  8
0
  0
POLYLINE
  8
0
 62
     0
  6
CONTINUOUS
 66
     1
 40
0.002200
 41
0.002200
  0
VERTEX
  8
0
 62
     0
  6
CONTINUOUS
 10
2.465760
 20
3.191320
  0
VERTEX
  8
0
 62
     0
  6
CONTINUOUS
 10
2.465760
 20
3.185600
  0
SEQEND
  8
0
  0
POLYLINE
  8
0
 62
     0
  6
CONTINUOUS
 66
     1
 40
0.002200
 41
0.002200
  0
VERTEX
  8
0
 62
     0
  6
CONTINUOUS
 10
2.465760
 20
3.185600
  0
VERTEX
  8
0
 62
     0
  6
CONTINUOUS
 10
2.487760
 20
3.187800
  0
SEQEND
  8
0
  0
POLYLINE
  8
0
 62
     0
  6
CONTINUOUS
 66
     1
 40
0.002200
 41
0.002200
  0
VERTEX
  8
0
 62
     0
  6
CONTINUOUS
 10
2.487760
 20
3.187800
  0
VERTEX
  8
0
 62
     0
  6
CONTINUOUS
 10
2.469280
 20
3.178560
  0
SEQEND
  8
0
  0
POLYLINE
  8
0
 62
     0
  6
CONTINUOUS
 66
     1
 40
0.002200
 41
0.002200
  0
VERTEX
  8
0
 62
     0
  6
CONTINUOUS
 10
2.471040
 20
3.172840
  0
VERTEX
  8
0
 62
     0
  6
CONTINUOUS
 10
2.487760
 20
3.187800
  0
SEQEND
  8
0
  0
POLYLINE
  8
0
 62
     0
  6
CONTINUOUS
 66
     1
 40
0.002200
 41
0.002200
  0
VERTEX
  8
0
 62
     0
  6
CONTINUOUS
 10
2.487760
 20
3.187800
  0
VERTEX
  8
0
 62
     0
  6
CONTINUOUS
 10
2.476760
 20
3.168880
  0
SEQEND
  8
0
  0
POLYLINE
  8
0
 62
     0
  6
CONTINUOUS
 66
     1
 40
0.002200
 41
0.002200
  0
VERTEX
  8
0
 62
     0
  6
CONTINUOUS
 10
2.487760
 20
3.187800
  0
VERTEX
  8
0
 62
     0
  6
CONTINUOUS
 10
2.495240
 20
3.208040
  0
SEQEND
  8
0
  0
POLYLINE
  8
0
 62
     0
  6
CONTINUOUS
 66
     1
 40
0.002200
 41
0.002200
  0
VERTEX
  8
0
 62
     0
  6
CONTINUOUS
 10
2.476760
 20
3.208040
  0
VERTEX
  8
0
 62
     0
  6
CONTINUOUS
 10
2.487760
 20
3.187800
  0
SEQEND
  8
0
  0
POLYLINE
  8
0
 62
     0
  6
CONTINUOUS
 66
     1
 40
0.002200
 41
0.002200
  0
VERTEX
  8
0
 62
     0
  6
CONTINUOUS
 10
2.489520
 20
3.306160
  0
VERTEX
  8
0
 62
     0
  6
CONTINUOUS
 10
2.487760
 20
3.328160
  0
SEQEND
  8
0
  0
POLYLINE
  8
0
 62
     0
  6
CONTINUOUS
 66
     1
 40
0.002200
 41
0.002200
  0
VERTEX
  8
0
 62
     0
  6
CONTINUOUS
 10
2.487760
 20
3.328160
  0
VERTEX
  8
0
 62
     0
  6
CONTINUOUS
 10
2.500520
 20
3.311440
  0
SEQEND
  8
0
  0
POLYLINE
  8
0
 62
     0
  6
CONTINUOUS
 66
     1
 40
0.002200
 41
0.002200
  0
VERTEX
  8
0
 62
     0
  6
CONTINUOUS
 10
2.506240
 20
3.317160
  0
VERTEX
  8
0
 62
     0
  6
CONTINUOUS
 10
2.487760
 20
3.328160
  0
SEQEND
  8
0
  0
POLYLINE
  8
0
 62
     0
  6
CONTINUOUS
 66
     1
 40
0.002200
 41
0.002200
  0
VERTEX
  8
0
 62
     0
  6
CONTINUOUS
 10
2.487760
 20
3.328160
  0
VERTEX
  8
0
 62
     0
  6
CONTINUOUS
 10
2.506240
 20
3.324640
  0
SEQEND
  8
0
  0
POLYLINE
  8
0
 62
     0
  6
CONTINUOUS
 66
     1
 40
0.002200
 41
0.002200
  0
VERTEX
  8
0
 62
     0
  6
CONTINUOUS
 10
2.506240
 20
3.324640
  0
VERTEX
  8
0
 62
     0
  6
CONTINUOUS
 10
2.506240
 20
3.329920
  0
SEQEND
  8
0
  0
POLYLINE
  8
0
 62
     0
  6
CONTINUOUS
 66
     1
 40
0.002200
 41
0.002200
  0
VERTEX
  8
0
 62
     0
  6
CONTINUOUS
 10
2.506240
 20
3.329920
  0
VERTEX
  8
0
 62
     0
  6
CONTINUOUS
 10
2.487760
 20
3.328160
  0
SEQEND
  8
0
  0
POLYLINE
  8
0
 62
     0
  6
CONTINUOUS
 66
     1
 40
0.002200
 41
0.002200
  0
VERTEX
  8
0
 62
     0
  6
CONTINUOUS
 10
2.487760
 20
3.328160
  0
VERTEX
  8
0
 62
     0
  6
CONTINUOUS
 10
2.506240
 20
3.337400
  0
SEQEND
  8
0
  0
POLYLINE
  8
0
 62
     0
  6
CONTINUOUS
 66
     1
 40
0.002200
 41
0.002200
  0
VERTEX
  8
0
 62
     0
  6
CONTINUOUS
 10
2.500520
 20
3.343120
  0
VERTEX
  8
0
 62
     0
  6
CONTINUOUS
 10
2.487760
 20
3.328160
  0
SEQEND
  8
0
  0
POLYLINE
  8
0
 62
     0
  6
CONTINUOUS
 66
     1
 40
0.002200
 41
0.002200
  0
VERTEX
  8
0
 62
     0
  6
CONTINUOUS
 10
2.487760
 20
3.328160
  0
VERTEX
  8
0
 62
     0
  6
CONTINUOUS
 10
2.489520
 20
3.350160
  0
SEQEND
  8
0
  0
POLYLINE
  8
0
 62
     0
  6
CONTINUOUS
 66
     1
 40
0.002200
 41
0.002200
  0
VERTEX
  8
0
 62
     0
  6
CONTINUOUS
 10
2.489520
 20
3.350160
  0
VERTEX
  8
0
 62
     0
  6
CONTINUOUS
 10
2.484240
 20
3.350160
  0
SEQEND
  8
0
  0
POLYLINE
  8
0
 62
     0
  6
CONTINUOUS
 66
     1
 40
0.002200
 41
0.002200
  0
VERTEX
  8
0
 62
     0
  6
CONTINUOUS
 10
2.484240
 20
3.350160
  0
VERTEX
  8
0
 62
     0
  6
CONTINUOUS
 10
2.487760
 20
3.328160
  0
SEQEND
  8
0
  0
POLYLINE
  8
0
 62
     0
  6
CONTINUOUS
 66
     1
 40
0.002200
 41
0.002200
  0
VERTEX
  8
0
 62
     0
  6
CONTINUOUS
 10
2.487760
 20
3.328160
  0
VERTEX
  8
0
 62
     0
  6
CONTINUOUS
 10
2.471040
 20
3.343120
  0
SEQEND
  8
0
  0
POLYLINE
  8
0
 62
     0
  6
CONTINUOUS
 66
     1
 40
0.002200
 41
0.002200
  0
VERTEX
  8
0
 62
     0
  6
CONTINUOUS
 10
2.469280
 20
3.337400
  0
VERTEX
  8
0
 62
     0
  6
CONTINUOUS
 10
2.487760
 20
3.328160
  0
SEQEND
  8
0
  0
POLYLINE
  8
0
 62
     0
  6
CONTINUOUS
 66
     1
 40
0.002200
 41
0.002200
  0
VERTEX
  8
0
 62
     0
  6
CONTINUOUS
 10
2.487760
 20
3.328160
  0
VERTEX
  8
0
 62
     0
  6
CONTINUOUS
 10
2.465760
 20
3.329920
  0
SEQEND
  8
0
  0
POLYLINE
  8
0
 62
     0
  6
CONTINUOUS
 66
     1
 40
0.002200
 41
0.002200
  0
VERTEX
  8
0
 62
     0
  6
CONTINUOUS
 10
2.465760
 20
3.329920
  0
VERTEX
  8
0
 62
     0
  6
CONTINUOUS
 10
2.465760
 20
3.324640
  0
SEQEND
  8
0
  0
POLYLINE
  8
0
 62
     0
  6
CONTINUOUS
 66
     1
 40
0.002200
 41
0.002200
  0
VERTEX
  8
0
 62
     0
  6
CONTINUOUS
 10
2.465760
 20
3.324640
  0
VERTEX
  8
0
 62
     0
  6
CONTINUOUS
 10
2.487760
 20
3.328160
  0
SEQEND
  8
0
  0
POLYLINE
  8
0
 62
     0
  6
CONTINUOUS
 66
     1
 40
0.002200
 41
0.002200
  0
VERTEX
  8
0
 62
     0
  6
CONTINUOUS
 10
2.487760
 20
3.328160
  0
VERTEX
  8
0
 62
     0
  6
CONTINUOUS
 10
2.469280
 20
3.317160
  0
SEQEND
  8
0
  0
POLYLINE
  8
0
 62
     0
  6
CONTINUOUS
 66
     1
 40
0.002200
 41
0.002200
  0
VERTEX
  8
0
 62
     0
  6
CONTINUOUS
 10
2.471040
 20
3.311440
  0
VERTEX
  8
0
 62
     0
  6
CONTINUOUS
 10
2.487760
 20
3.328160
  0
SEQEND
  8
0
  0
POLYLINE
  8
0
 62
     0
  6
CONTINUOUS
 66
     1
 40
0.002200
 41
0.002200
  0
VERTEX
  8
0
 62
     0
  6
CONTINUOUS
 10
2.487760
 20
3.328160
  0
VERTEX
  8
0
 62
     0
  6
CONTINUOUS
 10
2.484240
 20
3.306160
  0
SEQEND
  8
0
  0
POLYLINE
  8
0
 62
     0
  6
CONTINUOUS
 66
     1
 40
0.002200
 41
0.002200
  0
VERTEX
  8
0
 62
     0
  6
CONTINUOUS
 10
2.476760
 20
3.307920
  0
VERTEX
  8
0
 62
     0
  6
CONTINUOUS
 10
2.487760
 20
3.328160
  0
SEQEND
  8
0
  0
POLYLINE
  8
0
 62
     0
  6
CONTINUOUS
 66
     1
 40
0.002200
 41
0.002200
  0
VERTEX
  8
0
 62
     0
  6
CONTINUOUS
 10
2.487760
 20
3.328160
  0
VERTEX
  8
0
 62
     0
  6
CONTINUOUS
 10
2.495240
 20
3.307920
  0
SEQEND
  8
0
  0
POLYLINE
  8
0
 62
     0
  6
CONTINUOUS
 66
     1
 40
0.002200
 41
0.002200
  0
VERTEX
  8
0
 62
     0
  6
CONTINUOUS
 10
2.487760
 20
3.328160
  0
VERTEX
  8
0
 62
     0
  6
CONTINUOUS
 10
2.495240
 20
3.346640
  0
SEQEND
  8
0
  0
POLYLINE
  8
0
 62
     0
  6
CONTINUOUS
 66
     1
 40
0.002200
 41
0.002200
  0
VERTEX
  8
0
 62
     0
  6
CONTINUOUS
 10
2.476760
 20
3.346640
  0
VERTEX
  8
0
 62
     0
  6
CONTINUOUS
 10
2.487760
 20
3.328160
  0
SEQEND
  8
0
  0
POLYLINE
  8
0
 62
     0
  6
CONTINUOUS
 66
     1
 40
0.002200
 41
0.002200
  0
VERTEX
  8
0
 62
     0
  6
CONTINUOUS
 10
2.489520
 20
3.424520
  0
VERTEX
  8
0
 62
     0
  6
CONTINUOUS
 10
2.487760
 20
3.446520
  0
SEQEND
  8
0
  0
POLYLINE
  8
0
 62
     0
  6
CONTINUOUS
 66
     1
 40
0.002200
 41
0.002200
  0
VERTEX
  8
0
 62
     0
  6
CONTINUOUS
 10
2.487760
 20
3.446520
  0
VERTEX
  8
0
 62
     0
  6
CONTINUOUS
 10
2.500520
 20
3.431560
  0
SEQEND
  8
0
  0
POLYLINE
  8
0
 62
     0
  6
CONTINUOUS
 66
     1
 40
0.002200
 41
0.002200
  0
VERTEX
  8
0
 62
     0
  6
CONTINUOUS
 10
2.495240
 20
3.428040
  0
VERTEX
  8
0
 62
     0
  6
CONTINUOUS
 10
2.487760
 20
3.446520
  0
SEQEND
  8
0
  0
POLYLINE
  8
0
 62
     0
  6
CONTINUOUS
 66
     1
 40
0.002200
 41
0.002200
  0
VERTEX
  8
0
 62
     0
  6
CONTINUOUS
 10
2.487760
 20
3.446520
  0
VERTEX
  8
0
 62
     0
  6
CONTINUOUS
 10
2.506240
 20
3.443000
  0
SEQEND
  8
0
  0
POLYLINE
  8
0
 62
     0
  6
CONTINUOUS
 66
     1
 40
0.002200
 41
0.002200
  0
VERTEX
  8
0
 62
     0
  6
CONTINUOUS
 10
2.506240
 20
3.443000
  0
VERTEX
  8
0
 62
     0
  6
CONTINUOUS
 10
2.506240
 20
3.450480
  0
SEQEND
  8
0
  0
POLYLINE
  8
0
 62
     0
  6
CONTINUOUS
 66
     1
 40
0.002200
 41
0.002200
  0
VERTEX
  8
0
 62
     0
  6
CONTINUOUS
 10
2.506240
 20
3.450480
  0
VERTEX
  8
0
 62
     0
  6
CONTINUOUS
 10
2.487760
 20
3.446520
  0
SEQEND
  8
0
  0
POLYLINE
  8
0
 62
     0
  6
CONTINUOUS
 66
     1
 40
0.002200
 41
0.002200
  0
VERTEX
  8
0
 62
     0
  6
CONTINUOUS
 10
2.487760
 20
3.446520
  0
VERTEX
  8
0
 62
     0
  6
CONTINUOUS
 10
2.506240
 20
3.457520
  0
SEQEND
  8
0
  0
POLYLINE
  8
0
 62
     0
  6
CONTINUOUS
 66
     1
 40
0.002200
 41
0.002200
  0
VERTEX
  8
0
 62
     0
  6
CONTINUOUS
 10
2.500520
 20
3.461480
  0
VERTEX
  8
0
 62
     0
  6
CONTINUOUS
 10
2.487760
 20
3.446520
  0
SEQEND
  8
0
  0
POLYLINE
  8
0
 62
     0
  6
CONTINUOUS
 66
     1
 40
0.002200
 41
0.002200
  0
VERTEX
  8
0
 62
     0
  6
CONTINUOUS
 10
2.487760
 20
3.446520
  0
VERTEX
  8
0
 62
     0
  6
CONTINUOUS
 10
2.489520
 20
3.468960
  0
SEQEND
  8
0
  0
POLYLINE
  8
0
 62
     0
  6
CONTINUOUS
 66
     1
 40
0.002200
 41
0.002200
  0
VERTEX
  8
0
 62
     0
  6
CONTINUOUS
 10
2.489520
 20
3.468960
  0
VERTEX
  8
0
 62
     0
  6
CONTINUOUS
 10
2.484240
 20
3.468960
  0
SEQEND
  8
0
  0
POLYLINE
  8
0
 62
     0
  6
CONTINUOUS
 66
     1
 40
0.002200
 41
0.002200
  0
VERTEX
  8
0
 62
     0
  6
CONTINUOUS
 10
2.484240
 20
3.468960
  0
VERTEX
  8
0
 62
     0
  6
CONTINUOUS
 10
2.487760
 20
3.446520
  0
SEQEND
  8
0
  0
POLYLINE
  8
0
 62
     0
  6
CONTINUOUS
 66
     1
 40
0.002200
 41
0.002200
  0
VERTEX
  8
0
 62
     0
  6
CONTINUOUS
 10
2.487760
 20
3.446520
  0
VERTEX
  8
0
 62
     0
  6
CONTINUOUS
 10
2.471040
 20
3.461480
  0
SEQEND
  8
0
  0
POLYLINE
  8
0
 62
     0
  6
CONTINUOUS
 66
     1
 40
0.002200
 41
0.002200
  0
VERTEX
  8
0
 62
     0
  6
CONTINUOUS
 10
2.469280
 20
3.457520
  0
VERTEX
  8
0
 62
     0
  6
CONTINUOUS
 10
2.487760
 20
3.446520
  0
SEQEND
  8
0
  0
POLYLINE
  8
0
 62
     0
  6
CONTINUOUS
 66
     1
 40
0.002200
 41
0.002200
  0
VERTEX
  8
0
 62
     0
  6
CONTINUOUS
 10
2.487760
 20
3.446520
  0
VERTEX
  8
0
 62
     0
  6
CONTINUOUS
 10
2.465760
 20
3.450480
  0
SEQEND
  8
0
  0
POLYLINE
  8
0
 62
     0
  6
CONTINUOUS
 66
     1
 40
0.002200
 41
0.002200
  0
VERTEX
  8
0
 62
     0
  6
CONTINUOUS
 10
2.465760
 20
3.450480
  0
VERTEX
  8
0
 62
     0
  6
CONTINUOUS
 10
2.465760
 20
3.443000
  0
SEQEND
  8
0
  0
POLYLINE
  8
0
 62
     0
  6
CONTINUOUS
 66
     1
 40
0.002200
 41
0.002200
  0
VERTEX
  8
0
 62
     0
  6
CONTINUOUS
 10
2.465760
 20
3.443000
  0
VERTEX
  8
0
 62
     0
  6
CONTINUOUS
 10
2.487760
 20
3.446520
  0
SEQEND
  8
0
  0
POLYLINE
  8
0
 62
     0
  6
CONTINUOUS
 66
     1
 40
0.002200
 41
0.002200
  0
VERTEX
  8
0
 62
     0
  6
CONTINUOUS
 10
2.487760
 20
3.446520
  0
VERTEX
  8
0
 62
     0
  6
CONTINUOUS
 10
2.469280
 20
3.435520
  0
SEQEND
  8
0
  0
POLYLINE
  8
0
 62
     0
  6
CONTINUOUS
 66
     1
 40
0.002200
 41
0.002200
  0
VERTEX
  8
0
 62
     0
  6
CONTINUOUS
 10
2.471040
 20
3.431560
  0
VERTEX
  8
0
 62
     0
  6
CONTINUOUS
 10
2.487760
 20
3.446520
  0
SEQEND
  8
0
  0
POLYLINE
  8
0
 62
     0
  6
CONTINUOUS
 66
     1
 40
0.002200
 41
0.002200
  0
VERTEX
  8
0
 62
     0
  6
CONTINUOUS
 10
2.487760
 20
3.446520
  0
VERTEX
  8
0
 62
     0
  6
CONTINUOUS
 10
2.484240
 20
3.424520
  0
SEQEND
  8
0
  0
POLYLINE
  8
0
 62
     0
  6
CONTINUOUS
 66
     1
 40
0.002200
 41
0.002200
  0
VERTEX
  8
0
 62
     0
  6
CONTINUOUS
 10
2.476760
 20
3.428040
  0
VERTEX
  8
0
 62
     0
  6
CONTINUOUS
 10
2.487760
 20
3.446520
  0
SEQEND
  8
0
  0
POLYLINE
  8
0
 62
     0
  6
CONTINUOUS
 66
     1
 40
0.002200
 41
0.002200
  0
VERTEX
  8
0
 62
     0
  6
CONTINUOUS
 10
2.487760
 20
3.446520
  0
VERTEX
  8
0
 62
     0
  6
CONTINUOUS
 10
2.506240
 20
3.435520
  0
SEQEND
  8
0
  0
POLYLINE
  8
0
 62
     0
  6
CONTINUOUS
 66
     1
 40
0.002200
 41
0.002200
  0
VERTEX
  8
0
 62
     0
  6
CONTINUOUS
 10
2.487760
 20
3.446520
  0
VERTEX
  8
0
 62
     0
  6
CONTINUOUS
 10
2.495240
 20
3.466760
  0
SEQEND
  8
0
  0
POLYLINE
  8
0
 62
     0
  6
CONTINUOUS
 66
     1
 40
0.002200
 41
0.002200
  0
VERTEX
  8
0
 62
     0
  6
CONTINUOUS
 10
2.476760
 20
3.466760
  0
VERTEX
  8
0
 62
     0
  6
CONTINUOUS
 10
2.487760
 20
3.446520
  0
SEQEND
  8
0
  0
POLYLINE
  8
0
 62
     0
  6
CONTINUOUS
 66
     1
 40
0.002200
 41
0.002200
  0
VERTEX
  8
0
 62
     0
  6
CONTINUOUS
 10
3.544200
 20
2.833600
  0
VERTEX
  8
0
 62
     0
  6
CONTINUOUS
 10
1.530320
 20
2.833600
  0
SEQEND
  8
0
  0
POLYLINE
  8
0
 62
     0
  6
CONTINUOUS
 66
     1
 40
0.002200
 41
0.002200
  0
VERTEX
  8
0
 62
     0
  6
CONTINUOUS
 10
1.529440
 20
2.836240
  0
VERTEX
  8
0
 62
     0
  6
CONTINUOUS
 10
1.908720
 20
3.187800
  0
SEQEND
  8
0
  0
POLYLINE
  8
0
 62
     0
  6
CONTINUOUS
 66
     1
 40
0.002200
 41
0.002200
  0
VERTEX
  8
0
 62
     0
  6
CONTINUOUS
 10
3.558720
 20
3.560920
  0
VERTEX
  8
0
 62
     0
  6
CONTINUOUS
 10
1.545720
 20
3.560920
  0
SEQEND
  8
0
  0
POLYLINE
  8
0
 62
     0
  6
CONTINUOUS
 66
     1
 40
0.002200
 41
0.002200
  0
VERTEX
  8
0
 62
     0
  6
CONTINUOUS
 10
2.486000
 20
3.039520
  0
VERTEX
  8
0
 62
     0
  6
CONTINUOUS
 10
2.486000
 20
2.813800
  0
SEQEND
  8
0
  0
POLYLINE
  8
0
 62
     0
  6
CONTINUOUS
 66
     1
 40
0.002200
 41
0.002200
  0
VERTEX
  8
0
 62
     0
  6
CONTINUOUS
 10
2.486000
 20
3.128400
  0
VERTEX
  8
0
 62
     0
  6
CONTINUOUS
 10
2.486000
 20
3.309680
  0
SEQEND
  8
0
  0
POLYLINE
  8
0
 62
     0
  6
CONTINUOUS
 66
     1
 40
0.002200
 41
0.002200
  0
VERTEX
  8
0
 62
     0
  6
CONTINUOUS
 10
2.486000
 20
3.400320
  0
VERTEX
  8
0
 62
     0
  6
CONTINUOUS
 10
2.486000
 20
3.581600
  0
SEQEND
  8
0
  0
POLYLINE
  8
0
 62
     0
  6
CONTINUOUS
 66
     1
 40
0.002200
 41
0.002200
  0
VERTEX
  8
0
 62
     0
  6
CONTINUOUS
 10
3.556960
 20
2.836240
  0
VERTEX
  8
0
 62
     0
  6
CONTINUOUS
 10
3.936240
 20
3.187800
  0
SEQEND
  8
0
  0
POLYLINE
  8
0
 62
     0
  6
CONTINUOUS
 66
     1
 40
0.002200
 41
0.002200
  0
VERTEX
  8
0
 62
     0
  6
CONTINUOUS
 10
3.936240
 20
3.187800
  0
VERTEX
  8
0
 62
     0
  6
CONTINUOUS
 10
3.556960
 20
3.564880
  0
SEQEND
  8
0
  0
POLYLINE
  8
0
 62
     0
  6
CONTINUOUS
 66
     1
 40
0.002200
 41
0.002200
  0
VERTEX
  8
0
 62
     0
  6
CONTINUOUS
 10
3.666080
 20
3.217280
  0
VERTEX
  8
0
 62
     0
  6
CONTINUOUS
 10
3.664320
 20
3.211560
  0
SEQEND
  8
0
  0
POLYLINE
  8
0
 62
     0
  6
CONTINUOUS
 66
     1
 40
0.002200
 41
0.002200
  0
VERTEX
  8
0
 62
     0
  6
CONTINUOUS
 10
3.664320
 20
3.211560
  0
VERTEX
  8
0
 62
     0
  6
CONTINUOUS
 10
3.666080
 20
3.206280
  0
SEQEND
  8
0
  0
POLYLINE
  8
0
 62
     0
  6
CONTINUOUS
 66
     1
 40
0.002200
 41
0.002200
  0
VERTEX
  8
0
 62
     0
  6
CONTINUOUS
 10
3.666080
 20
3.206280
  0
VERTEX
  8
0
 62
     0
  6
CONTINUOUS
 10
3.670040
 20
3.202320
  0
SEQEND
  8
0
  0
POLYLINE
  8
0
 62
     0
  6
CONTINUOUS
 66
     1
 40
0.002200
 41
0.002200
  0
VERTEX
  8
0
 62
     0
  6
CONTINUOUS
 10
3.670040
 20
3.202320
  0
VERTEX
  8
0
 62
     0
  6
CONTINUOUS
 10
3.673560
 20
3.200560
  0
SEQEND
  8
0
  0
POLYLINE
  8
0
 62
     0
  6
CONTINUOUS
 66
     1
 40
0.002200
 41
0.002200
  0
VERTEX
  8
0
 62
     0
  6
CONTINUOUS
 10
3.673560
 20
3.200560
  0
VERTEX
  8
0
 62
     0
  6
CONTINUOUS
 10
3.688520
 20
3.194840
  0
SEQEND
  8
0
  0
POLYLINE
  8
0
 62
     0
  6
CONTINUOUS
 66
     1
 40
0.002200
 41
0.002200
  0
VERTEX
  8
0
 62
     0
  6
CONTINUOUS
 10
3.688520
 20
3.194840
  0
VERTEX
  8
0
 62
     0
  6
CONTINUOUS
 10
3.695560
 20
3.191320
  0
SEQEND
  8
0
  0
POLYLINE
  8
0
 62
     0
  6
CONTINUOUS
 66
     1
 40
0.002200
 41
0.002200
  0
VERTEX
  8
0
 62
     0
  6
CONTINUOUS
 10
3.695560
 20
3.191320
  0
VERTEX
  8
0
 62
     0
  6
CONTINUOUS
 10
3.697760
 20
3.187800
  0
SEQEND
  8
0
  0
POLYLINE
  8
0
 62
     0
  6
CONTINUOUS
 66
     1
 40
0.002200
 41
0.002200
  0
VERTEX
  8
0
 62
     0
  6
CONTINUOUS
 10
3.697760
 20
3.187800
  0
VERTEX
  8
0
 62
     0
  6
CONTINUOUS
 10
3.699520
 20
3.182080
  0
SEQEND
  8
0
  0
POLYLINE
  8
0
 62
     0
  6
CONTINUOUS
 66
     1
 40
0.002200
 41
0.002200
  0
VERTEX
  8
0
 62
     0
  6
CONTINUOUS
 10
3.699520
 20
3.182080
  0
VERTEX
  8
0
 62
     0
  6
CONTINUOUS
 10
3.695560
 20
3.172840
  0
SEQEND
  8
0
  0
POLYLINE
  8
0
 62
     0
  6
CONTINUOUS
 66
     1
 40
0.002200
 41
0.002200
  0
VERTEX
  8
0
 62
     0
  6
CONTINUOUS
 10
3.695560
 20
3.172840
  0
VERTEX
  8
0
 62
     0
  6
CONTINUOUS
 10
3.688520
 20
3.167120
  0
SEQEND
  8
0
  0
POLYLINE
  8
0
 62
     0
  6
CONTINUOUS
 66
     1
 40
0.002200
 41
0.002200
  0
VERTEX
  8
0
 62
     0
  6
CONTINUOUS
 10
3.688520
 20
3.167120
  0
VERTEX
  8
0
 62
     0
  6
CONTINUOUS
 10
3.679280
 20
3.165360
  0
SEQEND
  8
0
  0
POLYLINE
  8
0
 62
     0
  6
CONTINUOUS
 66
     1
 40
0.002200
 41
0.002200
  0
VERTEX
  8
0
 62
     0
  6
CONTINUOUS
 10
3.679280
 20
3.165360
  0
VERTEX
  8
0
 62
     0
  6
CONTINUOUS
 10
3.666080
 20
3.165360
  0
SEQEND
  8
0
  0
POLYLINE
  8
0
 62
     0
  6
CONTINUOUS
 66
     1
 40
0.002200
 41
0.002200
  0
VERTEX
  8
0
 62
     0
  6
CONTINUOUS
 10
3.666080
 20
3.165360
  0
VERTEX
  8
0
 62
     0
  6
CONTINUOUS
 10
3.658600
 20
3.167120
  0
SEQEND
  8
0
  0
POLYLINE
  8
0
 62
     0
  6
CONTINUOUS
 66
     1
 40
0.002200
 41
0.002200
  0
VERTEX
  8
0
 62
     0
  6
CONTINUOUS
 10
3.658600
 20
3.167120
  0
VERTEX
  8
0
 62
     0
  6
CONTINUOUS
 10
3.655080
 20
3.172840
  0
SEQEND
  8
0
  0
POLYLINE
  8
0
 62
     0
  6
CONTINUOUS
 66
     1
 40
0.002200
 41
0.002200
  0
VERTEX
  8
0
 62
     0
  6
CONTINUOUS
 10
3.666080
 20
3.217280
  0
VERTEX
  8
0
 62
     0
  6
CONTINUOUS
 10
3.673560
 20
3.222560
  0
SEQEND
  8
0
  0
POLYLINE
  8
0
 62
     0
  6
CONTINUOUS
 66
     1
 40
0.002200
 41
0.002200
  0
VERTEX
  8
0
 62
     0
  6
CONTINUOUS
 10
3.673560
 20
3.222560
  0
VERTEX
  8
0
 62
     0
  6
CONTINUOUS
 10
3.682800
 20
3.226520
  0
SEQEND
  8
0
  0
POLYLINE
  8
0
 62
     0
  6
CONTINUOUS
 66
     1
 40
0.002200
 41
0.002200
  0
VERTEX
  8
0
 62
     0
  6
CONTINUOUS
 10
3.682800
 20
3.226520
  0
VERTEX
  8
0
 62
     0
  6
CONTINUOUS
 10
3.695560
 20
3.226520
  0
SEQEND
  8
0
  0
POLYLINE
  8
0
 62
     0
  6
CONTINUOUS
 66
     1
 40
0.002200
 41
0.002200
  0
VERTEX
  8
0
 62
     0
  6
CONTINUOUS
 10
3.695560
 20
3.226520
  0
VERTEX
  8
0
 62
     0
  6
CONTINUOUS
 10
3.703040
 20
3.222560
  0
SEQEND
  8
0
  0
POLYLINE
  8
0
 62
     0
  6
CONTINUOUS
 66
     1
 40
0.002200
 41
0.002200
  0
VERTEX
  8
0
 62
     0
  6
CONTINUOUS
 10
3.703040
 20
3.222560
  0
VERTEX
  8
0
 62
     0
  6
CONTINUOUS
 10
3.708760
 20
3.217280
  0
SEQEND
  8
0
  0
POLYLINE
  8
0
 62
     0
  6
CONTINUOUS
 66
     1
 40
0.002200
 41
0.002200
  0
VERTEX
  8
0
 62
     0
  6
CONTINUOUS
 10
3.719760
 20
3.183840
  0
VERTEX
  8
0
 62
     0
  6
CONTINUOUS
 10
3.751440
 20
3.183840
  0
SEQEND
  8
0
  0
POLYLINE
  8
0
 62
     0
  6
CONTINUOUS
 66
     1
 40
0.002200
 41
0.002200
  0
VERTEX
  8
0
 62
     0
  6
CONTINUOUS
 10
3.753200
 20
3.165360
  0
VERTEX
  8
0
 62
     0
  6
CONTINUOUS
 10
3.745720
 20
3.226520
  0
SEQEND
  8
0
  0
POLYLINE
  8
0
 62
     0
  6
CONTINUOUS
 66
     1
 40
0.002200
 41
0.002200
  0
VERTEX
  8
0
 62
     0
  6
CONTINUOUS
 10
3.745720
 20
3.226520
  0
VERTEX
  8
0
 62
     0
  6
CONTINUOUS
 10
3.707000
 20
3.165360
  0
SEQEND
  8
0
  0
POLYLINE
  8
0
 62
     0
  6
CONTINUOUS
 66
     1
 40
0.002200
 41
0.002200
  0
VERTEX
  8
0
 62
     0
  6
CONTINUOUS
 10
2.486440
 20
2.094400
  0
VERTEX
  8
0
 62
     0
  6
CONTINUOUS
 10
2.486440
 20
2.821280
  0
SEQEND
  8
0
  0
POLYLINE
  8
0
 62
     0
  6
CONTINUOUS
 66
     1
 40
0.002200
 41
0.002200
  0
VERTEX
  8
0
 62
     0
  6
CONTINUOUS
 10
3.034240
 20
2.031480
  0
VERTEX
  8
0
 62
     0
  6
CONTINUOUS
 10
2.996840
 20
1.934240
  0
VERTEX
  8
0
 62
     0
  6
CONTINUOUS
 10
3.010920
 20
1.934240
  0
VERTEX
  8
0
 62
     0
  6
CONTINUOUS
 10
3.021480
 20
1.963280
  0
VERTEX
  8
0
 62
     0
  6
CONTINUOUS
 10
3.076480
 20
1.963280
  0
VERTEX
  8
0
 62
     0
  6
CONTINUOUS
 10
3.053600
 20
2.020040
  0
VERTEX
  8
0
 62
     0
  6
CONTINUOUS
 10
3.041280
 20
2.020040
  0
VERTEX
  8
0
 62
     0
  6
CONTINUOUS
 10
3.058000
 20
1.974280
  0
VERTEX
  8
0
 62
     0
  6
CONTINUOUS
 10
3.025440
 20
1.974280
  0
VERTEX
  8
0
 62
     0
  6
CONTINUOUS
 10
3.040400
 20
2.016520
  0
VERTEX
  8
0
 62
     0
  6
CONTINUOUS
 10
3.040840
 20
2.020040
  0
VERTEX
  8
0
 62
     0
  6
CONTINUOUS
 10
3.053160
 20
2.020040
  0
VERTEX
  8
0
 62
     0
  6
CONTINUOUS
 10
3.048760
 20
2.031480
  0
VERTEX
  8
0
 62
     0
  6
CONTINUOUS
 10
3.034240
 20
2.031480
  0
SEQEND
  8
0
  0
SOLID
  8
0
 62
     0
 10
3.061960
 20
1.963280
 11
3.072960
 21
1.934240
 12
3.076480
 22
1.963280
 13
3.088360
 23
1.934240
  0
POLYLINE
  8
0
 62
     0
  6
CONTINUOUS
 66
     1
 40
0.002200
 41
0.002200
  0
VERTEX
  8
0
 62
     0
  6
CONTINUOUS
 10
3.061960
 20
1.963280
  0
VERTEX
  8
0
 62
     0
  6
CONTINUOUS
 10
3.072960
 20
1.934240
  0
VERTEX
  8
0
 62
     0
  6
CONTINUOUS
 10
3.088360
 20
1.934240
  0
VERTEX
  8
0
 62
     0
  6
CONTINUOUS
 10
3.076480
 20
1.963280
  0
VERTEX
  8
0
 62
     0
  6
CONTINUOUS
 10
3.061960
 20
1.963280
  0
SEQEND
  8
0
  0
POLYLINE
  8
0
 62
     0
  6
CONTINUOUS
 66
     1
 40
0.002200
 41
0.002200
  0
VERTEX
  8
0
 62
     0
  6
CONTINUOUS
 10
3.142920
 20
2.021360
  0
VERTEX
  8
0
 62
     0
  6
CONTINUOUS
 10
3.142920
 20
2.020920
  0
VERTEX
  8
0
 62
     0
  6
CONTINUOUS
 10
3.149960
 20
2.020040
  0
VERTEX
  8
0
 62
     0
  6
CONTINUOUS
 10
3.149960
 20
2.019600
  0
VERTEX
  8
0
 62
     0
  6
CONTINUOUS
 10
3.160960
 20
2.014320
  0
VERTEX
  8
0
 62
     0
  6
CONTINUOUS
 10
3.167120
 20
2.007280
  0
VERTEX
  8
0
 62
     0
  6
CONTINUOUS
 10
3.172400
 20
1.994520
  0
VERTEX
  8
0
 62
     0
  6
CONTINUOUS
 10
3.173280
 20
1.977800
  0
VERTEX
  8
0
 62
     0
  6
CONTINUOUS
 10
3.172840
 20
1.977800
  0
VERTEX
  8
0
 62
     0
  6
CONTINUOUS
 10
3.171520
 20
1.966800
  0
VERTEX
  8
0
 62
     0
  6
CONTINUOUS
 10
3.171080
 20
1.966800
  0
VERTEX
  8
0
 62
     0
  6
CONTINUOUS
 10
3.168880
 20
1.960640
  0
VERTEX
  8
0
 62
     0
  6
CONTINUOUS
 10
3.159200
 20
1.949200
  0
VERTEX
  8
0
 62
     0
  6
CONTINUOUS
 10
3.148200
 20
1.943920
  0
VERTEX
  8
0
 62
     0
  6
CONTINUOUS
 10
3.131920
 20
1.943920
  0
VERTEX
  8
0
 62
     0
  6
CONTINUOUS
 10
3.131920
 20
1.944360
  0
VERTEX
  8
0
 62
     0
  6
CONTINUOUS
 10
3.120920
 20
1.949200
  0
VERTEX
  8
0
 62
     0
  6
CONTINUOUS
 10
3.110800
 20
1.961960
  0
VERTEX
  8
0
 62
     0
  6
CONTINUOUS
 10
3.107280
 20
1.976920
  0
VERTEX
  8
0
 62
     0
  6
CONTINUOUS
 10
3.108600
 20
1.996720
  0
VERTEX
  8
0
 62
     0
  6
CONTINUOUS
 10
3.109040
 20
1.996720
  0
VERTEX
  8
0
 62
     0
  6
CONTINUOUS
 10
3.111240
 20
2.004640
  0
VERTEX
  8
0
 62
     0
  6
CONTINUOUS
 10
3.119160
 20
2.014320
  0
VERTEX
  8
0
 62
     0
  6
CONTINUOUS
 10
3.132360
 20
2.020920
  0
VERTEX
  8
0
 62
     0
  6
CONTINUOUS
 10
3.171080
 20
2.021360
  0
VERTEX
  8
0
 62
     0
  6
CONTINUOUS
 10
3.159200
 20
2.029280
  0
VERTEX
  8
0
 62
     0
  6
CONTINUOUS
 10
3.143360
 20
2.032800
  0
VERTEX
  8
0
 62
     0
  6
CONTINUOUS
 10
3.126640
 20
2.031040
  0
VERTEX
  8
0
 62
     0
  6
CONTINUOUS
 10
3.126640
 20
2.030600
  0
VERTEX
  8
0
 62
     0
  6
CONTINUOUS
 10
3.118280
 20
2.027520
  0
VERTEX
  8
0
 62
     0
  6
CONTINUOUS
 10
3.107720
 20
2.020040
  0
VERTEX
  8
0
 62
     0
  6
CONTINUOUS
 10
3.099360
 20
2.009040
  0
VERTEX
  8
0
 62
     0
  6
CONTINUOUS
 10
3.094520
 20
1.993640
  0
VERTEX
  8
0
 62
     0
  6
CONTINUOUS
 10
3.094080
 20
1.973400
  0
VERTEX
  8
0
 62
     0
  6
CONTINUOUS
 10
3.094520
 20
1.973400
  0
VERTEX
  8
0
 62
     0
  6
CONTINUOUS
 10
3.097160
 20
1.961080
  0
VERTEX
  8
0
 62
     0
  6
CONTINUOUS
 10
3.098040
 20
1.960200
  0
VERTEX
  8
0
 62
     0
  6
CONTINUOUS
 10
3.103320
 20
1.949640
  0
VERTEX
  8
0
 62
     0
  6
CONTINUOUS
 10
3.115640
 20
1.938640
  0
VERTEX
  8
0
 62
     0
  6
CONTINUOUS
 10
3.126200
 20
1.933800
  0
VERTEX
  8
0
 62
     0
  6
CONTINUOUS
 10
3.132360
 20
1.932480
  0
VERTEX
  8
0
 62
     0
  6
CONTINUOUS
 10
3.149080
 20
1.932920
  0
VERTEX
  8
0
 62
     0
  6
CONTINUOUS
 10
3.149080
 20
1.933360
  0
VERTEX
  8
0
 62
     0
  6
CONTINUOUS
 10
3.160520
 20
1.936440
  0
VERTEX
  8
0
 62
     0
  6
CONTINUOUS
 10
3.164920
 20
1.939520
  0
VERTEX
  8
0
 62
     0
  6
CONTINUOUS
 10
3.175480
 20
1.947440
  0
VERTEX
  8
0
 62
     0
  6
CONTINUOUS
 10
3.178120
 20
1.951400
  0
VERTEX
  8
0
 62
     0
  6
CONTINUOUS
 10
3.179880
 20
1.954040
  0
VERTEX
  8
0
 62
     0
  6
CONTINUOUS
 10
3.185160
 20
1.967680
  0
VERTEX
  8
0
 62
     0
  6
CONTINUOUS
 10
3.186920
 20
1.985720
  0
VERTEX
  8
0
 62
     0
  6
CONTINUOUS
 10
3.186480
 20
1.985720
  0
VERTEX
  8
0
 62
     0
  6
CONTINUOUS
 10
3.184720
 20
2.000240
  0
VERTEX
  8
0
 62
     0
  6
CONTINUOUS
 10
3.184280
 20
2.000240
  0
VERTEX
  8
0
 62
     0
  6
CONTINUOUS
 10
3.181200
 20
2.008600
  0
VERTEX
  8
0
 62
     0
  6
CONTINUOUS
 10
3.171520
 20
2.021360
  0
VERTEX
  8
0
 62
     0
  6
CONTINUOUS
 10
3.142920
 20
2.021360
  0
SEQEND
  8
0
  0
POLYLINE
  8
0
 62
     0
  6
CONTINUOUS
 66
     1
 40
0.002200
 41
0.002200
  0
VERTEX
  8
0
 62
     0
  6
CONTINUOUS
 10
3.260400
 20
1.945680
  0
VERTEX
  8
0
 62
     0
  6
CONTINUOUS
 10
3.260400
 20
1.934240
  0
VERTEX
  8
0
 62
     0
  6
CONTINUOUS
 10
3.196160
 20
1.934240
  0
VERTEX
  8
0
 62
     0
  6
CONTINUOUS
 10
3.197480
 20
1.942600
  0
VERTEX
  8
0
 62
     0
  6
CONTINUOUS
 10
3.208480
 20
1.958880
  0
VERTEX
  8
0
 62
     0
  6
CONTINUOUS
 10
3.238840
 20
1.986600
  0
VERTEX
  8
0
 62
     0
  6
CONTINUOUS
 10
3.246760
 20
1.998040
  0
VERTEX
  8
0
 62
     0
  6
CONTINUOUS
 10
3.248080
 20
2.005080
  0
VERTEX
  8
0
 62
     0
  6
CONTINUOUS
 10
3.245440
 20
2.014320
  0
VERTEX
  8
0
 62
     0
  6
CONTINUOUS
 10
3.240600
 20
2.019160
  0
VERTEX
  8
0
 62
     0
  6
CONTINUOUS
 10
3.229600
 20
2.021800
  0
VERTEX
  8
0
 62
     0
  6
CONTINUOUS
 10
3.218600
 20
2.018720
  0
VERTEX
  8
0
 62
     0
  6
CONTINUOUS
 10
3.212000
 20
2.010800
  0
VERTEX
  8
0
 62
     0
  6
CONTINUOUS
 10
3.210680
 20
2.002440
  0
VERTEX
  8
0
 62
     0
  6
CONTINUOUS
 10
3.198360
 20
2.003760
  0
VERTEX
  8
0
 62
     0
  6
CONTINUOUS
 10
3.201440
 20
2.015640
  0
VERTEX
  8
0
 62
     0
  6
CONTINUOUS
 10
3.208040
 20
2.024440
  0
VERTEX
  8
0
 62
     0
  6
CONTINUOUS
 10
3.217720
 20
2.030160
  0
VERTEX
  8
0
 62
     0
  6
CONTINUOUS
 10
3.230040
 20
2.031920
  0
VERTEX
  8
0
 62
     0
  6
CONTINUOUS
 10
3.242360
 20
2.029720
  0
VERTEX
  8
0
 62
     0
  6
CONTINUOUS
 10
3.252040
 20
2.024000
  0
VERTEX
  8
0
 62
     0
  6
CONTINUOUS
 10
3.258200
 20
2.015200
  0
VERTEX
  8
0
 62
     0
  6
CONTINUOUS
 10
3.260400
 20
2.004640
  0
VERTEX
  8
0
 62
     0
  6
CONTINUOUS
 10
3.259960
 20
1.998920
  0
VERTEX
  8
0
 62
     0
  6
CONTINUOUS
 10
3.254680
 20
1.987480
  0
VERTEX
  8
0
 62
     0
  6
CONTINUOUS
 10
3.242800
 20
1.973840
  0
VERTEX
  8
0
 62
     0
  6
CONTINUOUS
 10
3.215080
 20
1.948760
  0
VERTEX
  8
0
 62
     0
  6
CONTINUOUS
 10
3.212440
 20
1.945680
  0
VERTEX
  8
0
 62
     0
  6
CONTINUOUS
 10
3.260400
 20
1.945680
  0
SEQEND
  8
0
  0
POLYLINE
  8
0
 62
     0
  6
CONTINUOUS
 66
     1
 40
0.014080
 41
0.014080
  0
VERTEX
  8
0
 62
     0
  6
CONTINUOUS
 10
2.967360
 20
2.078120
  0
VERTEX
  8
0
 62
     0
  6
CONTINUOUS
 10
3.293400
 20
2.078120
  0
VERTEX
  8
0
 62
     0
  6
CONTINUOUS
 10
3.293400
 20
1.885400
  0
VERTEX
  8
0
 62
     0
  6
CONTINUOUS
 10
2.967360
 20
1.885400
  0
VERTEX
  8
0
 62
     0
  6
CONTINUOUS
 10
2.967360
 20
2.078120
  0
SEQEND
  8
0
  0
POLYLINE
  8
0
 62
     0
  6
CONTINUOUS
 66
     1
 40
0.014080
 41
0.014080
  0
VERTEX
  8
0
 62
     0
  6
CONTINUOUS
 10
2.362360
 20
2.020040
  0
VERTEX
  8
0
 62
     0
  6
CONTINUOUS
 10
2.379080
 20
1.974280
  0
VERTEX
  8
0
 62
     0
  6
CONTINUOUS
 10
2.346520
 20
1.974280
  0
VERTEX
  8
0
 62
     0
  6
CONTINUOUS
 10
2.361480
 20
2.016520
  0
VERTEX
  8
0
 62
     0
  6
CONTINUOUS
 10
2.361920
 20
2.020040
  0
VERTEX
  8
0
 62
     0
  6
CONTINUOUS
 10
2.374240
 20
2.020040
  0
VERTEX
  8
0
 62
     0
  6
CONTINUOUS
 10
2.369840
 20
2.031480
  0
VERTEX
  8
0
 62
     0
  6
CONTINUOUS
 10
2.355320
 20
2.031480
  0
VERTEX
  8
0
 62
     0
  6
CONTINUOUS
 10
2.317920
 20
1.934240
  0
VERTEX
  8
0
 62
     0
  6
CONTINUOUS
 10
2.332000
 20
1.934240
  0
VERTEX
  8
0
 62
     0
  6
CONTINUOUS
 10
2.342560
 20
1.963280
  0
VERTEX
  8
0
 62
     0
  6
CONTINUOUS
 10
2.397560
 20
1.963280
  0
VERTEX
  8
0
 62
     0
  6
CONTINUOUS
 10
2.374680
 20
2.020040
  0
VERTEX
  8
0
 62
     0
  6
CONTINUOUS
 10
2.362360
 20
2.020040
  0
SEQEND
  8
0
  0
SOLID
  8
0
 62
     0
 10
2.383040
 20
1.963280
 11
2.394480
 21
1.934240
 12
2.397560
 22
1.963280
 13
2.409440
 23
1.934240
  0
POLYLINE
  8
0
 62
     0
  6
CONTINUOUS
 66
     1
 40
0.014080
 41
0.014080
  0
VERTEX
  8
0
 62
     0
  6
CONTINUOUS
 10
2.383040
 20
1.963280
  0
VERTEX
  8
0
 62
     0
  6
CONTINUOUS
 10
2.394480
 20
1.934240
  0
VERTEX
  8
0
 62
     0
  6
CONTINUOUS
 10
2.409440
 20
1.934240
  0
VERTEX
  8
0
 62
     0
  6
CONTINUOUS
 10
2.397560
 20
1.963280
  0
VERTEX
  8
0
 62
     0
  6
CONTINUOUS
 10
2.383040
 20
1.963280
  0
SEQEND
  8
0
  0
POLYLINE
  8
0
 62
     0
  6
CONTINUOUS
 66
     1
 40
0.014080
 41
0.014080
  0
VERTEX
  8
0
 62
     0
  6
CONTINUOUS
 10
2.464000
 20
2.021360
  0
VERTEX
  8
0
 62
     0
  6
CONTINUOUS
 10
2.464000
 20
2.020920
  0
VERTEX
  8
0
 62
     0
  6
CONTINUOUS
 10
2.471480
 20
2.020040
  0
VERTEX
  8
0
 62
     0
  6
CONTINUOUS
 10
2.471480
 20
2.019600
  0
VERTEX
  8
0
 62
     0
  6
CONTINUOUS
 10
2.482480
 20
2.014320
  0
VERTEX
  8
0
 62
     0
  6
CONTINUOUS
 10
2.489080
 20
2.005520
  0
VERTEX
  8
0
 62
     0
  6
CONTINUOUS
 10
2.493480
 20
1.994520
  0
VERTEX
  8
0
 62
     0
  6
CONTINUOUS
 10
2.494360
 20
1.977800
  0
VERTEX
  8
0
 62
     0
  6
CONTINUOUS
 10
2.493920
 20
1.977800
  0
VERTEX
  8
0
 62
     0
  6
CONTINUOUS
 10
2.492600
 20
1.966800
  0
VERTEX
  8
0
 62
     0
  6
CONTINUOUS
 10
2.492160
 20
1.966800
  0
VERTEX
  8
0
 62
     0
  6
CONTINUOUS
 10
2.489960
 20
1.960640
  0
VERTEX
  8
0
 62
     0
  6
CONTINUOUS
 10
2.482920
 20
1.951400
  0
VERTEX
  8
0
 62
     0
  6
CONTINUOUS
 10
2.471920
 20
1.944800
  0
VERTEX
  8
0
 62
     0
  6
CONTINUOUS
 10
2.465320
 20
1.943480
  0
VERTEX
  8
0
 62
     0
  6
CONTINUOUS
 10
2.453000
 20
1.944360
  0
VERTEX
  8
0
 62
     0
  6
CONTINUOUS
 10
2.442000
 20
1.949200
  0
VERTEX
  8
0
 62
     0
  6
CONTINUOUS
 10
2.432760
 20
1.961080
  0
VERTEX
  8
0
 62
     0
  6
CONTINUOUS
 10
2.429240
 20
1.971640
  0
VERTEX
  8
0
 62
     0
  6
CONTINUOUS
 10
2.429240
 20
1.992320
  0
VERTEX
  8
0
 62
     0
  6
CONTINUOUS
 10
2.429680
 20
1.992320
  0
VERTEX
  8
0
 62
     0
  6
CONTINUOUS
 10
2.432760
 20
2.004640
  0
VERTEX
  8
0
 62
     0
  6
CONTINUOUS
 10
2.440680
 20
2.014320
  0
VERTEX
  8
0
 62
     0
  6
CONTINUOUS
 10
2.449480
 20
2.019600
  0
VERTEX
  8
0
 62
     0
  6
CONTINUOUS
 10
2.457840
 20
2.021360
  0
VERTEX
  8
0
 62
     0
  6
CONTINUOUS
 10
2.492600
 20
2.021360
  0
VERTEX
  8
0
 62
     0
  6
CONTINUOUS
 10
2.480280
 20
2.029280
  0
VERTEX
  8
0
 62
     0
  6
CONTINUOUS
 10
2.464440
 20
2.032800
  0
VERTEX
  8
0
 62
     0
  6
CONTINUOUS
 10
2.450800
 20
2.031480
  0
VERTEX
  8
0
 62
     0
  6
CONTINUOUS
 10
2.439800
 20
2.027520
  0
VERTEX
  8
0
 62
     0
  6
CONTINUOUS
 10
2.429240
 20
2.020040
  0
VERTEX
  8
0
 62
     0
  6
CONTINUOUS
 10
2.420880
 20
2.009040
  0
VERTEX
  8
0
 62
     0
  6
CONTINUOUS
 10
2.415600
 20
1.993200
  0
VERTEX
  8
0
 62
     0
  6
CONTINUOUS
 10
2.415160
 20
1.973840
  0
VERTEX
  8
0
 62
     0
  6
CONTINUOUS
 10
2.415600
 20
1.973840
  0
VERTEX
  8
0
 62
     0
  6
CONTINUOUS
 10
2.421320
 20
1.954920
  0
VERTEX
  8
0
 62
     0
  6
CONTINUOUS
 10
2.434080
 20
1.940400
  0
VERTEX
  8
0
 62
     0
  6
CONTINUOUS
 10
2.446400
 20
1.934240
  0
VERTEX
  8
0
 62
     0
  6
CONTINUOUS
 10
2.453440
 20
1.932480
  0
VERTEX
  8
0
 62
     0
  6
CONTINUOUS
 10
2.470160
 20
1.932920
  0
VERTEX
  8
0
 62
     0
  6
CONTINUOUS
 10
2.470160
 20
1.933360
  0
VERTEX
  8
0
 62
     0
  6
CONTINUOUS
 10
2.481600
 20
1.936440
  0
VERTEX
  8
0
 62
     0
  6
CONTINUOUS
 10
2.486000
 20
1.939520
  0
VERTEX
  8
0
 62
     0
  6
CONTINUOUS
 10
2.497000
 20
1.947440
  0
VERTEX
  8
0
 62
     0
  6
CONTINUOUS
 10
2.499640
 20
1.951400
  0
VERTEX
  8
0
 62
     0
  6
CONTINUOUS
 10
2.501400
 20
1.954040
  0
VERTEX
  8
0
 62
     0
  6
CONTINUOUS
 10
2.506680
 20
1.967680
  0
VERTEX
  8
0
 62
     0
  6
CONTINUOUS
 10
2.508440
 20
1.985720
  0
VERTEX
  8
0
 62
     0
  6
CONTINUOUS
 10
2.508000
 20
1.985720
  0
VERTEX
  8
0
 62
     0
  6
CONTINUOUS
 10
2.506680
 20
1.996720
  0
VERTEX
  8
0
 62
     0
  6
CONTINUOUS
 10
2.501400
 20
2.010360
  0
VERTEX
  8
0
 62
     0
  6
CONTINUOUS
 10
2.493040
 20
2.021360
  0
VERTEX
  8
0
 62
     0
  6
CONTINUOUS
 10
2.464000
 20
2.021360
  0
SEQEND
  8
0
  0
POLYLINE
  8
0
 62
     0
  6
CONTINUOUS
 66
     1
 40
0.014080
 41
0.014080
  0
VERTEX
  8
0
 62
     0
  6
CONTINUOUS
 10
2.563880
 20
1.934240
  0
VERTEX
  8
0
 62
     0
  6
CONTINUOUS
 10
2.563000
 20
1.934240
  0
VERTEX
  8
0
 62
     0
  6
CONTINUOUS
 10
2.561680
 20
1.934240
  0
VERTEX
  8
0
 62
     0
  6
CONTINUOUS
 10
2.559920
 20
1.934240
  0
VERTEX
  8
0
 62
     0
  6
CONTINUOUS
 10
2.557720
 20
1.934240
  0
VERTEX
  8
0
 62
     0
  6
CONTINUOUS
 10
2.555520
 20
1.934240
  0
VERTEX
  8
0
 62
     0
  6
CONTINUOUS
 10
2.553760
 20
1.934240
  0
VERTEX
  8
0
 62
     0
  6
CONTINUOUS
 10
2.552440
 20
1.934240
  0
VERTEX
  8
0
 62
     0
  6
CONTINUOUS
 10
2.552000
 20
1.934240
  0
SEQEND
  8
0
  0
POLYLINE
  8
0
 62
     0
  6
CONTINUOUS
 66
     1
 40
0.014080
 41
0.014080
  0
VERTEX
  8
0
 62
     0
  6
CONTINUOUS
 10
2.552000
 20
1.934240
  0
VERTEX
  8
0
 62
     0
  6
CONTINUOUS
 10
2.552000
 20
1.937320
  0
VERTEX
  8
0
 62
     0
  6
CONTINUOUS
 10
2.552000
 20
1.946120
  0
VERTEX
  8
0
 62
     0
  6
CONTINUOUS
 10
2.552000
 20
1.958000
  0
VERTEX
  8
0
 62
     0
  6
CONTINUOUS
 10
2.552000
 20
1.972080
  0
VERTEX
  8
0
 62
     0
  6
CONTINUOUS
 10
2.552000
 20
1.986160
  0
VERTEX
  8
0
 62
     0
  6
CONTINUOUS
 10
2.552000
 20
1.998040
  0
VERTEX
  8
0
 62
     0
  6
CONTINUOUS
 10
2.552000
 20
2.006840
  0
VERTEX
  8
0
 62
     0
  6
CONTINUOUS
 10
2.552000
 20
2.010360
  0
SEQEND
  8
0
  0
POLYLINE
  8
0
 62
     0
  6
CONTINUOUS
 66
     1
 40
0.014080
 41
0.014080
  0
VERTEX
  8
0
 62
     0
  6
CONTINUOUS
 10
2.552000
 20
2.010360
  0
VERTEX
  8
0
 62
     0
  6
CONTINUOUS
 10
2.550680
 20
2.009040
  0
VERTEX
  8
0
 62
     0
  6
CONTINUOUS
 10
2.549360
 20
2.007720
  0
VERTEX
  8
0
 62
     0
  6
CONTINUOUS
 10
2.548040
 20
2.006840
  0
VERTEX
  8
0
 62
     0
  6
CONTINUOUS
 10
2.546720
 20
2.005960
  0
VERTEX
  8
0
 62
     0
  6
CONTINUOUS
 10
2.545400
 20
2.004640
  0
VERTEX
  8
0
 62
     0
  6
CONTINUOUS
 10
2.543640
 20
2.003760
  0
VERTEX
  8
0
 62
     0
  6
CONTINUOUS
 10
2.541880
 20
2.002880
  0
VERTEX
  8
0
 62
     0
  6
CONTINUOUS
 10
2.540560
 20
2.002000
  0
SEQEND
  8
0
  0
POLYLINE
  8
0
 62
     0
  6
CONTINUOUS
 66
     1
 40
0.014080
 41
0.014080
  0
VERTEX
  8
0
 62
     0
  6
CONTINUOUS
 10
2.540560
 20
2.002000
  0
VERTEX
  8
0
 62
     0
  6
CONTINUOUS
 10
2.538800
 20
2.000680
  0
VERTEX
  8
0
 62
     0
  6
CONTINUOUS
 10
2.537040
 20
1.999800
  0
VERTEX
  8
0
 62
     0
  6
CONTINUOUS
 10
2.535280
 20
1.998920
  0
VERTEX
  8
0
 62
     0
  6
CONTINUOUS
 10
2.533960
 20
1.998040
  0
VERTEX
  8
0
 62
     0
  6
CONTINUOUS
 10
2.532200
 20
1.997600
  0
VERTEX
  8
0
 62
     0
  6
CONTINUOUS
 10
2.530880
 20
1.996720
  0
VERTEX
  8
0
 62
     0
  6
CONTINUOUS
 10
2.529560
 20
1.996280
  0
VERTEX
  8
0
 62
     0
  6
CONTINUOUS
 10
2.528240
 20
1.995840
  0
SEQEND
  8
0
  0
POLYLINE
  8
0
 62
     0
  6
CONTINUOUS
 66
     1
 40
0.014080
 41
0.014080
  0
VERTEX
  8
0
 62
     0
  6
CONTINUOUS
 10
2.528240
 20
1.995840
  0
VERTEX
  8
0
 62
     0
  6
CONTINUOUS
 10
2.528240
 20
1.996280
  0
VERTEX
  8
0
 62
     0
  6
CONTINUOUS
 10
2.528240
 20
1.997600
  0
VERTEX
  8
0
 62
     0
  6
CONTINUOUS
 10
2.528240
 20
1.999360
  0
VERTEX
  8
0
 62
     0
  6
CONTINUOUS
 10
2.528240
 20
2.001560
  0
VERTEX
  8
0
 62
     0
  6
CONTINUOUS
 10
2.528240
 20
2.003320
  0
VERTEX
  8
0
 62
     0
  6
CONTINUOUS
 10
2.528240
 20
2.005080
  0
VERTEX
  8
0
 62
     0
  6
CONTINUOUS
 10
2.528240
 20
2.006400
  0
VERTEX
  8
0
 62
     0
  6
CONTINUOUS
 10
2.528240
 20
2.007280
  0
SEQEND
  8
0
  0
POLYLINE
  8
0
 62
     0
  6
CONTINUOUS
 66
     1
 40
0.014080
 41
0.014080
  0
VERTEX
  8
0
 62
     0
  6
CONTINUOUS
 10
2.528240
 20
2.007280
  0
VERTEX
  8
0
 62
     0
  6
CONTINUOUS
 10
2.530440
 20
2.008160
  0
VERTEX
  8
0
 62
     0
  6
CONTINUOUS
 10
2.532640
 20
2.009480
  0
VERTEX
  8
0
 62
     0
  6
CONTINUOUS
 10
2.535280
 20
2.010800
  0
VERTEX
  8
0
 62
     0
  6
CONTINUOUS
 10
2.537480
 20
2.012120
  0
VERTEX
  8
0
 62
     0
  6
CONTINUOUS
 10
2.539240
 20
2.013880
  0
VERTEX
  8
0
 62
     0
  6
CONTINUOUS
 10
2.541440
 20
2.015200
  0
VERTEX
  8
0
 62
     0
  6
CONTINUOUS
 10
2.543200
 20
2.016960
  0
VERTEX
  8
0
 62
     0
  6
CONTINUOUS
 10
2.545400
 20
2.018720
  0
SEQEND
  8
0
  0
POLYLINE
  8
0
 62
     0
  6
CONTINUOUS
 66
     1
 40
0.014080
 41
0.014080
  0
VERTEX
  8
0
 62
     0
  6
CONTINUOUS
 10
2.545400
 20
2.018720
  0
VERTEX
  8
0
 62
     0
  6
CONTINUOUS
 10
2.547160
 20
2.020040
  0
VERTEX
  8
0
 62
     0
  6
CONTINUOUS
 10
2.548920
 20
2.021800
  0
VERTEX
  8
0
 62
     0
  6
CONTINUOUS
 10
2.550240
 20
2.023560
  0
VERTEX
  8
0
 62
     0
  6
CONTINUOUS
 10
2.552000
 20
2.025320
  0
VERTEX
  8
0
 62
     0
  6
CONTINUOUS
 10
2.553320
 20
2.026640
  0
VERTEX
  8
0
 62
     0
  6
CONTINUOUS
 10
2.554200
 20
2.028400
  0
VERTEX
  8
0
 62
     0
  6
CONTINUOUS
 10
2.555080
 20
2.030160
  0
VERTEX
  8
0
 62
     0
  6
CONTINUOUS
 10
2.556400
 20
2.031920
  0
SEQEND
  8
0
  0
POLYLINE
  8
0
 62
     0
  6
CONTINUOUS
 66
     1
 40
0.014080
 41
0.014080
  0
VERTEX
  8
0
 62
     0
  6
CONTINUOUS
 10
2.556400
 20
2.031920
  0
VERTEX
  8
0
 62
     0
  6
CONTINUOUS
 10
2.557280
 20
2.031920
  0
VERTEX
  8
0
 62
     0
  6
CONTINUOUS
 10
2.558600
 20
2.031920
  0
VERTEX
  8
0
 62
     0
  6
CONTINUOUS
 10
2.559920
 20
2.031920
  0
VERTEX
  8
0
 62
     0
  6
CONTINUOUS
 10
2.561240
 20
2.031920
  0
VERTEX
  8
0
 62
     0
  6
CONTINUOUS
 10
2.562560
 20
2.031920
  0
VERTEX
  8
0
 62
     0
  6
CONTINUOUS
 10
2.563440
 20
2.031920
  0
VERTEX
  8
0
 62
     0
  6
CONTINUOUS
 10
2.563880
 20
2.031920
  0
SEQEND
  8
0
  0
POLYLINE
  8
0
 62
     0
  6
CONTINUOUS
 66
     1
 40
0.014080
 41
0.014080
  0
VERTEX
  8
0
 62
     0
  6
CONTINUOUS
 10
2.563880
 20
2.031920
  0
VERTEX
  8
0
 62
     0
  6
CONTINUOUS
 10
2.563880
 20
2.027520
  0
VERTEX
  8
0
 62
     0
  6
CONTINUOUS
 10
2.563880
 20
2.016520
  0
VERTEX
  8
0
 62
     0
  6
CONTINUOUS
 10
2.563880
 20
2.000680
  0
VERTEX
  8
0
 62
     0
  6
CONTINUOUS
 10
2.563880
 20
1.983080
  0
VERTEX
  8
0
 62
     0
  6
CONTINUOUS
 10
2.563880
 20
1.965040
  0
VERTEX
  8
0
 62
     0
  6
CONTINUOUS
 10
2.563880
 20
1.949200
  0
VERTEX
  8
0
 62
     0
  6
CONTINUOUS
 10
2.563880
 20
1.938200
  0
VERTEX
  8
0
 62
     0
  6
CONTINUOUS
 10
2.563880
 20
1.934240
  0
SEQEND
  8
0
  0
POLYLINE
  8
0
 62
     0
  6
CONTINUOUS
 66
     1
 40
0.014080
 41
0.014080
  0
VERTEX
  8
0
 62
     0
  6
CONTINUOUS
 10
2.288880
 20
2.078120
  0
VERTEX
  8
0
 62
     0
  6
CONTINUOUS
 10
2.614920
 20
2.078120
  0
VERTEX
  8
0
 62
     0
  6
CONTINUOUS
 10
2.614920
 20
1.885400
  0
VERTEX
  8
0
 62
     0
  6
CONTINUOUS
 10
2.288880
 20
1.885400
  0
VERTEX
  8
0
 62
     0
  6
CONTINUOUS
 10
2.288880
 20
2.078120
  0
SEQEND
  8
0
  0
LINE
  8
0
 62
     0
  6
CONTINUOUS
 10
2.995520
 20
2.656720
 11
2.987600
 21
2.652760
  0
LINE
  8
0
 62
     0
  6
CONTINUOUS
 10
2.987600
 20
2.652760
 11
2.984960
 21
2.647040
  0
LINE
  8
0
 62
     0
  6
CONTINUOUS
 10
2.984960
 20
2.647040
 11
2.984960
 21
2.640440
  0
LINE
  8
0
 62
     0
  6
CONTINUOUS
 10
2.984960
 20
2.640440
 11
2.984960
 21
2.388760
  0
LINE
  8
0
 62
     0
  6
CONTINUOUS
 10
2.984960
 20
2.388760
 11
3.199680
 21
2.388760
  0
LINE
  8
0
 62
     0
  6
CONTINUOUS
 10
3.199680
 20
2.388760
 11
3.199680
 21
2.396680
  0
LINE
  8
0
 62
     0
  6
CONTINUOUS
 10
3.199680
 20
2.396680
 11
2.984960
 21
2.396680
  0
LINE
  8
0
 62
     0
  6
CONTINUOUS
 10
3.040840
 20
2.388760
 11
3.050080
 21
2.375120
  0
LINE
  8
0
 62
     0
  6
CONTINUOUS
 10
3.050080
 20
2.375120
 11
3.050080
 21
2.373800
  0
LINE
  8
0
 62
     0
  6
CONTINUOUS
 10
3.050080
 20
2.373800
 11
3.159200
 21
2.373800
  0
LINE
  8
0
 62
     0
  6
CONTINUOUS
 10
3.159200
 20
2.373800
 11
3.163160
 21
2.375120
  0
LINE
  8
0
 62
     0
  6
CONTINUOUS
 10
3.163160
 20
2.375120
 11
3.167120
 21
2.388760
  0
LINE
  8
0
 62
     0
  6
CONTINUOUS
 10
3.150840
 20
2.373800
 11
3.148200
 21
2.364120
  0
LINE
  8
0
 62
     0
  6
CONTINUOUS
 10
3.148200
 20
2.364120
 11
3.148200
 21
2.361480
  0
LINE
  8
0
 62
     0
  6
CONTINUOUS
 10
3.148200
 20
2.361480
 11
3.065040
 21
2.361480
  0
LINE
  8
0
 62
     0
  6
CONTINUOUS
 10
3.065040
 20
2.361480
 11
3.062400
 21
2.361480
  0
LINE
  8
0
 62
     0
  6
CONTINUOUS
 10
3.062400
 20
2.361480
 11
3.061080
 21
2.364120
  0
LINE
  8
0
 62
     0
  6
CONTINUOUS
 10
3.061080
 20
2.364120
 11
3.057120
 21
2.373800
  0
LINE
  8
0
 62
     0
  6
CONTINUOUS
 10
3.062400
 20
2.361480
 11
3.148200
 21
2.361480
  0
LINE
  8
0
 62
     0
  6
CONTINUOUS
 10
3.130600
 20
2.340800
 11
3.082640
 21
2.340800
  0
LINE
  8
0
 62
     0
  6
CONTINUOUS
 10
3.082640
 20
2.295920
 11
3.082640
 21
2.240480
  0
LINE
  8
0
 62
     0
  6
CONTINUOUS
 10
3.082640
 20
2.240480
 11
3.099360
 21
2.237400
  0
LINE
  8
0
 62
     0
  6
CONTINUOUS
 10
3.099360
 20
2.237400
 11
3.115640
 21
2.237400
  0
LINE
  8
0
 62
     0
  6
CONTINUOUS
 10
3.115640
 20
2.237400
 11
3.130600
 21
2.240480
  0
LINE
  8
0
 62
     0
  6
CONTINUOUS
 10
3.130600
 20
2.240480
 11
3.130600
 21
2.297240
  0
LINE
  8
0
 62
     0
  6
CONTINUOUS
 10
3.130600
 20
2.297240
 11
3.137200
 21
2.297240
  0
LINE
  8
0
 62
     0
  6
CONTINUOUS
 10
3.137200
 20
2.297240
 11
3.154800
 21
2.300320
  0
LINE
  8
0
 62
     0
  6
CONTINUOUS
 10
3.146880
 20
2.300320
 11
3.066360
 21
2.300320
  0
LINE
  8
0
 62
     0
  6
CONTINUOUS
 10
3.066360
 20
2.308240
 11
3.146880
 21
2.308240
  0
LINE
  8
0
 62
     0
  6
CONTINUOUS
 10
3.137200
 20
2.297240
 11
3.137200
 21
2.240480
  0
LINE
  8
0
 62
     0
  6
CONTINUOUS
 10
3.137200
 20
2.240480
 11
3.148200
 21
2.237400
  0
LINE
  8
0
 62
     0
  6
CONTINUOUS
 10
3.148200
 20
2.237400
 11
3.163160
 21
2.236080
  0
LINE
  8
0
 62
     0
  6
CONTINUOUS
 10
3.169760
 20
2.236080
 11
3.042160
 21
2.236080
  0
LINE
  8
0
 62
     0
  6
CONTINUOUS
 10
3.050080
 20
2.236080
 11
3.062400
 21
2.237400
  0
LINE
  8
0
 62
     0
  6
CONTINUOUS
 10
3.062400
 20
2.237400
 11
3.073400
 21
2.240480
  0
LINE
  8
0
 62
     0
  6
CONTINUOUS
 10
3.073400
 20
2.240480
 11
3.073400
 21
2.295920
  0
LINE
  8
0
 62
     0
  6
CONTINUOUS
 10
3.073400
 20
2.295920
 11
3.057120
 21
2.300320
  0
LINE
  8
0
 62
     0
  6
CONTINUOUS
 10
3.073400
 20
2.295920
 11
3.082640
 21
2.295920
  0
LINE
  8
0
 62
     0
  6
CONTINUOUS
 10
3.082640
 20
2.295920
 11
3.099360
 21
2.300320
  0
LINE
  8
0
 62
     0
  6
CONTINUOUS
 10
3.099360
 20
2.300320
 11
3.115640
 21
2.300320
  0
LINE
  8
0
 62
     0
  6
CONTINUOUS
 10
3.115640
 20
2.300320
 11
3.130600
 21
2.297240
  0
LINE
  8
0
 62
     0
  6
CONTINUOUS
 10
3.130600
 20
2.297240
 11
3.130600
 21
2.240480
  0
LINE
  8
0
 62
     0
  6
CONTINUOUS
 10
3.130600
 20
2.240480
 11
3.137200
 21
2.240480
  0
LINE
  8
0
 62
     0
  6
CONTINUOUS
 10
3.127960
 20
2.221120
 11
3.123560
 21
2.222440
  0
LINE
  8
0
 62
     0
  6
CONTINUOUS
 10
3.123560
 20
2.222440
 11
3.085720
 21
2.222440
  0
LINE
  8
0
 62
     0
  6
CONTINUOUS
 10
3.085720
 20
2.222440
 11
3.082640
 21
2.221120
  0
LINE
  8
0
 62
     0
  6
CONTINUOUS
 10
3.082640
 20
2.221120
 11
3.082640
 21
2.218480
  0
LINE
  8
0
 62
     0
  6
CONTINUOUS
 10
3.082640
 20
2.218480
 11
3.082640
 21
2.170960
  0
LINE
  8
0
 62
     0
  6
CONTINUOUS
 10
3.082640
 20
2.170960
 11
3.082640
 21
2.169640
  0
LINE
  8
0
 62
     0
  6
CONTINUOUS
 10
3.082640
 20
2.169640
 11
3.130600
 21
2.169640
  0
LINE
  8
0
 62
     0
  6
CONTINUOUS
 10
3.130600
 20
2.169640
 11
3.180760
 21
2.169640
  0
LINE
  8
0
 62
     0
  6
CONTINUOUS
 10
3.180760
 20
2.169640
 11
3.199680
 21
2.169640
  0
LINE
  8
0
 62
     0
  6
CONTINUOUS
 10
3.199680
 20
2.169640
 11
3.199680
 21
2.200880
  0
LINE
  8
0
 62
     0
  6
CONTINUOUS
 10
3.199680
 20
2.200880
 11
3.180760
 21
2.200880
  0
LINE
  8
0
 62
     0
  6
CONTINUOUS
 10
3.180760
 20
2.200880
 11
3.180760
 21
2.169640
  0
LINE
  8
0
 62
     0
  6
CONTINUOUS
 10
3.183400
 20
2.165240
 11
3.183400
 21
2.204840
  0
LINE
  8
0
 62
     0
  6
CONTINUOUS
 10
3.197040
 20
2.204840
 11
3.197040
 21
2.165240
  0
LINE
  8
0
 62
     0
  6
CONTINUOUS
 10
3.161840
 20
2.183280
 11
3.161840
 21
2.185920
  0
LINE
  8
0
 62
     0
  6
CONTINUOUS
 10
3.161840
 20
2.185920
 11
3.161840
 21
2.200880
  0
LINE
  8
0
 62
     0
  6
CONTINUOUS
 10
3.161840
 20
2.183280
 11
3.159200
 21
2.181520
  0
LINE
  8
0
 62
     0
  6
CONTINUOUS
 10
3.159200
 20
2.181520
 11
3.129280
 21
2.178880
  0
LINE
  8
0
 62
     0
  6
CONTINUOUS
 10
3.129280
 20
2.169640
 11
3.129280
 21
2.218480
  0
LINE
  8
0
 62
     0
  6
CONTINUOUS
 10
3.129280
 20
2.218480
 11
3.127960
 21
2.221120
  0
LINE
  8
0
 62
     0
  6
CONTINUOUS
 10
3.163160
 20
2.228160
 11
3.050080
 21
2.228160
  0
LINE
  8
0
 62
     0
  6
CONTINUOUS
 10
3.050080
 20
2.228160
 11
3.042160
 21
2.228160
  0
LINE
  8
0
 62
     0
  6
CONTINUOUS
 10
3.042160
 20
2.228160
 11
3.042160
 21
2.236080
  0
LINE
  8
0
 62
     0
  6
CONTINUOUS
 10
3.042160
 20
2.236080
 11
3.025880
 21
2.244440
  0
LINE
  8
0
 62
     0
  6
CONTINUOUS
 10
3.025880
 20
2.244440
 11
3.025880
 21
2.283600
  0
LINE
  8
0
 62
     0
  6
CONTINUOUS
 10
3.025880
 20
2.283600
 11
3.057120
 21
2.300320
  0
LINE
  8
0
 62
     0
  6
CONTINUOUS
 10
3.057120
 20
2.300320
 11
3.066360
 21
2.300320
  0
LINE
  8
0
 62
     0
  6
CONTINUOUS
 10
3.066360
 20
2.300320
 11
3.066360
 21
2.308240
  0
LINE
  8
0
 62
     0
  6
CONTINUOUS
 10
3.066360
 20
2.308240
 11
3.057120
 21
2.308240
  0
LINE
  8
0
 62
     0
  6
CONTINUOUS
 10
3.057120
 20
2.308240
 11
3.057120
 21
2.331560
  0
LINE
  8
0
 62
     0
  6
CONTINUOUS
 10
3.057120
 20
2.331560
 11
3.061080
 21
2.336840
  0
LINE
  8
0
 62
     0
  6
CONTINUOUS
 10
3.061080
 20
2.336840
 11
3.062400
 21
2.339480
  0
LINE
  8
0
 62
     0
  6
CONTINUOUS
 10
3.062400
 20
2.339480
 11
3.066360
 21
2.339480
  0
LINE
  8
0
 62
     0
  6
CONTINUOUS
 10
3.066360
 20
2.339480
 11
3.082640
 21
2.339480
  0
LINE
  8
0
 62
     0
  6
CONTINUOUS
 10
3.082640
 20
2.339480
 11
3.082640
 21
2.340800
  0
LINE
  8
0
 62
     0
  6
CONTINUOUS
 10
3.082640
 20
2.340800
 11
3.082640
 21
2.361480
  0
LINE
  8
0
 62
     0
  6
CONTINUOUS
 10
3.130600
 20
2.361480
 11
3.130600
 21
2.339480
  0
LINE
  8
0
 62
     0
  6
CONTINUOUS
 10
3.130600
 20
2.339480
 11
3.129280
 21
2.339480
  0
LINE
  8
0
 62
     0
  6
CONTINUOUS
 10
3.129280
 20
2.339480
 11
3.145560
 21
2.339480
  0
LINE
  8
0
 62
     0
  6
CONTINUOUS
 10
3.145560
 20
2.339480
 11
3.148200
 21
2.339480
  0
LINE
  8
0
 62
     0
  6
CONTINUOUS
 10
3.148200
 20
2.339480
 11
3.150840
 21
2.336840
  0
LINE
  8
0
 62
     0
  6
CONTINUOUS
 10
3.150840
 20
2.336840
 11
3.150840
 21
2.331560
  0
LINE
  8
0
 62
     0
  6
CONTINUOUS
 10
3.150840
 20
2.331560
 11
3.150840
 21
2.308240
  0
LINE
  8
0
 62
     0
  6
CONTINUOUS
 10
3.150840
 20
2.308240
 11
3.145560
 21
2.308240
  0
LINE
  8
0
 62
     0
  6
CONTINUOUS
 10
3.145560
 20
2.308240
 11
3.145560
 21
2.300320
  0
LINE
  8
0
 62
     0
  6
CONTINUOUS
 10
3.145560
 20
2.300320
 11
3.150840
 21
2.300320
  0
LINE
  8
0
 62
     0
  6
CONTINUOUS
 10
3.150840
 20
2.300320
 11
3.183400
 21
2.283600
  0
LINE
  8
0
 62
     0
  6
CONTINUOUS
 10
3.183400
 20
2.283600
 11
3.183400
 21
2.244440
  0
LINE
  8
0
 62
     0
  6
CONTINUOUS
 10
3.183400
 20
2.244440
 11
3.167120
 21
2.236080
  0
LINE
  8
0
 62
     0
  6
CONTINUOUS
 10
3.167120
 20
2.236080
 11
3.167120
 21
2.228160
  0
LINE
  8
0
 62
     0
  6
CONTINUOUS
 10
3.167120
 20
2.228160
 11
3.161840
 21
2.228160
  0
LINE
  8
0
 62
     0
  6
CONTINUOUS
 10
3.161840
 20
2.228160
 11
3.161840
 21
2.208800
  0
LINE
  8
0
 62
     0
  6
CONTINUOUS
 10
3.161840
 20
2.208800
 11
3.161840
 21
2.200880
  0
LINE
  8
0
 62
     0
  6
CONTINUOUS
 10
3.161840
 20
2.200880
 11
3.180760
 21
2.200880
  0
LINE
  8
0
 62
     0
  6
CONTINUOUS
 10
3.180760
 20
2.200880
 11
3.183400
 21
2.204840
  0
LINE
  8
0
 62
     0
  6
CONTINUOUS
 10
3.183400
 20
2.204840
 11
3.197040
 21
2.204840
  0
LINE
  8
0
 62
     0
  6
CONTINUOUS
 10
3.197040
 20
2.204840
 11
3.199680
 21
2.200880
  0
LINE
  8
0
 62
     0
  6
CONTINUOUS
 10
3.199680
 20
2.200880
 11
3.199680
 21
2.169640
  0
LINE
  8
0
 62
     0
  6
CONTINUOUS
 10
3.199680
 20
2.169640
 11
3.197040
 21
2.165240
  0
LINE
  8
0
 62
     0
  6
CONTINUOUS
 10
3.197040
 20
2.165240
 11
3.183400
 21
2.165240
  0
LINE
  8
0
 62
     0
  6
CONTINUOUS
 10
3.183400
 20
2.165240
 11
3.180760
 21
2.169640
  0
LINE
  8
0
 62
     0
  6
CONTINUOUS
 10
3.199680
 20
2.178880
 11
3.338720
 21
2.178880
  0
LINE
  8
0
 62
     0
  6
CONTINUOUS
 10
3.338720
 20
2.178880
 11
3.338720
 21
2.185920
  0
LINE
  8
0
 62
     0
  6
CONTINUOUS
 10
3.338720
 20
2.185920
 11
3.199680
 21
2.185920
  0
LINE
  8
0
 62
     0
  6
CONTINUOUS
 10
3.199680
 20
2.185920
 11
3.199680
 21
2.192520
  0
LINE
  8
0
 62
     0
  6
CONTINUOUS
 10
3.199680
 20
2.192520
 11
3.338720
 21
2.192520
  0
LINE
  8
0
 62
     0
  6
CONTINUOUS
 10
3.338720
 20
2.192520
 11
3.338720
 21
2.176240
  0
LINE
  8
0
 62
     0
  6
CONTINUOUS
 10
3.338720
 20
2.176240
 11
3.199680
 21
2.176240
  0
LINE
  8
0
 62
     0
  6
CONTINUOUS
 10
3.199680
 20
2.176240
 11
3.199680
 21
2.192520
  0
LINE
  8
0
 62
     0
  6
CONTINUOUS
 10
3.199680
 20
2.192520
 11
3.338720
 21
2.192520
  0
LINE
  8
0
 62
     0
  6
CONTINUOUS
 10
3.082640
 20
2.178880
 11
3.051400
 21
2.181520
  0
LINE
  8
0
 62
     0
  6
CONTINUOUS
 10
3.051400
 20
2.181520
 11
3.050080
 21
2.183280
  0
LINE
  8
0
 62
     0
  6
CONTINUOUS
 10
3.050080
 20
2.183280
 11
3.050080
 21
2.185920
  0
LINE
  8
0
 62
     0
  6
CONTINUOUS
 10
3.050080
 20
2.185920
 11
3.050080
 21
2.200880
  0
LINE
  8
0
 62
     0
  6
CONTINUOUS
 10
3.050080
 20
2.200880
 11
3.050080
 21
2.208800
  0
LINE
  8
0
 62
     0
  6
CONTINUOUS
 10
3.050080
 20
2.208800
 11
3.050080
 21
2.228160
  0
LINE
  8
0
 62
     0
  6
CONTINUOUS
 10
3.050080
 20
2.200880
 11
3.031160
 21
2.200880
  0
LINE
  8
0
 62
     0
  6
CONTINUOUS
 10
3.031160
 20
2.200880
 11
3.031160
 21
2.169640
  0
LINE
  8
0
 62
     0
  6
CONTINUOUS
 10
3.031160
 20
2.169640
 11
3.082640
 21
2.169640
  0
LINE
  8
0
 62
     0
  6
CONTINUOUS
 10
3.031160
 20
2.169640
 11
3.025880
 21
2.165240
  0
LINE
  8
0
 62
     0
  6
CONTINUOUS
 10
3.025880
 20
2.165240
 11
3.025880
 21
2.204840
  0
LINE
  8
0
 62
     0
  6
CONTINUOUS
 10
3.025880
 20
2.204840
 11
3.031160
 21
2.200880
  0
LINE
  8
0
 62
     0
  6
CONTINUOUS
 10
3.031160
 20
2.200880
 11
3.009160
 21
2.200880
  0
LINE
  8
0
 62
     0
  6
CONTINUOUS
 10
3.009160
 20
2.200880
 11
3.014880
 21
2.204840
  0
LINE
  8
0
 62
     0
  6
CONTINUOUS
 10
3.014880
 20
2.204840
 11
3.014880
 21
2.165240
  0
LINE
  8
0
 62
     0
  6
CONTINUOUS
 10
3.014880
 20
2.165240
 11
3.025880
 21
2.165240
  0
LINE
  8
0
 62
     0
  6
CONTINUOUS
 10
3.031160
 20
2.169640
 11
3.009160
 21
2.169640
  0
LINE
  8
0
 62
     0
  6
CONTINUOUS
 10
3.009160
 20
2.169640
 11
3.009160
 21
2.200880
  0
LINE
  8
0
 62
     0
  6
CONTINUOUS
 10
3.009160
 20
2.200880
 11
3.009160
 21
2.169640
  0
LINE
  8
0
 62
     0
  6
CONTINUOUS
 10
3.009160
 20
2.169640
 11
3.014880
 21
2.165240
  0
LINE
  8
0
 62
     0
  6
CONTINUOUS
 10
3.009160
 20
2.176240
 11
2.805000
 21
2.176240
  0
LINE
  8
0
 62
     0
  6
CONTINUOUS
 10
2.805000
 20
2.176240
 11
2.821720
 21
2.192520
  0
LINE
  8
0
 62
     0
  6
CONTINUOUS
 10
2.821720
 20
2.192520
 11
3.009160
 21
2.192520
  0
LINE
  8
0
 62
     0
  6
CONTINUOUS
 10
3.009160
 20
2.192520
 11
3.009160
 21
2.176240
  0
LINE
  8
0
 62
     0
  6
CONTINUOUS
 10
3.009160
 20
2.176240
 11
3.009160
 21
2.178880
  0
LINE
  8
0
 62
     0
  6
CONTINUOUS
 10
3.009160
 20
2.178880
 11
2.805000
 21
2.178880
  0
LINE
  8
0
 62
     0
  6
CONTINUOUS
 10
2.805000
 20
2.178880
 11
2.805000
 21
2.176240
  0
LINE
  8
0
 62
     0
  6
CONTINUOUS
 10
2.805000
 20
2.176240
 11
2.805000
 21
2.833600
  0
LINE
  8
0
 62
     0
  6
CONTINUOUS
 10
2.821720
 20
2.834920
 11
2.821720
 21
2.192520
  0
LINE
  8
0
 62
     0
  6
CONTINUOUS
 10
2.821720
 20
2.192520
 11
2.805000
 21
2.176240
  0
LINE
  8
0
 62
     0
  6
CONTINUOUS
 10
2.808080
 20
2.176240
 11
2.808080
 21
2.834480
  0
LINE
  8
0
 62
     0
  6
CONTINUOUS
 10
2.817320
 20
2.834920
 11
2.817320
 21
2.188560
  0
LINE
  8
0
 62
     0
  6
CONTINUOUS
 10
2.817320
 20
2.188560
 11
2.808080
 21
2.181520
  0
LINE
  8
0
 62
     0
  6
CONTINUOUS
 10
2.808080
 20
2.181520
 11
2.813360
 21
2.185920
  0
LINE
  8
0
 62
     0
  6
CONTINUOUS
 10
2.813360
 20
2.185920
 11
3.009160
 21
2.185920
  0
LINE
  8
0
 62
     0
  6
CONTINUOUS
 10
3.009160
 20
2.185920
 11
3.009160
 21
2.178880
  0
LINE
  8
0
 62
     0
  6
CONTINUOUS
 10
3.009160
 20
2.192520
 11
2.821720
 21
2.192520
  0
LINE
  8
0
 62
     0
  6
CONTINUOUS
 10
2.821720
 20
2.192520
 11
2.813360
 21
2.185920
  0
LINE
  8
0
 62
     0
  6
CONTINUOUS
 10
3.014880
 20
2.204840
 11
3.025880
 21
2.204840
  0
LINE
  8
0
 62
     0
  6
CONTINUOUS
 10
3.073400
 20
2.240480
 11
3.082640
 21
2.240480
  0
LINE
  8
0
 62
     0
  6
CONTINUOUS
 10
3.066360
 20
2.399320
 11
3.069000
 21
2.402400
  0
LINE
  8
0
 62
     0
  6
CONTINUOUS
 10
3.069000
 20
2.402400
 11
3.072080
 21
2.405040
  0
LINE
  8
0
 62
     0
  6
CONTINUOUS
 10
3.072080
 20
2.405040
 11
3.069000
 21
2.409000
  0
LINE
  8
0
 62
     0
  6
CONTINUOUS
 10
3.069000
 20
2.409000
 11
3.066360
 21
2.411640
  0
LINE
  8
0
 62
     0
  6
CONTINUOUS
 10
3.066360
 20
2.411640
 11
3.062400
 21
2.411640
  0
LINE
  8
0
 62
     0
  6
CONTINUOUS
 10
3.062400
 20
2.411640
 11
3.061080
 21
2.409000
  0
LINE
  8
0
 62
     0
  6
CONTINUOUS
 10
3.061080
 20
2.409000
 11
3.058440
 21
2.405040
  0
LINE
  8
0
 62
     0
  6
CONTINUOUS
 10
3.058440
 20
2.405040
 11
3.061080
 21
2.402400
  0
LINE
  8
0
 62
     0
  6
CONTINUOUS
 10
3.061080
 20
2.402400
 11
3.062400
 21
2.399320
  0
LINE
  8
0
 62
     0
  6
CONTINUOUS
 10
3.062400
 20
2.399320
 11
3.066360
 21
2.398000
  0
LINE
  8
0
 62
     0
  6
CONTINUOUS
 10
3.066360
 20
2.398000
 11
3.066360
 21
2.399320
  0
LINE
  8
0
 62
     0
  6
CONTINUOUS
 10
3.066360
 20
2.399320
 11
3.066360
 21
2.400640
  0
LINE
  8
0
 62
     0
  6
CONTINUOUS
 10
3.066360
 20
2.400640
 11
3.066360
 21
2.405040
  0
LINE
  8
0
 62
     0
  6
CONTINUOUS
 10
3.066360
 20
2.405040
 11
3.067680
 21
2.405040
  0
LINE
  8
0
 62
     0
  6
CONTINUOUS
 10
3.067680
 20
2.405040
 11
3.067680
 21
2.406360
  0
LINE
  8
0
 62
     0
  6
CONTINUOUS
 10
3.067680
 20
2.406360
 11
3.066360
 21
2.406360
  0
LINE
  8
0
 62
     0
  6
CONTINUOUS
 10
3.066360
 20
2.406360
 11
3.066360
 21
2.410320
  0
LINE
  8
0
 62
     0
  6
CONTINUOUS
 10
3.066360
 20
2.410320
 11
3.065040
 21
2.410320
  0
LINE
  8
0
 62
     0
  6
CONTINUOUS
 10
3.065040
 20
2.410320
 11
3.065040
 21
2.406360
  0
LINE
  8
0
 62
     0
  6
CONTINUOUS
 10
3.065040
 20
2.406360
 11
3.062400
 21
2.406360
  0
LINE
  8
0
 62
     0
  6
CONTINUOUS
 10
3.062400
 20
2.406360
 11
3.062400
 21
2.405040
  0
LINE
  8
0
 62
     0
  6
CONTINUOUS
 10
3.062400
 20
2.405040
 11
3.065040
 21
2.405040
  0
LINE
  8
0
 62
     0
  6
CONTINUOUS
 10
3.065040
 20
2.405040
 11
3.065040
 21
2.400640
  0
LINE
  8
0
 62
     0
  6
CONTINUOUS
 10
3.065040
 20
2.400640
 11
3.066360
 21
2.400640
  0
LINE
  8
0
 62
     0
  6
CONTINUOUS
 10
3.150840
 20
2.429240
 11
3.199680
 21
2.429240
  0
LINE
  8
0
 62
     0
  6
CONTINUOUS
 10
3.199680
 20
2.429240
 11
3.199680
 21
2.456520
  0
LINE
  8
0
 62
     0
  6
CONTINUOUS
 10
3.199680
 20
2.456520
 11
3.178120
 21
2.456520
  0
LINE
  8
0
 62
     0
  6
CONTINUOUS
 10
3.178120
 20
2.456520
 11
3.178120
 21
2.453880
  0
LINE
  8
0
 62
     0
  6
CONTINUOUS
 10
3.178120
 20
2.453880
 11
3.199680
 21
2.453880
  0
LINE
  8
0
 62
     0
  6
CONTINUOUS
 10
3.199680
 20
2.453880
 11
3.199680
 21
2.448600
  0
LINE
  8
0
 62
     0
  6
CONTINUOUS
 10
3.199680
 20
2.448600
 11
3.178120
 21
2.448600
  0
LINE
  8
0
 62
     0
  6
CONTINUOUS
 10
3.178120
 20
2.448600
 11
3.178120
 21
2.445960
  0
LINE
  8
0
 62
     0
  6
CONTINUOUS
 10
3.178120
 20
2.445960
 11
3.199680
 21
2.445960
  0
LINE
  8
0
 62
     0
  6
CONTINUOUS
 10
3.199680
 20
2.445960
 11
3.199680
 21
2.440240
  0
LINE
  8
0
 62
     0
  6
CONTINUOUS
 10
3.199680
 20
2.440240
 11
3.208040
 21
2.440240
  0
LINE
  8
0
 62
     0
  6
CONTINUOUS
 10
3.208040
 20
2.440240
 11
3.210680
 21
2.432320
  0
LINE
  8
0
 62
     0
  6
CONTINUOUS
 10
3.210680
 20
2.432320
 11
3.210680
 21
2.411640
  0
LINE
  8
0
 62
     0
  6
CONTINUOUS
 10
3.210680
 20
2.411640
 11
3.208040
 21
2.421320
  0
LINE
  8
0
 62
     0
  6
CONTINUOUS
 10
3.208040
 20
2.421320
 11
3.199680
 21
2.421320
  0
LINE
  8
0
 62
     0
  6
CONTINUOUS
 10
3.208040
 20
2.421320
 11
3.210680
 21
2.432320
  0
LINE
  8
0
 62
     0
  6
CONTINUOUS
 10
3.199680
 20
2.433640
 11
3.178120
 21
2.433640
  0
LINE
  8
0
 62
     0
  6
CONTINUOUS
 10
3.178120
 20
2.433640
 11
3.178120
 21
2.437600
  0
LINE
  8
0
 62
     0
  6
CONTINUOUS
 10
3.178120
 20
2.437600
 11
3.199680
 21
2.437600
  0
LINE
  8
0
 62
     0
  6
CONTINUOUS
 10
3.199680
 20
2.437600
 11
3.199680
 21
2.440240
  0
LINE
  8
0
 62
     0
  6
CONTINUOUS
 10
3.199680
 20
2.440240
 11
3.178120
 21
2.440240
  0
LINE
  8
0
 62
     0
  6
CONTINUOUS
 10
3.178120
 20
2.429240
 11
3.178120
 21
2.640440
  0
LINE
  8
0
 62
     0
  6
CONTINUOUS
 10
3.178120
 20
2.640440
 11
3.176800
 21
2.647040
  0
LINE
  8
0
 62
     0
  6
CONTINUOUS
 10
3.176800
 20
2.647040
 11
3.172840
 21
2.652760
  0
LINE
  8
0
 62
     0
  6
CONTINUOUS
 10
3.172840
 20
2.652760
 11
3.167120
 21
2.656720
  0
LINE
  8
0
 62
     0
  6
CONTINUOUS
 10
3.167120
 20
2.656720
 11
3.164480
 21
2.659360
  0
LINE
  8
0
 62
     0
  6
CONTINUOUS
 10
3.164480
 20
2.659360
 11
3.159200
 21
2.660680
  0
LINE
  8
0
 62
     0
  6
CONTINUOUS
 10
3.159200
 20
2.660680
 11
3.003880
 21
2.660680
  0
LINE
  8
0
 62
     0
  6
CONTINUOUS
 10
3.003880
 20
2.660680
 11
3.001240
 21
2.659360
  0
LINE
  8
0
 62
     0
  6
CONTINUOUS
 10
3.001240
 20
2.659360
 11
2.995520
 21
2.656720
  0
LINE
  8
0
 62
     0
  6
CONTINUOUS
 10
2.925120
 20
2.749120
 11
3.338720
 21
2.749120
  0
LINE
  8
0
 62
     0
  6
CONTINUOUS
 10
3.338720
 20
2.749120
 11
3.338720
 21
2.742520
  0
LINE
  8
0
 62
     0
  6
CONTINUOUS
 10
3.338720
 20
2.742520
 11
2.919400
 21
2.742520
  0
LINE
  8
0
 62
     0
  6
CONTINUOUS
 10
2.935680
 20
2.760120
 11
3.338720
 21
2.760120
  0
LINE
  8
0
 62
     0
  6
CONTINUOUS
 10
3.338720
 20
2.760120
 11
3.338720
 21
2.742520
  0
LINE
  8
0
 62
     0
  6
CONTINUOUS
 10
3.338720
 20
2.756160
 11
2.931720
 21
2.756160
  0
LINE
  8
0
 62
     0
  6
CONTINUOUS
 10
3.383600
 20
2.750440
 11
3.423200
 21
2.750440
  0
LINE
  8
0
 62
     0
  6
CONTINUOUS
 10
3.427160
 20
2.777720
 11
3.412200
 21
2.720520
  0
LINE
  8
0
 62
     0
  6
CONTINUOUS
 10
3.442120
 20
2.720520
 11
3.443440
 21
2.777720
  0
LINE
  8
0
 62
     0
  6
CONTINUOUS
 10
3.473360
 20
2.777720
 11
3.442120
 21
2.720520
  0
LINE
  8
0
 62
     0
  6
CONTINUOUS
 10
3.472040
 20
2.720520
 11
3.473360
 21
2.777720
  0
LINE
  8
0
 62
     0
  6
CONTINUOUS
 10
3.499320
 20
2.777720
 11
3.472040
 21
2.720520
  0
LINE
  8
0
 62
     0
  6
CONTINUOUS
 10
3.501960
 20
2.720520
 11
3.514280
 21
2.777720
  0
LINE
  8
0
 62
     0
  6
CONTINUOUS
 10
3.514280
 20
2.777720
 11
3.540240
 21
2.777720
  0
LINE
  8
0
 62
     0
  6
CONTINUOUS
 10
3.540240
 20
2.777720
 11
3.546840
 21
2.775080
  0
LINE
  8
0
 62
     0
  6
CONTINUOUS
 10
3.546840
 20
2.775080
 11
3.550800
 21
2.772440
  0
LINE
  8
0
 62
     0
  6
CONTINUOUS
 10
3.550800
 20
2.772440
 11
3.550800
 21
2.766720
  0
LINE
  8
0
 62
     0
  6
CONTINUOUS
 10
3.550800
 20
2.766720
 11
3.550800
 21
2.761440
  0
LINE
  8
0
 62
     0
  6
CONTINUOUS
 10
3.550800
 20
2.761440
 11
3.542880
 21
2.756160
  0
LINE
  8
0
 62
     0
  6
CONTINUOUS
 10
3.542880
 20
2.756160
 11
3.540240
 21
2.753520
  0
LINE
  8
0
 62
     0
  6
CONTINUOUS
 10
3.540240
 20
2.753520
 11
3.531880
 21
2.750440
  0
LINE
  8
0
 62
     0
  6
CONTINUOUS
 10
3.531880
 20
2.750440
 11
3.507240
 21
2.750440
  0
LINE
  8
0
 62
     0
  6
CONTINUOUS
 10
3.526600
 20
2.750440
 11
3.540240
 21
2.720520
  0
LINE
  8
0
 62
     0
  6
CONTINUOUS
 10
3.377000
 20
2.720520
 11
3.391960
 21
2.777720
  0
LINE
  8
0
 62
     0
  6
CONTINUOUS
 10
3.189120
 20
2.496120
 11
3.183400
 21
2.497440
  0
LINE
  8
0
 62
     0
  6
CONTINUOUS
 10
3.183400
 20
2.497440
 11
3.178120
 21
2.497440
  0
LINE
  8
0
 62
     0
  6
CONTINUOUS
 10
3.189120
 20
2.496120
 11
3.193080
 21
2.492160
  0
LINE
  8
0
 62
     0
  6
CONTINUOUS
 10
3.193080
 20
2.492160
 11
3.194400
 21
2.489080
  0
LINE
  8
0
 62
     0
  6
CONTINUOUS
 10
3.194400
 20
2.489080
 11
3.194400
 21
2.456520
  0
LINE
  8
0
 62
     0
  6
CONTINUOUS
 10
3.199680
 20
2.429240
 11
3.199680
 21
2.396680
  0
LINE
  8
0
 62
     0
  6
CONTINUOUS
 10
3.199680
 20
2.396680
 11
3.199680
 21
2.400640
  0
LINE
  8
0
 62
     0
  6
CONTINUOUS
 10
3.199680
 20
2.400640
 11
3.208040
 21
2.400640
  0
LINE
  8
0
 62
     0
  6
CONTINUOUS
 10
3.208040
 20
2.400640
 11
3.210680
 21
2.411640
  0
LINE
  8
0
 62
     0
  6
CONTINUOUS
 10
3.391960
 20
2.211880
 11
3.377000
 21
2.154680
  0
LINE
  8
0
 62
     0
  6
CONTINUOUS
 10
3.383600
 20
2.184600
 11
3.423200
 21
2.184600
  0
LINE
  8
0
 62
     0
  6
CONTINUOUS
 10
3.427160
 20
2.211880
 11
3.412200
 21
2.154680
  0
LINE
  8
0
 62
     0
  6
CONTINUOUS
 10
3.442120
 20
2.154680
 11
3.443440
 21
2.211880
  0
LINE
  8
0
 62
     0
  6
CONTINUOUS
 10
3.473360
 20
2.211880
 11
3.442120
 21
2.154680
  0
LINE
  8
0
 62
     0
  6
CONTINUOUS
 10
3.472040
 20
2.154680
 11
3.473360
 21
2.211880
  0
LINE
  8
0
 62
     0
  6
CONTINUOUS
 10
3.499320
 20
2.211880
 11
3.472040
 21
2.154680
  0
LINE
  8
0
 62
     0
  6
CONTINUOUS
 10
3.504600
 20
2.157320
 11
3.499320
 21
2.162600
  0
LINE
  8
0
 62
     0
  6
CONTINUOUS
 10
3.504600
 20
2.157320
 11
3.509000
 21
2.154680
  0
LINE
  8
0
 62
     0
  6
CONTINUOUS
 10
3.509000
 20
2.154680
 11
3.522640
 21
2.154680
  0
LINE
  8
0
 62
     0
  6
CONTINUOUS
 10
3.522640
 20
2.154680
 11
3.530560
 21
2.157320
  0
LINE
  8
0
 62
     0
  6
CONTINUOUS
 10
3.530560
 20
2.157320
 11
3.538920
 21
2.162600
  0
LINE
  8
0
 62
     0
  6
CONTINUOUS
 10
3.538920
 20
2.162600
 11
3.540240
 21
2.170960
  0
LINE
  8
0
 62
     0
  6
CONTINUOUS
 10
3.540240
 20
2.170960
 11
3.540240
 21
2.176240
  0
LINE
  8
0
 62
     0
  6
CONTINUOUS
 10
3.540240
 20
2.176240
 11
3.537600
 21
2.178880
  0
LINE
  8
0
 62
     0
  6
CONTINUOUS
 10
3.537600
 20
2.178880
 11
3.531880
 21
2.181520
  0
LINE
  8
0
 62
     0
  6
CONTINUOUS
 10
3.531880
 20
2.181520
 11
3.518240
 21
2.187240
  0
LINE
  8
0
 62
     0
  6
CONTINUOUS
 10
3.518240
 20
2.187240
 11
3.510320
 21
2.189880
  0
LINE
  8
0
 62
     0
  6
CONTINUOUS
 10
3.510320
 20
2.189880
 11
3.509000
 21
2.192520
  0
LINE
  8
0
 62
     0
  6
CONTINUOUS
 10
3.509000
 20
2.192520
 11
3.507240
 21
2.198240
  0
LINE
  8
0
 62
     0
  6
CONTINUOUS
 10
3.507240
 20
2.198240
 11
3.509000
 21
2.203520
  0
LINE
  8
0
 62
     0
  6
CONTINUOUS
 10
3.509000
 20
2.203520
 11
3.518240
 21
2.208800
  0
LINE
  8
0
 62
     0
  6
CONTINUOUS
 10
3.518240
 20
2.208800
 11
3.523960
 21
2.211880
  0
LINE
  8
0
 62
     0
  6
CONTINUOUS
 10
3.523960
 20
2.211880
 11
3.537600
 21
2.211880
  0
LINE
  8
0
 62
     0
  6
CONTINUOUS
 10
3.537600
 20
2.211880
 11
3.542880
 21
2.208800
  0
LINE
  8
0
 62
     0
  6
CONTINUOUS
 10
3.542880
 20
2.208800
 11
3.548160
 21
2.203520
  0
LINE
  8
0
 62
     0
  6
CONTINUOUS
 10
2.926440
 20
3.699520
 11
2.933040
 21
3.693800
  0
LINE
  8
0
 62
     0
  6
CONTINUOUS
 10
2.933040
 20
3.693800
 11
2.933040
 21
3.688520
  0
LINE
  8
0
 62
     0
  6
CONTINUOUS
 10
2.933040
 20
3.688520
 11
2.934360
 21
3.680160
  0
LINE
  8
0
 62
     0
  6
CONTINUOUS
 10
2.934360
 20
3.680160
 11
2.930400
 21
3.666960
  0
LINE
  8
0
 62
     0
  6
CONTINUOUS
 10
2.930400
 20
3.666960
 11
2.922040
 21
3.658600
  0
LINE
  8
0
 62
     0
  6
CONTINUOUS
 10
2.922040
 20
3.658600
 11
2.919400
 21
3.653320
  0
LINE
  8
0
 62
     0
  6
CONTINUOUS
 10
2.919400
 20
3.653320
 11
2.914120
 21
3.647600
  0
LINE
  8
0
 62
     0
  6
CONTINUOUS
 10
2.914120
 20
3.647600
 11
2.903120
 21
3.644960
  0
LINE
  8
0
 62
     0
  6
CONTINUOUS
 10
2.903120
 20
3.644960
 11
2.886840
 21
3.644960
  0
LINE
  8
0
 62
     0
  6
CONTINUOUS
 10
2.886840
 20
3.644960
 11
2.901800
 21
3.700840
  0
LINE
  8
0
 62
     0
  6
CONTINUOUS
 10
2.901800
 20
3.700840
 11
2.919400
 21
3.700840
  0
LINE
  8
0
 62
     0
  6
CONTINUOUS
 10
2.919400
 20
3.700840
 11
2.926440
 21
3.699520
  0
LINE
  8
0
 62
     0
  6
CONTINUOUS
 10
2.870560
 20
3.699520
 11
2.866600
 21
3.700840
  0
LINE
  8
0
 62
     0
  6
CONTINUOUS
 10
2.866600
 20
3.700840
 11
2.854280
 21
3.700840
  0
LINE
  8
0
 62
     0
  6
CONTINUOUS
 10
2.854280
 20
3.700840
 11
2.850320
 21
3.699520
  0
LINE
  8
0
 62
     0
  6
CONTINUOUS
 10
2.850320
 20
3.699520
 11
2.840640
 21
3.693800
  0
LINE
  8
0
 62
     0
  6
CONTINUOUS
 10
2.840640
 20
3.693800
 11
2.838000
 21
3.688520
  0
LINE
  8
0
 62
     0
  6
CONTINUOUS
 10
2.838000
 20
3.688520
 11
2.833600
 21
3.680160
  0
LINE
  8
0
 62
     0
  6
CONTINUOUS
 10
2.833600
 20
3.680160
 11
2.829640
 21
3.666960
  0
LINE
  8
0
 62
     0
  6
CONTINUOUS
 10
2.829640
 20
3.666960
 11
2.829640
 21
3.658600
  0
LINE
  8
0
 62
     0
  6
CONTINUOUS
 10
2.829640
 20
3.658600
 11
2.832280
 21
3.653320
  0
LINE
  8
0
 62
     0
  6
CONTINUOUS
 10
2.832280
 20
3.653320
 11
2.836680
 21
3.647600
  0
LINE
  8
0
 62
     0
  6
CONTINUOUS
 10
2.836680
 20
3.647600
 11
2.838000
 21
3.644960
  0
LINE
  8
0
 62
     0
  6
CONTINUOUS
 10
2.838000
 20
3.644960
 11
2.851640
 21
3.644960
  0
LINE
  8
0
 62
     0
  6
CONTINUOUS
 10
2.851640
 20
3.644960
 11
2.855600
 21
3.647600
  0
LINE
  8
0
 62
     0
  6
CONTINUOUS
 10
2.855600
 20
3.647600
 11
2.865280
 21
3.653320
  0
LINE
  8
0
 62
     0
  6
CONTINUOUS
 10
2.865280
 20
3.653320
 11
2.869240
 21
3.658600
  0
LINE
  8
0
 62
     0
  6
CONTINUOUS
 10
2.869240
 20
3.658600
 11
2.870560
 21
3.666960
  0
LINE
  8
0
 62
     0
  6
CONTINUOUS
 10
2.870560
 20
3.666960
 11
2.875840
 21
3.680160
  0
LINE
  8
0
 62
     0
  6
CONTINUOUS
 10
2.875840
 20
3.680160
 11
2.875840
 21
3.688520
  0
LINE
  8
0
 62
     0
  6
CONTINUOUS
 10
2.875840
 20
3.688520
 11
2.873200
 21
3.693800
  0
LINE
  8
0
 62
     0
  6
CONTINUOUS
 10
2.873200
 20
3.693800
 11
2.870560
 21
3.699520
  0
LINE
  8
0
 62
     0
  6
CONTINUOUS
 10
2.821720
 20
3.700840
 11
2.783440
 21
3.644960
  0
LINE
  8
0
 62
     0
  6
CONTINUOUS
 10
2.783440
 20
3.644960
 11
2.775080
 21
3.700840
  0
LINE
  8
0
 62
     0
  6
CONTINUOUS
 10
2.775080
 20
3.700840
 11
2.758800
 21
3.644960
  0
LINE
  8
0
 62
     0
  6
CONTINUOUS
 10
2.775080
 20
3.631320
 11
2.758800
 21
3.574120
  0
LINE
  8
0
 62
     0
  6
CONTINUOUS
 10
2.771120
 20
3.604040
 11
2.805000
 21
3.604040
  0
LINE
  8
0
 62
     0
  6
CONTINUOUS
 10
2.828320
 20
3.604040
 11
2.851640
 21
3.604040
  0
LINE
  8
0
 62
     0
  6
CONTINUOUS
 10
2.821720
 20
3.574120
 11
2.838000
 21
3.631320
  0
LINE
  8
0
 62
     0
  6
CONTINUOUS
 10
2.838000
 20
3.631320
 11
2.870560
 21
3.631320
  0
LINE
  8
0
 62
     0
  6
CONTINUOUS
 10
2.901800
 20
3.631320
 11
2.865280
 21
3.574120
  0
LINE
  8
0
 62
     0
  6
CONTINUOUS
 10
2.877160
 20
3.593480
 11
2.903120
 21
3.593480
  0
LINE
  8
0
 62
     0
  6
CONTINUOUS
 10
2.905760
 20
3.574120
 11
2.901800
 21
3.631320
  0
LINE
  8
0
 62
     0
  6
CONTINUOUS
 10
2.927760
 20
3.631320
 11
2.967360
 21
3.631320
  0
LINE
  8
0
 62
     0
  6
CONTINUOUS
 10
2.948000
 20
3.631320
 11
2.933040
 21
3.574120
  0
LINE
  8
0
 62
     0
  6
CONTINUOUS
 10
2.946680
 20
3.644960
 11
2.949320
 21
3.647600
  0
LINE
  8
0
 62
     0
  6
CONTINUOUS
 10
2.949320
 20
3.647600
 11
2.948000
 21
3.650240
  0
LINE
  8
0
 62
     0
  6
CONTINUOUS
 10
2.948000
 20
3.650240
 11
2.942720
 21
3.647600
  0
LINE
  8
0
 62
     0
  6
CONTINUOUS
 10
2.942720
 20
3.647600
 11
2.946680
 21
3.644960
  0
LINE
  8
0
 62
     0
  6
CONTINUOUS
 10
2.805000
 20
3.644960
 11
2.821720
 21
3.700840
  0
LINE
  8
0
 62
     0
  6
CONTINUOUS
 10
2.816000
 20
3.631320
 11
2.801040
 21
3.574120
  0
LINE
  8
0
 62
     0
  6
CONTINUOUS
 10
3.109920
 20
2.173160
 11
3.109920
 21
2.082520
  0
LINE
  8
0
 62
     0
  6
CONTINUOUS
 10
3.276240
 20
3.609320
 11
3.263920
 21
3.609320
  0
LINE
  8
0
 62
     0
  6
CONTINUOUS
 10
3.259520
 20
3.556960
 11
3.281080
 21
3.556960
  0
LINE
  8
0
 62
     0
  6
CONTINUOUS
 10
3.283720
 20
3.556960
 11
3.283720
 21
3.541120
  0
LINE
  8
0
 62
     0
  6
CONTINUOUS
 10
3.283720
 20
3.541120
 11
3.283720
 21
3.556960
  0
LINE
  8
0
 62
     0
  6
CONTINUOUS
 10
3.283720
 20
3.556960
 11
3.284160
 21
3.556960
  0
LINE
  8
0
 62
     0
  6
CONTINUOUS
 10
3.284160
 20
3.556960
 11
3.284160
 21
3.541120
  0
LINE
  8
0
 62
     0
  6
CONTINUOUS
 10
3.284160
 20
3.541120
 11
3.284160
 21
3.556960
  0
LINE
  8
0
 62
     0
  6
CONTINUOUS
 10
3.284160
 20
3.556960
 11
3.284160
 21
3.541120
  0
LINE
  8
0
 62
     0
  6
CONTINUOUS
 10
3.284160
 20
3.541120
 11
3.284600
 21
3.541120
  0
LINE
  8
0
 62
     0
  6
CONTINUOUS
 10
3.284600
 20
3.541120
 11
3.284600
 21
3.556960
  0
LINE
  8
0
 62
     0
  6
CONTINUOUS
 10
3.284600
 20
3.556960
 11
3.284600
 21
3.541120
  0
LINE
  8
0
 62
     0
  6
CONTINUOUS
 10
3.284600
 20
3.541120
 11
3.284600
 21
3.556960
  0
LINE
  8
0
 62
     0
  6
CONTINUOUS
 10
3.284600
 20
3.556960
 11
3.285040
 21
3.556960
  0
LINE
  8
0
 62
     0
  6
CONTINUOUS
 10
3.285040
 20
3.556960
 11
3.285040
 21
3.541120
  0
LINE
  8
0
 62
     0
  6
CONTINUOUS
 10
3.285040
 20
3.541120
 11
3.285040
 21
3.556960
  0
LINE
  8
0
 62
     0
  6
CONTINUOUS
 10
3.285040
 20
3.556960
 11
3.285040
 21
3.541120
  0
LINE
  8
0
 62
     0
  6
CONTINUOUS
 10
3.285040
 20
3.541120
 11
3.285480
 21
3.541120
  0
LINE
  8
0
 62
     0
  6
CONTINUOUS
 10
3.285480
 20
3.541120
 11
3.285480
 21
3.556960
  0
LINE
  8
0
 62
     0
  6
CONTINUOUS
 10
3.285480
 20
3.556960
 11
3.285480
 21
3.541120
  0
LINE
  8
0
 62
     0
  6
CONTINUOUS
 10
3.285480
 20
3.541120
 11
3.285480
 21
3.556960
  0
LINE
  8
0
 62
     0
  6
CONTINUOUS
 10
3.285480
 20
3.556960
 11
3.285920
 21
3.556960
  0
LINE
  8
0
 62
     0
  6
CONTINUOUS
 10
3.285920
 20
3.556960
 11
3.285920
 21
3.541120
  0
LINE
  8
0
 62
     0
  6
CONTINUOUS
 10
3.285920
 20
3.541120
 11
3.285920
 21
3.556960
  0
LINE
  8
0
 62
     0
  6
CONTINUOUS
 10
3.285920
 20
3.556960
 11
3.285920
 21
3.541120
  0
LINE
  8
0
 62
     0
  6
CONTINUOUS
 10
3.285920
 20
3.541120
 11
3.286360
 21
3.541120
  0
LINE
  8
0
 62
     0
  6
CONTINUOUS
 10
3.286360
 20
3.541120
 11
3.286360
 21
3.556960
  0
LINE
  8
0
 62
     0
  6
CONTINUOUS
 10
3.286360
 20
3.556960
 11
3.286360
 21
3.541120
  0
LINE
  8
0
 62
     0
  6
CONTINUOUS
 10
3.286360
 20
3.541120
 11
3.286360
 21
3.556960
  0
LINE
  8
0
 62
     0
  6
CONTINUOUS
 10
3.286360
 20
3.556960
 11
3.286800
 21
3.556960
  0
LINE
  8
0
 62
     0
  6
CONTINUOUS
 10
3.286800
 20
3.556960
 11
3.286800
 21
3.541120
  0
LINE
  8
0
 62
     0
  6
CONTINUOUS
 10
3.286800
 20
3.541120
 11
3.286800
 21
3.556960
  0
LINE
  8
0
 62
     0
  6
CONTINUOUS
 10
3.286800
 20
3.556960
 11
3.286800
 21
3.541120
  0
LINE
  8
0
 62
     0
  6
CONTINUOUS
 10
3.286800
 20
3.541120
 11
3.287240
 21
3.541120
  0
LINE
  8
0
 62
     0
  6
CONTINUOUS
 10
3.287240
 20
3.541120
 11
3.287240
 21
3.556960
  0
LINE
  8
0
 62
     0
  6
CONTINUOUS
 10
3.287240
 20
3.556960
 11
3.287240
 21
3.541120
  0
LINE
  8
0
 62
     0
  6
CONTINUOUS
 10
3.287240
 20
3.541120
 11
3.287240
 21
3.556960
  0
LINE
  8
0
 62
     0
  6
CONTINUOUS
 10
3.287240
 20
3.556960
 11
3.287240
 21
3.541120
  0
LINE
  8
0
 62
     0
  6
CONTINUOUS
 10
3.287240
 20
3.541120
 11
3.287680
 21
3.541120
  0
LINE
  8
0
 62
     0
  6
CONTINUOUS
 10
3.287680
 20
3.541120
 11
3.287680
 21
3.556960
  0
LINE
  8
0
 62
     0
  6
CONTINUOUS
 10
3.287680
 20
3.556960
 11
3.287680
 21
3.541120
  0
LINE
  8
0
 62
     0
  6
CONTINUOUS
 10
3.287680
 20
3.541120
 11
3.287680
 21
3.556960
  0
LINE
  8
0
 62
     0
  6
CONTINUOUS
 10
3.287680
 20
3.556960
 11
3.288120
 21
3.556960
  0
LINE
  8
0
 62
     0
  6
CONTINUOUS
 10
3.288120
 20
3.556960
 11
3.288120
 21
3.541120
  0
LINE
  8
0
 62
     0
  6
CONTINUOUS
 10
3.288120
 20
3.541120
 11
3.288120
 21
3.556960
  0
LINE
  8
0
 62
     0
  6
CONTINUOUS
 10
3.288120
 20
3.556960
 11
3.288120
 21
3.541120
  0
LINE
  8
0
 62
     0
  6
CONTINUOUS
 10
3.288120
 20
3.541120
 11
3.288560
 21
3.541120
  0
LINE
  8
0
 62
     0
  6
CONTINUOUS
 10
3.288560
 20
3.541120
 11
3.288560
 21
3.556960
  0
LINE
  8
0
 62
     0
  6
CONTINUOUS
 10
3.288560
 20
3.556960
 11
3.288560
 21
3.541120
  0
LINE
  8
0
 62
     0
  6
CONTINUOUS
 10
3.288560
 20
3.541120
 11
3.288560
 21
3.556960
  0
LINE
  8
0
 62
     0
  6
CONTINUOUS
 10
3.288560
 20
3.556960
 11
3.289000
 21
3.556960
  0
LINE
  8
0
 62
     0
  6
CONTINUOUS
 10
3.289000
 20
3.556960
 11
3.289000
 21
3.541120
  0
LINE
  8
0
 62
     0
  6
CONTINUOUS
 10
3.289000
 20
3.541120
 11
3.289000
 21
3.556960
  0
LINE
  8
0
 62
     0
  6
CONTINUOUS
 10
3.289000
 20
3.556960
 11
3.289000
 21
3.541120
  0
LINE
  8
0
 62
     0
  6
CONTINUOUS
 10
3.289000
 20
3.541120
 11
3.289440
 21
3.541120
  0
LINE
  8
0
 62
     0
  6
CONTINUOUS
 10
3.289440
 20
3.541120
 11
3.289440
 21
3.556960
  0
LINE
  8
0
 62
     0
  6
CONTINUOUS
 10
3.289440
 20
3.556960
 11
3.289440
 21
3.541120
  0
LINE
  8
0
 62
     0
  6
CONTINUOUS
 10
3.289440
 20
3.541120
 11
3.289440
 21
3.556960
  0
LINE
  8
0
 62
     0
  6
CONTINUOUS
 10
3.289440
 20
3.556960
 11
3.289880
 21
3.556960
  0
LINE
  8
0
 62
     0
  6
CONTINUOUS
 10
3.289880
 20
3.556960
 11
3.289880
 21
3.541120
  0
LINE
  8
0
 62
     0
  6
CONTINUOUS
 10
3.289880
 20
3.541120
 11
3.289880
 21
3.556960
  0
LINE
  8
0
 62
     0
  6
CONTINUOUS
 10
3.289880
 20
3.556960
 11
3.289880
 21
3.541120
  0
LINE
  8
0
 62
     0
  6
CONTINUOUS
 10
3.289880
 20
3.541120
 11
3.290320
 21
3.541120
  0
LINE
  8
0
 62
     0
  6
CONTINUOUS
 10
3.290320
 20
3.541120
 11
3.290320
 21
3.556960
  0
LINE
  8
0
 62
     0
  6
CONTINUOUS
 10
3.290320
 20
3.556960
 11
3.290760
 21
3.541120
  0
LINE
  8
0
 62
     0
  6
CONTINUOUS
 10
3.290760
 20
3.541120
 11
3.280640
 21
3.541120
  0
LINE
  8
0
 62
     0
  6
CONTINUOUS
 10
3.280640
 20
3.541120
 11
3.281080
 21
3.556960
  0
LINE
  8
0
 62
     0
  6
CONTINUOUS
 10
3.281080
 20
3.556960
 11
3.290320
 21
3.556960
  0
LINE
  8
0
 62
     0
  6
CONTINUOUS
 10
3.290320
 20
3.556960
 11
3.311880
 21
3.556960
  0
LINE
  8
0
 62
     0
  6
CONTINUOUS
 10
3.290320
 20
3.556960
 11
3.290320
 21
3.541120
  0
LINE
  8
0
 62
     0
  6
CONTINUOUS
 10
3.290320
 20
3.541120
 11
3.290320
 21
3.551680
  0
LINE
  8
0
 62
     0
  6
CONTINUOUS
 10
3.290320
 20
3.551680
 11
3.290760
 21
3.546400
  0
LINE
  8
0
 62
     0
  6
CONTINUOUS
 10
3.290760
 20
3.546400
 11
3.290760
 21
3.541120
  0
LINE
  8
0
 62
     0
  6
CONTINUOUS
 10
3.283720
 20
3.541120
 11
3.283720
 21
3.556960
  0
LINE
  8
0
 62
     0
  6
CONTINUOUS
 10
3.283720
 20
3.556960
 11
3.283280
 21
3.556960
  0
LINE
  8
0
 62
     0
  6
CONTINUOUS
 10
3.283280
 20
3.556960
 11
3.283280
 21
3.541120
  0
LINE
  8
0
 62
     0
  6
CONTINUOUS
 10
3.283280
 20
3.541120
 11
3.283280
 21
3.556960
  0
LINE
  8
0
 62
     0
  6
CONTINUOUS
 10
3.283280
 20
3.556960
 11
3.283280
 21
3.541120
  0
LINE
  8
0
 62
     0
  6
CONTINUOUS
 10
3.283280
 20
3.541120
 11
3.282840
 21
3.541120
  0
LINE
  8
0
 62
     0
  6
CONTINUOUS
 10
3.282840
 20
3.541120
 11
3.282840
 21
3.556960
  0
LINE
  8
0
 62
     0
  6
CONTINUOUS
 10
3.282840
 20
3.556960
 11
3.282840
 21
3.541120
  0
LINE
  8
0
 62
     0
  6
CONTINUOUS
 10
3.282840
 20
3.541120
 11
3.282840
 21
3.556960
  0
LINE
  8
0
 62
     0
  6
CONTINUOUS
 10
3.282840
 20
3.556960
 11
3.282400
 21
3.556960
  0
LINE
  8
0
 62
     0
  6
CONTINUOUS
 10
3.282400
 20
3.556960
 11
3.282400
 21
3.541120
  0
LINE
  8
0
 62
     0
  6
CONTINUOUS
 10
3.282400
 20
3.541120
 11
3.282400
 21
3.556960
  0
LINE
  8
0
 62
     0
  6
CONTINUOUS
 10
3.282400
 20
3.556960
 11
3.282400
 21
3.541120
  0
LINE
  8
0
 62
     0
  6
CONTINUOUS
 10
3.282400
 20
3.541120
 11
3.281960
 21
3.541120
  0
LINE
  8
0
 62
     0
  6
CONTINUOUS
 10
3.281960
 20
3.541120
 11
3.281960
 21
3.556960
  0
LINE
  8
0
 62
     0
  6
CONTINUOUS
 10
3.281960
 20
3.556960
 11
3.281960
 21
3.541120
  0
LINE
  8
0
 62
     0
  6
CONTINUOUS
 10
3.281960
 20
3.541120
 11
3.281960
 21
3.556960
  0
LINE
  8
0
 62
     0
  6
CONTINUOUS
 10
3.281960
 20
3.556960
 11
3.281520
 21
3.556960
  0
LINE
  8
0
 62
     0
  6
CONTINUOUS
 10
3.281520
 20
3.556960
 11
3.281520
 21
3.541120
  0
LINE
  8
0
 62
     0
  6
CONTINUOUS
 10
3.281520
 20
3.541120
 11
3.281520
 21
3.556960
  0
LINE
  8
0
 62
     0
  6
CONTINUOUS
 10
3.281520
 20
3.556960
 11
3.281520
 21
3.541120
  0
LINE
  8
0
 62
     0
  6
CONTINUOUS
 10
3.281520
 20
3.541120
 11
3.281080
 21
3.541120
  0
LINE
  8
0
 62
     0
  6
CONTINUOUS
 10
3.281080
 20
3.541120
 11
3.281080
 21
3.556960
  0
LINE
  8
0
 62
     0
  6
CONTINUOUS
 10
3.281080
 20
3.556960
 11
3.281080
 21
3.541120
  0
LINE
  8
0
 62
     0
  6
CONTINUOUS
 10
3.281080
 20
3.541120
 11
3.281080
 21
3.554760
  0
LINE
  8
0
 62
     0
  6
CONTINUOUS
 10
3.281080
 20
3.554760
 11
3.280640
 21
3.550800
  0
LINE
  8
0
 62
     0
  6
CONTINUOUS
 10
3.280640
 20
3.550800
 11
3.280640
 21
3.541120
  0
LINE
  8
0
 62
     0
  6
CONTINUOUS
 10
3.280640
 20
3.541120
 11
3.280640
 21
3.546840
  0
LINE
  8
0
 62
     0
  6
CONTINUOUS
 10
3.280640
 20
3.546840
 11
3.280640
 21
3.542880
  0
LINE
  8
0
 62
     0
  6
CONTINUOUS
 10
3.280640
 20
3.542880
 11
3.280640
 21
3.541120
  0
LINE
  8
0
 62
     0
  6
CONTINUOUS
 10
3.283720
 20
3.541120
 11
3.283720
 21
3.556960
  0
LINE
  8
0
 62
     0
  6
CONTINUOUS
 10
3.387560
 20
3.556960
 11
3.387560
 21
3.571920
  0
LINE
  8
0
 62
     0
  6
CONTINUOUS
 10
3.387560
 20
3.556960
 11
3.171520
 21
3.556960
  0
LINE
  8
0
 62
     0
  6
CONTINUOUS
 10
3.171520
 20
3.556960
 11
3.171520
 21
3.571920
  0
LINE
  8
0
 62
     0
  6
CONTINUOUS
 10
3.283720
 20
3.402520
 11
3.283720
 21
3.362480
  0
LINE
  8
0
 62
     0
  6
CONTINUOUS
 10
3.283720
 20
3.362480
 11
3.283280
 21
3.362480
  0
LINE
  8
0
 62
     0
  6
CONTINUOUS
 10
3.283280
 20
3.362480
 11
3.283280
 21
3.402520
  0
LINE
  8
0
 62
     0
  6
CONTINUOUS
 10
3.283280
 20
3.402520
 11
3.283280
 21
3.362480
  0
LINE
  8
0
 62
     0
  6
CONTINUOUS
 10
3.283280
 20
3.362480
 11
3.283280
 21
3.402520
  0
LINE
  8
0
 62
     0
  6
CONTINUOUS
 10
3.283280
 20
3.402520
 11
3.282840
 21
3.402520
  0
LINE
  8
0
 62
     0
  6
CONTINUOUS
 10
3.282840
 20
3.402520
 11
3.282840
 21
3.362480
  0
LINE
  8
0
 62
     0
  6
CONTINUOUS
 10
3.282840
 20
3.362480
 11
3.282840
 21
3.402520
  0
LINE
  8
0
 62
     0
  6
CONTINUOUS
 10
3.282840
 20
3.402520
 11
3.282840
 21
3.362480
  0
LINE
  8
0
 62
     0
  6
CONTINUOUS
 10
3.282840
 20
3.362480
 11
3.282400
 21
3.362480
  0
LINE
  8
0
 62
     0
  6
CONTINUOUS
 10
3.282400
 20
3.362480
 11
3.282400
 21
3.402520
  0
LINE
  8
0
 62
     0
  6
CONTINUOUS
 10
3.282400
 20
3.402520
 11
3.282400
 21
3.362480
  0
LINE
  8
0
 62
     0
  6
CONTINUOUS
 10
3.282400
 20
3.362480
 11
3.282400
 21
3.402520
  0
LINE
  8
0
 62
     0
  6
CONTINUOUS
 10
3.282400
 20
3.402520
 11
3.281960
 21
3.402520
  0
LINE
  8
0
 62
     0
  6
CONTINUOUS
 10
3.281960
 20
3.402520
 11
3.281960
 21
3.362480
  0
LINE
  8
0
 62
     0
  6
CONTINUOUS
 10
3.281960
 20
3.362480
 11
3.281960
 21
3.402520
  0
LINE
  8
0
 62
     0
  6
CONTINUOUS
 10
3.281960
 20
3.402520
 11
3.281960
 21
3.362480
  0
LINE
  8
0
 62
     0
  6
CONTINUOUS
 10
3.281960
 20
3.362480
 11
3.281520
 21
3.362480
  0
LINE
  8
0
 62
     0
  6
CONTINUOUS
 10
3.281520
 20
3.362480
 11
3.281520
 21
3.402520
  0
LINE
  8
0
 62
     0
  6
CONTINUOUS
 10
3.281520
 20
3.402520
 11
3.281520
 21
3.362480
  0
LINE
  8
0
 62
     0
  6
CONTINUOUS
 10
3.281520
 20
3.362480
 11
3.281520
 21
3.402520
  0
LINE
  8
0
 62
     0
  6
CONTINUOUS
 10
3.281520
 20
3.402520
 11
3.281080
 21
3.402520
  0
LINE
  8
0
 62
     0
  6
CONTINUOUS
 10
3.281080
 20
3.402520
 11
3.281080
 21
3.362480
  0
LINE
  8
0
 62
     0
  6
CONTINUOUS
 10
3.283720
 20
3.362480
 11
3.283720
 21
3.402520
  0
LINE
  8
0
 62
     0
  6
CONTINUOUS
 10
3.283720
 20
3.402520
 11
3.283720
 21
3.362480
  0
LINE
  8
0
 62
     0
  6
CONTINUOUS
 10
3.283720
 20
3.362480
 11
3.283720
 21
3.402520
  0
LINE
  8
0
 62
     0
  6
CONTINUOUS
 10
3.284160
 20
3.402520
 11
3.284160
 21
3.362480
  0
LINE
  8
0
 62
     0
  6
CONTINUOUS
 10
3.284160
 20
3.362480
 11
3.283720
 21
3.362480
  0
LINE
  8
0
 62
     0
  6
CONTINUOUS
 10
3.284160
 20
3.362480
 11
3.284160
 21
3.402520
  0
LINE
  8
0
 62
     0
  6
CONTINUOUS
 10
3.284160
 20
3.402520
 11
3.284160
 21
3.362480
  0
LINE
  8
0
 62
     0
  6
CONTINUOUS
 10
3.284600
 20
3.362480
 11
3.284600
 21
3.402520
  0
LINE
  8
0
 62
     0
  6
CONTINUOUS
 10
3.284600
 20
3.402520
 11
3.284160
 21
3.402520
  0
LINE
  8
0
 62
     0
  6
CONTINUOUS
 10
3.284600
 20
3.402520
 11
3.284600
 21
3.362480
  0
LINE
  8
0
 62
     0
  6
CONTINUOUS
 10
3.284600
 20
3.362480
 11
3.284600
 21
3.402520
  0
LINE
  8
0
 62
     0
  6
CONTINUOUS
 10
3.285040
 20
3.402520
 11
3.285040
 21
3.362480
  0
LINE
  8
0
 62
     0
  6
CONTINUOUS
 10
3.285040
 20
3.362480
 11
3.284600
 21
3.362480
  0
LINE
  8
0
 62
     0
  6
CONTINUOUS
 10
3.285040
 20
3.362480
 11
3.285040
 21
3.402520
  0
LINE
  8
0
 62
     0
  6
CONTINUOUS
 10
3.285040
 20
3.402520
 11
3.285040
 21
3.362480
  0
LINE
  8
0
 62
     0
  6
CONTINUOUS
 10
3.285480
 20
3.362480
 11
3.285480
 21
3.402520
  0
LINE
  8
0
 62
     0
  6
CONTINUOUS
 10
3.285480
 20
3.402520
 11
3.285040
 21
3.402520
  0
LINE
  8
0
 62
     0
  6
CONTINUOUS
 10
3.285480
 20
3.402520
 11
3.285480
 21
3.362480
  0
LINE
  8
0
 62
     0
  6
CONTINUOUS
 10
3.285480
 20
3.362480
 11
3.285480
 21
3.402520
  0
LINE
  8
0
 62
     0
  6
CONTINUOUS
 10
3.285920
 20
3.402520
 11
3.285920
 21
3.362480
  0
LINE
  8
0
 62
     0
  6
CONTINUOUS
 10
3.285920
 20
3.362480
 11
3.285480
 21
3.362480
  0
LINE
  8
0
 62
     0
  6
CONTINUOUS
 10
3.285920
 20
3.362480
 11
3.285920
 21
3.402520
  0
LINE
  8
0
 62
     0
  6
CONTINUOUS
 10
3.285920
 20
3.402520
 11
3.285920
 21
3.362480
  0
LINE
  8
0
 62
     0
  6
CONTINUOUS
 10
3.286360
 20
3.362480
 11
3.286360
 21
3.402520
  0
LINE
  8
0
 62
     0
  6
CONTINUOUS
 10
3.286360
 20
3.402520
 11
3.285920
 21
3.402520
  0
LINE
  8
0
 62
     0
  6
CONTINUOUS
 10
3.286360
 20
3.402520
 11
3.286360
 21
3.362480
  0
LINE
  8
0
 62
     0
  6
CONTINUOUS
 10
3.286360
 20
3.362480
 11
3.286360
 21
3.402520
  0
LINE
  8
0
 62
     0
  6
CONTINUOUS
 10
3.286800
 20
3.402520
 11
3.286800
 21
3.362480
  0
LINE
  8
0
 62
     0
  6
CONTINUOUS
 10
3.286800
 20
3.362480
 11
3.286360
 21
3.362480
  0
LINE
  8
0
 62
     0
  6
CONTINUOUS
 10
3.286800
 20
3.362480
 11
3.286800
 21
3.402520
  0
LINE
  8
0
 62
     0
  6
CONTINUOUS
 10
3.286800
 20
3.402520
 11
3.286800
 21
3.362480
  0
LINE
  8
0
 62
     0
  6
CONTINUOUS
 10
3.287240
 20
3.362480
 11
3.287240
 21
3.402520
  0
LINE
  8
0
 62
     0
  6
CONTINUOUS
 10
3.287240
 20
3.402520
 11
3.286800
 21
3.402520
  0
LINE
  8
0
 62
     0
  6
CONTINUOUS
 10
3.287240
 20
3.402520
 11
3.287240
 21
3.362480
  0
LINE
  8
0
 62
     0
  6
CONTINUOUS
 10
3.287240
 20
3.362480
 11
3.287240
 21
3.402520
  0
LINE
  8
0
 62
     0
  6
CONTINUOUS
 10
3.287240
 20
3.402520
 11
3.287240
 21
3.362480
  0
LINE
  8
0
 62
     0
  6
CONTINUOUS
 10
3.287680
 20
3.362480
 11
3.287680
 21
3.402520
  0
LINE
  8
0
 62
     0
  6
CONTINUOUS
 10
3.287680
 20
3.402520
 11
3.287240
 21
3.402520
  0
LINE
  8
0
 62
     0
  6
CONTINUOUS
 10
3.287680
 20
3.402520
 11
3.287680
 21
3.362480
  0
LINE
  8
0
 62
     0
  6
CONTINUOUS
 10
3.287680
 20
3.362480
 11
3.287680
 21
3.402520
  0
LINE
  8
0
 62
     0
  6
CONTINUOUS
 10
3.288120
 20
3.402520
 11
3.288120
 21
3.362480
  0
LINE
  8
0
 62
     0
  6
CONTINUOUS
 10
3.288120
 20
3.362480
 11
3.287680
 21
3.362480
  0
LINE
  8
0
 62
     0
  6
CONTINUOUS
 10
3.288120
 20
3.362480
 11
3.288120
 21
3.402520
  0
LINE
  8
0
 62
     0
  6
CONTINUOUS
 10
3.288120
 20
3.402520
 11
3.288120
 21
3.362480
  0
LINE
  8
0
 62
     0
  6
CONTINUOUS
 10
3.288560
 20
3.362480
 11
3.288560
 21
3.402520
  0
LINE
  8
0
 62
     0
  6
CONTINUOUS
 10
3.288560
 20
3.402520
 11
3.288120
 21
3.402520
  0
LINE
  8
0
 62
     0
  6
CONTINUOUS
 10
3.288560
 20
3.402520
 11
3.288560
 21
3.362480
  0
LINE
  8
0
 62
     0
  6
CONTINUOUS
 10
3.288560
 20
3.362480
 11
3.288560
 21
3.402520
  0
LINE
  8
0
 62
     0
  6
CONTINUOUS
 10
3.289000
 20
3.402520
 11
3.289000
 21
3.362480
  0
LINE
  8
0
 62
     0
  6
CONTINUOUS
 10
3.289000
 20
3.362480
 11
3.288560
 21
3.362480
  0
LINE
  8
0
 62
     0
  6
CONTINUOUS
 10
3.289000
 20
3.362480
 11
3.289000
 21
3.402520
  0
LINE
  8
0
 62
     0
  6
CONTINUOUS
 10
3.289000
 20
3.402520
 11
3.289000
 21
3.362480
  0
LINE
  8
0
 62
     0
  6
CONTINUOUS
 10
3.289440
 20
3.362480
 11
3.289440
 21
3.402520
  0
LINE
  8
0
 62
     0
  6
CONTINUOUS
 10
3.289440
 20
3.402520
 11
3.289000
 21
3.402520
  0
LINE
  8
0
 62
     0
  6
CONTINUOUS
 10
3.289440
 20
3.402520
 11
3.289440
 21
3.362480
  0
LINE
  8
0
 62
     0
  6
CONTINUOUS
 10
3.289440
 20
3.362480
 11
3.289440
 21
3.402520
  0
LINE
  8
0
 62
     0
  6
CONTINUOUS
 10
3.289880
 20
3.402520
 11
3.289880
 21
3.362480
  0
LINE
  8
0
 62
     0
  6
CONTINUOUS
 10
3.289880
 20
3.362480
 11
3.289440
 21
3.362480
  0
LINE
  8
0
 62
     0
  6
CONTINUOUS
 10
3.289880
 20
3.362480
 11
3.289880
 21
3.402520
  0
LINE
  8
0
 62
     0
  6
CONTINUOUS
 10
3.289880
 20
3.402520
 11
3.289880
 21
3.362480
  0
LINE
  8
0
 62
     0
  6
CONTINUOUS
 10
3.290320
 20
3.362480
 11
3.290320
 21
3.402520
  0
LINE
  8
0
 62
     0
  6
CONTINUOUS
 10
3.290320
 20
3.402520
 11
3.289880
 21
3.402520
  0
LINE
  8
0
 62
     0
  6
CONTINUOUS
 10
3.290320
 20
3.402520
 11
3.290760
 21
3.362480
  0
LINE
  8
0
 62
     0
  6
CONTINUOUS
 10
3.290760
 20
3.362480
 11
3.281080
 21
3.362480
  0
LINE
  8
0
 62
     0
  6
CONTINUOUS
 10
3.281080
 20
3.362480
 11
3.281080
 21
3.402520
  0
LINE
  8
0
 62
     0
  6
CONTINUOUS
 10
3.281080
 20
3.402520
 11
3.290320
 21
3.402520
  0
LINE
  8
0
 62
     0
  6
CONTINUOUS
 10
3.290320
 20
3.402520
 11
3.290320
 21
3.362480
  0
LINE
  8
0
 62
     0
  6
CONTINUOUS
 10
3.290320
 20
3.362480
 11
3.290320
 21
3.382280
  0
LINE
  8
0
 62
     0
  6
CONTINUOUS
 10
3.290320
 20
3.382280
 11
3.290320
 21
3.402520
  0
LINE
  8
0
 62
     0
  6
CONTINUOUS
 10
3.281080
 20
3.402520
 11
3.281080
 21
3.382280
  0
LINE
  8
0
 62
     0
  6
CONTINUOUS
 10
3.262600
 20
3.245440
 11
3.262600
 21
3.239280
  0
LINE
  8
0
 62
     0
  6
CONTINUOUS
 10
3.262600
 20
3.239280
 11
3.308800
 21
3.239280
  0
LINE
  8
0
 62
     0
  6
CONTINUOUS
 10
3.308800
 20
3.239280
 11
3.308800
 21
3.245440
  0
LINE
  8
0
 62
     0
  6
CONTINUOUS
 10
3.388440
 20
3.569280
 11
3.387560
 21
3.569280
  0
LINE
  8
0
 62
     0
  6
CONTINUOUS
 10
3.185160
 20
3.556960
 11
3.200560
 21
3.571920
  0
LINE
  8
0
 62
     0
  6
CONTINUOUS
 10
3.206280
 20
3.571920
 11
3.190440
 21
3.556960
  0
LINE
  8
0
 62
     0
  6
CONTINUOUS
 10
3.196160
 20
3.556960
 11
3.211560
 21
3.571920
  0
LINE
  8
0
 62
     0
  6
CONTINUOUS
 10
3.216840
 20
3.571920
 11
3.201440
 21
3.556960
  0
LINE
  8
0
 62
     0
  6
CONTINUOUS
 10
3.217720
 20
3.556960
 11
3.233120
 21
3.571920
  0
LINE
  8
0
 62
     0
  6
CONTINUOUS
 10
3.238840
 20
3.571920
 11
3.223440
 21
3.556960
  0
LINE
  8
0
 62
     0
  6
CONTINUOUS
 10
3.228720
 20
3.556960
 11
3.244120
 21
3.571920
  0
LINE
  8
0
 62
     0
  6
CONTINUOUS
 10
3.249840
 20
3.571920
 11
3.234440
 21
3.556960
  0
LINE
  8
0
 62
     0
  6
CONTINUOUS
 10
3.250720
 20
3.556960
 11
3.266120
 21
3.571920
  0
LINE
  8
0
 62
     0
  6
CONTINUOUS
 10
3.271400
 20
3.571920
 11
3.256000
 21
3.556960
  0
LINE
  8
0
 62
     0
  6
CONTINUOUS
 10
3.261720
 20
3.556960
 11
3.277120
 21
3.571920
  0
LINE
  8
0
 62
     0
  6
CONTINUOUS
 10
3.282400
 20
3.571920
 11
3.267000
 21
3.556960
  0
LINE
  8
0
 62
     0
  6
CONTINUOUS
 10
3.283280
 20
3.556960
 11
3.298680
 21
3.571920
  0
LINE
  8
0
 62
     0
  6
CONTINUOUS
 10
3.304400
 20
3.571920
 11
3.289000
 21
3.556960
  0
LINE
  8
0
 62
     0
  6
CONTINUOUS
 10
3.294280
 20
3.556960
 11
3.309680
 21
3.571920
  0
LINE
  8
0
 62
     0
  6
CONTINUOUS
 10
3.314960
 20
3.571920
 11
3.299560
 21
3.556960
  0
LINE
  8
0
 62
     0
  6
CONTINUOUS
 10
3.311440
 20
3.556960
 11
3.311440
 21
3.528800
  0
LINE
  8
0
 62
     0
  6
CONTINUOUS
 10
3.311440
 20
3.528800
 11
3.311440
 21
3.521760
  0
LINE
  8
0
 62
     0
  6
CONTINUOUS
 10
3.311440
 20
3.521760
 11
3.311440
 21
3.553440
  0
LINE
  8
0
 62
     0
  6
CONTINUOUS
 10
3.311440
 20
3.553440
 11
3.311440
 21
3.546400
  0
LINE
  8
0
 62
     0
  6
CONTINUOUS
 10
3.311440
 20
3.546400
 11
3.311440
 21
3.514720
  0
LINE
  8
0
 62
     0
  6
CONTINUOUS
 10
3.311440
 20
3.514720
 11
3.311000
 21
3.507680
  0
LINE
  8
0
 62
     0
  6
CONTINUOUS
 10
3.311000
 20
3.507680
 11
3.311000
 21
3.539360
  0
LINE
  8
0
 62
     0
  6
CONTINUOUS
 10
3.311000
 20
3.539360
 11
3.311000
 21
3.532320
  0
LINE
  8
0
 62
     0
  6
CONTINUOUS
 10
3.311000
 20
3.532320
 11
3.311000
 21
3.500640
  0
LINE
  8
0
 62
     0
  6
CONTINUOUS
 10
3.311000
 20
3.500640
 11
3.311000
 21
3.493600
  0
LINE
  8
0
 62
     0
  6
CONTINUOUS
 10
3.311000
 20
3.493600
 11
3.311000
 21
3.525280
  0
LINE
  8
0
 62
     0
  6
CONTINUOUS
 10
3.311000
 20
3.525280
 11
3.310560
 21
3.518240
  0
LINE
  8
0
 62
     0
  6
CONTINUOUS
 10
3.310560
 20
3.518240
 11
3.310560
 21
3.486560
  0
LINE
  8
0
 62
     0
  6
CONTINUOUS
 10
3.310560
 20
3.486560
 11
3.310560
 21
3.479520
  0
LINE
  8
0
 62
     0
  6
CONTINUOUS
 10
3.310560
 20
3.479520
 11
3.310560
 21
3.511200
  0
LINE
  8
0
 62
     0
  6
CONTINUOUS
 10
3.310560
 20
3.511200
 11
3.310560
 21
3.504160
  0
LINE
  8
0
 62
     0
  6
CONTINUOUS
 10
3.310560
 20
3.504160
 11
3.310560
 21
3.472920
  0
LINE
  8
0
 62
     0
  6
CONTINUOUS
 10
3.310560
 20
3.472920
 11
3.310120
 21
3.465880
  0
LINE
  8
0
 62
     0
  6
CONTINUOUS
 10
3.310120
 20
3.465880
 11
3.310120
 21
3.497120
  0
LINE
  8
0
 62
     0
  6
CONTINUOUS
 10
3.310120
 20
3.497120
 11
3.310120
 21
3.490080
  0
LINE
  8
0
 62
     0
  6
CONTINUOUS
 10
3.310120
 20
3.490080
 11
3.310120
 21
3.458840
  0
LINE
  8
0
 62
     0
  6
CONTINUOUS
 10
3.310120
 20
3.458840
 11
3.310120
 21
3.451800
  0
LINE
  8
0
 62
     0
  6
CONTINUOUS
 10
3.310120
 20
3.451800
 11
3.310120
 21
3.483040
  0
LINE
  8
0
 62
     0
  6
CONTINUOUS
 10
3.310120
 20
3.483040
 11
3.310120
 21
3.476440
  0
LINE
  8
0
 62
     0
  6
CONTINUOUS
 10
3.310120
 20
3.476440
 11
3.310120
 21
3.444760
  0
LINE
  8
0
 62
     0
  6
CONTINUOUS
 10
3.310120
 20
3.444760
 11
3.309680
 21
3.437720
  0
LINE
  8
0
 62
     0
  6
CONTINUOUS
 10
3.309680
 20
3.437720
 11
3.309680
 21
3.469400
  0
LINE
  8
0
 62
     0
  6
CONTINUOUS
 10
3.309680
 20
3.469400
 11
3.309680
 21
3.462360
  0
LINE
  8
0
 62
     0
  6
CONTINUOUS
 10
3.309680
 20
3.462360
 11
3.309680
 21
3.430680
  0
LINE
  8
0
 62
     0
  6
CONTINUOUS
 10
3.309680
 20
3.430680
 11
3.309680
 21
3.423640
  0
LINE
  8
0
 62
     0
  6
CONTINUOUS
 10
3.309680
 20
3.423640
 11
3.309680
 21
3.455320
  0
LINE
  8
0
 62
     0
  6
CONTINUOUS
 10
3.309680
 20
3.455320
 11
3.309240
 21
3.448280
  0
LINE
  8
0
 62
     0
  6
CONTINUOUS
 10
3.309240
 20
3.448280
 11
3.309240
 21
3.416600
  0
LINE
  8
0
 62
     0
  6
CONTINUOUS
 10
3.309240
 20
3.416600
 11
3.309240
 21
3.409560
  0
LINE
  8
0
 62
     0
  6
CONTINUOUS
 10
3.309240
 20
3.409560
 11
3.309240
 21
3.441240
  0
LINE
  8
0
 62
     0
  6
CONTINUOUS
 10
3.309240
 20
3.441240
 11
3.309240
 21
3.434200
  0
LINE
  8
0
 62
     0
  6
CONTINUOUS
 10
3.309240
 20
3.434200
 11
3.309240
 21
3.402520
  0
LINE
  8
0
 62
     0
  6
CONTINUOUS
 10
3.309240
 20
3.402520
 11
3.308800
 21
3.402520
  0
LINE
  8
0
 62
     0
  6
CONTINUOUS
 10
3.308800
 20
3.402520
 11
3.308800
 21
3.427160
  0
LINE
  8
0
 62
     0
  6
CONTINUOUS
 10
3.308800
 20
3.427160
 11
3.308800
 21
3.420120
  0
LINE
  8
0
 62
     0
  6
CONTINUOUS
 10
3.308800
 20
3.420120
 11
3.308800
 21
3.402520
  0
LINE
  8
0
 62
     0
  6
CONTINUOUS
 10
3.308800
 20
3.402520
 11
3.308800
 21
3.413080
  0
LINE
  8
0
 62
     0
  6
CONTINUOUS
 10
3.308800
 20
3.413080
 11
3.308360
 21
3.406040
  0
LINE
  8
0
 62
     0
  6
CONTINUOUS
 10
3.308360
 20
3.406040
 11
3.308360
 21
3.402520
  0
LINE
  8
0
 62
     0
  6
CONTINUOUS
 10
3.308360
 20
3.402520
 11
3.311440
 21
3.556960
  0
LINE
  8
0
 62
     0
  6
CONTINUOUS
 10
3.311440
 20
3.556960
 11
3.312320
 21
3.556960
  0
LINE
  8
0
 62
     0
  6
CONTINUOUS
 10
3.312320
 20
3.556960
 11
3.309240
 21
3.402520
  0
LINE
  8
0
 62
     0
  6
CONTINUOUS
 10
3.309240
 20
3.402520
 11
3.308360
 21
3.402520
  0
LINE
  8
0
 62
     0
  6
CONTINUOUS
 10
3.293400
 20
3.402520
 11
3.293400
 21
3.409560
  0
LINE
  8
0
 62
     0
  6
CONTINUOUS
 10
3.293400
 20
3.409560
 11
3.293400
 21
3.416600
  0
LINE
  8
0
 62
     0
  6
CONTINUOUS
 10
3.293400
 20
3.416600
 11
3.293400
 21
3.402520
  0
LINE
  8
0
 62
     0
  6
CONTINUOUS
 10
3.293400
 20
3.402520
 11
3.293400
 21
3.423640
  0
LINE
  8
0
 62
     0
  6
CONTINUOUS
 10
3.293400
 20
3.423640
 11
3.292960
 21
3.430680
  0
LINE
  8
0
 62
     0
  6
CONTINUOUS
 10
3.292960
 20
3.430680
 11
3.292960
 21
3.402520
  0
LINE
  8
0
 62
     0
  6
CONTINUOUS
 10
3.292960
 20
3.406040
 11
3.292960
 21
3.437720
  0
LINE
  8
0
 62
     0
  6
CONTINUOUS
 10
3.292960
 20
3.437720
 11
3.292960
 21
3.444760
  0
LINE
  8
0
 62
     0
  6
CONTINUOUS
 10
3.292960
 20
3.444760
 11
3.292960
 21
3.413520
  0
LINE
  8
0
 62
     0
  6
CONTINUOUS
 10
3.292960
 20
3.413520
 11
3.292520
 21
3.420560
  0
LINE
  8
0
 62
     0
  6
CONTINUOUS
 10
3.292520
 20
3.420560
 11
3.292520
 21
3.451800
  0
LINE
  8
0
 62
     0
  6
CONTINUOUS
 10
3.292520
 20
3.451800
 11
3.292520
 21
3.458840
  0
LINE
  8
0
 62
     0
  6
CONTINUOUS
 10
3.292520
 20
3.458840
 11
3.292520
 21
3.427600
  0
LINE
  8
0
 62
     0
  6
CONTINUOUS
 10
3.292520
 20
3.427600
 11
3.292520
 21
3.435080
  0
LINE
  8
0
 62
     0
  6
CONTINUOUS
 10
3.292520
 20
3.435080
 11
3.292520
 21
3.465880
  0
LINE
  8
0
 62
     0
  6
CONTINUOUS
 10
3.292520
 20
3.465880
 11
3.292080
 21
3.472920
  0
LINE
  8
0
 62
     0
  6
CONTINUOUS
 10
3.292080
 20
3.472920
 11
3.292080
 21
3.442120
  0
LINE
  8
0
 62
     0
  6
CONTINUOUS
 10
3.292080
 20
3.442120
 11
3.292080
 21
3.449160
  0
LINE
  8
0
 62
     0
  6
CONTINUOUS
 10
3.292080
 20
3.449160
 11
3.292080
 21
3.479960
  0
LINE
  8
0
 62
     0
  6
CONTINUOUS
 10
3.292080
 20
3.479960
 11
3.292080
 21
3.486560
  0
LINE
  8
0
 62
     0
  6
CONTINUOUS
 10
3.292080
 20
3.486560
 11
3.292080
 21
3.456200
  0
LINE
  8
0
 62
     0
  6
CONTINUOUS
 10
3.292080
 20
3.456200
 11
3.291640
 21
3.463680
  0
LINE
  8
0
 62
     0
  6
CONTINUOUS
 10
3.291640
 20
3.463680
 11
3.291640
 21
3.493600
  0
LINE
  8
0
 62
     0
  6
CONTINUOUS
 10
3.291640
 20
3.493600
 11
3.291640
 21
3.500640
  0
LINE
  8
0
 62
     0
  6
CONTINUOUS
 10
3.291640
 20
3.500640
 11
3.291640
 21
3.470720
  0
LINE
  8
0
 62
     0
  6
CONTINUOUS
 10
3.291640
 20
3.470720
 11
3.291640
 21
3.477760
  0
LINE
  8
0
 62
     0
  6
CONTINUOUS
 10
3.291640
 20
3.477760
 11
3.291640
 21
3.507680
  0
LINE
  8
0
 62
     0
  6
CONTINUOUS
 10
3.291640
 20
3.507680
 11
3.291200
 21
3.514720
  0
LINE
  8
0
 62
     0
  6
CONTINUOUS
 10
3.291200
 20
3.514720
 11
3.291200
 21
3.485240
  0
LINE
  8
0
 62
     0
  6
CONTINUOUS
 10
3.291200
 20
3.485240
 11
3.291200
 21
3.492280
  0
LINE
  8
0
 62
     0
  6
CONTINUOUS
 10
3.291200
 20
3.492280
 11
3.291200
 21
3.521760
  0
LINE
  8
0
 62
     0
  6
CONTINUOUS
 10
3.291200
 20
3.521760
 11
3.291200
 21
3.528800
  0
LINE
  8
0
 62
     0
  6
CONTINUOUS
 10
3.291200
 20
3.528800
 11
3.291200
 21
3.499320
  0
LINE
  8
0
 62
     0
  6
CONTINUOUS
 10
3.291200
 20
3.499320
 11
3.290760
 21
3.506800
  0
LINE
  8
0
 62
     0
  6
CONTINUOUS
 10
3.290760
 20
3.506800
 11
3.290760
 21
3.535840
  0
LINE
  8
0
 62
     0
  6
CONTINUOUS
 10
3.290760
 20
3.535840
 11
3.290760
 21
3.542880
  0
LINE
  8
0
 62
     0
  6
CONTINUOUS
 10
3.290760
 20
3.542880
 11
3.290760
 21
3.513840
  0
LINE
  8
0
 62
     0
  6
CONTINUOUS
 10
3.290760
 20
3.513840
 11
3.290760
 21
3.520880
  0
LINE
  8
0
 62
     0
  6
CONTINUOUS
 10
3.290760
 20
3.520880
 11
3.290760
 21
3.549920
  0
LINE
  8
0
 62
     0
  6
CONTINUOUS
 10
3.290760
 20
3.549920
 11
3.290760
 21
3.556960
  0
LINE
  8
0
 62
     0
  6
CONTINUOUS
 10
3.290760
 20
3.556960
 11
3.290760
 21
3.527920
  0
LINE
  8
0
 62
     0
  6
CONTINUOUS
 10
3.290760
 20
3.527920
 11
3.290320
 21
3.535400
  0
LINE
  8
0
 62
     0
  6
CONTINUOUS
 10
3.290320
 20
3.535400
 11
3.290320
 21
3.556960
  0
LINE
  8
0
 62
     0
  6
CONTINUOUS
 10
3.290320
 20
3.556960
 11
3.290320
 21
3.542440
  0
LINE
  8
0
 62
     0
  6
CONTINUOUS
 10
3.290320
 20
3.542440
 11
3.290320
 21
3.549480
  0
LINE
  8
0
 62
     0
  6
CONTINUOUS
 10
3.290320
 20
3.549480
 11
3.290320
 21
3.556960
  0
LINE
  8
0
 62
     0
  6
CONTINUOUS
 10
3.290320
 20
3.556960
 11
3.289880
 21
3.556960
  0
LINE
  8
0
 62
     0
  6
CONTINUOUS
 10
3.289880
 20
3.556960
 11
3.290760
 21
3.556960
  0
LINE
  8
0
 62
     0
  6
CONTINUOUS
 10
3.290760
 20
3.556960
 11
3.293840
 21
3.402520
  0
LINE
  8
0
 62
     0
  6
CONTINUOUS
 10
3.293840
 20
3.402520
 11
3.292960
 21
3.402520
  0
LINE
  8
0
 62
     0
  6
CONTINUOUS
 10
3.292960
 20
3.402520
 11
3.289880
 21
3.556960
  0
LINE
  8
0
 62
     0
  6
CONTINUOUS
 10
3.281080
 20
3.556960
 11
3.281080
 21
3.542880
  0
LINE
  8
0
 62
     0
  6
CONTINUOUS
 10
3.281080
 20
3.542880
 11
3.281080
 21
3.535840
  0
LINE
  8
0
 62
     0
  6
CONTINUOUS
 10
3.281080
 20
3.535840
 11
3.281080
 21
3.556960
  0
LINE
  8
0
 62
     0
  6
CONTINUOUS
 10
3.281080
 20
3.556960
 11
3.280640
 21
3.556960
  0
LINE
  8
0
 62
     0
  6
CONTINUOUS
 10
3.280640
 20
3.556960
 11
3.280640
 21
3.528800
  0
LINE
  8
0
 62
     0
  6
CONTINUOUS
 10
3.280640
 20
3.528800
 11
3.280640
 21
3.521760
  0
LINE
  8
0
 62
     0
  6
CONTINUOUS
 10
3.280640
 20
3.521760
 11
3.280640
 21
3.553440
  0
LINE
  8
0
 62
     0
  6
CONTINUOUS
 10
3.280640
 20
3.553440
 11
3.280640
 21
3.546400
  0
LINE
  8
0
 62
     0
  6
CONTINUOUS
 10
3.280640
 20
3.546400
 11
3.280640
 21
3.514720
  0
LINE
  8
0
 62
     0
  6
CONTINUOUS
 10
3.280640
 20
3.514720
 11
3.280200
 21
3.507680
  0
LINE
  8
0
 62
     0
  6
CONTINUOUS
 10
3.280200
 20
3.507680
 11
3.280200
 21
3.539360
  0
LINE
  8
0
 62
     0
  6
CONTINUOUS
 10
3.280200
 20
3.539360
 11
3.280200
 21
3.532320
  0
LINE
  8
0
 62
     0
  6
CONTINUOUS
 10
3.280200
 20
3.532320
 11
3.280200
 21
3.500640
  0
LINE
  8
0
 62
     0
  6
CONTINUOUS
 10
3.280200
 20
3.500640
 11
3.280200
 21
3.493600
  0
LINE
  8
0
 62
     0
  6
CONTINUOUS
 10
3.280200
 20
3.493600
 11
3.280200
 21
3.525280
  0
LINE
  8
0
 62
     0
  6
CONTINUOUS
 10
3.280200
 20
3.525280
 11
3.279760
 21
3.518240
  0
LINE
  8
0
 62
     0
  6
CONTINUOUS
 10
3.279760
 20
3.518240
 11
3.279760
 21
3.486560
  0
LINE
  8
0
 62
     0
  6
CONTINUOUS
 10
3.279760
 20
3.486560
 11
3.279760
 21
3.479520
  0
LINE
  8
0
 62
     0
  6
CONTINUOUS
 10
3.279760
 20
3.479520
 11
3.279760
 21
3.511200
  0
LINE
  8
0
 62
     0
  6
CONTINUOUS
 10
3.279760
 20
3.511200
 11
3.279760
 21
3.504160
  0
LINE
  8
0
 62
     0
  6
CONTINUOUS
 10
3.279760
 20
3.504160
 11
3.279760
 21
3.472920
  0
LINE
  8
0
 62
     0
  6
CONTINUOUS
 10
3.279760
 20
3.472920
 11
3.279320
 21
3.465880
  0
LINE
  8
0
 62
     0
  6
CONTINUOUS
 10
3.279320
 20
3.465880
 11
3.279320
 21
3.497120
  0
LINE
  8
0
 62
     0
  6
CONTINUOUS
 10
3.279320
 20
3.497120
 11
3.279320
 21
3.490080
  0
LINE
  8
0
 62
     0
  6
CONTINUOUS
 10
3.279320
 20
3.490080
 11
3.279320
 21
3.458840
  0
LINE
  8
0
 62
     0
  6
CONTINUOUS
 10
3.279320
 20
3.458840
 11
3.279320
 21
3.451800
  0
LINE
  8
0
 62
     0
  6
CONTINUOUS
 10
3.279320
 20
3.451800
 11
3.279320
 21
3.483040
  0
LINE
  8
0
 62
     0
  6
CONTINUOUS
 10
3.279320
 20
3.483040
 11
3.278880
 21
3.476440
  0
LINE
  8
0
 62
     0
  6
CONTINUOUS
 10
3.278880
 20
3.476440
 11
3.278880
 21
3.444760
  0
LINE
  8
0
 62
     0
  6
CONTINUOUS
 10
3.278880
 20
3.444760
 11
3.278880
 21
3.437720
  0
LINE
  8
0
 62
     0
  6
CONTINUOUS
 10
3.278880
 20
3.437720
 11
3.278880
 21
3.469400
  0
LINE
  8
0
 62
     0
  6
CONTINUOUS
 10
3.278880
 20
3.469400
 11
3.278880
 21
3.462360
  0
LINE
  8
0
 62
     0
  6
CONTINUOUS
 10
3.278880
 20
3.462360
 11
3.278880
 21
3.430680
  0
LINE
  8
0
 62
     0
  6
CONTINUOUS
 10
3.278880
 20
3.430680
 11
3.278440
 21
3.423640
  0
LINE
  8
0
 62
     0
  6
CONTINUOUS
 10
3.278440
 20
3.423640
 11
3.278440
 21
3.455320
  0
LINE
  8
0
 62
     0
  6
CONTINUOUS
 10
3.278440
 20
3.455320
 11
3.278440
 21
3.448280
  0
LINE
  8
0
 62
     0
  6
CONTINUOUS
 10
3.278440
 20
3.448280
 11
3.278440
 21
3.416600
  0
LINE
  8
0
 62
     0
  6
CONTINUOUS
 10
3.278440
 20
3.416600
 11
3.278440
 21
3.409560
  0
LINE
  8
0
 62
     0
  6
CONTINUOUS
 10
3.278440
 20
3.409560
 11
3.278440
 21
3.441240
  0
LINE
  8
0
 62
     0
  6
CONTINUOUS
 10
3.278440
 20
3.441240
 11
3.278440
 21
3.434200
  0
LINE
  8
0
 62
     0
  6
CONTINUOUS
 10
3.278440
 20
3.434200
 11
3.278440
 21
3.402520
  0
LINE
  8
0
 62
     0
  6
CONTINUOUS
 10
3.278440
 20
3.402520
 11
3.278000
 21
3.402520
  0
LINE
  8
0
 62
     0
  6
CONTINUOUS
 10
3.278000
 20
3.402520
 11
3.278000
 21
3.427160
  0
LINE
  8
0
 62
     0
  6
CONTINUOUS
 10
3.278000
 20
3.427160
 11
3.278000
 21
3.420120
  0
LINE
  8
0
 62
     0
  6
CONTINUOUS
 10
3.278000
 20
3.420120
 11
3.278000
 21
3.402520
  0
LINE
  8
0
 62
     0
  6
CONTINUOUS
 10
3.278000
 20
3.402520
 11
3.278000
 21
3.413080
  0
LINE
  8
0
 62
     0
  6
CONTINUOUS
 10
3.278000
 20
3.413080
 11
3.277560
 21
3.406040
  0
LINE
  8
0
 62
     0
  6
CONTINUOUS
 10
3.277560
 20
3.406040
 11
3.277560
 21
3.402520
  0
LINE
  8
0
 62
     0
  6
CONTINUOUS
 10
3.277560
 20
3.402520
 11
3.280640
 21
3.556960
  0
LINE
  8
0
 62
     0
  6
CONTINUOUS
 10
3.280640
 20
3.556960
 11
3.281520
 21
3.556960
  0
LINE
  8
0
 62
     0
  6
CONTINUOUS
 10
3.281520
 20
3.556960
 11
3.278440
 21
3.402520
  0
LINE
  8
0
 62
     0
  6
CONTINUOUS
 10
3.278440
 20
3.402520
 11
3.277560
 21
3.402520
  0
LINE
  8
0
 62
     0
  6
CONTINUOUS
 10
3.262600
 20
3.402520
 11
3.262600
 21
3.409560
  0
LINE
  8
0
 62
     0
  6
CONTINUOUS
 10
3.262600
 20
3.409560
 11
3.262600
 21
3.416600
  0
LINE
  8
0
 62
     0
  6
CONTINUOUS
 10
3.262600
 20
3.416600
 11
3.262600
 21
3.402520
  0
LINE
  8
0
 62
     0
  6
CONTINUOUS
 10
3.262600
 20
3.402520
 11
3.262600
 21
3.423640
  0
LINE
  8
0
 62
     0
  6
CONTINUOUS
 10
3.262600
 20
3.423640
 11
3.262160
 21
3.430680
  0
LINE
  8
0
 62
     0
  6
CONTINUOUS
 10
3.262160
 20
3.430680
 11
3.262160
 21
3.402520
  0
LINE
  8
0
 62
     0
  6
CONTINUOUS
 10
3.262160
 20
3.406040
 11
3.262160
 21
3.437720
  0
LINE
  8
0
 62
     0
  6
CONTINUOUS
 10
3.262160
 20
3.437720
 11
3.262160
 21
3.444760
  0
LINE
  8
0
 62
     0
  6
CONTINUOUS
 10
3.262160
 20
3.444760
 11
3.262160
 21
3.413520
  0
LINE
  8
0
 62
     0
  6
CONTINUOUS
 10
3.262160
 20
3.413520
 11
3.261720
 21
3.420560
  0
LINE
  8
0
 62
     0
  6
CONTINUOUS
 10
3.261720
 20
3.420560
 11
3.261720
 21
3.451800
  0
LINE
  8
0
 62
     0
  6
CONTINUOUS
 10
3.261720
 20
3.451800
 11
3.261720
 21
3.458840
  0
LINE
  8
0
 62
     0
  6
CONTINUOUS
 10
3.261720
 20
3.458840
 11
3.261720
 21
3.427600
  0
LINE
  8
0
 62
     0
  6
CONTINUOUS
 10
3.261720
 20
3.427600
 11
3.261720
 21
3.435080
  0
LINE
  8
0
 62
     0
  6
CONTINUOUS
 10
3.261720
 20
3.435080
 11
3.261720
 21
3.465880
  0
LINE
  8
0
 62
     0
  6
CONTINUOUS
 10
3.261720
 20
3.465880
 11
3.261280
 21
3.472920
  0
LINE
  8
0
 62
     0
  6
CONTINUOUS
 10
3.261280
 20
3.472920
 11
3.261280
 21
3.442120
  0
LINE
  8
0
 62
     0
  6
CONTINUOUS
 10
3.261280
 20
3.442120
 11
3.261280
 21
3.449160
  0
LINE
  8
0
 62
     0
  6
CONTINUOUS
 10
3.261280
 20
3.449160
 11
3.261280
 21
3.479960
  0
LINE
  8
0
 62
     0
  6
CONTINUOUS
 10
3.261280
 20
3.479960
 11
3.261280
 21
3.486560
  0
LINE
  8
0
 62
     0
  6
CONTINUOUS
 10
3.261280
 20
3.486560
 11
3.261280
 21
3.456200
  0
LINE
  8
0
 62
     0
  6
CONTINUOUS
 10
3.261280
 20
3.456200
 11
3.260840
 21
3.463680
  0
LINE
  8
0
 62
     0
  6
CONTINUOUS
 10
3.260840
 20
3.463680
 11
3.260840
 21
3.493600
  0
LINE
  8
0
 62
     0
  6
CONTINUOUS
 10
3.260840
 20
3.493600
 11
3.260840
 21
3.500640
  0
LINE
  8
0
 62
     0
  6
CONTINUOUS
 10
3.260840
 20
3.500640
 11
3.260840
 21
3.470720
  0
LINE
  8
0
 62
     0
  6
CONTINUOUS
 10
3.260840
 20
3.470720
 11
3.260840
 21
3.477760
  0
LINE
  8
0
 62
     0
  6
CONTINUOUS
 10
3.260840
 20
3.477760
 11
3.260840
 21
3.507680
  0
LINE
  8
0
 62
     0
  6
CONTINUOUS
 10
3.260840
 20
3.507680
 11
3.260400
 21
3.514720
  0
LINE
  8
0
 62
     0
  6
CONTINUOUS
 10
3.260400
 20
3.514720
 11
3.260400
 21
3.485240
  0
LINE
  8
0
 62
     0
  6
CONTINUOUS
 10
3.260400
 20
3.485240
 11
3.260400
 21
3.492280
  0
LINE
  8
0
 62
     0
  6
CONTINUOUS
 10
3.260400
 20
3.492280
 11
3.260400
 21
3.521760
  0
LINE
  8
0
 62
     0
  6
CONTINUOUS
 10
3.260400
 20
3.521760
 11
3.260400
 21
3.528800
  0
LINE
  8
0
 62
     0
  6
CONTINUOUS
 10
3.260400
 20
3.528800
 11
3.260400
 21
3.499320
  0
LINE
  8
0
 62
     0
  6
CONTINUOUS
 10
3.260400
 20
3.499320
 11
3.259960
 21
3.506800
  0
LINE
  8
0
 62
     0
  6
CONTINUOUS
 10
3.259960
 20
3.506800
 11
3.259960
 21
3.535840
  0
LINE
  8
0
 62
     0
  6
CONTINUOUS
 10
3.259960
 20
3.535840
 11
3.259960
 21
3.542880
  0
LINE
  8
0
 62
     0
  6
CONTINUOUS
 10
3.259960
 20
3.542880
 11
3.259960
 21
3.513840
  0
LINE
  8
0
 62
     0
  6
CONTINUOUS
 10
3.259960
 20
3.513840
 11
3.259960
 21
3.520880
  0
LINE
  8
0
 62
     0
  6
CONTINUOUS
 10
3.259960
 20
3.520880
 11
3.259960
 21
3.549920
  0
LINE
  8
0
 62
     0
  6
CONTINUOUS
 10
3.259960
 20
3.549920
 11
3.259520
 21
3.556960
  0
LINE
  8
0
 62
     0
  6
CONTINUOUS
 10
3.259520
 20
3.556960
 11
3.259520
 21
3.527920
  0
LINE
  8
0
 62
     0
  6
CONTINUOUS
 10
3.259520
 20
3.527920
 11
3.259520
 21
3.535400
  0
LINE
  8
0
 62
     0
  6
CONTINUOUS
 10
3.259520
 20
3.535400
 11
3.259520
 21
3.556960
  0
LINE
  8
0
 62
     0
  6
CONTINUOUS
 10
3.259520
 20
3.556960
 11
3.259520
 21
3.542440
  0
LINE
  8
0
 62
     0
  6
CONTINUOUS
 10
3.259520
 20
3.542440
 11
3.259080
 21
3.549480
  0
LINE
  8
0
 62
     0
  6
CONTINUOUS
 10
3.259080
 20
3.549480
 11
3.259080
 21
3.556960
  0
LINE
  8
0
 62
     0
  6
CONTINUOUS
 10
3.259080
 20
3.556960
 11
3.259520
 21
3.556960
  0
LINE
  8
0
 62
     0
  6
CONTINUOUS
 10
3.259520
 20
3.556960
 11
3.262600
 21
3.402520
  0
LINE
  8
0
 62
     0
  6
CONTINUOUS
 10
3.262600
 20
3.402520
 11
3.262160
 21
3.402520
  0
LINE
  8
0
 62
     0
  6
CONTINUOUS
 10
3.262160
 20
3.402520
 11
3.259080
 21
3.556960
  0
LINE
  8
0
 62
     0
  6
CONTINUOUS
 10
3.281080
 20
3.556960
 11
3.281080
 21
3.549920
  0
LINE
  8
0
 62
     0
  6
CONTINUOUS
 10
3.311880
 20
3.549920
 11
3.311880
 21
3.556960
  0
LINE
  8
0
 62
     0
  6
CONTINUOUS
 10
3.311880
 20
3.556960
 11
3.311880
 21
3.542880
  0
LINE
  8
0
 62
     0
  6
CONTINUOUS
 10
3.311880
 20
3.542880
 11
3.311880
 21
3.535840
  0
LINE
  8
0
 62
     0
  6
CONTINUOUS
 10
3.311880
 20
3.535840
 11
3.311880
 21
3.556960
  0
LINE
  8
0
 62
     0
  6
CONTINUOUS
 10
3.311880
 20
3.556960
 11
3.311440
 21
3.556960
  0
LINE
  8
0
 62
     0
  6
CONTINUOUS
 10
3.315840
 20
3.556960
 11
3.331240
 21
3.571920
  0
LINE
  8
0
 62
     0
  6
CONTINUOUS
 10
3.336960
 20
3.571920
 11
3.321560
 21
3.556960
  0
LINE
  8
0
 62
     0
  6
CONTINUOUS
 10
3.326840
 20
3.556960
 11
3.342240
 21
3.571920
  0
LINE
  8
0
 62
     0
  6
CONTINUOUS
 10
3.347960
 20
3.571920
 11
3.332560
 21
3.556960
  0
LINE
  8
0
 62
     0
  6
CONTINUOUS
 10
3.348840
 20
3.556960
 11
3.364240
 21
3.571920
  0
LINE
  8
0
 62
     0
  6
CONTINUOUS
 10
3.369520
 20
3.571920
 11
3.354120
 21
3.556960
  0
LINE
  8
0
 62
     0
  6
CONTINUOUS
 10
3.359400
 20
3.556960
 11
3.375240
 21
3.571920
  0
LINE
  8
0
 62
     0
  6
CONTINUOUS
 10
3.380520
 20
3.571920
 11
3.365120
 21
3.556960
  0
LINE
  8
0
 62
     0
  6
CONTINUOUS
 10
3.311880
 20
3.402520
 11
3.311880
 21
3.388440
  0
LINE
  8
0
 62
     0
  6
CONTINUOUS
 10
3.311880
 20
3.388440
 11
3.311880
 21
3.381400
  0
LINE
  8
0
 62
     0
  6
CONTINUOUS
 10
3.311880
 20
3.381400
 11
3.311880
 21
3.402520
  0
LINE
  8
0
 62
     0
  6
CONTINUOUS
 10
3.311880
 20
3.402520
 11
3.311440
 21
3.402520
  0
LINE
  8
0
 62
     0
  6
CONTINUOUS
 10
3.311440
 20
3.402520
 11
3.311440
 21
3.373920
  0
LINE
  8
0
 62
     0
  6
CONTINUOUS
 10
3.311440
 20
3.373920
 11
3.311440
 21
3.366880
  0
LINE
  8
0
 62
     0
  6
CONTINUOUS
 10
3.311440
 20
3.366880
 11
3.311440
 21
3.399000
  0
LINE
  8
0
 62
     0
  6
CONTINUOUS
 10
3.311440
 20
3.399000
 11
3.311440
 21
3.391960
  0
LINE
  8
0
 62
     0
  6
CONTINUOUS
 10
3.311440
 20
3.391960
 11
3.311440
 21
3.359840
  0
LINE
  8
0
 62
     0
  6
CONTINUOUS
 10
3.311440
 20
3.359840
 11
3.311000
 21
3.352800
  0
LINE
  8
0
 62
     0
  6
CONTINUOUS
 10
3.311000
 20
3.352800
 11
3.311000
 21
3.384920
  0
LINE
  8
0
 62
     0
  6
CONTINUOUS
 10
3.311000
 20
3.384920
 11
3.311000
 21
3.377440
  0
LINE
  8
0
 62
     0
  6
CONTINUOUS
 10
3.311000
 20
3.377440
 11
3.311000
 21
3.345320
  0
LINE
  8
0
 62
     0
  6
CONTINUOUS
 10
3.311000
 20
3.345320
 11
3.311000
 21
3.338280
  0
LINE
  8
0
 62
     0
  6
CONTINUOUS
 10
3.311000
 20
3.338280
 11
3.311000
 21
3.370400
  0
LINE
  8
0
 62
     0
  6
CONTINUOUS
 10
3.311000
 20
3.370400
 11
3.310560
 21
3.363360
  0
LINE
  8
0
 62
     0
  6
CONTINUOUS
 10
3.310560
 20
3.363360
 11
3.310560
 21
3.331240
  0
LINE
  8
0
 62
     0
  6
CONTINUOUS
 10
3.310560
 20
3.331240
 11
3.310560
 21
3.323760
  0
LINE
  8
0
 62
     0
  6
CONTINUOUS
 10
3.310560
 20
3.323760
 11
3.310560
 21
3.356320
  0
LINE
  8
0
 62
     0
  6
CONTINUOUS
 10
3.310560
 20
3.356320
 11
3.310560
 21
3.348840
  0
LINE
  8
0
 62
     0
  6
CONTINUOUS
 10
3.310560
 20
3.348840
 11
3.310560
 21
3.316720
  0
LINE
  8
0
 62
     0
  6
CONTINUOUS
 10
3.310560
 20
3.316720
 11
3.310120
 21
3.309680
  0
LINE
  8
0
 62
     0
  6
CONTINUOUS
 10
3.310120
 20
3.309680
 11
3.310120
 21
3.341800
  0
LINE
  8
0
 62
     0
  6
CONTINUOUS
 10
3.310120
 20
3.341800
 11
3.310120
 21
3.334760
  0
LINE
  8
0
 62
     0
  6
CONTINUOUS
 10
3.310120
 20
3.334760
 11
3.310120
 21
3.302640
  0
LINE
  8
0
 62
     0
  6
CONTINUOUS
 10
3.310120
 20
3.302640
 11
3.310120
 21
3.295600
  0
LINE
  8
0
 62
     0
  6
CONTINUOUS
 10
3.310120
 20
3.295600
 11
3.310120
 21
3.327720
  0
LINE
  8
0
 62
     0
  6
CONTINUOUS
 10
3.310120
 20
3.327720
 11
3.310120
 21
3.320240
  0
LINE
  8
0
 62
     0
  6
CONTINUOUS
 10
3.310120
 20
3.320240
 11
3.310120
 21
3.288120
  0
LINE
  8
0
 62
     0
  6
CONTINUOUS
 10
3.310120
 20
3.288120
 11
3.309680
 21
3.281080
  0
LINE
  8
0
 62
     0
  6
CONTINUOUS
 10
3.309680
 20
3.281080
 11
3.309680
 21
3.313200
  0
LINE
  8
0
 62
     0
  6
CONTINUOUS
 10
3.309680
 20
3.313200
 11
3.309680
 21
3.306160
  0
LINE
  8
0
 62
     0
  6
CONTINUOUS
 10
3.309680
 20
3.306160
 11
3.309680
 21
3.274040
  0
LINE
  8
0
 62
     0
  6
CONTINUOUS
 10
3.309680
 20
3.274040
 11
3.309680
 21
3.267000
  0
LINE
  8
0
 62
     0
  6
CONTINUOUS
 10
3.309680
 20
3.267000
 11
3.309680
 21
3.299120
  0
LINE
  8
0
 62
     0
  6
CONTINUOUS
 10
3.309680
 20
3.299120
 11
3.309240
 21
3.292080
  0
LINE
  8
0
 62
     0
  6
CONTINUOUS
 10
3.309240
 20
3.292080
 11
3.309240
 21
3.259520
  0
LINE
  8
0
 62
     0
  6
CONTINUOUS
 10
3.309240
 20
3.259520
 11
3.309240
 21
3.252480
  0
LINE
  8
0
 62
     0
  6
CONTINUOUS
 10
3.309240
 20
3.252480
 11
3.309240
 21
3.284600
  0
LINE
  8
0
 62
     0
  6
CONTINUOUS
 10
3.309240
 20
3.284600
 11
3.309240
 21
3.277560
  0
LINE
  8
0
 62
     0
  6
CONTINUOUS
 10
3.309240
 20
3.277560
 11
3.309240
 21
3.245440
  0
LINE
  8
0
 62
     0
  6
CONTINUOUS
 10
3.309240
 20
3.245440
 11
3.308800
 21
3.245440
  0
LINE
  8
0
 62
     0
  6
CONTINUOUS
 10
3.308800
 20
3.245440
 11
3.308800
 21
3.270520
  0
LINE
  8
0
 62
     0
  6
CONTINUOUS
 10
3.308800
 20
3.270520
 11
3.308800
 21
3.263040
  0
LINE
  8
0
 62
     0
  6
CONTINUOUS
 10
3.308800
 20
3.263040
 11
3.308800
 21
3.245440
  0
LINE
  8
0
 62
     0
  6
CONTINUOUS
 10
3.308800
 20
3.245440
 11
3.308800
 21
3.256000
  0
LINE
  8
0
 62
     0
  6
CONTINUOUS
 10
3.308800
 20
3.256000
 11
3.308360
 21
3.248960
  0
LINE
  8
0
 62
     0
  6
CONTINUOUS
 10
3.308360
 20
3.248960
 11
3.308360
 21
3.245440
  0
LINE
  8
0
 62
     0
  6
CONTINUOUS
 10
3.308360
 20
3.245440
 11
3.311440
 21
3.402520
  0
LINE
  8
0
 62
     0
  6
CONTINUOUS
 10
3.311440
 20
3.402520
 11
3.312320
 21
3.402520
  0
LINE
  8
0
 62
     0
  6
CONTINUOUS
 10
3.312320
 20
3.402520
 11
3.309240
 21
3.245440
  0
LINE
  8
0
 62
     0
  6
CONTINUOUS
 10
3.309240
 20
3.245440
 11
3.308360
 21
3.245440
  0
LINE
  8
0
 62
     0
  6
CONTINUOUS
 10
3.308800
 20
3.242360
 11
3.262600
 21
3.242360
  0
LINE
  8
0
 62
     0
  6
CONTINUOUS
 10
3.262600
 20
3.242360
 11
3.308800
 21
3.242360
  0
LINE
  8
0
 62
     0
  6
CONTINUOUS
 10
3.308800
 20
3.242360
 11
3.308800
 21
3.241920
  0
LINE
  8
0
 62
     0
  6
CONTINUOUS
 10
3.308800
 20
3.241920
 11
3.262600
 21
3.241920
  0
LINE
  8
0
 62
     0
  6
CONTINUOUS
 10
3.262600
 20
3.241920
 11
3.308800
 21
3.241920
  0
LINE
  8
0
 62
     0
  6
CONTINUOUS
 10
3.308800
 20
3.241920
 11
3.262600
 21
3.241920
  0
LINE
  8
0
 62
     0
  6
CONTINUOUS
 10
3.262600
 20
3.241920
 11
3.262600
 21
3.241480
  0
LINE
  8
0
 62
     0
  6
CONTINUOUS
 10
3.262600
 20
3.241480
 11
3.308800
 21
3.241480
  0
LINE
  8
0
 62
     0
  6
CONTINUOUS
 10
3.308800
 20
3.241480
 11
3.262600
 21
3.241480
  0
LINE
  8
0
 62
     0
  6
CONTINUOUS
 10
3.262600
 20
3.241480
 11
3.308800
 21
3.241480
  0
LINE
  8
0
 62
     0
  6
CONTINUOUS
 10
3.308800
 20
3.241480
 11
3.308800
 21
3.241040
  0
LINE
  8
0
 62
     0
  6
CONTINUOUS
 10
3.308800
 20
3.241040
 11
3.262600
 21
3.241040
  0
LINE
  8
0
 62
     0
  6
CONTINUOUS
 10
3.262600
 20
3.241040
 11
3.308800
 21
3.241040
  0
LINE
  8
0
 62
     0
  6
CONTINUOUS
 10
3.308800
 20
3.241040
 11
3.262600
 21
3.241040
  0
LINE
  8
0
 62
     0
  6
CONTINUOUS
 10
3.262600
 20
3.241040
 11
3.262600
 21
3.240600
  0
LINE
  8
0
 62
     0
  6
CONTINUOUS
 10
3.262600
 20
3.240600
 11
3.308800
 21
3.240600
  0
LINE
  8
0
 62
     0
  6
CONTINUOUS
 10
3.308800
 20
3.240600
 11
3.262600
 21
3.240600
  0
LINE
  8
0
 62
     0
  6
CONTINUOUS
 10
3.262600
 20
3.240600
 11
3.308800
 21
3.240600
  0
LINE
  8
0
 62
     0
  6
CONTINUOUS
 10
3.308800
 20
3.240600
 11
3.308800
 21
3.240160
  0
LINE
  8
0
 62
     0
  6
CONTINUOUS
 10
3.308800
 20
3.240160
 11
3.262600
 21
3.240160
  0
LINE
  8
0
 62
     0
  6
CONTINUOUS
 10
3.262600
 20
3.240160
 11
3.308800
 21
3.240160
  0
LINE
  8
0
 62
     0
  6
CONTINUOUS
 10
3.308800
 20
3.240160
 11
3.262600
 21
3.240160
  0
LINE
  8
0
 62
     0
  6
CONTINUOUS
 10
3.262600
 20
3.240160
 11
3.262600
 21
3.239720
  0
LINE
  8
0
 62
     0
  6
CONTINUOUS
 10
3.262600
 20
3.239720
 11
3.308800
 21
3.239720
  0
LINE
  8
0
 62
     0
  6
CONTINUOUS
 10
3.308800
 20
3.239720
 11
3.262600
 21
3.239720
  0
LINE
  8
0
 62
     0
  6
CONTINUOUS
 10
3.262600
 20
3.239720
 11
3.308800
 21
3.239720
  0
LINE
  8
0
 62
     0
  6
CONTINUOUS
 10
3.308800
 20
3.239720
 11
3.308800
 21
3.239280
  0
LINE
  8
0
 62
     0
  6
CONTINUOUS
 10
3.308800
 20
3.239280
 11
3.262600
 21
3.239280
  0
LINE
  8
0
 62
     0
  6
CONTINUOUS
 10
3.262600
 20
3.239280
 11
3.308800
 21
3.239280
  0
LINE
  8
0
 62
     0
  6
CONTINUOUS
 10
3.308800
 20
3.239280
 11
3.262600
 21
3.239280
  0
LINE
  8
0
 62
     0
  6
CONTINUOUS
 10
3.262600
 20
3.239280
 11
3.262600
 21
3.242360
  0
LINE
  8
0
 62
     0
  6
CONTINUOUS
 10
3.262600
 20
3.242360
 11
3.308800
 21
3.242360
  0
LINE
  8
0
 62
     0
  6
CONTINUOUS
 10
3.308800
 20
3.242360
 11
3.308800
 21
3.239280
  0
LINE
  8
0
 62
     0
  6
CONTINUOUS
 10
3.308800
 20
3.239280
 11
3.262600
 21
3.239280
  0
LINE
  8
0
 62
     0
  6
CONTINUOUS
 10
3.262600
 20
3.242360
 11
3.278000
 21
3.242360
  0
LINE
  8
0
 62
     0
  6
CONTINUOUS
 10
3.278000
 20
3.242360
 11
3.278440
 21
3.242360
  0
LINE
  8
0
 62
     0
  6
CONTINUOUS
 10
3.278440
 20
3.242360
 11
3.278440
 21
3.274920
  0
LINE
  8
0
 62
     0
  6
CONTINUOUS
 10
3.278440
 20
3.274920
 11
3.278440
 21
3.282400
  0
LINE
  8
0
 62
     0
  6
CONTINUOUS
 10
3.278440
 20
3.282400
 11
3.278440
 21
3.249400
  0
LINE
  8
0
 62
     0
  6
CONTINUOUS
 10
3.278440
 20
3.249400
 11
3.278440
 21
3.256880
  0
LINE
  8
0
 62
     0
  6
CONTINUOUS
 10
3.278440
 20
3.256880
 11
3.278440
 21
3.289880
  0
LINE
  8
0
 62
     0
  6
CONTINUOUS
 10
3.278440
 20
3.289880
 11
3.278440
 21
3.296920
  0
LINE
  8
0
 62
     0
  6
CONTINUOUS
 10
3.278440
 20
3.296920
 11
3.278440
 21
3.263920
  0
LINE
  8
0
 62
     0
  6
CONTINUOUS
 10
3.278440
 20
3.263920
 11
3.278880
 21
3.271400
  0
LINE
  8
0
 62
     0
  6
CONTINUOUS
 10
3.278880
 20
3.271400
 11
3.278880
 21
3.304400
  0
LINE
  8
0
 62
     0
  6
CONTINUOUS
 10
3.278880
 20
3.304400
 11
3.278880
 21
3.311440
  0
LINE
  8
0
 62
     0
  6
CONTINUOUS
 10
3.278880
 20
3.311440
 11
3.278880
 21
3.278880
  0
LINE
  8
0
 62
     0
  6
CONTINUOUS
 10
3.278880
 20
3.278880
 11
3.278880
 21
3.285920
  0
LINE
  8
0
 62
     0
  6
CONTINUOUS
 10
3.278880
 20
3.285920
 11
3.278880
 21
3.318920
  0
LINE
  8
0
 62
     0
  6
CONTINUOUS
 10
3.278880
 20
3.318920
 11
3.279320
 21
3.325960
  0
LINE
  8
0
 62
     0
  6
CONTINUOUS
 10
3.279320
 20
3.325960
 11
3.279320
 21
3.293400
  0
LINE
  8
0
 62
     0
  6
CONTINUOUS
 10
3.279320
 20
3.293400
 11
3.279320
 21
3.300440
  0
LINE
  8
0
 62
     0
  6
CONTINUOUS
 10
3.279320
 20
3.300440
 11
3.279320
 21
3.333440
  0
LINE
  8
0
 62
     0
  6
CONTINUOUS
 10
3.279320
 20
3.333440
 11
3.279320
 21
3.340480
  0
LINE
  8
0
 62
     0
  6
CONTINUOUS
 10
3.279320
 20
3.340480
 11
3.279320
 21
3.307920
  0
LINE
  8
0
 62
     0
  6
CONTINUOUS
 10
3.279320
 20
3.307920
 11
3.279760
 21
3.314960
  0
LINE
  8
0
 62
     0
  6
CONTINUOUS
 10
3.279760
 20
3.314960
 11
3.279760
 21
3.347960
  0
LINE
  8
0
 62
     0
  6
CONTINUOUS
 10
3.279760
 20
3.347960
 11
3.279760
 21
3.355440
  0
LINE
  8
0
 62
     0
  6
CONTINUOUS
 10
3.279760
 20
3.355440
 11
3.279760
 21
3.322440
  0
LINE
  8
0
 62
     0
  6
CONTINUOUS
 10
3.279760
 20
3.322440
 11
3.279760
 21
3.329920
  0
LINE
  8
0
 62
     0
  6
CONTINUOUS
 10
3.279760
 20
3.329920
 11
3.279760
 21
3.362480
  0
LINE
  8
0
 62
     0
  6
CONTINUOUS
 10
3.279760
 20
3.362480
 11
3.280200
 21
3.369960
  0
LINE
  8
0
 62
     0
  6
CONTINUOUS
 10
3.280200
 20
3.369960
 11
3.280200
 21
3.336960
  0
LINE
  8
0
 62
     0
  6
CONTINUOUS
 10
3.280200
 20
3.336960
 11
3.280200
 21
3.344440
  0
LINE
  8
0
 62
     0
  6
CONTINUOUS
 10
3.280200
 20
3.344440
 11
3.280200
 21
3.377000
  0
LINE
  8
0
 62
     0
  6
CONTINUOUS
 10
3.280200
 20
3.377000
 11
3.280200
 21
3.384480
  0
LINE
  8
0
 62
     0
  6
CONTINUOUS
 10
3.280200
 20
3.384480
 11
3.280200
 21
3.351480
  0
LINE
  8
0
 62
     0
  6
CONTINUOUS
 10
3.280200
 20
3.351480
 11
3.280640
 21
3.358960
  0
LINE
  8
0
 62
     0
  6
CONTINUOUS
 10
3.280640
 20
3.358960
 11
3.280640
 21
3.391520
  0
LINE
  8
0
 62
     0
  6
CONTINUOUS
 10
3.280640
 20
3.391520
 11
3.280640
 21
3.399000
  0
LINE
  8
0
 62
     0
  6
CONTINUOUS
 10
3.280640
 20
3.399000
 11
3.280640
 21
3.366000
  0
LINE
  8
0
 62
     0
  6
CONTINUOUS
 10
3.280640
 20
3.366000
 11
3.280640
 21
3.373480
  0
LINE
  8
0
 62
     0
  6
CONTINUOUS
 10
3.280640
 20
3.373480
 11
3.280640
 21
3.402520
  0
LINE
  8
0
 62
     0
  6
CONTINUOUS
 10
3.280640
 20
3.402520
 11
3.281080
 21
3.402520
  0
LINE
  8
0
 62
     0
  6
CONTINUOUS
 10
3.281080
 20
3.402520
 11
3.281080
 21
3.380960
  0
LINE
  8
0
 62
     0
  6
CONTINUOUS
 10
3.281080
 20
3.380960
 11
3.281080
 21
3.388000
  0
LINE
  8
0
 62
     0
  6
CONTINUOUS
 10
3.281080
 20
3.388000
 11
3.281080
 21
3.402520
  0
LINE
  8
0
 62
     0
  6
CONTINUOUS
 10
3.281080
 20
3.402520
 11
3.281080
 21
3.395480
  0
LINE
  8
0
 62
     0
  6
CONTINUOUS
 10
3.281520
 20
3.402520
 11
3.278440
 21
3.242360
  0
LINE
  8
0
 62
     0
  6
CONTINUOUS
 10
3.278440
 20
3.242360
 11
3.277560
 21
3.242360
  0
LINE
  8
0
 62
     0
  6
CONTINUOUS
 10
3.277560
 20
3.242360
 11
3.280640
 21
3.402520
  0
LINE
  8
0
 62
     0
  6
CONTINUOUS
 10
3.280640
 20
3.402520
 11
3.281520
 21
3.402520
  0
LINE
  8
0
 62
     0
  6
CONTINUOUS
 10
3.289880
 20
3.402520
 11
3.290760
 21
3.402520
  0
LINE
  8
0
 62
     0
  6
CONTINUOUS
 10
3.290760
 20
3.402520
 11
3.293840
 21
3.242360
  0
LINE
  8
0
 62
     0
  6
CONTINUOUS
 10
3.293840
 20
3.242360
 11
3.292960
 21
3.242360
  0
LINE
  8
0
 62
     0
  6
CONTINUOUS
 10
3.292960
 20
3.242360
 11
3.289880
 21
3.402520
  0
LINE
  8
0
 62
     0
  6
CONTINUOUS
 10
3.289880
 20
3.402520
 11
3.290320
 21
3.402520
  0
LINE
  8
0
 62
     0
  6
CONTINUOUS
 10
3.290320
 20
3.402520
 11
3.290320
 21
3.395040
  0
LINE
  8
0
 62
     0
  6
CONTINUOUS
 10
3.290320
 20
3.395040
 11
3.290320
 21
3.387560
  0
LINE
  8
0
 62
     0
  6
CONTINUOUS
 10
3.290320
 20
3.387560
 11
3.290320
 21
3.402520
  0
LINE
  8
0
 62
     0
  6
CONTINUOUS
 10
3.290320
 20
3.402520
 11
3.290320
 21
3.380080
  0
LINE
  8
0
 62
     0
  6
CONTINUOUS
 10
3.290320
 20
3.380080
 11
3.290760
 21
3.373040
  0
LINE
  8
0
 62
     0
  6
CONTINUOUS
 10
3.290760
 20
3.373040
 11
3.290760
 21
3.402520
  0
LINE
  8
0
 62
     0
  6
CONTINUOUS
 10
3.290760
 20
3.402520
 11
3.290760
 21
3.395480
  0
LINE
  8
0
 62
     0
  6
CONTINUOUS
 10
3.290760
 20
3.395480
 11
3.290760
 21
3.365560
  0
LINE
  8
0
 62
     0
  6
CONTINUOUS
 10
3.290760
 20
3.365560
 11
3.290760
 21
3.358080
  0
LINE
  8
0
 62
     0
  6
CONTINUOUS
 10
3.290760
 20
3.358080
 11
3.290760
 21
3.388000
  0
LINE
  8
0
 62
     0
  6
CONTINUOUS
 10
3.290760
 20
3.388000
 11
3.290760
 21
3.380960
  0
LINE
  8
0
 62
     0
  6
CONTINUOUS
 10
3.290760
 20
3.380960
 11
3.290760
 21
3.350600
  0
LINE
  8
0
 62
     0
  6
CONTINUOUS
 10
3.290760
 20
3.350600
 11
3.291200
 21
3.343120
  0
LINE
  8
0
 62
     0
  6
CONTINUOUS
 10
3.291200
 20
3.343120
 11
3.291200
 21
3.373480
  0
LINE
  8
0
 62
     0
  6
CONTINUOUS
 10
3.291200
 20
3.373480
 11
3.291200
 21
3.366000
  0
LINE
  8
0
 62
     0
  6
CONTINUOUS
 10
3.291200
 20
3.366000
 11
3.291200
 21
3.335640
  0
LINE
  8
0
 62
     0
  6
CONTINUOUS
 10
3.291200
 20
3.335640
 11
3.291200
 21
3.328160
  0
LINE
  8
0
 62
     0
  6
CONTINUOUS
 10
3.291200
 20
3.328160
 11
3.291200
 21
3.358960
  0
LINE
  8
0
 62
     0
  6
CONTINUOUS
 10
3.291200
 20
3.358960
 11
3.291640
 21
3.351480
  0
LINE
  8
0
 62
     0
  6
CONTINUOUS
 10
3.291640
 20
3.351480
 11
3.291640
 21
3.320680
  0
LINE
  8
0
 62
     0
  6
CONTINUOUS
 10
3.291640
 20
3.320680
 11
3.291640
 21
3.313200
  0
LINE
  8
0
 62
     0
  6
CONTINUOUS
 10
3.291640
 20
3.313200
 11
3.291640
 21
3.344440
  0
LINE
  8
0
 62
     0
  6
CONTINUOUS
 10
3.291640
 20
3.344440
 11
3.291640
 21
3.336960
  0
LINE
  8
0
 62
     0
  6
CONTINUOUS
 10
3.291640
 20
3.336960
 11
3.291640
 21
3.305720
  0
LINE
  8
0
 62
     0
  6
CONTINUOUS
 10
3.291640
 20
3.305720
 11
3.292080
 21
3.298240
  0
LINE
  8
0
 62
     0
  6
CONTINUOUS
 10
3.292080
 20
3.298240
 11
3.292080
 21
3.329920
  0
LINE
  8
0
 62
     0
  6
CONTINUOUS
 10
3.292080
 20
3.329920
 11
3.292080
 21
3.322440
  0
LINE
  8
0
 62
     0
  6
CONTINUOUS
 10
3.292080
 20
3.322440
 11
3.292080
 21
3.290760
  0
LINE
  8
0
 62
     0
  6
CONTINUOUS
 10
3.292080
 20
3.290760
 11
3.292080
 21
3.283280
  0
LINE
  8
0
 62
     0
  6
CONTINUOUS
 10
3.292080
 20
3.283280
 11
3.292080
 21
3.314960
  0
LINE
  8
0
 62
     0
  6
CONTINUOUS
 10
3.292080
 20
3.314960
 11
3.292520
 21
3.307920
  0
LINE
  8
0
 62
     0
  6
CONTINUOUS
 10
3.292520
 20
3.307920
 11
3.292520
 21
3.275800
  0
LINE
  8
0
 62
     0
  6
CONTINUOUS
 10
3.292520
 20
3.275800
 11
3.292520
 21
3.268320
  0
LINE
  8
0
 62
     0
  6
CONTINUOUS
 10
3.292520
 20
3.268320
 11
3.292520
 21
3.300440
  0
LINE
  8
0
 62
     0
  6
CONTINUOUS
 10
3.292520
 20
3.300440
 11
3.292520
 21
3.293400
  0
LINE
  8
0
 62
     0
  6
CONTINUOUS
 10
3.292520
 20
3.293400
 11
3.292520
 21
3.260840
  0
LINE
  8
0
 62
     0
  6
CONTINUOUS
 10
3.292520
 20
3.260840
 11
3.292960
 21
3.253360
  0
LINE
  8
0
 62
     0
  6
CONTINUOUS
 10
3.292960
 20
3.253360
 11
3.292960
 21
3.285920
  0
LINE
  8
0
 62
     0
  6
CONTINUOUS
 10
3.292960
 20
3.285920
 11
3.292960
 21
3.278880
  0
LINE
  8
0
 62
     0
  6
CONTINUOUS
 10
3.292960
 20
3.278880
 11
3.292960
 21
3.245880
  0
LINE
  8
0
 62
     0
  6
CONTINUOUS
 10
3.292960
 20
3.242360
 11
3.292960
 21
3.271400
  0
LINE
  8
0
 62
     0
  6
CONTINUOUS
 10
3.292960
 20
3.271400
 11
3.293400
 21
3.263920
  0
LINE
  8
0
 62
     0
  6
CONTINUOUS
 10
3.293400
 20
3.263920
 11
3.293400
 21
3.242360
  0
LINE
  8
0
 62
     0
  6
CONTINUOUS
 10
3.293400
 20
3.242360
 11
3.308800
 21
3.242360
  0
LINE
  8
0
 62
     0
  6
CONTINUOUS
 10
3.293840
 20
3.242360
 11
3.293400
 21
3.242360
  0
LINE
  8
0
 62
     0
  6
CONTINUOUS
 10
3.293400
 20
3.242360
 11
3.293400
 21
3.249400
  0
LINE
  8
0
 62
     0
  6
CONTINUOUS
 10
3.293400
 20
3.249400
 11
3.293400
 21
3.256880
  0
LINE
  8
0
 62
     0
  6
CONTINUOUS
 10
3.293400
 20
3.256880
 11
3.293400
 21
3.242360
  0
LINE
  8
0
 62
     0
  6
CONTINUOUS
 10
3.278000
 20
3.242360
 11
3.278000
 21
3.267880
  0
LINE
  8
0
 62
     0
  6
CONTINUOUS
 10
3.278000
 20
3.267880
 11
3.278000
 21
3.260400
  0
LINE
  8
0
 62
     0
  6
CONTINUOUS
 10
3.278000
 20
3.260400
 11
3.278000
 21
3.242360
  0
LINE
  8
0
 62
     0
  6
CONTINUOUS
 10
3.278000
 20
3.242360
 11
3.278000
 21
3.253360
  0
LINE
  8
0
 62
     0
  6
CONTINUOUS
 10
3.278000
 20
3.253360
 11
3.277560
 21
3.245880
  0
LINE
  8
0
 62
     0
  6
CONTINUOUS
 10
3.277560
 20
3.245880
 11
3.277560
 21
3.242360
  0
LINE
  8
0
 62
     0
  6
CONTINUOUS
 10
3.262600
 20
3.245440
 11
3.262160
 21
3.245440
  0
LINE
  8
0
 62
     0
  6
CONTINUOUS
 10
3.262160
 20
3.245440
 11
3.259080
 21
3.402520
  0
LINE
  8
0
 62
     0
  6
CONTINUOUS
 10
3.259080
 20
3.402520
 11
3.259520
 21
3.402520
  0
LINE
  8
0
 62
     0
  6
CONTINUOUS
 10
3.259520
 20
3.402520
 11
3.262600
 21
3.245440
  0
LINE
  8
0
 62
     0
  6
CONTINUOUS
 10
3.262600
 20
3.245440
 11
3.262600
 21
3.252480
  0
LINE
  8
0
 62
     0
  6
CONTINUOUS
 10
3.262600
 20
3.252480
 11
3.262600
 21
3.259520
  0
LINE
  8
0
 62
     0
  6
CONTINUOUS
 10
3.262600
 20
3.259520
 11
3.262600
 21
3.245440
  0
LINE
  8
0
 62
     0
  6
CONTINUOUS
 10
3.262600
 20
3.245440
 11
3.262600
 21
3.267000
  0
LINE
  8
0
 62
     0
  6
CONTINUOUS
 10
3.262600
 20
3.267000
 11
3.262160
 21
3.274040
  0
LINE
  8
0
 62
     0
  6
CONTINUOUS
 10
3.262160
 20
3.274040
 11
3.262160
 21
3.245440
  0
LINE
  8
0
 62
     0
  6
CONTINUOUS
 10
3.262160
 20
3.248960
 11
3.262160
 21
3.281080
  0
LINE
  8
0
 62
     0
  6
CONTINUOUS
 10
3.262160
 20
3.281080
 11
3.262160
 21
3.288120
  0
LINE
  8
0
 62
     0
  6
CONTINUOUS
 10
3.262160
 20
3.288120
 11
3.262160
 21
3.256440
  0
LINE
  8
0
 62
     0
  6
CONTINUOUS
 10
3.262160
 20
3.256440
 11
3.261720
 21
3.263480
  0
LINE
  8
0
 62
     0
  6
CONTINUOUS
 10
3.261720
 20
3.263480
 11
3.261720
 21
3.295600
  0
LINE
  8
0
 62
     0
  6
CONTINUOUS
 10
3.261720
 20
3.295600
 11
3.261720
 21
3.302640
  0
LINE
  8
0
 62
     0
  6
CONTINUOUS
 10
3.261720
 20
3.302640
 11
3.261720
 21
3.270960
  0
LINE
  8
0
 62
     0
  6
CONTINUOUS
 10
3.261720
 20
3.270960
 11
3.261720
 21
3.278440
  0
LINE
  8
0
 62
     0
  6
CONTINUOUS
 10
3.261720
 20
3.278440
 11
3.261720
 21
3.309680
  0
LINE
  8
0
 62
     0
  6
CONTINUOUS
 10
3.261720
 20
3.309680
 11
3.261280
 21
3.316720
  0
LINE
  8
0
 62
     0
  6
CONTINUOUS
 10
3.261280
 20
3.316720
 11
3.261280
 21
3.285480
  0
LINE
  8
0
 62
     0
  6
CONTINUOUS
 10
3.261280
 20
3.285480
 11
3.261280
 21
3.292960
  0
LINE
  8
0
 62
     0
  6
CONTINUOUS
 10
3.261280
 20
3.292960
 11
3.261280
 21
3.324200
  0
LINE
  8
0
 62
     0
  6
CONTINUOUS
 10
3.261280
 20
3.324200
 11
3.261280
 21
3.331240
  0
LINE
  8
0
 62
     0
  6
CONTINUOUS
 10
3.261280
 20
3.331240
 11
3.261280
 21
3.300440
  0
LINE
  8
0
 62
     0
  6
CONTINUOUS
 10
3.261280
 20
3.300440
 11
3.260840
 21
3.307480
  0
LINE
  8
0
 62
     0
  6
CONTINUOUS
 10
3.260840
 20
3.307480
 11
3.260840
 21
3.338280
  0
LINE
  8
0
 62
     0
  6
CONTINUOUS
 10
3.260840
 20
3.338280
 11
3.260840
 21
3.345320
  0
LINE
  8
0
 62
     0
  6
CONTINUOUS
 10
3.260840
 20
3.345320
 11
3.260840
 21
3.314960
  0
LINE
  8
0
 62
     0
  6
CONTINUOUS
 10
3.260840
 20
3.314960
 11
3.260840
 21
3.322000
  0
LINE
  8
0
 62
     0
  6
CONTINUOUS
 10
3.260840
 20
3.322000
 11
3.260840
 21
3.352800
  0
LINE
  8
0
 62
     0
  6
CONTINUOUS
 10
3.260840
 20
3.352800
 11
3.260400
 21
3.359840
  0
LINE
  8
0
 62
     0
  6
CONTINUOUS
 10
3.260400
 20
3.359840
 11
3.260400
 21
3.329480
  0
LINE
  8
0
 62
     0
  6
CONTINUOUS
 10
3.260400
 20
3.329480
 11
3.260400
 21
3.336960
  0
LINE
  8
0
 62
     0
  6
CONTINUOUS
 10
3.260400
 20
3.336960
 11
3.260400
 21
3.366880
  0
LINE
  8
0
 62
     0
  6
CONTINUOUS
 10
3.260400
 20
3.366880
 11
3.260400
 21
3.373920
  0
LINE
  8
0
 62
     0
  6
CONTINUOUS
 10
3.260400
 20
3.373920
 11
3.260400
 21
3.344000
  0
LINE
  8
0
 62
     0
  6
CONTINUOUS
 10
3.260400
 20
3.344000
 11
3.259960
 21
3.351480
  0
LINE
  8
0
 62
     0
  6
CONTINUOUS
 10
3.259960
 20
3.351480
 11
3.259960
 21
3.381400
  0
LINE
  8
0
 62
     0
  6
CONTINUOUS
 10
3.259960
 20
3.381400
 11
3.259960
 21
3.388440
  0
LINE
  8
0
 62
     0
  6
CONTINUOUS
 10
3.259960
 20
3.388440
 11
3.259960
 21
3.358960
  0
LINE
  8
0
 62
     0
  6
CONTINUOUS
 10
3.259960
 20
3.358960
 11
3.259960
 21
3.366000
  0
LINE
  8
0
 62
     0
  6
CONTINUOUS
 10
3.259960
 20
3.366000
 11
3.259960
 21
3.395480
  0
LINE
  8
0
 62
     0
  6
CONTINUOUS
 10
3.259960
 20
3.395480
 11
3.259520
 21
3.402520
  0
LINE
  8
0
 62
     0
  6
CONTINUOUS
 10
3.259520
 20
3.402520
 11
3.259520
 21
3.373480
  0
LINE
  8
0
 62
     0
  6
CONTINUOUS
 10
3.259520
 20
3.373480
 11
3.259520
 21
3.380520
  0
LINE
  8
0
 62
     0
  6
CONTINUOUS
 10
3.259520
 20
3.380520
 11
3.259520
 21
3.402520
  0
LINE
  8
0
 62
     0
  6
CONTINUOUS
 10
3.259520
 20
3.402520
 11
3.259520
 21
3.388000
  0
LINE
  8
0
 62
     0
  6
CONTINUOUS
 10
3.259520
 20
3.388000
 11
3.259080
 21
3.395480
  0
LINE
  8
0
 62
     0
  6
CONTINUOUS
 10
3.259080
 20
3.395480
 11
3.259080
 21
3.402520
  0
LINE
  8
0
 62
     0
  6
CONTINUOUS
 10
3.259080
 20
3.402520
 11
3.259520
 21
3.402520
  0
LINE
  8
0
 62
     0
  6
CONTINUOUS
 10
3.259520
 20
3.402520
 11
3.281080
 21
3.402520
  0
LINE
  8
0
 62
     0
  6
CONTINUOUS
 10
3.281080
 20
3.402520
 11
3.259520
 21
3.402520
  0
LINE
  8
0
 62
     0
  6
CONTINUOUS
 10
3.259520
 20
3.402520
 11
3.259520
 21
3.402960
  0
LINE
  8
0
 62
     0
  6
CONTINUOUS
 10
3.259520
 20
3.402960
 11
3.281080
 21
3.402960
  0
LINE
  8
0
 62
     0
  6
CONTINUOUS
 10
3.281080
 20
3.402960
 11
3.281080
 21
3.402520
  0
LINE
  8
0
 62
     0
  6
CONTINUOUS
 10
3.281080
 20
3.402520
 11
3.281080
 21
3.402960
  0
LINE
  8
0
 62
     0
  6
CONTINUOUS
 10
3.281080
 20
3.402960
 11
3.311880
 21
3.402960
  0
LINE
  8
0
 62
     0
  6
CONTINUOUS
 10
3.311880
 20
3.402960
 11
3.311880
 21
3.402520
  0
LINE
  8
0
 62
     0
  6
CONTINUOUS
 10
3.311880
 20
3.402520
 11
3.281080
 21
3.402520
  0
LINE
  8
0
 62
     0
  6
CONTINUOUS
 10
3.281080
 20
3.402520
 11
3.259520
 21
3.402520
  0
LINE
  8
0
 62
     0
  6
CONTINUOUS
 10
3.259520
 20
3.402520
 11
3.281080
 21
3.402520
  0
LINE
  8
0
 62
     0
  6
CONTINUOUS
 10
3.281080
 20
3.402520
 11
3.311880
 21
3.402520
  0
LINE
  8
0
 62
     0
  6
CONTINUOUS
 10
3.311880
 20
3.402520
 11
3.281080
 21
3.402520
  0
LINE
  8
0
 62
     0
  6
CONTINUOUS
 10
3.281080
 20
3.402520
 11
3.281080
 21
3.402960
  0
LINE
  8
0
 62
     0
  6
CONTINUOUS
 10
3.281080
 20
3.402960
 11
3.311880
 21
3.402960
  0
LINE
  8
0
 62
     0
  6
CONTINUOUS
 10
3.311880
 20
3.402960
 11
3.311880
 21
3.402520
  0
LINE
  8
0
 62
     0
  6
CONTINUOUS
 10
3.311880
 20
3.402520
 11
3.281080
 21
3.402520
  0
LINE
  8
0
 62
     0
  6
CONTINUOUS
 10
3.281080
 20
3.402520
 11
3.281080
 21
3.402960
  0
LINE
  8
0
 62
     0
  6
CONTINUOUS
 10
3.281080
 20
3.402960
 11
3.259520
 21
3.402960
  0
LINE
  8
0
 62
     0
  6
CONTINUOUS
 10
3.259520
 20
3.402960
 11
3.281080
 21
3.402960
  0
LINE
  8
0
 62
     0
  6
CONTINUOUS
 10
3.281080
 20
3.402960
 11
3.311880
 21
3.402960
  0
LINE
  8
0
 62
     0
  6
CONTINUOUS
 10
3.311880
 20
3.402520
 11
3.311880
 21
3.395480
  0
LINE
  8
0
 62
     0
  6
CONTINUOUS
 10
3.171520
 20
3.581600
 11
3.387560
 21
3.581600
  0
LINE
  8
0
 62
     0
  6
CONTINUOUS
 10
3.387560
 20
3.581600
 11
3.171520
 21
3.581600
  0
LINE
  8
0
 62
     0
  6
CONTINUOUS
 10
3.171520
 20
3.581600
 11
3.171520
 21
3.581160
  0
LINE
  8
0
 62
     0
  6
CONTINUOUS
 10
3.171520
 20
3.581160
 11
3.387560
 21
3.581160
  0
LINE
  8
0
 62
     0
  6
CONTINUOUS
 10
3.387560
 20
3.581160
 11
3.171520
 21
3.581160
  0
LINE
  8
0
 62
     0
  6
CONTINUOUS
 10
3.171520
 20
3.581160
 11
3.171520
 21
3.581600
  0
LINE
  8
0
 62
     0
  6
CONTINUOUS
 10
3.171520
 20
3.581600
 11
3.387560
 21
3.581600
  0
LINE
  8
0
 62
     0
  6
CONTINUOUS
 10
3.387560
 20
3.581600
 11
3.387560
 21
3.581160
  0
LINE
  8
0
 62
     0
  6
CONTINUOUS
 10
3.387560
 20
3.581160
 11
3.171520
 21
3.581160
  0
LINE
  8
0
 62
     0
  6
CONTINUOUS
 10
3.171520
 20
3.581600
 11
3.387560
 21
3.581600
  0
LINE
  8
0
 62
     0
  6
CONTINUOUS
 10
3.307480
 20
3.581160
 11
3.307480
 21
3.609320
  0
LINE
  8
0
 62
     0
  6
CONTINUOUS
 10
3.307480
 20
3.609320
 11
3.307040
 21
3.609320
  0
LINE
  8
0
 62
     0
  6
CONTINUOUS
 10
3.307040
 20
3.609320
 11
3.307040
 21
3.581160
  0
LINE
  8
0
 62
     0
  6
CONTINUOUS
 10
3.307040
 20
3.581160
 11
3.307040
 21
3.609320
  0
LINE
  8
0
 62
     0
  6
CONTINUOUS
 10
3.307040
 20
3.609320
 11
3.307040
 21
3.581160
  0
LINE
  8
0
 62
     0
  6
CONTINUOUS
 10
3.307040
 20
3.581160
 11
3.307040
 21
3.609320
  0
LINE
  8
0
 62
     0
  6
CONTINUOUS
 10
3.307040
 20
3.609320
 11
3.307480
 21
3.609320
  0
LINE
  8
0
 62
     0
  6
CONTINUOUS
 10
3.307480
 20
3.609320
 11
3.307480
 21
3.581160
  0
LINE
  8
0
 62
     0
  6
CONTINUOUS
 10
3.307480
 20
3.581160
 11
3.307040
 21
3.581160
  0
LINE
  8
0
 62
     0
  6
CONTINUOUS
 10
3.307480
 20
3.581160
 11
3.307480
 21
3.609320
  0
LINE
  8
0
 62
     0
  6
CONTINUOUS
 10
3.307040
 20
3.609320
 11
3.294720
 21
3.609320
  0
LINE
  8
0
 62
     0
  6
CONTINUOUS
 10
3.294720
 20
3.609320
 11
3.294720
 21
3.608880
  0
LINE
  8
0
 62
     0
  6
CONTINUOUS
 10
3.294720
 20
3.608880
 11
3.307040
 21
3.608880
  0
LINE
  8
0
 62
     0
  6
CONTINUOUS
 10
3.307040
 20
3.608880
 11
3.294720
 21
3.608880
  0
LINE
  8
0
 62
     0
  6
CONTINUOUS
 10
3.294720
 20
3.608880
 11
3.294720
 21
3.609320
  0
LINE
  8
0
 62
     0
  6
CONTINUOUS
 10
3.294720
 20
3.609320
 11
3.307040
 21
3.609320
  0
LINE
  8
0
 62
     0
  6
CONTINUOUS
 10
3.307040
 20
3.609320
 11
3.307040
 21
3.608880
  0
LINE
  8
0
 62
     0
  6
CONTINUOUS
 10
3.307040
 20
3.608880
 11
3.294720
 21
3.608880
  0
LINE
  8
0
 62
     0
  6
CONTINUOUS
 10
3.294720
 20
3.609320
 11
3.294720
 21
3.581160
  0
LINE
  8
0
 62
     0
  6
CONTINUOUS
 10
3.294720
 20
3.581160
 11
3.294720
 21
3.609320
  0
LINE
  8
0
 62
     0
  6
CONTINUOUS
 10
3.294720
 20
3.609320
 11
3.294720
 21
3.581160
  0
LINE
  8
0
 62
     0
  6
CONTINUOUS
 10
3.294720
 20
3.581160
 11
3.294720
 21
3.609320
  0
LINE
  8
0
 62
     0
  6
CONTINUOUS
 10
3.294720
 20
3.609320
 11
3.295160
 21
3.609320
  0
LINE
  8
0
 62
     0
  6
CONTINUOUS
 10
3.295160
 20
3.609320
 11
3.295160
 21
3.581160
  0
LINE
  8
0
 62
     0
  6
CONTINUOUS
 10
3.295160
 20
3.581160
 11
3.295160
 21
3.609320
  0
LINE
  8
0
 62
     0
  6
CONTINUOUS
 10
3.295160
 20
3.609320
 11
3.294720
 21
3.609320
  0
LINE
  8
0
 62
     0
  6
CONTINUOUS
 10
3.294720
 20
3.609320
 11
3.307040
 21
3.609320
  0
LINE
  8
0
 62
     0
  6
CONTINUOUS
 10
3.307040
 20
3.609320
 11
3.307040
 21
3.608880
  0
LINE
  8
0
 62
     0
  6
CONTINUOUS
 10
3.307040
 20
3.608880
 11
3.303960
 21
3.611960
  0
LINE
  8
0
 62
     0
  6
CONTINUOUS
 10
3.303960
 20
3.611960
 11
3.304400
 21
3.612400
  0
LINE
  8
0
 62
     0
  6
CONTINUOUS
 10
3.304400
 20
3.612400
 11
3.307480
 21
3.609320
  0
LINE
  8
0
 62
     0
  6
CONTINUOUS
 10
3.307480
 20
3.609320
 11
3.307040
 21
3.608880
  0
LINE
  8
0
 62
     0
  6
CONTINUOUS
 10
3.307040
 20
3.609320
 11
3.306600
 21
3.609320
  0
LINE
  8
0
 62
     0
  6
CONTINUOUS
 10
3.306600
 20
3.609320
 11
3.307480
 21
3.609320
  0
LINE
  8
0
 62
     0
  6
CONTINUOUS
 10
3.307480
 20
3.609320
 11
3.306600
 21
3.609320
  0
LINE
  8
0
 62
     0
  6
CONTINUOUS
 10
3.306600
 20
3.609320
 11
3.306160
 21
3.609760
  0
LINE
  8
0
 62
     0
  6
CONTINUOUS
 10
3.306160
 20
3.609760
 11
3.307040
 21
3.609760
  0
LINE
  8
0
 62
     0
  6
CONTINUOUS
 10
3.307040
 20
3.609760
 11
3.306160
 21
3.609760
  0
LINE
  8
0
 62
     0
  6
CONTINUOUS
 10
3.306160
 20
3.609760
 11
3.307040
 21
3.609760
  0
LINE
  8
0
 62
     0
  6
CONTINUOUS
 10
3.307040
 20
3.609760
 11
3.306600
 21
3.610200
  0
LINE
  8
0
 62
     0
  6
CONTINUOUS
 10
3.306600
 20
3.610200
 11
3.305720
 21
3.610200
  0
LINE
  8
0
 62
     0
  6
CONTINUOUS
 10
3.305720
 20
3.610200
 11
3.306600
 21
3.610200
  0
LINE
  8
0
 62
     0
  6
CONTINUOUS
 10
3.306600
 20
3.610200
 11
3.305720
 21
3.610200
  0
LINE
  8
0
 62
     0
  6
CONTINUOUS
 10
3.305720
 20
3.610200
 11
3.305280
 21
3.610640
  0
LINE
  8
0
 62
     0
  6
CONTINUOUS
 10
3.305280
 20
3.610640
 11
3.306160
 21
3.610640
  0
LINE
  8
0
 62
     0
  6
CONTINUOUS
 10
3.306160
 20
3.610640
 11
3.305280
 21
3.610640
  0
LINE
  8
0
 62
     0
  6
CONTINUOUS
 10
3.305280
 20
3.610640
 11
3.306160
 21
3.610640
  0
LINE
  8
0
 62
     0
  6
CONTINUOUS
 10
3.306160
 20
3.610640
 11
3.305720
 21
3.610640
  0
LINE
  8
0
 62
     0
  6
CONTINUOUS
 10
3.305720
 20
3.610640
 11
3.304840
 21
3.610640
  0
LINE
  8
0
 62
     0
  6
CONTINUOUS
 10
3.304840
 20
3.610640
 11
3.304840
 21
3.611080
  0
LINE
  8
0
 62
     0
  6
CONTINUOUS
 10
3.304840
 20
3.611080
 11
3.305720
 21
3.611080
  0
LINE
  8
0
 62
     0
  6
CONTINUOUS
 10
3.305720
 20
3.611080
 11
3.304840
 21
3.611080
  0
LINE
  8
0
 62
     0
  6
CONTINUOUS
 10
3.304840
 20
3.611080
 11
3.305280
 21
3.611080
  0
LINE
  8
0
 62
     0
  6
CONTINUOUS
 10
3.305280
 20
3.611080
 11
3.305280
 21
3.611520
  0
LINE
  8
0
 62
     0
  6
CONTINUOUS
 10
3.305280
 20
3.611520
 11
3.304400
 21
3.611520
  0
LINE
  8
0
 62
     0
  6
CONTINUOUS
 10
3.304400
 20
3.611520
 11
3.305280
 21
3.611520
  0
LINE
  8
0
 62
     0
  6
CONTINUOUS
 10
3.305280
 20
3.611520
 11
3.304840
 21
3.611520
  0
LINE
  8
0
 62
     0
  6
CONTINUOUS
 10
3.304840
 20
3.611520
 11
3.304400
 21
3.611520
  0
LINE
  8
0
 62
     0
  6
CONTINUOUS
 10
3.304400
 20
3.611520
 11
3.303960
 21
3.611960
  0
LINE
  8
0
 62
     0
  6
CONTINUOUS
 10
3.303960
 20
3.611960
 11
3.304840
 21
3.611960
  0
LINE
  8
0
 62
     0
  6
CONTINUOUS
 10
3.304840
 20
3.611960
 11
3.303960
 21
3.611960
  0
LINE
  8
0
 62
     0
  6
CONTINUOUS
 10
3.303960
 20
3.611960
 11
3.304840
 21
3.611960
  0
LINE
  8
0
 62
     0
  6
CONTINUOUS
 10
3.304840
 20
3.611960
 11
3.304400
 21
3.612400
  0
LINE
  8
0
 62
     0
  6
CONTINUOUS
 10
3.304400
 20
3.612400
 11
3.303960
 21
3.612400
  0
LINE
  8
0
 62
     0
  6
CONTINUOUS
 10
3.303960
 20
3.612400
 11
3.297800
 21
3.612400
  0
LINE
  8
0
 62
     0
  6
CONTINUOUS
 10
3.297800
 20
3.612400
 11
3.297800
 21
3.611960
  0
LINE
  8
0
 62
     0
  6
CONTINUOUS
 10
3.297800
 20
3.611960
 11
3.303960
 21
3.611960
  0
LINE
  8
0
 62
     0
  6
CONTINUOUS
 10
3.303960
 20
3.611960
 11
3.297800
 21
3.611960
  0
LINE
  8
0
 62
     0
  6
CONTINUOUS
 10
3.297800
 20
3.611960
 11
3.297800
 21
3.612400
  0
LINE
  8
0
 62
     0
  6
CONTINUOUS
 10
3.297800
 20
3.612400
 11
3.303960
 21
3.612400
  0
LINE
  8
0
 62
     0
  6
CONTINUOUS
 10
3.303960
 20
3.612400
 11
3.303960
 21
3.611960
  0
LINE
  8
0
 62
     0
  6
CONTINUOUS
 10
3.303960
 20
3.611960
 11
3.297800
 21
3.611960
  0
LINE
  8
0
 62
     0
  6
CONTINUOUS
 10
3.297800
 20
3.611960
 11
3.298240
 21
3.611960
  0
LINE
  8
0
 62
     0
  6
CONTINUOUS
 10
3.298240
 20
3.611960
 11
3.297360
 21
3.611960
  0
LINE
  8
0
 62
     0
  6
CONTINUOUS
 10
3.297360
 20
3.611960
 11
3.296920
 21
3.611520
  0
LINE
  8
0
 62
     0
  6
CONTINUOUS
 10
3.296920
 20
3.611520
 11
3.297800
 21
3.611520
  0
LINE
  8
0
 62
     0
  6
CONTINUOUS
 10
3.297800
 20
3.611520
 11
3.296920
 21
3.611520
  0
LINE
  8
0
 62
     0
  6
CONTINUOUS
 10
3.296920
 20
3.611520
 11
3.297800
 21
3.611520
  0
LINE
  8
0
 62
     0
  6
CONTINUOUS
 10
3.297800
 20
3.611520
 11
3.297360
 21
3.611080
  0
LINE
  8
0
 62
     0
  6
CONTINUOUS
 10
3.297360
 20
3.611080
 11
3.296480
 21
3.611080
  0
LINE
  8
0
 62
     0
  6
CONTINUOUS
 10
3.296480
 20
3.611080
 11
3.297360
 21
3.611080
  0
LINE
  8
0
 62
     0
  6
CONTINUOUS
 10
3.297360
 20
3.611080
 11
3.296480
 21
3.611080
  0
LINE
  8
0
 62
     0
  6
CONTINUOUS
 10
3.296480
 20
3.611080
 11
3.296040
 21
3.610640
  0
LINE
  8
0
 62
     0
  6
CONTINUOUS
 10
3.296040
 20
3.610640
 11
3.296920
 21
3.610640
  0
LINE
  8
0
 62
     0
  6
CONTINUOUS
 10
3.296920
 20
3.610640
 11
3.296040
 21
3.610640
  0
LINE
  8
0
 62
     0
  6
CONTINUOUS
 10
3.296040
 20
3.610640
 11
3.296920
 21
3.610640
  0
LINE
  8
0
 62
     0
  6
CONTINUOUS
 10
3.296920
 20
3.610640
 11
3.296480
 21
3.610640
  0
LINE
  8
0
 62
     0
  6
CONTINUOUS
 10
3.296480
 20
3.610640
 11
3.295600
 21
3.610640
  0
LINE
  8
0
 62
     0
  6
CONTINUOUS
 10
3.295600
 20
3.610640
 11
3.295600
 21
3.610200
  0
LINE
  8
0
 62
     0
  6
CONTINUOUS
 10
3.295600
 20
3.610200
 11
3.296480
 21
3.610200
  0
LINE
  8
0
 62
     0
  6
CONTINUOUS
 10
3.296480
 20
3.610200
 11
3.295600
 21
3.610200
  0
LINE
  8
0
 62
     0
  6
CONTINUOUS
 10
3.295600
 20
3.610200
 11
3.295160
 21
3.610200
  0
LINE
  8
0
 62
     0
  6
CONTINUOUS
 10
3.295160
 20
3.610200
 11
3.296040
 21
3.610200
  0
LINE
  8
0
 62
     0
  6
CONTINUOUS
 10
3.296040
 20
3.610200
 11
3.296040
 21
3.609760
  0
LINE
  8
0
 62
     0
  6
CONTINUOUS
 10
3.296040
 20
3.609760
 11
3.295160
 21
3.609760
  0
LINE
  8
0
 62
     0
  6
CONTINUOUS
 10
3.295160
 20
3.609760
 11
3.296040
 21
3.609760
  0
LINE
  8
0
 62
     0
  6
CONTINUOUS
 10
3.296040
 20
3.609760
 11
3.294720
 21
3.609760
  0
LINE
  8
0
 62
     0
  6
CONTINUOUS
 10
3.294720
 20
3.609760
 11
3.294720
 21
3.609320
  0
LINE
  8
0
 62
     0
  6
CONTINUOUS
 10
3.294720
 20
3.609320
 11
3.295600
 21
3.609320
  0
LINE
  8
0
 62
     0
  6
CONTINUOUS
 10
3.295600
 20
3.609320
 11
3.294720
 21
3.609320
  0
LINE
  8
0
 62
     0
  6
CONTINUOUS
 10
3.294720
 20
3.609320
 11
3.295600
 21
3.609320
  0
LINE
  8
0
 62
     0
  6
CONTINUOUS
 10
3.295600
 20
3.609320
 11
3.295160
 21
3.608880
  0
LINE
  8
0
 62
     0
  6
CONTINUOUS
 10
3.295160
 20
3.608880
 11
3.294720
 21
3.609320
  0
LINE
  8
0
 62
     0
  6
CONTINUOUS
 10
3.294720
 20
3.609320
 11
3.297800
 21
3.612400
  0
LINE
  8
0
 62
     0
  6
CONTINUOUS
 10
3.297800
 20
3.612400
 11
3.298240
 21
3.611960
  0
LINE
  8
0
 62
     0
  6
CONTINUOUS
 10
3.298240
 20
3.611960
 11
3.295160
 21
3.608880
  0
LINE
  8
0
 62
     0
  6
CONTINUOUS
 10
3.295160
 20
3.609320
 11
3.295160
 21
3.581160
  0
LINE
  8
0
 62
     0
  6
CONTINUOUS
 10
3.295160
 20
3.581160
 11
3.294720
 21
3.581160
  0
LINE
  8
0
 62
     0
  6
CONTINUOUS
 10
3.276680
 20
3.581160
 11
3.276680
 21
3.609320
  0
LINE
  8
0
 62
     0
  6
CONTINUOUS
 10
3.276680
 20
3.609320
 11
3.276240
 21
3.609320
  0
LINE
  8
0
 62
     0
  6
CONTINUOUS
 10
3.276240
 20
3.609320
 11
3.276240
 21
3.581160
  0
LINE
  8
0
 62
     0
  6
CONTINUOUS
 10
3.276240
 20
3.581160
 11
3.276240
 21
3.609320
  0
LINE
  8
0
 62
     0
  6
CONTINUOUS
 10
3.276240
 20
3.609320
 11
3.276240
 21
3.581160
  0
LINE
  8
0
 62
     0
  6
CONTINUOUS
 10
3.276240
 20
3.581160
 11
3.276240
 21
3.609320
  0
LINE
  8
0
 62
     0
  6
CONTINUOUS
 10
3.276240
 20
3.609320
 11
3.276680
 21
3.609320
  0
LINE
  8
0
 62
     0
  6
CONTINUOUS
 10
3.276680
 20
3.609320
 11
3.276680
 21
3.581160
  0
LINE
  8
0
 62
     0
  6
CONTINUOUS
 10
3.276680
 20
3.581160
 11
3.276240
 21
3.581160
  0
LINE
  8
0
 62
     0
  6
CONTINUOUS
 10
3.276680
 20
3.581160
 11
3.276680
 21
3.609320
  0
LINE
  8
0
 62
     0
  6
CONTINUOUS
 10
3.276680
 20
3.609320
 11
3.275800
 21
3.609320
  0
LINE
  8
0
 62
     0
  6
CONTINUOUS
 10
3.275800
 20
3.609320
 11
3.276240
 21
3.609320
  0
LINE
  8
0
 62
     0
  6
CONTINUOUS
 10
3.276240
 20
3.609320
 11
3.276240
 21
3.608880
  0
LINE
  8
0
 62
     0
  6
CONTINUOUS
 10
3.276240
 20
3.608880
 11
3.273160
 21
3.611960
  0
LINE
  8
0
 62
     0
  6
CONTINUOUS
 10
3.273160
 20
3.611960
 11
3.273600
 21
3.612400
  0
LINE
  8
0
 62
     0
  6
CONTINUOUS
 10
3.273600
 20
3.612400
 11
3.276680
 21
3.609320
  0
LINE
  8
0
 62
     0
  6
CONTINUOUS
 10
3.276680
 20
3.609320
 11
3.276240
 21
3.608880
  0
LINE
  8
0
 62
     0
  6
CONTINUOUS
 10
3.276240
 20
3.609760
 11
3.275360
 21
3.609760
  0
LINE
  8
0
 62
     0
  6
CONTINUOUS
 10
3.275360
 20
3.609760
 11
3.275800
 21
3.609320
  0
LINE
  8
0
 62
     0
  6
CONTINUOUS
 10
3.275800
 20
3.609320
 11
3.276680
 21
3.609320
  0
LINE
  8
0
 62
     0
  6
CONTINUOUS
 10
3.276240
 20
3.609760
 11
3.275360
 21
3.609760
  0
LINE
  8
0
 62
     0
  6
CONTINUOUS
 10
3.275360
 20
3.609760
 11
3.276240
 21
3.609760
  0
LINE
  8
0
 62
     0
  6
CONTINUOUS
 10
3.276240
 20
3.609760
 11
3.275800
 21
3.610200
  0
LINE
  8
0
 62
     0
  6
CONTINUOUS
 10
3.275800
 20
3.610200
 11
3.274920
 21
3.610200
  0
LINE
  8
0
 62
     0
  6
CONTINUOUS
 10
3.274920
 20
3.610200
 11
3.275800
 21
3.610200
  0
LINE
  8
0
 62
     0
  6
CONTINUOUS
 10
3.275800
 20
3.610200
 11
3.274920
 21
3.610200
  0
LINE
  8
0
 62
     0
  6
CONTINUOUS
 10
3.274920
 20
3.610200
 11
3.274480
 21
3.610640
  0
LINE
  8
0
 62
     0
  6
CONTINUOUS
 10
3.274480
 20
3.610640
 11
3.275360
 21
3.610640
  0
LINE
  8
0
 62
     0
  6
CONTINUOUS
 10
3.275360
 20
3.610640
 11
3.274480
 21
3.610640
  0
LINE
  8
0
 62
     0
  6
CONTINUOUS
 10
3.274480
 20
3.610640
 11
3.275360
 21
3.610640
  0
LINE
  8
0
 62
     0
  6
CONTINUOUS
 10
3.275360
 20
3.610640
 11
3.274920
 21
3.610640
  0
LINE
  8
0
 62
     0
  6
CONTINUOUS
 10
3.274920
 20
3.610640
 11
3.274040
 21
3.610640
  0
LINE
  8
0
 62
     0
  6
CONTINUOUS
 10
3.274040
 20
3.610640
 11
3.274040
 21
3.611080
  0
LINE
  8
0
 62
     0
  6
CONTINUOUS
 10
3.274040
 20
3.611080
 11
3.274920
 21
3.611080
  0
LINE
  8
0
 62
     0
  6
CONTINUOUS
 10
3.274920
 20
3.611080
 11
3.274040
 21
3.611080
  0
LINE
  8
0
 62
     0
  6
CONTINUOUS
 10
3.274040
 20
3.611080
 11
3.273600
 21
3.611080
  0
LINE
  8
0
 62
     0
  6
CONTINUOUS
 10
3.273600
 20
3.611080
 11
3.274480
 21
3.611080
  0
LINE
  8
0
 62
     0
  6
CONTINUOUS
 10
3.274480
 20
3.611080
 11
3.274480
 21
3.611520
  0
LINE
  8
0
 62
     0
  6
CONTINUOUS
 10
3.274480
 20
3.611520
 11
3.273600
 21
3.611520
  0
LINE
  8
0
 62
     0
  6
CONTINUOUS
 10
3.273600
 20
3.611520
 11
3.274480
 21
3.611520
  0
LINE
  8
0
 62
     0
  6
CONTINUOUS
 10
3.274480
 20
3.611520
 11
3.274040
 21
3.611520
  0
LINE
  8
0
 62
     0
  6
CONTINUOUS
 10
3.274040
 20
3.611520
 11
3.273160
 21
3.611520
  0
LINE
  8
0
 62
     0
  6
CONTINUOUS
 10
3.273160
 20
3.611520
 11
3.273160
 21
3.611960
  0
LINE
  8
0
 62
     0
  6
CONTINUOUS
 10
3.273160
 20
3.611960
 11
3.274040
 21
3.611960
  0
LINE
  8
0
 62
     0
  6
CONTINUOUS
 10
3.274040
 20
3.611960
 11
3.273160
 21
3.611960
  0
LINE
  8
0
 62
     0
  6
CONTINUOUS
 10
3.273160
 20
3.611960
 11
3.273600
 21
3.611960
  0
LINE
  8
0
 62
     0
  6
CONTINUOUS
 10
3.273600
 20
3.611960
 11
3.273600
 21
3.612400
  0
LINE
  8
0
 62
     0
  6
CONTINUOUS
 10
3.273600
 20
3.612400
 11
3.273160
 21
3.612400
  0
LINE
  8
0
 62
     0
  6
CONTINUOUS
 10
3.273160
 20
3.612400
 11
3.267000
 21
3.612400
  0
LINE
  8
0
 62
     0
  6
CONTINUOUS
 10
3.267000
 20
3.612400
 11
3.267000
 21
3.611960
  0
LINE
  8
0
 62
     0
  6
CONTINUOUS
 10
3.267000
 20
3.611960
 11
3.273160
 21
3.611960
  0
LINE
  8
0
 62
     0
  6
CONTINUOUS
 10
3.273160
 20
3.611960
 11
3.267000
 21
3.611960
  0
LINE
  8
0
 62
     0
  6
CONTINUOUS
 10
3.267000
 20
3.611960
 11
3.267000
 21
3.612400
  0
LINE
  8
0
 62
     0
  6
CONTINUOUS
 10
3.267000
 20
3.612400
 11
3.273160
 21
3.612400
  0
LINE
  8
0
 62
     0
  6
CONTINUOUS
 10
3.273160
 20
3.612400
 11
3.273160
 21
3.611960
  0
LINE
  8
0
 62
     0
  6
CONTINUOUS
 10
3.273160
 20
3.611960
 11
3.267000
 21
3.611960
  0
LINE
  8
0
 62
     0
  6
CONTINUOUS
 10
3.267000
 20
3.611960
 11
3.267440
 21
3.611960
  0
LINE
  8
0
 62
     0
  6
CONTINUOUS
 10
3.267440
 20
3.611960
 11
3.266120
 21
3.611960
  0
LINE
  8
0
 62
     0
  6
CONTINUOUS
 10
3.266120
 20
3.611960
 11
3.266120
 21
3.611520
  0
LINE
  8
0
 62
     0
  6
CONTINUOUS
 10
3.266120
 20
3.611520
 11
3.267000
 21
3.611520
  0
LINE
  8
0
 62
     0
  6
CONTINUOUS
 10
3.267000
 20
3.611520
 11
3.266120
 21
3.611520
  0
LINE
  8
0
 62
     0
  6
CONTINUOUS
 10
3.266120
 20
3.611520
 11
3.267000
 21
3.611520
  0
LINE
  8
0
 62
     0
  6
CONTINUOUS
 10
3.267000
 20
3.611520
 11
3.266560
 21
3.611080
  0
LINE
  8
0
 62
     0
  6
CONTINUOUS
 10
3.266560
 20
3.611080
 11
3.265680
 21
3.611080
  0
LINE
  8
0
 62
     0
  6
CONTINUOUS
 10
3.265680
 20
3.611080
 11
3.266560
 21
3.611080
  0
LINE
  8
0
 62
     0
  6
CONTINUOUS
 10
3.266560
 20
3.611080
 11
3.265680
 21
3.611080
  0
LINE
  8
0
 62
     0
  6
CONTINUOUS
 10
3.265680
 20
3.611080
 11
3.265240
 21
3.610640
  0
LINE
  8
0
 62
     0
  6
CONTINUOUS
 10
3.265240
 20
3.610640
 11
3.266120
 21
3.610640
  0
LINE
  8
0
 62
     0
  6
CONTINUOUS
 10
3.266120
 20
3.610640
 11
3.265240
 21
3.610640
  0
LINE
  8
0
 62
     0
  6
CONTINUOUS
 10
3.265240
 20
3.610640
 11
3.266120
 21
3.610640
  0
LINE
  8
0
 62
     0
  6
CONTINUOUS
 10
3.266120
 20
3.610640
 11
3.265680
 21
3.610640
  0
LINE
  8
0
 62
     0
  6
CONTINUOUS
 10
3.265680
 20
3.610640
 11
3.264800
 21
3.610640
  0
LINE
  8
0
 62
     0
  6
CONTINUOUS
 10
3.264800
 20
3.610640
 11
3.264800
 21
3.610200
  0
LINE
  8
0
 62
     0
  6
CONTINUOUS
 10
3.264800
 20
3.610200
 11
3.265680
 21
3.610200
  0
LINE
  8
0
 62
     0
  6
CONTINUOUS
 10
3.265680
 20
3.610200
 11
3.264800
 21
3.610200
  0
LINE
  8
0
 62
     0
  6
CONTINUOUS
 10
3.264800
 20
3.610200
 11
3.264360
 21
3.610200
  0
LINE
  8
0
 62
     0
  6
CONTINUOUS
 10
3.264360
 20
3.610200
 11
3.265240
 21
3.610200
  0
LINE
  8
0
 62
     0
  6
CONTINUOUS
 10
3.265240
 20
3.610200
 11
3.265240
 21
3.609760
  0
LINE
  8
0
 62
     0
  6
CONTINUOUS
 10
3.265240
 20
3.609760
 11
3.264360
 21
3.609760
  0
LINE
  8
0
 62
     0
  6
CONTINUOUS
 10
3.264360
 20
3.609760
 11
3.265240
 21
3.609760
  0
LINE
  8
0
 62
     0
  6
CONTINUOUS
 10
3.265240
 20
3.609760
 11
3.264800
 21
3.609760
  0
LINE
  8
0
 62
     0
  6
CONTINUOUS
 10
3.264800
 20
3.609760
 11
3.263920
 21
3.609760
  0
LINE
  8
0
 62
     0
  6
CONTINUOUS
 10
3.263920
 20
3.609760
 11
3.263920
 21
3.609320
  0
LINE
  8
0
 62
     0
  6
CONTINUOUS
 10
3.263920
 20
3.609320
 11
3.264800
 21
3.609320
  0
LINE
  8
0
 62
     0
  6
CONTINUOUS
 10
3.264800
 20
3.609320
 11
3.263920
 21
3.609320
  0
LINE
  8
0
 62
     0
  6
CONTINUOUS
 10
3.263920
 20
3.609320
 11
3.264360
 21
3.609320
  0
LINE
  8
0
 62
     0
  6
CONTINUOUS
 10
3.264360
 20
3.609320
 11
3.264360
 21
3.608880
  0
LINE
  8
0
 62
     0
  6
CONTINUOUS
 10
3.264360
 20
3.609320
 11
3.263920
 21
3.609320
  0
LINE
  8
0
 62
     0
  6
CONTINUOUS
 10
3.263920
 20
3.609320
 11
3.263920
 21
3.581160
  0
LINE
  8
0
 62
     0
  6
CONTINUOUS
 10
3.263920
 20
3.581160
 11
3.263920
 21
3.609320
  0
LINE
  8
0
 62
     0
  6
CONTINUOUS
 10
3.263920
 20
3.609320
 11
3.263920
 21
3.581160
  0
LINE
  8
0
 62
     0
  6
CONTINUOUS
 10
3.263920
 20
3.581160
 11
3.263920
 21
3.609320
  0
LINE
  8
0
 62
     0
  6
CONTINUOUS
 10
3.263920
 20
3.609320
 11
3.264360
 21
3.609320
  0
LINE
  8
0
 62
     0
  6
CONTINUOUS
 10
3.264360
 20
3.609320
 11
3.264360
 21
3.581160
  0
LINE
  8
0
 62
     0
  6
CONTINUOUS
 10
3.264360
 20
3.581160
 11
3.264360
 21
3.609320
  0
LINE
  8
0
 62
     0
  6
CONTINUOUS
 10
3.264360
 20
3.609320
 11
3.264360
 21
3.581160
  0
LINE
  8
0
 62
     0
  6
CONTINUOUS
 10
3.264360
 20
3.581160
 11
3.263920
 21
3.581160
  0
LINE
  8
0
 62
     0
  6
CONTINUOUS
 10
3.264360
 20
3.608880
 11
3.263920
 21
3.609320
  0
LINE
  8
0
 62
     0
  6
CONTINUOUS
 10
3.263920
 20
3.609320
 11
3.267000
 21
3.612400
  0
LINE
  8
0
 62
     0
  6
CONTINUOUS
 10
3.267000
 20
3.612400
 11
3.267440
 21
3.611960
  0
LINE
  8
0
 62
     0
  6
CONTINUOUS
 10
3.267440
 20
3.611960
 11
3.264360
 21
3.608880
  0
LINE
  8
0
 62
     0
  6
CONTINUOUS
 10
3.266560
 20
3.611960
 11
3.267440
 21
3.611960
  0
LINE
  8
0
 62
     0
  6
CONTINUOUS
 10
3.267000
 20
3.611960
 11
3.266560
 21
3.611960
  0
LINE
  8
0
 62
     0
  6
CONTINUOUS
 10
3.266560
 20
3.612400
 11
3.267000
 21
3.612400
  0
LINE
  8
0
 62
     0
  6
CONTINUOUS
 10
3.267000
 20
3.612400
 11
3.267000
 21
3.611960
  0
LINE
  8
0
 62
     0
  6
CONTINUOUS
 10
3.267000
 20
3.612400
 11
3.273160
 21
3.612400
  0
LINE
  8
0
 62
     0
  6
CONTINUOUS
 10
3.273160
 20
3.612400
 11
3.267000
 21
3.612400
  0
LINE
  8
0
 62
     0
  6
CONTINUOUS
 10
3.297800
 20
3.612400
 11
3.297800
 21
3.611960
  0
LINE
  8
0
 62
     0
  6
CONTINUOUS
 10
3.297800
 20
3.611960
 11
3.297360
 21
3.611960
  0
LINE
  8
0
 62
     0
  6
CONTINUOUS
 10
3.297360
 20
3.611960
 11
3.298240
 21
3.611960
  0
LINE
  8
0
 62
     0
  6
CONTINUOUS
 10
3.297800
 20
3.612400
 11
3.303960
 21
3.612400
  0
LINE
  8
0
 62
     0
  6
CONTINUOUS
 10
3.303960
 20
3.612400
 11
3.297800
 21
3.612400
  0
LINE
  8
0
 62
     0
  6
CONTINUOUS
 10
3.294720
 20
3.609320
 11
3.307040
 21
3.609320
  0
LINE
  8
0
 62
     0
  6
CONTINUOUS
 10
3.387120
 20
3.581600
 11
3.387560
 21
3.581600
  0
LINE
  8
0
 62
     0
  6
CONTINUOUS
 10
3.387560
 20
3.581600
 11
3.387560
 21
3.571920
  0
LINE
  8
0
 62
     0
  6
CONTINUOUS
 10
3.387560
 20
3.571920
 11
3.387120
 21
3.571920
  0
LINE
  8
0
 62
     0
  6
CONTINUOUS
 10
3.387120
 20
3.571920
 11
3.387120
 21
3.581600
  0
LINE
  8
0
 62
     0
  6
CONTINUOUS
 10
3.387120
 20
3.581600
 11
3.387120
 21
3.571920
  0
LINE
  8
0
 62
     0
  6
CONTINUOUS
 10
3.387120
 20
3.571920
 11
3.387120
 21
3.581600
  0
LINE
  8
0
 62
     0
  6
CONTINUOUS
 10
3.387560
 20
3.581600
 11
3.387560
 21
3.571920
  0
LINE
  8
0
 62
     0
  6
CONTINUOUS
 10
3.387560
 20
3.571920
 11
3.387120
 21
3.571920
  0
LINE
  8
0
 62
     0
  6
CONTINUOUS
 10
3.387120
 20
3.571920
 11
3.387560
 21
3.571920
  0
LINE
  8
0
 62
     0
  6
CONTINUOUS
 10
3.387560
 20
3.571920
 11
3.171520
 21
3.571920
  0
LINE
  8
0
 62
     0
  6
CONTINUOUS
 10
3.171520
 20
3.571920
 11
3.387560
 21
3.571920
  0
LINE
  8
0
 62
     0
  6
CONTINUOUS
 10
3.387560
 20
3.571920
 11
3.171520
 21
3.571920
  0
LINE
  8
0
 62
     0
  6
CONTINUOUS
 10
3.171520
 20
3.571920
 11
3.171520
 21
3.572360
  0
LINE
  8
0
 62
     0
  6
CONTINUOUS
 10
3.171520
 20
3.572360
 11
3.387560
 21
3.572360
  0
LINE
  8
0
 62
     0
  6
CONTINUOUS
 10
3.387560
 20
3.572360
 11
3.387560
 21
3.571920
  0
LINE
  8
0
 62
     0
  6
CONTINUOUS
 10
3.387560
 20
3.571920
 11
3.387560
 21
3.581600
  0
LINE
  8
0
 62
     0
  6
CONTINUOUS
 10
3.387560
 20
3.581600
 11
3.387560
 21
3.571920
  0
LINE
  8
0
 62
     0
  6
CONTINUOUS
 10
3.387560
 20
3.572360
 11
3.171520
 21
3.572360
  0
LINE
  8
0
 62
     0
  6
CONTINUOUS
 10
3.171520
 20
3.572360
 11
3.387560
 21
3.572360
  0
LINE
  8
0
 62
     0
  6
CONTINUOUS
 10
3.387560
 20
3.572360
 11
3.387560
 21
3.571920
  0
LINE
  8
0
 62
     0
  6
CONTINUOUS
 10
3.387560
 20
3.571920
 11
3.171520
 21
3.571920
  0
LINE
  8
0
 62
     0
  6
CONTINUOUS
 10
3.171520
 20
3.571920
 11
3.171520
 21
3.582040
  0
LINE
  8
0
 62
     0
  6
CONTINUOUS
 10
3.171520
 20
3.582040
 11
3.171080
 21
3.582040
  0
LINE
  8
0
 62
     0
  6
CONTINUOUS
 10
3.171080
 20
3.582040
 11
3.171080
 21
3.571920
  0
LINE
  8
0
 62
     0
  6
CONTINUOUS
 10
3.171080
 20
3.571920
 11
3.171080
 21
3.582040
  0
LINE
  8
0
 62
     0
  6
CONTINUOUS
 10
3.171080
 20
3.582040
 11
3.171960
 21
3.582040
  0
LINE
  8
0
 62
     0
  6
CONTINUOUS
 10
3.171960
 20
3.582040
 11
3.171960
 21
3.571920
  0
LINE
  8
0
 62
     0
  6
CONTINUOUS
 10
3.171960
 20
3.571920
 11
3.171080
 21
3.571920
  0
LINE
  8
0
 62
     0
  6
CONTINUOUS
 10
3.171520
 20
3.571920
 11
3.171520
 21
3.582040
  0
LINE
  8
0
 62
     0
  6
CONTINUOUS
 10
3.171520
 20
3.582040
 11
3.171520
 21
3.571920
  0
LINE
  8
0
 62
     0
  6
CONTINUOUS
 10
3.171520
 20
3.571920
 11
3.171960
 21
3.571920
  0
LINE
  8
0
 62
     0
  6
CONTINUOUS
 10
3.171960
 20
3.571920
 11
3.171960
 21
3.582040
  0
POLYLINE
  8
0
 62
     0
  6
CONTINUOUS
 66
     1
 40
0.000000
 41
0.000000
  0
VERTEX
  8
0
 62
     0
  6
CONTINUOUS
 10
3.230480
 20
3.646280
  0
VERTEX
  8
0
 62
     0
  6
CONTINUOUS
 10
3.230920
 20
3.648480
  0
VERTEX
  8
0
 62
     0
  6
CONTINUOUS
 10
3.232240
 20
3.655520
  0
VERTEX
  8
0
 62
     0
  6
CONTINUOUS
 10
3.234000
 20
3.665200
  0
VERTEX
  8
0
 62
     0
  6
CONTINUOUS
 10
3.236640
 20
3.676200
  0
VERTEX
  8
0
 62
     0
  6
CONTINUOUS
 10
3.238840
 20
3.686760
  0
VERTEX
  8
0
 62
     0
  6
CONTINUOUS
 10
3.240600
 20
3.696440
  0
VERTEX
  8
0
 62
     0
  6
CONTINUOUS
 10
3.241920
 20
3.703480
  0
VERTEX
  8
0
 62
     0
  6
CONTINUOUS
 10
3.242800
 20
3.706120
  0
SEQEND
  8
0
  0
POLYLINE
  8
0
 62
     0
  6
CONTINUOUS
 66
     1
 40
0.000000
 41
0.000000
  0
VERTEX
  8
0
 62
     0
  6
CONTINUOUS
 10
3.242800
 20
3.706120
  0
VERTEX
  8
0
 62
     0
  6
CONTINUOUS
 10
3.243680
 20
3.706120
  0
VERTEX
  8
0
 62
     0
  6
CONTINUOUS
 10
3.245000
 20
3.706120
  0
VERTEX
  8
0
 62
     0
  6
CONTINUOUS
 10
3.246760
 20
3.706120
  0
VERTEX
  8
0
 62
     0
  6
CONTINUOUS
 10
3.248080
 20
3.706120
  0
VERTEX
  8
0
 62
     0
  6
CONTINUOUS
 10
3.249400
 20
3.706120
  0
VERTEX
  8
0
 62
     0
  6
CONTINUOUS
 10
3.250280
 20
3.706120
  0
VERTEX
  8
0
 62
     0
  6
CONTINUOUS
 10
3.250720
 20
3.706120
  0
SEQEND
  8
0
  0
POLYLINE
  8
0
 62
     0
  6
CONTINUOUS
 66
     1
 40
0.000000
 41
0.000000
  0
VERTEX
  8
0
 62
     0
  6
CONTINUOUS
 10
3.250720
 20
3.706120
  0
VERTEX
  8
0
 62
     0
  6
CONTINUOUS
 10
3.250280
 20
3.704800
  0
VERTEX
  8
0
 62
     0
  6
CONTINUOUS
 10
3.249840
 20
3.702160
  0
VERTEX
  8
0
 62
     0
  6
CONTINUOUS
 10
3.248960
 20
3.697760
  0
VERTEX
  8
0
 62
     0
  6
CONTINUOUS
 10
3.248080
 20
3.693360
  0
VERTEX
  8
0
 62
     0
  6
CONTINUOUS
 10
3.246760
 20
3.688960
  0
VERTEX
  8
0
 62
     0
  6
CONTINUOUS
 10
3.245880
 20
3.684560
  0
VERTEX
  8
0
 62
     0
  6
CONTINUOUS
 10
3.245440
 20
3.681920
  0
VERTEX
  8
0
 62
     0
  6
CONTINUOUS
 10
3.245440
 20
3.681040
  0
SEQEND
  8
0
  0
POLYLINE
  8
0
 62
     0
  6
CONTINUOUS
 66
     1
 40
0.000000
 41
0.000000
  0
VERTEX
  8
0
 62
     0
  6
CONTINUOUS
 10
3.245440
 20
3.681040
  0
VERTEX
  8
0
 62
     0
  6
CONTINUOUS
 10
3.246760
 20
3.681040
  0
VERTEX
  8
0
 62
     0
  6
CONTINUOUS
 10
3.250280
 20
3.681040
  0
VERTEX
  8
0
 62
     0
  6
CONTINUOUS
 10
3.255120
 20
3.681040
  0
VERTEX
  8
0
 62
     0
  6
CONTINUOUS
 10
3.260840
 20
3.681040
  0
VERTEX
  8
0
 62
     0
  6
CONTINUOUS
 10
3.266560
 20
3.681040
  0
VERTEX
  8
0
 62
     0
  6
CONTINUOUS
 10
3.271400
 20
3.681040
  0
VERTEX
  8
0
 62
     0
  6
CONTINUOUS
 10
3.274920
 20
3.681040
  0
VERTEX
  8
0
 62
     0
  6
CONTINUOUS
 10
3.276680
 20
3.681040
  0
SEQEND
  8
0
  0
POLYLINE
  8
0
 62
     0
  6
CONTINUOUS
 66
     1
 40
0.000000
 41
0.000000
  0
VERTEX
  8
0
 62
     0
  6
CONTINUOUS
 10
3.276680
 20
3.681040
  0
VERTEX
  8
0
 62
     0
  6
CONTINUOUS
 10
3.276680
 20
3.681920
  0
VERTEX
  8
0
 62
     0
  6
CONTINUOUS
 10
3.277120
 20
3.684560
  0
VERTEX
  8
0
 62
     0
  6
CONTINUOUS
 10
3.278000
 20
3.688960
  0
VERTEX
  8
0
 62
     0
  6
CONTINUOUS
 10
3.279320
 20
3.693360
  0
VERTEX
  8
0
 62
     0
  6
CONTINUOUS
 10
3.280200
 20
3.697760
  0
VERTEX
  8
0
 62
     0
  6
CONTINUOUS
 10
3.281080
 20
3.702160
  0
VERTEX
  8
0
 62
     0
  6
CONTINUOUS
 10
3.281520
 20
3.704800
  0
VERTEX
  8
0
 62
     0
  6
CONTINUOUS
 10
3.281960
 20
3.706120
  0
SEQEND
  8
0
  0
POLYLINE
  8
0
 62
     0
  6
CONTINUOUS
 66
     1
 40
0.000000
 41
0.000000
  0
VERTEX
  8
0
 62
     0
  6
CONTINUOUS
 10
3.281960
 20
3.706120
  0
VERTEX
  8
0
 62
     0
  6
CONTINUOUS
 10
3.282840
 20
3.706120
  0
VERTEX
  8
0
 62
     0
  6
CONTINUOUS
 10
3.284160
 20
3.706120
  0
VERTEX
  8
0
 62
     0
  6
CONTINUOUS
 10
3.285920
 20
3.706120
  0
VERTEX
  8
0
 62
     0
  6
CONTINUOUS
 10
3.287240
 20
3.706120
  0
VERTEX
  8
0
 62
     0
  6
CONTINUOUS
 10
3.288560
 20
3.706120
  0
VERTEX
  8
0
 62
     0
  6
CONTINUOUS
 10
3.289440
 20
3.706120
  0
VERTEX
  8
0
 62
     0
  6
CONTINUOUS
 10
3.289880
 20
3.706120
  0
SEQEND
  8
0
  0
POLYLINE
  8
0
 62
     0
  6
CONTINUOUS
 66
     1
 40
0.000000
 41
0.000000
  0
VERTEX
  8
0
 62
     0
  6
CONTINUOUS
 10
3.289880
 20
3.706120
  0
VERTEX
  8
0
 62
     0
  6
CONTINUOUS
 10
3.289000
 20
3.703480
  0
VERTEX
  8
0
 62
     0
  6
CONTINUOUS
 10
3.287680
 20
3.696440
  0
VERTEX
  8
0
 62
     0
  6
CONTINUOUS
 10
3.285480
 20
3.686760
  0
VERTEX
  8
0
 62
     0
  6
CONTINUOUS
 10
3.283280
 20
3.676200
  0
VERTEX
  8
0
 62
     0
  6
CONTINUOUS
 10
3.281080
 20
3.665200
  0
VERTEX
  8
0
 62
     0
  6
CONTINUOUS
 10
3.278880
 20
3.655520
  0
VERTEX
  8
0
 62
     0
  6
CONTINUOUS
 10
3.277560
 20
3.648480
  0
VERTEX
  8
0
 62
     0
  6
CONTINUOUS
 10
3.277120
 20
3.646280
  0
SEQEND
  8
0
  0
POLYLINE
  8
0
 62
     0
  6
CONTINUOUS
 66
     1
 40
0.000000
 41
0.000000
  0
VERTEX
  8
0
 62
     0
  6
CONTINUOUS
 10
3.277120
 20
3.646280
  0
VERTEX
  8
0
 62
     0
  6
CONTINUOUS
 10
3.276680
 20
3.646280
  0
VERTEX
  8
0
 62
     0
  6
CONTINUOUS
 10
3.275800
 20
3.646280
  0
VERTEX
  8
0
 62
     0
  6
CONTINUOUS
 10
3.274480
 20
3.646280
  0
VERTEX
  8
0
 62
     0
  6
CONTINUOUS
 10
3.273160
 20
3.646280
  0
VERTEX
  8
0
 62
     0
  6
CONTINUOUS
 10
3.271400
 20
3.646280
  0
VERTEX
  8
0
 62
     0
  6
CONTINUOUS
 10
3.270080
 20
3.646280
  0
VERTEX
  8
0
 62
     0
  6
CONTINUOUS
 10
3.269200
 20
3.646280
  0
SEQEND
  8
0
  0
POLYLINE
  8
0
 62
     0
  6
CONTINUOUS
 66
     1
 40
0.000000
 41
0.000000
  0
VERTEX
  8
0
 62
     0
  6
CONTINUOUS
 10
3.269200
 20
3.646280
  0
VERTEX
  8
0
 62
     0
  6
CONTINUOUS
 10
3.269200
 20
3.647160
  0
VERTEX
  8
0
 62
     0
  6
CONTINUOUS
 10
3.270080
 20
3.650680
  0
VERTEX
  8
0
 62
     0
  6
CONTINUOUS
 10
3.270960
 20
3.655080
  0
VERTEX
  8
0
 62
     0
  6
CONTINUOUS
 10
3.272280
 20
3.660360
  0
VERTEX
  8
0
 62
     0
  6
CONTINUOUS
 10
3.273160
 20
3.665200
  0
VERTEX
  8
0
 62
     0
  6
CONTINUOUS
 10
3.274040
 20
3.670040
  0
VERTEX
  8
0
 62
     0
  6
CONTINUOUS
 10
3.274920
 20
3.673120
  0
VERTEX
  8
0
 62
     0
  6
CONTINUOUS
 10
3.275360
 20
3.674440
  0
SEQEND
  8
0
  0
POLYLINE
  8
0
 62
     0
  6
CONTINUOUS
 66
     1
 40
0.000000
 41
0.000000
  0
VERTEX
  8
0
 62
     0
  6
CONTINUOUS
 10
3.275360
 20
3.674440
  0
VERTEX
  8
0
 62
     0
  6
CONTINUOUS
 10
3.273600
 20
3.674440
  0
VERTEX
  8
0
 62
     0
  6
CONTINUOUS
 10
3.270080
 20
3.674440
  0
VERTEX
  8
0
 62
     0
  6
CONTINUOUS
 10
3.265240
 20
3.674440
  0
VERTEX
  8
0
 62
     0
  6
CONTINUOUS
 10
3.259520
 20
3.674440
  0
VERTEX
  8
0
 62
     0
  6
CONTINUOUS
 10
3.253800
 20
3.674440
  0
VERTEX
  8
0
 62
     0
  6
CONTINUOUS
 10
3.248960
 20
3.674440
  0
VERTEX
  8
0
 62
     0
  6
CONTINUOUS
 10
3.245440
 20
3.674440
  0
VERTEX
  8
0
 62
     0
  6
CONTINUOUS
 10
3.244120
 20
3.674440
  0
SEQEND
  8
0
  0
POLYLINE
  8
0
 62
     0
  6
CONTINUOUS
 66
     1
 40
0.000000
 41
0.000000
  0
VERTEX
  8
0
 62
     0
  6
CONTINUOUS
 10
3.244120
 20
3.674440
  0
VERTEX
  8
0
 62
     0
  6
CONTINUOUS
 10
3.243680
 20
3.673120
  0
VERTEX
  8
0
 62
     0
  6
CONTINUOUS
 10
3.242800
 20
3.670040
  0
VERTEX
  8
0
 62
     0
  6
CONTINUOUS
 10
3.241920
 20
3.665200
  0
VERTEX
  8
0
 62
     0
  6
CONTINUOUS
 10
3.241040
 20
3.660360
  0
VERTEX
  8
0
 62
     0
  6
CONTINUOUS
 10
3.240160
 20
3.655080
  0
VERTEX
  8
0
 62
     0
  6
CONTINUOUS
 10
3.239280
 20
3.650680
  0
VERTEX
  8
0
 62
     0
  6
CONTINUOUS
 10
3.238400
 20
3.647160
  0
VERTEX
  8
0
 62
     0
  6
CONTINUOUS
 10
3.238400
 20
3.646280
  0
SEQEND
  8
0
  0
POLYLINE
  8
0
 62
     0
  6
CONTINUOUS
 66
     1
 40
0.000000
 41
0.000000
  0
VERTEX
  8
0
 62
     0
  6
CONTINUOUS
 10
3.238400
 20
3.646280
  0
VERTEX
  8
0
 62
     0
  6
CONTINUOUS
 10
3.237960
 20
3.646280
  0
VERTEX
  8
0
 62
     0
  6
CONTINUOUS
 10
3.237080
 20
3.646280
  0
VERTEX
  8
0
 62
     0
  6
CONTINUOUS
 10
3.235760
 20
3.646280
  0
VERTEX
  8
0
 62
     0
  6
CONTINUOUS
 10
3.234440
 20
3.646280
  0
VERTEX
  8
0
 62
     0
  6
CONTINUOUS
 10
3.232680
 20
3.646280
  0
VERTEX
  8
0
 62
     0
  6
CONTINUOUS
 10
3.231360
 20
3.646280
  0
VERTEX
  8
0
 62
     0
  6
CONTINUOUS
 10
3.230480
 20
3.646280
  0
SEQEND
  8
0
  0
POLYLINE
  8
0
 62
     0
  6
CONTINUOUS
 66
     1
 40
0.000000
 41
0.000000
  0
VERTEX
  8
0
 62
     0
  6
CONTINUOUS
 10
3.282400
 20
3.645400
  0
VERTEX
  8
0
 62
     0
  6
CONTINUOUS
 10
3.283720
 20
3.648040
  0
VERTEX
  8
0
 62
     0
  6
CONTINUOUS
 10
3.287240
 20
3.654640
  0
VERTEX
  8
0
 62
     0
  6
CONTINUOUS
 10
3.292520
 20
3.664760
  0
VERTEX
  8
0
 62
     0
  6
CONTINUOUS
 10
3.298240
 20
3.676200
  0
VERTEX
  8
0
 62
     0
  6
CONTINUOUS
 10
3.303960
 20
3.687200
  0
VERTEX
  8
0
 62
     0
  6
CONTINUOUS
 10
3.309240
 20
3.697320
  0
VERTEX
  8
0
 62
     0
  6
CONTINUOUS
 10
3.312760
 20
3.703920
  0
VERTEX
  8
0
 62
     0
  6
CONTINUOUS
 10
3.314520
 20
3.707000
  0
SEQEND
  8
0
  0
POLYLINE
  8
0
 62
     0
  6
CONTINUOUS
 66
     1
 40
0.000000
 41
0.000000
  0
VERTEX
  8
0
 62
     0
  6
CONTINUOUS
 10
3.314520
 20
3.707000
  0
VERTEX
  8
0
 62
     0
  6
CONTINUOUS
 10
3.315400
 20
3.707000
  0
VERTEX
  8
0
 62
     0
  6
CONTINUOUS
 10
3.316280
 20
3.707000
  0
VERTEX
  8
0
 62
     0
  6
CONTINUOUS
 10
3.317600
 20
3.707000
  0
VERTEX
  8
0
 62
     0
  6
CONTINUOUS
 10
3.318920
 20
3.707000
  0
VERTEX
  8
0
 62
     0
  6
CONTINUOUS
 10
3.319800
 20
3.707000
  0
VERTEX
  8
0
 62
     0
  6
CONTINUOUS
 10
3.320680
 20
3.707000
  0
VERTEX
  8
0
 62
     0
  6
CONTINUOUS
 10
3.321120
 20
3.707000
  0
SEQEND
  8
0
  0
POLYLINE
  8
0
 62
     0
  6
CONTINUOUS
 66
     1
 40
0.000000
 41
0.000000
  0
VERTEX
  8
0
 62
     0
  6
CONTINUOUS
 10
3.321120
 20
3.707000
  0
VERTEX
  8
0
 62
     0
  6
CONTINUOUS
 10
3.319360
 20
3.703920
  0
VERTEX
  8
0
 62
     0
  6
CONTINUOUS
 10
3.315840
 20
3.697320
  0
VERTEX
  8
0
 62
     0
  6
CONTINUOUS
 10
3.310560
 20
3.687200
  0
VERTEX
  8
0
 62
     0
  6
CONTINUOUS
 10
3.304840
 20
3.676200
  0
VERTEX
  8
0
 62
     0
  6
CONTINUOUS
 10
3.299120
 20
3.664760
  0
VERTEX
  8
0
 62
     0
  6
CONTINUOUS
 10
3.293840
 20
3.654640
  0
VERTEX
  8
0
 62
     0
  6
CONTINUOUS
 10
3.290320
 20
3.648040
  0
VERTEX
  8
0
 62
     0
  6
CONTINUOUS
 10
3.289000
 20
3.645400
  0
SEQEND
  8
0
  0
POLYLINE
  8
0
 62
     0
  6
CONTINUOUS
 66
     1
 40
0.000000
 41
0.000000
  0
VERTEX
  8
0
 62
     0
  6
CONTINUOUS
 10
3.289000
 20
3.645400
  0
VERTEX
  8
0
 62
     0
  6
CONTINUOUS
 10
3.288560
 20
3.645400
  0
VERTEX
  8
0
 62
     0
  6
CONTINUOUS
 10
3.287680
 20
3.645400
  0
VERTEX
  8
0
 62
     0
  6
CONTINUOUS
 10
3.286800
 20
3.645400
  0
VERTEX
  8
0
 62
     0
  6
CONTINUOUS
 10
3.285480
 20
3.645400
  0
VERTEX
  8
0
 62
     0
  6
CONTINUOUS
 10
3.284160
 20
3.645400
  0
VERTEX
  8
0
 62
     0
  6
CONTINUOUS
 10
3.283280
 20
3.645400
  0
VERTEX
  8
0
 62
     0
  6
CONTINUOUS
 10
3.282400
 20
3.645400
  0
SEQEND
  8
0
  0
POLYLINE
  8
0
 62
     0
  6
CONTINUOUS
 66
     1
 40
0.000000
 41
0.000000
  0
VERTEX
  8
0
 62
     0
  6
CONTINUOUS
 10
3.313200
 20
3.646280
  0
VERTEX
  8
0
 62
     0
  6
CONTINUOUS
 10
3.313640
 20
3.648480
  0
VERTEX
  8
0
 62
     0
  6
CONTINUOUS
 10
3.314960
 20
3.655520
  0
VERTEX
  8
0
 62
     0
  6
CONTINUOUS
 10
3.317160
 20
3.665200
  0
VERTEX
  8
0
 62
     0
  6
CONTINUOUS
 10
3.319360
 20
3.676200
  0
VERTEX
  8
0
 62
     0
  6
CONTINUOUS
 10
3.321560
 20
3.686760
  0
VERTEX
  8
0
 62
     0
  6
CONTINUOUS
 10
3.323760
 20
3.696440
  0
VERTEX
  8
0
 62
     0
  6
CONTINUOUS
 10
3.325080
 20
3.703480
  0
VERTEX
  8
0
 62
     0
  6
CONTINUOUS
 10
3.325960
 20
3.706120
  0
SEQEND
  8
0
  0
POLYLINE
  8
0
 62
     0
  6
CONTINUOUS
 66
     1
 40
0.000000
 41
0.000000
  0
VERTEX
  8
0
 62
     0
  6
CONTINUOUS
 10
3.325960
 20
3.706120
  0
VERTEX
  8
0
 62
     0
  6
CONTINUOUS
 10
3.326840
 20
3.706120
  0
VERTEX
  8
0
 62
     0
  6
CONTINUOUS
 10
3.328160
 20
3.706120
  0
VERTEX
  8
0
 62
     0
  6
CONTINUOUS
 10
3.329920
 20
3.706120
  0
VERTEX
  8
0
 62
     0
  6
CONTINUOUS
 10
3.331240
 20
3.706120
  0
VERTEX
  8
0
 62
     0
  6
CONTINUOUS
 10
3.332560
 20
3.706120
  0
VERTEX
  8
0
 62
     0
  6
CONTINUOUS
 10
3.333440
 20
3.706120
  0
VERTEX
  8
0
 62
     0
  6
CONTINUOUS
 10
3.333880
 20
3.706120
  0
SEQEND
  8
0
  0
POLYLINE
  8
0
 62
     0
  6
CONTINUOUS
 66
     1
 40
0.000000
 41
0.000000
  0
VERTEX
  8
0
 62
     0
  6
CONTINUOUS
 10
3.333880
 20
3.706120
  0
VERTEX
  8
0
 62
     0
  6
CONTINUOUS
 10
3.333000
 20
3.703480
  0
VERTEX
  8
0
 62
     0
  6
CONTINUOUS
 10
3.332120
 20
3.697760
  0
VERTEX
  8
0
 62
     0
  6
CONTINUOUS
 10
3.330360
 20
3.688960
  0
VERTEX
  8
0
 62
     0
  6
CONTINUOUS
 10
3.328160
 20
3.679280
  0
VERTEX
  8
0
 62
     0
  6
CONTINUOUS
 10
3.325960
 20
3.669600
  0
VERTEX
  8
0
 62
     0
  6
CONTINUOUS
 10
3.324200
 20
3.660800
  0
VERTEX
  8
0
 62
     0
  6
CONTINUOUS
 10
3.323320
 20
3.655080
  0
VERTEX
  8
0
 62
     0
  6
CONTINUOUS
 10
3.322880
 20
3.652880
  0
SEQEND
  8
0
  0
POLYLINE
  8
0
 62
     0
  6
CONTINUOUS
 66
     1
 40
0.000000
 41
0.000000
  0
VERTEX
  8
0
 62
     0
  6
CONTINUOUS
 10
3.322880
 20
3.652880
  0
VERTEX
  8
0
 62
     0
  6
CONTINUOUS
 10
3.323760
 20
3.652880
  0
VERTEX
  8
0
 62
     0
  6
CONTINUOUS
 10
3.327280
 20
3.652880
  0
VERTEX
  8
0
 62
     0
  6
CONTINUOUS
 10
3.332120
 20
3.652880
  0
VERTEX
  8
0
 62
     0
  6
CONTINUOUS
 10
3.337840
 20
3.652880
  0
VERTEX
  8
0
 62
     0
  6
CONTINUOUS
 10
3.343560
 20
3.652880
  0
VERTEX
  8
0
 62
     0
  6
CONTINUOUS
 10
3.348400
 20
3.652880
  0
VERTEX
  8
0
 62
     0
  6
CONTINUOUS
 10
3.351920
 20
3.652880
  0
VERTEX
  8
0
 62
     0
  6
CONTINUOUS
 10
3.353240
 20
3.652880
  0
SEQEND
  8
0
  0
POLYLINE
  8
0
 62
     0
  6
CONTINUOUS
 66
     1
 40
0.000000
 41
0.000000
  0
VERTEX
  8
0
 62
     0
  6
CONTINUOUS
 10
3.353240
 20
3.652880
  0
VERTEX
  8
0
 62
     0
  6
CONTINUOUS
 10
3.352800
 20
3.652440
  0
VERTEX
  8
0
 62
     0
  6
CONTINUOUS
 10
3.352800
 20
3.651560
  0
VERTEX
  8
0
 62
     0
  6
CONTINUOUS
 10
3.352800
 20
3.650680
  0
VERTEX
  8
0
 62
     0
  6
CONTINUOUS
 10
3.352360
 20
3.649360
  0
VERTEX
  8
0
 62
     0
  6
CONTINUOUS
 10
3.351920
 20
3.648040
  0
VERTEX
  8
0
 62
     0
  6
CONTINUOUS
 10
3.351920
 20
3.647160
  0
VERTEX
  8
0
 62
     0
  6
CONTINUOUS
 10
3.351920
 20
3.646280
  0
SEQEND
  8
0
  0
POLYLINE
  8
0
 62
     0
  6
CONTINUOUS
 66
     1
 40
0.000000
 41
0.000000
  0
VERTEX
  8
0
 62
     0
  6
CONTINUOUS
 10
3.351920
 20
3.646280
  0
VERTEX
  8
0
 62
     0
  6
CONTINUOUS
 10
3.350160
 20
3.646280
  0
VERTEX
  8
0
 62
     0
  6
CONTINUOUS
 10
3.345760
 20
3.646280
  0
VERTEX
  8
0
 62
     0
  6
CONTINUOUS
 10
3.339600
 20
3.646280
  0
VERTEX
  8
0
 62
     0
  6
CONTINUOUS
 10
3.332560
 20
3.646280
  0
VERTEX
  8
0
 62
     0
  6
CONTINUOUS
 10
3.325080
 20
3.646280
  0
VERTEX
  8
0
 62
     0
  6
CONTINUOUS
 10
3.318920
 20
3.646280
  0
VERTEX
  8
0
 62
     0
  6
CONTINUOUS
 10
3.314520
 20
3.646280
  0
VERTEX
  8
0
 62
     0
  6
CONTINUOUS
 10
3.313200
 20
3.646280
  0
SEQEND
  8
0
  0
LINE
  8
0
 62
     0
  6
CONTINUOUS
 10
2.775960
 20
2.840200
 11
2.775960
 21
3.337400
  0
LINE
  8
0
 62
     0
  6
CONTINUOUS
 10
2.876280
 20
3.283280
 11
2.881120
 21
3.274040
  0
LINE
  8
0
 62
     0
  6
CONTINUOUS
 10
2.881120
 20
3.274040
 11
2.882440
 21
3.264800
  0
LINE
  8
0
 62
     0
  6
CONTINUOUS
 10
2.876280
 20
3.283280
 11
2.874960
 21
3.291200
  0
LINE
  8
0
 62
     0
  6
CONTINUOUS
 10
2.874960
 20
3.291200
 11
2.863960
 21
3.297360
  0
LINE
  8
0
 62
     0
  6
CONTINUOUS
 10
2.863960
 20
3.297360
 11
2.856480
 21
3.300440
  0
LINE
  8
0
 62
     0
  6
CONTINUOUS
 10
2.856480
 20
3.300440
 11
2.847240
 21
3.301760
  0
LINE
  8
0
 62
     0
  6
CONTINUOUS
 10
2.847240
 20
3.301760
 11
2.838000
 21
3.300440
  0
LINE
  8
0
 62
     0
  6
CONTINUOUS
 10
2.838000
 20
3.300440
 11
2.828760
 21
3.297360
  0
LINE
  8
0
 62
     0
  6
CONTINUOUS
 10
2.828760
 20
3.297360
 11
2.819520
 21
3.291200
  0
LINE
  8
0
 62
     0
  6
CONTINUOUS
 10
2.819520
 20
3.291200
 11
2.816440
 21
3.283280
  0
LINE
  8
0
 62
     0
  6
CONTINUOUS
 10
2.816440
 20
3.283280
 11
2.813360
 21
3.274040
  0
LINE
  8
0
 62
     0
  6
CONTINUOUS
 10
2.813360
 20
3.274040
 11
2.810280
 21
3.264800
  0
LINE
  8
0
 62
     0
  6
CONTINUOUS
 10
2.810280
 20
3.264800
 11
2.813360
 21
3.255560
  0
LINE
  8
0
 62
     0
  6
CONTINUOUS
 10
2.813360
 20
3.255560
 11
2.816440
 21
3.247640
  0
LINE
  8
0
 62
     0
  6
CONTINUOUS
 10
2.816440
 20
3.247640
 11
2.819520
 21
3.238400
  0
LINE
  8
0
 62
     0
  6
CONTINUOUS
 10
2.819520
 20
3.238400
 11
2.828760
 21
3.232240
  0
LINE
  8
0
 62
     0
  6
CONTINUOUS
 10
2.828760
 20
3.232240
 11
2.838000
 21
3.229160
  0
LINE
  8
0
 62
     0
  6
CONTINUOUS
 10
2.838000
 20
3.229160
 11
2.847240
 21
3.229160
  0
LINE
  8
0
 62
     0
  6
CONTINUOUS
 10
2.847240
 20
3.229160
 11
2.856480
 21
3.229160
  0
LINE
  8
0
 62
     0
  6
CONTINUOUS
 10
2.856480
 20
3.229160
 11
2.863960
 21
3.232240
  0
LINE
  8
0
 62
     0
  6
CONTINUOUS
 10
2.863960
 20
3.232240
 11
2.874960
 21
3.238400
  0
LINE
  8
0
 62
     0
  6
CONTINUOUS
 10
2.874960
 20
3.238400
 11
2.876280
 21
3.247640
  0
LINE
  8
0
 62
     0
  6
CONTINUOUS
 10
2.876280
 20
3.247640
 11
2.881120
 21
3.255560
  0
LINE
  8
0
 62
     0
  6
CONTINUOUS
 10
2.881120
 20
3.255560
 11
2.882440
 21
3.264800
  0
LINE
  8
0
 62
     0
  6
CONTINUOUS
 10
2.893440
 20
3.204520
 11
2.890360
 21
3.198360
  0
LINE
  8
0
 62
     0
  6
CONTINUOUS
 10
2.890360
 20
3.198360
 11
2.884200
 21
3.189120
  0
LINE
  8
0
 62
     0
  6
CONTINUOUS
 10
2.884200
 20
3.189120
 11
2.882440
 21
3.179880
  0
LINE
  8
0
 62
     0
  6
CONTINUOUS
 10
2.882440
 20
3.179880
 11
2.884200
 21
3.170640
  0
LINE
  8
0
 62
     0
  6
CONTINUOUS
 10
2.884200
 20
3.170640
 11
2.890360
 21
3.161400
  0
LINE
  8
0
 62
     0
  6
CONTINUOUS
 10
2.890360
 20
3.161400
 11
2.893440
 21
3.153480
  0
LINE
  8
0
 62
     0
  6
CONTINUOUS
 10
2.893440
 20
3.153480
 11
2.901360
 21
3.149080
  0
LINE
  8
0
 62
     0
  6
CONTINUOUS
 10
2.901360
 20
3.149080
 11
2.911920
 21
3.144240
  0
LINE
  8
0
 62
     0
  6
CONTINUOUS
 10
2.911920
 20
3.144240
 11
2.919840
 21
3.142920
  0
LINE
  8
0
 62
     0
  6
CONTINUOUS
 10
2.919840
 20
3.142920
 11
2.930400
 21
3.144240
  0
LINE
  8
0
 62
     0
  6
CONTINUOUS
 10
2.930400
 20
3.144240
 11
2.938320
 21
3.149080
  0
LINE
  8
0
 62
     0
  6
CONTINUOUS
 10
2.938320
 20
3.149080
 11
2.947560
 21
3.153480
  0
LINE
  8
0
 62
     0
  6
CONTINUOUS
 10
2.947560
 20
3.153480
 11
2.948880
 21
3.161400
  0
LINE
  8
0
 62
     0
  6
CONTINUOUS
 10
2.948880
 20
3.161400
 11
2.955040
 21
3.170640
  0
LINE
  8
0
 62
     0
  6
CONTINUOUS
 10
2.955040
 20
3.170640
 11
2.956800
 21
3.179880
  0
LINE
  8
0
 62
     0
  6
CONTINUOUS
 10
2.956800
 20
3.179880
 11
2.955040
 21
3.189120
  0
LINE
  8
0
 62
     0
  6
CONTINUOUS
 10
2.955040
 20
3.189120
 11
2.948880
 21
3.198360
  0
LINE
  8
0
 62
     0
  6
CONTINUOUS
 10
2.948880
 20
3.198360
 11
2.947560
 21
3.204520
  0
LINE
  8
0
 62
     0
  6
CONTINUOUS
 10
2.947560
 20
3.204520
 11
2.938320
 21
3.210680
  0
LINE
  8
0
 62
     0
  6
CONTINUOUS
 10
2.938320
 20
3.210680
 11
2.930400
 21
3.215520
  0
LINE
  8
0
 62
     0
  6
CONTINUOUS
 10
2.930400
 20
3.215520
 11
2.919840
 21
3.216840
  0
LINE
  8
0
 62
     0
  6
CONTINUOUS
 10
2.919840
 20
3.216840
 11
2.911920
 21
3.215520
  0
LINE
  8
0
 62
     0
  6
CONTINUOUS
 10
2.911920
 20
3.215520
 11
2.901360
 21
3.210680
  0
LINE
  8
0
 62
     0
  6
CONTINUOUS
 10
2.901360
 20
3.210680
 11
2.893440
 21
3.204520
  0
LINE
  8
0
 62
     0
  6
CONTINUOUS
 10
2.893440
 20
3.314080
 11
2.901360
 21
3.307920
  0
LINE
  8
0
 62
     0
  6
CONTINUOUS
 10
2.901360
 20
3.307920
 11
2.911920
 21
3.303520
  0
LINE
  8
0
 62
     0
  6
CONTINUOUS
 10
2.911920
 20
3.303520
 11
2.919840
 21
3.303520
  0
LINE
  8
0
 62
     0
  6
CONTINUOUS
 10
2.919840
 20
3.303520
 11
2.930400
 21
3.303520
  0
LINE
  8
0
 62
     0
  6
CONTINUOUS
 10
2.930400
 20
3.303520
 11
2.938320
 21
3.307920
  0
LINE
  8
0
 62
     0
  6
CONTINUOUS
 10
2.938320
 20
3.307920
 11
2.947560
 21
3.314080
  0
LINE
  8
0
 62
     0
  6
CONTINUOUS
 10
2.947560
 20
3.314080
 11
2.948880
 21
3.322000
  0
LINE
  8
0
 62
     0
  6
CONTINUOUS
 10
2.948880
 20
3.322000
 11
2.955040
 21
3.329480
  0
LINE
  8
0
 62
     0
  6
CONTINUOUS
 10
2.955040
 20
3.329480
 11
2.956800
 21
3.338720
  0
LINE
  8
0
 62
     0
  6
CONTINUOUS
 10
2.956800
 20
3.338720
 11
2.955040
 21
3.347960
  0
LINE
  8
0
 62
     0
  6
CONTINUOUS
 10
2.955040
 20
3.347960
 11
2.948880
 21
3.357640
  0
LINE
  8
0
 62
     0
  6
CONTINUOUS
 10
2.948880
 20
3.357640
 11
2.947560
 21
3.365120
  0
LINE
  8
0
 62
     0
  6
CONTINUOUS
 10
2.947560
 20
3.365120
 11
2.938320
 21
3.371280
  0
LINE
  8
0
 62
     0
  6
CONTINUOUS
 10
2.938320
 20
3.371280
 11
2.930400
 21
3.374360
  0
LINE
  8
0
 62
     0
  6
CONTINUOUS
 10
2.930400
 20
3.374360
 11
2.919840
 21
3.376120
  0
LINE
  8
0
 62
     0
  6
CONTINUOUS
 10
2.919840
 20
3.376120
 11
2.911920
 21
3.374360
  0
LINE
  8
0
 62
     0
  6
CONTINUOUS
 10
2.911920
 20
3.374360
 11
2.901360
 21
3.371280
  0
LINE
  8
0
 62
     0
  6
CONTINUOUS
 10
2.901360
 20
3.371280
 11
2.893440
 21
3.365120
  0
LINE
  8
0
 62
     0
  6
CONTINUOUS
 10
2.893440
 20
3.365120
 11
2.890360
 21
3.357640
  0
LINE
  8
0
 62
     0
  6
CONTINUOUS
 10
2.890360
 20
3.357640
 11
2.884200
 21
3.347960
  0
LINE
  8
0
 62
     0
  6
CONTINUOUS
 10
2.884200
 20
3.347960
 11
2.882440
 21
3.338720
  0
LINE
  8
0
 62
     0
  6
CONTINUOUS
 10
2.882440
 20
3.338720
 11
2.884200
 21
3.329480
  0
LINE
  8
0
 62
     0
  6
CONTINUOUS
 10
2.884200
 20
3.329480
 11
2.890360
 21
3.322000
  0
LINE
  8
0
 62
     0
  6
CONTINUOUS
 10
2.890360
 20
3.322000
 11
2.893440
 21
3.314080
  0
LINE
  8
0
 62
     0
  6
CONTINUOUS
 10
2.967800
 20
3.337400
 11
2.967800
 21
2.840200
  0
LINE
  8
0
 62
     0
  6
CONTINUOUS
 10
2.874960
 20
2.886400
 11
2.876280
 21
2.894320
  0
LINE
  8
0
 62
     0
  6
CONTINUOUS
 10
2.876280
 20
2.894320
 11
2.881120
 21
2.903560
  0
LINE
  8
0
 62
     0
  6
CONTINUOUS
 10
2.881120
 20
2.903560
 11
2.882440
 21
2.912800
  0
LINE
  8
0
 62
     0
  6
CONTINUOUS
 10
2.882440
 20
2.912800
 11
2.881120
 21
2.922040
  0
LINE
  8
0
 62
     0
  6
CONTINUOUS
 10
2.881120
 20
2.922040
 11
2.876280
 21
2.931280
  0
LINE
  8
0
 62
     0
  6
CONTINUOUS
 10
2.876280
 20
2.931280
 11
2.874960
 21
2.938760
  0
LINE
  8
0
 62
     0
  6
CONTINUOUS
 10
2.874960
 20
2.938760
 11
2.863960
 21
2.943600
  0
LINE
  8
0
 62
     0
  6
CONTINUOUS
 10
2.863960
 20
2.943600
 11
2.856480
 21
2.948000
  0
LINE
  8
0
 62
     0
  6
CONTINUOUS
 10
2.856480
 20
2.948000
 11
2.847240
 21
2.948000
  0
LINE
  8
0
 62
     0
  6
CONTINUOUS
 10
2.847240
 20
2.948000
 11
2.838000
 21
2.948000
  0
LINE
  8
0
 62
     0
  6
CONTINUOUS
 10
2.838000
 20
2.948000
 11
2.828760
 21
2.943600
  0
LINE
  8
0
 62
     0
  6
CONTINUOUS
 10
2.828760
 20
2.943600
 11
2.819520
 21
2.938760
  0
LINE
  8
0
 62
     0
  6
CONTINUOUS
 10
2.819520
 20
2.938760
 11
2.816440
 21
2.931280
  0
LINE
  8
0
 62
     0
  6
CONTINUOUS
 10
2.816440
 20
2.931280
 11
2.813360
 21
2.922040
  0
LINE
  8
0
 62
     0
  6
CONTINUOUS
 10
2.813360
 20
2.922040
 11
2.810280
 21
2.912800
  0
LINE
  8
0
 62
     0
  6
CONTINUOUS
 10
2.810280
 20
2.912800
 11
2.813360
 21
2.903560
  0
LINE
  8
0
 62
     0
  6
CONTINUOUS
 10
2.813360
 20
2.903560
 11
2.816440
 21
2.894320
  0
LINE
  8
0
 62
     0
  6
CONTINUOUS
 10
2.838000
 20
2.877160
 11
2.847240
 21
2.877160
  0
LINE
  8
0
 62
     0
  6
CONTINUOUS
 10
2.847240
 20
2.877160
 11
2.856480
 21
2.877160
  0
LINE
  8
0
 62
     0
  6
CONTINUOUS
 10
2.856480
 20
2.877160
 11
2.863960
 21
2.880240
  0
LINE
  8
0
 62
     0
  6
CONTINUOUS
 10
2.863960
 20
2.880240
 11
2.874960
 21
2.886400
  0
LINE
  8
0
 62
     0
  6
CONTINUOUS
 10
2.893440
 20
2.983640
 11
2.901360
 21
2.977480
  0
LINE
  8
0
 62
     0
  6
CONTINUOUS
 10
2.901360
 20
2.977480
 11
2.911920
 21
2.974400
  0
LINE
  8
0
 62
     0
  6
CONTINUOUS
 10
2.911920
 20
2.974400
 11
2.919840
 21
2.973080
  0
LINE
  8
0
 62
     0
  6
CONTINUOUS
 10
2.919840
 20
2.973080
 11
2.930400
 21
2.974400
  0
LINE
  8
0
 62
     0
  6
CONTINUOUS
 10
2.930400
 20
2.974400
 11
2.938320
 21
2.977480
  0
LINE
  8
0
 62
     0
  6
CONTINUOUS
 10
2.938320
 20
2.977480
 11
2.947560
 21
2.983640
  0
LINE
  8
0
 62
     0
  6
CONTINUOUS
 10
2.947560
 20
2.983640
 11
2.948880
 21
2.991560
  0
LINE
  8
0
 62
     0
  6
CONTINUOUS
 10
2.948880
 20
2.991560
 11
2.955040
 21
3.000800
  0
LINE
  8
0
 62
     0
  6
CONTINUOUS
 10
2.955040
 20
3.000800
 11
2.956800
 21
3.010040
  0
LINE
  8
0
 62
     0
  6
CONTINUOUS
 10
2.956800
 20
3.010040
 11
2.955040
 21
3.019280
  0
LINE
  8
0
 62
     0
  6
CONTINUOUS
 10
2.955040
 20
3.019280
 11
2.948880
 21
3.028520
  0
LINE
  8
0
 62
     0
  6
CONTINUOUS
 10
2.948880
 20
3.028520
 11
2.947560
 21
3.034680
  0
LINE
  8
0
 62
     0
  6
CONTINUOUS
 10
2.947560
 20
3.034680
 11
2.938320
 21
3.040840
  0
LINE
  8
0
 62
     0
  6
CONTINUOUS
 10
2.938320
 20
3.040840
 11
2.930400
 21
3.043920
  0
LINE
  8
0
 62
     0
  6
CONTINUOUS
 10
2.930400
 20
3.043920
 11
2.919840
 21
3.047000
  0
LINE
  8
0
 62
     0
  6
CONTINUOUS
 10
2.919840
 20
3.047000
 11
2.911920
 21
3.043920
  0
LINE
  8
0
 62
     0
  6
CONTINUOUS
 10
2.911920
 20
3.043920
 11
2.901360
 21
3.040840
  0
LINE
  8
0
 62
     0
  6
CONTINUOUS
 10
2.901360
 20
3.040840
 11
2.893440
 21
3.034680
  0
LINE
  8
0
 62
     0
  6
CONTINUOUS
 10
2.893440
 20
3.034680
 11
2.890360
 21
3.028520
  0
LINE
  8
0
 62
     0
  6
CONTINUOUS
 10
2.890360
 20
3.028520
 11
2.884200
 21
3.019280
  0
LINE
  8
0
 62
     0
  6
CONTINUOUS
 10
2.884200
 20
3.019280
 11
2.882440
 21
3.010040
  0
LINE
  8
0
 62
     0
  6
CONTINUOUS
 10
2.882440
 20
3.010040
 11
2.884200
 21
3.000800
  0
LINE
  8
0
 62
     0
  6
CONTINUOUS
 10
2.884200
 20
3.000800
 11
2.890360
 21
2.991560
  0
LINE
  8
0
 62
     0
  6
CONTINUOUS
 10
2.890360
 20
2.991560
 11
2.893440
 21
2.983640
  0
LINE
  8
0
 62
     0
  6
CONTINUOUS
 10
2.874960
 20
3.056240
 11
2.876280
 21
3.064160
  0
LINE
  8
0
 62
     0
  6
CONTINUOUS
 10
2.876280
 20
3.064160
 11
2.881120
 21
3.073400
  0
LINE
  8
0
 62
     0
  6
CONTINUOUS
 10
2.881120
 20
3.073400
 11
2.882440
 21
3.082640
  0
LINE
  8
0
 62
     0
  6
CONTINUOUS
 10
2.882440
 20
3.082640
 11
2.881120
 21
3.091880
  0
LINE
  8
0
 62
     0
  6
CONTINUOUS
 10
2.881120
 20
3.091880
 11
2.876280
 21
3.101120
  0
LINE
  8
0
 62
     0
  6
CONTINUOUS
 10
2.876280
 20
3.101120
 11
2.874960
 21
3.108600
  0
LINE
  8
0
 62
     0
  6
CONTINUOUS
 10
2.874960
 20
3.108600
 11
2.863960
 21
3.113440
  0
LINE
  8
0
 62
     0
  6
CONTINUOUS
 10
2.863960
 20
3.113440
 11
2.856480
 21
3.117840
  0
LINE
  8
0
 62
     0
  6
CONTINUOUS
 10
2.856480
 20
3.117840
 11
2.847240
 21
3.117840
  0
LINE
  8
0
 62
     0
  6
CONTINUOUS
 10
2.847240
 20
3.117840
 11
2.838000
 21
3.117840
  0
LINE
  8
0
 62
     0
  6
CONTINUOUS
 10
2.838000
 20
3.117840
 11
2.828760
 21
3.113440
  0
LINE
  8
0
 62
     0
  6
CONTINUOUS
 10
2.828760
 20
3.113440
 11
2.819520
 21
3.108600
  0
LINE
  8
0
 62
     0
  6
CONTINUOUS
 10
2.819520
 20
3.108600
 11
2.816440
 21
3.101120
  0
LINE
  8
0
 62
     0
  6
CONTINUOUS
 10
2.816440
 20
3.101120
 11
2.813360
 21
3.091880
  0
LINE
  8
0
 62
     0
  6
CONTINUOUS
 10
2.813360
 20
3.091880
 11
2.810280
 21
3.082640
  0
LINE
  8
0
 62
     0
  6
CONTINUOUS
 10
2.810280
 20
3.082640
 11
2.813360
 21
3.073400
  0
LINE
  8
0
 62
     0
  6
CONTINUOUS
 10
2.813360
 20
3.073400
 11
2.816440
 21
3.064160
  0
LINE
  8
0
 62
     0
  6
CONTINUOUS
 10
2.816440
 20
3.064160
 11
2.819520
 21
3.056240
  0
LINE
  8
0
 62
     0
  6
CONTINUOUS
 10
2.819520
 20
3.056240
 11
2.828760
 21
3.050080
  0
LINE
  8
0
 62
     0
  6
CONTINUOUS
 10
2.828760
 20
3.050080
 11
2.838000
 21
3.047000
  0
LINE
  8
0
 62
     0
  6
CONTINUOUS
 10
2.838000
 20
3.047000
 11
2.847240
 21
3.047000
  0
LINE
  8
0
 62
     0
  6
CONTINUOUS
 10
2.847240
 20
3.047000
 11
2.856480
 21
3.047000
  0
LINE
  8
0
 62
     0
  6
CONTINUOUS
 10
2.856480
 20
3.047000
 11
2.863960
 21
3.050080
  0
LINE
  8
0
 62
     0
  6
CONTINUOUS
 10
2.863960
 20
3.050080
 11
2.874960
 21
3.056240
  0
LINE
  8
0
 62
     0
  6
CONTINUOUS
 10
2.967800
 20
2.840200
 11
2.775960
 21
2.840200
  0
LINE
  8
0
 62
     0
  6
CONTINUOUS
 10
2.775960
 20
3.337400
 11
2.775960
 21
3.562680
  0
LINE
  8
0
 62
     0
  6
CONTINUOUS
 10
2.775960
 20
3.578080
 11
2.967800
 21
3.578080
  0
LINE
  8
0
 62
     0
  6
CONTINUOUS
 10
2.967800
 20
3.562680
 11
2.967800
 21
3.337400
  0
LINE
  8
0
 62
     0
  6
CONTINUOUS
 10
2.874960
 20
3.385360
 11
2.876280
 21
3.392840
  0
LINE
  8
0
 62
     0
  6
CONTINUOUS
 10
2.876280
 20
3.392840
 11
2.881120
 21
3.402080
  0
LINE
  8
0
 62
     0
  6
CONTINUOUS
 10
2.881120
 20
3.402080
 11
2.882440
 21
3.411320
  0
LINE
  8
0
 62
     0
  6
CONTINUOUS
 10
2.882440
 20
3.411320
 11
2.881120
 21
3.420560
  0
LINE
  8
0
 62
     0
  6
CONTINUOUS
 10
2.881120
 20
3.420560
 11
2.876280
 21
3.429800
  0
LINE
  8
0
 62
     0
  6
CONTINUOUS
 10
2.876280
 20
3.429800
 11
2.874960
 21
3.437720
  0
LINE
  8
0
 62
     0
  6
CONTINUOUS
 10
2.874960
 20
3.437720
 11
2.863960
 21
3.442560
  0
LINE
  8
0
 62
     0
  6
CONTINUOUS
 10
2.863960
 20
3.442560
 11
2.856480
 21
3.446960
  0
LINE
  8
0
 62
     0
  6
CONTINUOUS
 10
2.856480
 20
3.446960
 11
2.847240
 21
3.448720
  0
LINE
  8
0
 62
     0
  6
CONTINUOUS
 10
2.847240
 20
3.448720
 11
2.838000
 21
3.446960
  0
LINE
  8
0
 62
     0
  6
CONTINUOUS
 10
2.838000
 20
3.446960
 11
2.828760
 21
3.442560
  0
LINE
  8
0
 62
     0
  6
CONTINUOUS
 10
2.828760
 20
3.442560
 11
2.819520
 21
3.437720
  0
LINE
  8
0
 62
     0
  6
CONTINUOUS
 10
2.819520
 20
3.437720
 11
2.816440
 21
3.429800
  0
LINE
  8
0
 62
     0
  6
CONTINUOUS
 10
2.816440
 20
3.429800
 11
2.813360
 21
3.420560
  0
LINE
  8
0
 62
     0
  6
CONTINUOUS
 10
2.813360
 20
3.420560
 11
2.810280
 21
3.411320
  0
LINE
  8
0
 62
     0
  6
CONTINUOUS
 10
2.810280
 20
3.411320
 11
2.813360
 21
3.402080
  0
LINE
  8
0
 62
     0
  6
CONTINUOUS
 10
2.813360
 20
3.402080
 11
2.816440
 21
3.392840
  0
LINE
  8
0
 62
     0
  6
CONTINUOUS
 10
2.816440
 20
3.392840
 11
2.819520
 21
3.385360
  0
LINE
  8
0
 62
     0
  6
CONTINUOUS
 10
2.819520
 20
3.385360
 11
2.828760
 21
3.380520
  0
LINE
  8
0
 62
     0
  6
CONTINUOUS
 10
2.828760
 20
3.380520
 11
2.838000
 21
3.376120
  0
LINE
  8
0
 62
     0
  6
CONTINUOUS
 10
2.838000
 20
3.376120
 11
2.847240
 21
3.374360
  0
LINE
  8
0
 62
     0
  6
CONTINUOUS
 10
2.847240
 20
3.374360
 11
2.856480
 21
3.376120
  0
LINE
  8
0
 62
     0
  6
CONTINUOUS
 10
2.856480
 20
3.376120
 11
2.863960
 21
3.380520
  0
LINE
  8
0
 62
     0
  6
CONTINUOUS
 10
2.863960
 20
3.380520
 11
2.874960
 21
3.385360
  0
LINE
  8
0
 62
     0
  6
CONTINUOUS
 10
2.893440
 20
3.473360
 11
2.901360
 21
3.467200
  0
LINE
  8
0
 62
     0
  6
CONTINUOUS
 10
2.901360
 20
3.467200
 11
2.911920
 21
3.464120
  0
LINE
  8
0
 62
     0
  6
CONTINUOUS
 10
2.911920
 20
3.464120
 11
2.919840
 21
3.462360
  0
LINE
  8
0
 62
     0
  6
CONTINUOUS
 10
2.919840
 20
3.462360
 11
2.930400
 21
3.464120
  0
LINE
  8
0
 62
     0
  6
CONTINUOUS
 10
2.930400
 20
3.464120
 11
2.938320
 21
3.467200
  0
LINE
  8
0
 62
     0
  6
CONTINUOUS
 10
2.938320
 20
3.467200
 11
2.947560
 21
3.473360
  0
LINE
  8
0
 62
     0
  6
CONTINUOUS
 10
2.947560
 20
3.473360
 11
2.948880
 21
3.480840
  0
LINE
  8
0
 62
     0
  6
CONTINUOUS
 10
2.948880
 20
3.480840
 11
2.955040
 21
3.488760
  0
LINE
  8
0
 62
     0
  6
CONTINUOUS
 10
2.955040
 20
3.488760
 11
2.956800
 21
3.499320
  0
LINE
  8
0
 62
     0
  6
CONTINUOUS
 10
2.956800
 20
3.499320
 11
2.955040
 21
3.509000
  0
LINE
  8
0
 62
     0
  6
CONTINUOUS
 10
2.955040
 20
3.509000
 11
2.948880
 21
3.516480
  0
LINE
  8
0
 62
     0
  6
CONTINUOUS
 10
2.948880
 20
3.516480
 11
2.947560
 21
3.525720
  0
LINE
  8
0
 62
     0
  6
CONTINUOUS
 10
2.947560
 20
3.525720
 11
2.938320
 21
3.531880
  0
LINE
  8
0
 62
     0
  6
CONTINUOUS
 10
2.938320
 20
3.531880
 11
2.930400
 21
3.534960
  0
LINE
  8
0
 62
     0
  6
CONTINUOUS
 10
2.930400
 20
3.534960
 11
2.919840
 21
3.534960
  0
LINE
  8
0
 62
     0
  6
CONTINUOUS
 10
2.919840
 20
3.534960
 11
2.911920
 21
3.534960
  0
LINE
  8
0
 62
     0
  6
CONTINUOUS
 10
2.911920
 20
3.534960
 11
2.901360
 21
3.531880
  0
LINE
  8
0
 62
     0
  6
CONTINUOUS
 10
2.901360
 20
3.531880
 11
2.893440
 21
3.525720
  0
LINE
  8
0
 62
     0
  6
CONTINUOUS
 10
2.893440
 20
3.525720
 11
2.890360
 21
3.516480
  0
LINE
  8
0
 62
     0
  6
CONTINUOUS
 10
2.890360
 20
3.516480
 11
2.884200
 21
3.509000
  0
LINE
  8
0
 62
     0
  6
CONTINUOUS
 10
2.884200
 20
3.509000
 11
2.882440
 21
3.499320
  0
LINE
  8
0
 62
     0
  6
CONTINUOUS
 10
2.882440
 20
3.499320
 11
2.884200
 21
3.488760
  0
LINE
  8
0
 62
     0
  6
CONTINUOUS
 10
2.884200
 20
3.488760
 11
2.890360
 21
3.480840
  0
LINE
  8
0
 62
     0
  6
CONTINUOUS
 10
2.890360
 20
3.480840
 11
2.893440
 21
3.473360
  0
LINE
  8
0
 62
     0
  6
CONTINUOUS
 10
2.860880
 20
3.574120
 11
2.825240
 21
3.574120
  0
ENDSEC
  0
EOF
