  0
SECTION
  2
HEADER
  9
$EXTMIN
 10
0.992200
 20
0.913000
  9
$EXTMAX
 10
5.009400
 20
2.154240
  9
$LTSCALE
 40
0.044000
  9
$PDMODE
 70
    35
  9
$PDSIZE
 40
0.035200
  0
ENDSEC
  0
SECTION
  2
TABLES
  0
TABLE
  2
LTYPE
 70
     9
  0
LTYPE
  2
CONTINUOUS
 70
    64
  3
Solid line
 72
    65
 73
     0
 40
0.000000
  0
LTYPE
  2
DASHED
 70
    64
  3
__ __ __ __ __ __ __ __ __ __ __ __ __ __ __
 72
    65
 73
     2
 40
0.000330
 49
0.000220
 49
-0.000110
  0
LTYPE
  2
HIDDEN
 70
    64
  3
 _ _ _ _ _ _ _ _ _ _ _ _ _ _ _ _ _ _ _ _ _ _
 72
    65
 73
     2
 40
0.000165
 49
0.000110
 49
-0.000055
  0
LTYPE
  2
CENTER
 70
    64
  3
____ _ ____ _ ____ _ ____ _ ____ _ ____ _ ____
 72
    65
 73
     4
 40
0.000880
 49
0.000550
 49
-0.000110
 49
0.000110
 49
-0.000110
  0
LTYPE
  2
PHANTOM
 70
    64
  3
_____ _ _ _____ _ _ _____ _ _ _____ _ _ ____
 72
    65
 73
     6
 40
0.001100
 49
0.000550
 49
-0.000110
 49
0.000110
 49
-0.000110
 49
0.000110
 49
-0.000110
  0
LTYPE
  2
DOT
 70
    64
  3
...............................................
 72
    65
 73
     2
 40
0.000110
 49
0.000000
 49
-0.000110
  0
LTYPE
  2
DASHDOT
 70
    64
  3
__ . __ . __ . __ . __ . __ . __ . __ . __ . __
 72
    65
 73
     4
 40
0.000440
 49
0.000220
 49
-0.000110
 49
0.000000
 49
-0.000110
  0
LTYPE
  2
BORDER
 70
    64
  3
__ __ . __ __ . __ __ . __ __ . __ __ . __ __
 72
    65
 73
     6
 40
0.000770
 49
0.000220
 49
-0.000110
 49
0.000220
 49
-0.000110
 49
0.000000
 49
-0.000110
  0
LTYPE
  2
DIVIDE
 70
    64
  3
__ . . __ . . __ . . __ . . __ . . __ . . __
 72
    65
 73
     6
 40
0.000550
 49
0.000220
 49
-0.000110
 49
0.000000
 49
-0.000110
 49
0.000000
 49
-0.000110
  0
LTYPE
  2
DOTDOT
 70
    64
  3
 . .  . .  . .  . .  . .  . . 
 72
    65
 73
     5
 40
0.000242
 49
-0.000110
 49
0.000000
 49
-0.000110
 49
0.000000
 49
-0.000110
  0
ENDTAB
  0
TABLE
  2
STYLE
 70
     2
  0
STYLE
 70
     0
  2
SN0
 40
0.000000
 41
0.000440
 50
0.000000
 71
     0
 42
0.000000
  3
ROMANS
  0
STYLE
 70
    68
  2
SV0
 40
0.000000
 41
0.000440
 50
0.000000
 71
     0
 42
0.000000
  3
ROMANS
  0
ENDTAB
  0
TABLE
  2
LAYER
 70
     3
  0
LAYER
  2
FOREGROUND
 70
    64
 62
     7
  6
CONTINUOUS
  0
LAYER
  2
BACKGROUND
 70
    65
 62
    -7
  6
CONTINUOUS
  0
LAYER
  2
0
 70
    64
 62
     7
  6
CONTINUOUS
  0
ENDTAB
  0
ENDSEC
  0
SECTION
  2
ENTITIES
  0
LINE
  8
0
 62
     0
  6
CONTINUOUS
 10
1.539560
 20
1.723040
 11
1.539560
 21
1.826880
  0
LINE
  8
0
 62
     0
  6
CONTINUOUS
 10
1.539560
 20
1.879240
 11
1.539560
 21
1.983080
  0
LINE
  8
0
 62
     0
  6
CONTINUOUS
 10
1.539560
 20
2.036760
 11
1.539560
 21
2.153800
  0
LINE
  8
0
 62
     0
  6
CONTINUOUS
 10
3.608440
 20
1.993200
 11
3.619880
 21
2.030160
  0
LINE
  8
0
 62
     0
  6
CONTINUOUS
 10
3.619880
 20
2.030160
 11
3.643200
 21
2.030160
  0
LINE
  8
0
 62
     0
  6
CONTINUOUS
 10
3.659040
 20
2.030160
 11
3.635280
 21
1.993200
  0
LINE
  8
0
 62
     0
  6
CONTINUOUS
 10
3.643200
 20
2.005520
 11
3.661240
 21
2.005520
  0
LINE
  8
0
 62
     0
  6
CONTINUOUS
 10
3.663440
 20
1.993200
 11
3.659040
 21
2.030160
  0
LINE
  8
0
 62
     0
  6
CONTINUOUS
 10
3.681040
 20
2.030160
 11
3.672240
 21
1.993200
  0
LINE
  8
0
 62
     0
  6
CONTINUOUS
 10
3.695560
 20
1.993200
 11
3.681040
 21
2.030160
  0
LINE
  8
0
 62
     0
  6
CONTINUOUS
 10
3.707000
 20
2.030160
 11
3.695560
 21
1.993200
  0
LINE
  8
0
 62
     0
  6
CONTINUOUS
 10
3.628680
 20
2.012120
 11
3.615480
 21
2.012120
  0
LINE
  8
0
 62
     0
  6
CONTINUOUS
 10
1.551000
 20
1.765280
 11
1.541760
 21
1.757360
  0
LINE
  8
0
 62
     0
  6
CONTINUOUS
 10
1.541760
 20
1.757360
 11
1.553200
 21
1.762200
  0
LINE
  8
0
 62
     0
  6
CONTINUOUS
 10
1.553200
 20
1.762200
 11
1.541760
 21
1.757360
  0
LINE
  8
0
 62
     0
  6
CONTINUOUS
 10
1.541760
 20
1.757360
 11
1.554080
 21
1.757360
  0
LINE
  8
0
 62
     0
  6
CONTINUOUS
 10
1.554080
 20
1.757360
 11
1.553200
 21
1.762200
  0
LINE
  8
0
 62
     0
  6
CONTINUOUS
 10
1.553200
 20
1.762200
 11
1.551000
 21
1.765280
  0
LINE
  8
0
 62
     0
  6
CONTINUOUS
 10
1.551000
 20
1.765280
 11
1.546160
 21
1.767480
  0
LINE
  8
0
 62
     0
  6
CONTINUOUS
 10
1.546160
 20
1.767480
 11
1.541760
 21
1.757360
  0
LINE
  8
0
 62
     0
  6
CONTINUOUS
 10
1.541760
 20
1.757360
 11
1.551000
 21
1.765280
  0
LINE
  8
0
 62
     0
  6
CONTINUOUS
 10
1.546160
 20
1.767480
 11
1.541760
 21
1.768800
  0
LINE
  8
0
 62
     0
  6
CONTINUOUS
 10
1.541760
 20
1.768800
 11
1.541760
 21
1.757360
  0
LINE
  8
0
 62
     0
  6
CONTINUOUS
 10
1.541760
 20
1.757360
 11
1.546160
 21
1.767480
  0
LINE
  8
0
 62
     0
  6
CONTINUOUS
 10
1.546160
 20
1.767480
 11
1.546160
 21
1.762200
  0
LINE
  8
0
 62
     0
  6
CONTINUOUS
 10
1.541760
 20
1.757360
 11
1.541760
 21
1.768800
  0
LINE
  8
0
 62
     0
  6
CONTINUOUS
 10
1.541760
 20
1.768800
 11
1.541760
 21
1.757360
  0
LINE
  8
0
 62
     0
  6
CONTINUOUS
 10
1.541760
 20
1.757360
 11
1.541760
 21
1.768800
  0
LINE
  8
0
 62
     0
  6
CONTINUOUS
 10
1.541760
 20
1.768800
 11
1.536480
 21
1.767480
  0
LINE
  8
0
 62
     0
  6
CONTINUOUS
 10
1.536480
 20
1.767480
 11
1.541760
 21
1.757360
  0
LINE
  8
0
 62
     0
  6
CONTINUOUS
 10
1.541760
 20
1.757360
 11
1.536480
 21
1.767480
  0
LINE
  8
0
 62
     0
  6
CONTINUOUS
 10
1.536480
 20
1.767480
 11
1.532960
 21
1.765280
  0
LINE
  8
0
 62
     0
  6
CONTINUOUS
 10
1.532960
 20
1.765280
 11
1.541760
 21
1.757360
  0
LINE
  8
0
 62
     0
  6
CONTINUOUS
 10
1.541760
 20
1.757360
 11
1.532960
 21
1.765280
  0
LINE
  8
0
 62
     0
  6
CONTINUOUS
 10
1.532960
 20
1.765280
 11
1.529440
 21
1.762200
  0
LINE
  8
0
 62
     0
  6
CONTINUOUS
 10
1.529440
 20
1.762200
 11
1.541760
 21
1.757360
  0
LINE
  8
0
 62
     0
  6
CONTINUOUS
 10
1.541760
 20
1.757360
 11
1.529440
 21
1.762200
  0
LINE
  8
0
 62
     0
  6
CONTINUOUS
 10
1.529440
 20
1.762200
 11
1.529440
 21
1.757360
  0
LINE
  8
0
 62
     0
  6
CONTINUOUS
 10
1.529440
 20
1.757360
 11
1.541760
 21
1.757360
  0
LINE
  8
0
 62
     0
  6
CONTINUOUS
 10
1.541760
 20
1.757360
 11
1.529440
 21
1.757360
  0
LINE
  8
0
 62
     0
  6
CONTINUOUS
 10
1.529440
 20
1.757360
 11
1.541760
 21
1.757360
  0
LINE
  8
0
 62
     0
  6
CONTINUOUS
 10
1.541760
 20
1.757360
 11
1.529440
 21
1.752080
  0
LINE
  8
0
 62
     0
  6
CONTINUOUS
 10
1.529440
 20
1.752080
 11
1.541760
 21
1.757360
  0
LINE
  8
0
 62
     0
  6
CONTINUOUS
 10
1.541760
 20
1.757360
 11
1.532960
 21
1.747680
  0
LINE
  8
0
 62
     0
  6
CONTINUOUS
 10
1.532960
 20
1.747680
 11
1.541760
 21
1.757360
  0
LINE
  8
0
 62
     0
  6
CONTINUOUS
 10
1.541760
 20
1.757360
 11
1.541760
 21
1.744160
  0
LINE
  8
0
 62
     0
  6
CONTINUOUS
 10
1.541760
 20
1.744160
 11
1.541760
 21
1.757360
  0
LINE
  8
0
 62
     0
  6
CONTINUOUS
 10
1.541760
 20
1.757360
 11
1.536480
 21
1.745040
  0
LINE
  8
0
 62
     0
  6
CONTINUOUS
 10
1.536480
 20
1.745040
 11
1.541760
 21
1.757360
  0
LINE
  8
0
 62
     0
  6
CONTINUOUS
 10
1.541760
 20
1.757360
 11
1.541760
 21
1.744160
  0
LINE
  8
0
 62
     0
  6
CONTINUOUS
 10
1.541760
 20
1.744160
 11
1.541760
 21
1.757360
  0
LINE
  8
0
 62
     0
  6
CONTINUOUS
 10
1.541760
 20
1.757360
 11
1.546160
 21
1.745040
  0
LINE
  8
0
 62
     0
  6
CONTINUOUS
 10
1.546160
 20
1.745040
 11
1.541760
 21
1.757360
  0
LINE
  8
0
 62
     0
  6
CONTINUOUS
 10
1.541760
 20
1.757360
 11
1.551000
 21
1.747680
  0
LINE
  8
0
 62
     0
  6
CONTINUOUS
 10
1.551000
 20
1.747680
 11
1.541760
 21
1.757360
  0
LINE
  8
0
 62
     0
  6
CONTINUOUS
 10
1.541760
 20
1.757360
 11
1.553200
 21
1.752080
  0
LINE
  8
0
 62
     0
  6
CONTINUOUS
 10
1.553200
 20
1.752080
 11
1.541760
 21
1.757360
  0
LINE
  8
0
 62
     0
  6
CONTINUOUS
 10
1.541760
 20
1.757360
 11
1.554080
 21
1.757360
  0
LINE
  8
0
 62
     0
  6
CONTINUOUS
 10
1.554080
 20
1.757360
 11
1.541760
 21
1.757360
  0
LINE
  8
0
 62
     0
  6
CONTINUOUS
 10
1.546160
 20
1.752080
 11
1.546160
 21
1.745040
  0
LINE
  8
0
 62
     0
  6
CONTINUOUS
 10
1.546160
 20
1.745040
 11
1.551000
 21
1.747680
  0
LINE
  8
0
 62
     0
  6
CONTINUOUS
 10
1.551000
 20
1.747680
 11
1.553200
 21
1.752080
  0
LINE
  8
0
 62
     0
  6
CONTINUOUS
 10
1.553200
 20
1.752080
 11
1.554080
 21
1.757360
  0
LINE
  8
0
 62
     0
  6
CONTINUOUS
 10
1.546160
 20
1.745040
 11
1.541760
 21
1.744160
  0
LINE
  8
0
 62
     0
  6
CONTINUOUS
 10
1.541760
 20
1.744160
 11
1.536480
 21
1.745040
  0
LINE
  8
0
 62
     0
  6
CONTINUOUS
 10
1.536480
 20
1.745040
 11
1.532960
 21
1.747680
  0
LINE
  8
0
 62
     0
  6
CONTINUOUS
 10
1.532960
 20
1.747680
 11
1.529440
 21
1.752080
  0
LINE
  8
0
 62
     0
  6
CONTINUOUS
 10
1.529440
 20
1.752080
 11
1.529440
 21
1.757360
  0
LINE
  8
0
 62
     0
  6
CONTINUOUS
 10
1.530760
 20
1.834360
 11
1.536480
 21
1.834360
  0
LINE
  8
0
 62
     0
  6
CONTINUOUS
 10
1.536480
 20
1.840080
 11
1.541760
 21
1.829080
  0
LINE
  8
0
 62
     0
  6
CONTINUOUS
 10
1.541760
 20
1.829080
 11
1.541760
 21
1.841400
  0
LINE
  8
0
 62
     0
  6
CONTINUOUS
 10
1.541760
 20
1.841400
 11
1.541760
 21
1.829080
  0
LINE
  8
0
 62
     0
  6
CONTINUOUS
 10
1.541760
 20
1.829080
 11
1.546160
 21
1.840080
  0
LINE
  8
0
 62
     0
  6
CONTINUOUS
 10
1.546160
 20
1.840080
 11
1.546160
 21
1.833480
  0
LINE
  8
0
 62
     0
  6
CONTINUOUS
 10
1.546160
 20
1.833480
 11
1.546160
 21
1.834360
  0
LINE
  8
0
 62
     0
  6
CONTINUOUS
 10
1.546160
 20
1.834360
 11
1.553200
 21
1.834360
  0
LINE
  8
0
 62
     0
  6
CONTINUOUS
 10
1.553200
 20
1.834360
 11
1.553200
 21
1.833480
  0
LINE
  8
0
 62
     0
  6
CONTINUOUS
 10
1.553200
 20
1.833480
 11
1.551000
 21
1.837880
  0
LINE
  8
0
 62
     0
  6
CONTINUOUS
 10
1.551000
 20
1.837880
 11
1.541760
 21
1.829080
  0
LINE
  8
0
 62
     0
  6
CONTINUOUS
 10
1.541760
 20
1.829080
 11
1.553200
 21
1.833480
  0
LINE
  8
0
 62
     0
  6
CONTINUOUS
 10
1.553200
 20
1.833480
 11
1.541760
 21
1.829080
  0
LINE
  8
0
 62
     0
  6
CONTINUOUS
 10
1.541760
 20
1.829080
 11
1.554080
 21
1.829080
  0
LINE
  8
0
 62
     0
  6
CONTINUOUS
 10
1.554080
 20
1.829080
 11
1.553200
 21
1.833480
  0
LINE
  8
0
 62
     0
  6
CONTINUOUS
 10
1.554080
 20
1.829960
 11
1.545280
 21
1.829960
  0
LINE
  8
0
 62
     0
  6
CONTINUOUS
 10
1.545280
 20
1.829960
 11
1.541760
 21
1.829080
  0
LINE
  8
0
 62
     0
  6
CONTINUOUS
 10
1.541760
 20
1.829080
 11
1.551000
 21
1.837880
  0
LINE
  8
0
 62
     0
  6
CONTINUOUS
 10
1.551000
 20
1.837880
 11
1.546160
 21
1.840080
  0
LINE
  8
0
 62
     0
  6
CONTINUOUS
 10
1.546160
 20
1.840080
 11
1.541760
 21
1.829080
  0
LINE
  8
0
 62
     0
  6
CONTINUOUS
 10
1.541760
 20
1.829080
 11
1.541760
 21
1.841400
  0
LINE
  8
0
 62
     0
  6
CONTINUOUS
 10
1.541760
 20
1.841400
 11
1.541760
 21
1.829080
  0
LINE
  8
0
 62
     0
  6
CONTINUOUS
 10
1.541760
 20
1.829080
 11
1.536480
 21
1.840080
  0
LINE
  8
0
 62
     0
  6
CONTINUOUS
 10
1.536480
 20
1.840080
 11
1.532960
 21
1.837880
  0
LINE
  8
0
 62
     0
  6
CONTINUOUS
 10
1.532960
 20
1.837880
 11
1.541760
 21
1.829080
  0
LINE
  8
0
 62
     0
  6
CONTINUOUS
 10
1.541760
 20
1.829080
 11
1.532960
 21
1.837880
  0
LINE
  8
0
 62
     0
  6
CONTINUOUS
 10
1.532960
 20
1.837880
 11
1.529440
 21
1.833480
  0
LINE
  8
0
 62
     0
  6
CONTINUOUS
 10
1.529440
 20
1.833480
 11
1.541760
 21
1.829080
  0
LINE
  8
0
 62
     0
  6
CONTINUOUS
 10
1.541760
 20
1.829080
 11
1.529440
 21
1.833480
  0
LINE
  8
0
 62
     0
  6
CONTINUOUS
 10
1.529440
 20
1.833480
 11
1.529440
 21
1.829080
  0
LINE
  8
0
 62
     0
  6
CONTINUOUS
 10
1.529440
 20
1.829080
 11
1.541760
 21
1.829080
  0
LINE
  8
0
 62
     0
  6
CONTINUOUS
 10
1.541760
 20
1.829080
 11
1.529440
 21
1.829080
  0
LINE
  8
0
 62
     0
  6
CONTINUOUS
 10
1.529440
 20
1.829080
 11
1.529440
 21
1.824680
  0
LINE
  8
0
 62
     0
  6
CONTINUOUS
 10
1.529440
 20
1.824680
 11
1.541760
 21
1.829080
  0
LINE
  8
0
 62
     0
  6
CONTINUOUS
 10
1.541760
 20
1.829080
 11
1.529440
 21
1.829080
  0
LINE
  8
0
 62
     0
  6
CONTINUOUS
 10
1.529440
 20
1.829080
 11
1.529440
 21
1.829960
  0
LINE
  8
0
 62
     0
  6
CONTINUOUS
 10
1.529440
 20
1.829960
 11
1.539560
 21
1.829960
  0
LINE
  8
0
 62
     0
  6
CONTINUOUS
 10
1.539560
 20
1.829960
 11
1.541760
 21
1.829080
  0
LINE
  8
0
 62
     0
  6
CONTINUOUS
 10
1.541760
 20
1.829080
 11
1.529440
 21
1.824680
  0
LINE
  8
0
 62
     0
  6
CONTINUOUS
 10
1.529440
 20
1.824680
 11
1.532960
 21
1.821160
  0
LINE
  8
0
 62
     0
  6
CONTINUOUS
 10
1.532960
 20
1.821160
 11
1.541760
 21
1.829080
  0
LINE
  8
0
 62
     0
  6
CONTINUOUS
 10
1.541760
 20
1.829080
 11
1.532960
 21
1.821160
  0
LINE
  8
0
 62
     0
  6
CONTINUOUS
 10
1.532960
 20
1.821160
 11
1.536480
 21
1.817640
  0
LINE
  8
0
 62
     0
  6
CONTINUOUS
 10
1.536480
 20
1.817640
 11
1.541760
 21
1.829080
  0
LINE
  8
0
 62
     0
  6
CONTINUOUS
 10
1.541760
 20
1.829080
 11
1.541760
 21
1.817640
  0
LINE
  8
0
 62
     0
  6
CONTINUOUS
 10
1.541760
 20
1.817640
 11
1.541760
 21
1.829080
  0
LINE
  8
0
 62
     0
  6
CONTINUOUS
 10
1.541760
 20
1.829080
 11
1.536480
 21
1.817640
  0
LINE
  8
0
 62
     0
  6
CONTINUOUS
 10
1.536480
 20
1.817640
 11
1.541760
 21
1.817640
  0
LINE
  8
0
 62
     0
  6
CONTINUOUS
 10
1.541760
 20
1.817640
 11
1.541760
 21
1.829080
  0
LINE
  8
0
 62
     0
  6
CONTINUOUS
 10
1.541760
 20
1.829080
 11
1.541760
 21
1.817640
  0
LINE
  8
0
 62
     0
  6
CONTINUOUS
 10
1.541760
 20
1.817640
 11
1.546160
 21
1.817640
  0
LINE
  8
0
 62
     0
  6
CONTINUOUS
 10
1.546160
 20
1.817640
 11
1.541760
 21
1.829080
  0
LINE
  8
0
 62
     0
  6
CONTINUOUS
 10
1.541760
 20
1.829080
 11
1.546160
 21
1.817640
  0
LINE
  8
0
 62
     0
  6
CONTINUOUS
 10
1.546160
 20
1.817640
 11
1.551000
 21
1.821160
  0
LINE
  8
0
 62
     0
  6
CONTINUOUS
 10
1.551000
 20
1.821160
 11
1.541760
 21
1.829080
  0
LINE
  8
0
 62
     0
  6
CONTINUOUS
 10
1.541760
 20
1.829080
 11
1.551000
 21
1.821160
  0
LINE
  8
0
 62
     0
  6
CONTINUOUS
 10
1.551000
 20
1.821160
 11
1.553200
 21
1.824680
  0
LINE
  8
0
 62
     0
  6
CONTINUOUS
 10
1.553200
 20
1.824680
 11
1.541760
 21
1.829080
  0
LINE
  8
0
 62
     0
  6
CONTINUOUS
 10
1.541760
 20
1.829080
 11
1.553200
 21
1.824680
  0
LINE
  8
0
 62
     0
  6
CONTINUOUS
 10
1.553200
 20
1.824680
 11
1.554080
 21
1.829080
  0
LINE
  8
0
 62
     0
  6
CONTINUOUS
 10
1.554080
 20
1.829080
 11
1.541760
 21
1.829080
  0
LINE
  8
0
 62
     0
  6
CONTINUOUS
 10
1.541760
 20
1.829080
 11
1.554080
 21
1.829080
  0
LINE
  8
0
 62
     0
  6
CONTINUOUS
 10
1.546160
 20
1.824680
 11
1.546160
 21
1.817640
  0
LINE
  8
0
 62
     0
  6
CONTINUOUS
 10
1.546160
 20
1.840080
 11
1.541760
 21
1.841400
  0
LINE
  8
0
 62
     0
  6
CONTINUOUS
 10
1.541760
 20
1.841400
 11
1.536480
 21
1.840080
  0
LINE
  8
0
 62
     0
  6
CONTINUOUS
 10
1.541760
 20
1.912680
 11
1.554080
 21
1.912680
  0
LINE
  8
0
 62
     0
  6
CONTINUOUS
 10
1.554080
 20
1.912680
 11
1.553200
 21
1.917080
  0
LINE
  8
0
 62
     0
  6
CONTINUOUS
 10
1.553200
 20
1.917080
 11
1.541760
 21
1.912680
  0
LINE
  8
0
 62
     0
  6
CONTINUOUS
 10
1.541760
 20
1.912680
 11
1.553200
 21
1.917080
  0
LINE
  8
0
 62
     0
  6
CONTINUOUS
 10
1.553200
 20
1.917080
 11
1.551000
 21
1.922800
  0
LINE
  8
0
 62
     0
  6
CONTINUOUS
 10
1.551000
 20
1.922800
 11
1.541760
 21
1.912680
  0
LINE
  8
0
 62
     0
  6
CONTINUOUS
 10
1.541760
 20
1.912680
 11
1.551000
 21
1.922800
  0
LINE
  8
0
 62
     0
  6
CONTINUOUS
 10
1.551000
 20
1.922800
 11
1.546160
 21
1.925000
  0
LINE
  8
0
 62
     0
  6
CONTINUOUS
 10
1.546160
 20
1.925000
 11
1.541760
 21
1.912680
  0
LINE
  8
0
 62
     0
  6
CONTINUOUS
 10
1.541760
 20
1.912680
 11
1.541760
 21
1.925000
  0
LINE
  8
0
 62
     0
  6
CONTINUOUS
 10
1.541760
 20
1.925000
 11
1.541760
 21
1.912680
  0
LINE
  8
0
 62
     0
  6
CONTINUOUS
 10
1.541760
 20
1.912680
 11
1.546160
 21
1.925000
  0
LINE
  8
0
 62
     0
  6
CONTINUOUS
 10
1.546160
 20
1.925000
 11
1.546160
 21
1.917080
  0
LINE
  8
0
 62
     0
  6
CONTINUOUS
 10
1.546160
 20
1.925000
 11
1.541760
 21
1.925000
  0
LINE
  8
0
 62
     0
  6
CONTINUOUS
 10
1.541760
 20
1.925000
 11
1.541760
 21
1.912680
  0
LINE
  8
0
 62
     0
  6
CONTINUOUS
 10
1.541760
 20
1.912680
 11
1.541760
 21
1.925000
  0
LINE
  8
0
 62
     0
  6
CONTINUOUS
 10
1.541760
 20
1.925000
 11
1.536480
 21
1.925000
  0
LINE
  8
0
 62
     0
  6
CONTINUOUS
 10
1.536480
 20
1.925000
 11
1.541760
 21
1.912680
  0
LINE
  8
0
 62
     0
  6
CONTINUOUS
 10
1.541760
 20
1.912680
 11
1.536480
 21
1.925000
  0
LINE
  8
0
 62
     0
  6
CONTINUOUS
 10
1.536480
 20
1.925000
 11
1.532960
 21
1.922800
  0
LINE
  8
0
 62
     0
  6
CONTINUOUS
 10
1.532960
 20
1.922800
 11
1.541760
 21
1.912680
  0
LINE
  8
0
 62
     0
  6
CONTINUOUS
 10
1.541760
 20
1.912680
 11
1.532960
 21
1.922800
  0
LINE
  8
0
 62
     0
  6
CONTINUOUS
 10
1.532960
 20
1.922800
 11
1.529440
 21
1.917080
  0
LINE
  8
0
 62
     0
  6
CONTINUOUS
 10
1.529440
 20
1.917080
 11
1.541760
 21
1.912680
  0
LINE
  8
0
 62
     0
  6
CONTINUOUS
 10
1.541760
 20
1.912680
 11
1.529440
 21
1.917080
  0
LINE
  8
0
 62
     0
  6
CONTINUOUS
 10
1.529440
 20
1.917080
 11
1.529440
 21
1.912680
  0
LINE
  8
0
 62
     0
  6
CONTINUOUS
 10
1.529440
 20
1.912680
 11
1.541760
 21
1.912680
  0
LINE
  8
0
 62
     0
  6
CONTINUOUS
 10
1.541760
 20
1.912680
 11
1.529440
 21
1.912680
  0
LINE
  8
0
 62
     0
  6
CONTINUOUS
 10
1.529440
 20
1.912680
 11
1.529440
 21
1.908280
  0
LINE
  8
0
 62
     0
  6
CONTINUOUS
 10
1.529440
 20
1.908280
 11
1.541760
 21
1.912680
  0
LINE
  8
0
 62
     0
  6
CONTINUOUS
 10
1.541760
 20
1.912680
 11
1.529440
 21
1.908280
  0
LINE
  8
0
 62
     0
  6
CONTINUOUS
 10
1.529440
 20
1.908280
 11
1.532960
 21
1.903880
  0
LINE
  8
0
 62
     0
  6
CONTINUOUS
 10
1.532960
 20
1.903880
 11
1.541760
 21
1.912680
  0
LINE
  8
0
 62
     0
  6
CONTINUOUS
 10
1.541760
 20
1.912680
 11
1.532960
 21
1.903880
  0
LINE
  8
0
 62
     0
  6
CONTINUOUS
 10
1.532960
 20
1.903880
 11
1.536480
 21
1.900360
  0
LINE
  8
0
 62
     0
  6
CONTINUOUS
 10
1.536480
 20
1.900360
 11
1.541760
 21
1.912680
  0
LINE
  8
0
 62
     0
  6
CONTINUOUS
 10
1.541760
 20
1.912680
 11
1.541760
 21
1.900360
  0
LINE
  8
0
 62
     0
  6
CONTINUOUS
 10
1.541760
 20
1.900360
 11
1.541760
 21
1.912680
  0
LINE
  8
0
 62
     0
  6
CONTINUOUS
 10
1.541760
 20
1.912680
 11
1.536480
 21
1.900360
  0
LINE
  8
0
 62
     0
  6
CONTINUOUS
 10
1.536480
 20
1.900360
 11
1.541760
 21
1.900360
  0
LINE
  8
0
 62
     0
  6
CONTINUOUS
 10
1.541760
 20
1.900360
 11
1.541760
 21
1.912680
  0
LINE
  8
0
 62
     0
  6
CONTINUOUS
 10
1.541760
 20
1.912680
 11
1.541760
 21
1.900360
  0
LINE
  8
0
 62
     0
  6
CONTINUOUS
 10
1.541760
 20
1.900360
 11
1.546160
 21
1.900360
  0
LINE
  8
0
 62
     0
  6
CONTINUOUS
 10
1.546160
 20
1.900360
 11
1.541760
 21
1.912680
  0
LINE
  8
0
 62
     0
  6
CONTINUOUS
 10
1.541760
 20
1.912680
 11
1.546160
 21
1.900360
  0
LINE
  8
0
 62
     0
  6
CONTINUOUS
 10
1.546160
 20
1.900360
 11
1.551000
 21
1.903880
  0
LINE
  8
0
 62
     0
  6
CONTINUOUS
 10
1.551000
 20
1.903880
 11
1.541760
 21
1.912680
  0
LINE
  8
0
 62
     0
  6
CONTINUOUS
 10
1.541760
 20
1.912680
 11
1.551000
 21
1.903880
  0
LINE
  8
0
 62
     0
  6
CONTINUOUS
 10
1.551000
 20
1.903880
 11
1.553200
 21
1.908280
  0
LINE
  8
0
 62
     0
  6
CONTINUOUS
 10
1.553200
 20
1.908280
 11
1.541760
 21
1.912680
  0
LINE
  8
0
 62
     0
  6
CONTINUOUS
 10
1.541760
 20
1.912680
 11
1.553200
 21
1.908280
  0
LINE
  8
0
 62
     0
  6
CONTINUOUS
 10
1.553200
 20
1.908280
 11
1.554080
 21
1.912680
  0
LINE
  8
0
 62
     0
  6
CONTINUOUS
 10
1.554080
 20
1.912680
 11
1.541760
 21
1.912680
  0
LINE
  8
0
 62
     0
  6
CONTINUOUS
 10
1.537360
 20
1.911800
 11
1.529440
 21
1.911800
  0
LINE
  8
0
 62
     0
  6
CONTINUOUS
 10
1.546160
 20
1.908280
 11
1.546160
 21
1.900360
  0
LINE
  8
0
 62
     0
  6
CONTINUOUS
 10
1.617880
 20
1.879240
 11
1.454640
 21
1.956240
  0
LINE
  8
0
 62
     0
  6
CONTINUOUS
 10
1.454640
 20
2.037640
 11
1.617880
 21
1.958440
  0
LINE
  8
0
 62
     0
  6
CONTINUOUS
 10
1.554080
 20
1.993200
 11
1.553200
 21
1.997600
  0
LINE
  8
0
 62
     0
  6
CONTINUOUS
 10
1.553200
 20
1.997600
 11
1.541760
 21
1.993200
  0
LINE
  8
0
 62
     0
  6
CONTINUOUS
 10
1.541760
 20
1.993200
 11
1.554080
 21
1.993200
  0
LINE
  8
0
 62
     0
  6
CONTINUOUS
 10
1.553200
 20
1.997600
 11
1.551000
 21
2.002000
  0
LINE
  8
0
 62
     0
  6
CONTINUOUS
 10
1.551000
 20
2.002000
 11
1.541760
 21
1.993200
  0
LINE
  8
0
 62
     0
  6
CONTINUOUS
 10
1.541760
 20
1.993200
 11
1.553200
 21
1.997600
  0
LINE
  8
0
 62
     0
  6
CONTINUOUS
 10
1.551000
 20
2.002000
 11
1.546160
 21
2.005520
  0
LINE
  8
0
 62
     0
  6
CONTINUOUS
 10
1.546160
 20
2.005520
 11
1.541760
 21
1.993200
  0
LINE
  8
0
 62
     0
  6
CONTINUOUS
 10
1.541760
 20
1.993200
 11
1.551000
 21
2.002000
  0
LINE
  8
0
 62
     0
  6
CONTINUOUS
 10
1.546160
 20
2.005520
 11
1.541760
 21
2.005520
  0
LINE
  8
0
 62
     0
  6
CONTINUOUS
 10
1.541760
 20
2.005520
 11
1.541760
 21
1.993200
  0
LINE
  8
0
 62
     0
  6
CONTINUOUS
 10
1.541760
 20
1.993200
 11
1.546160
 21
2.005520
  0
LINE
  8
0
 62
     0
  6
CONTINUOUS
 10
1.546160
 20
2.005520
 11
1.546160
 21
1.997600
  0
LINE
  8
0
 62
     0
  6
CONTINUOUS
 10
1.541760
 20
1.993200
 11
1.541760
 21
2.005520
  0
LINE
  8
0
 62
     0
  6
CONTINUOUS
 10
1.541760
 20
2.005520
 11
1.541760
 21
1.993200
  0
LINE
  8
0
 62
     0
  6
CONTINUOUS
 10
1.541760
 20
1.993200
 11
1.541760
 21
2.005520
  0
LINE
  8
0
 62
     0
  6
CONTINUOUS
 10
1.541760
 20
2.005520
 11
1.536480
 21
2.005520
  0
LINE
  8
0
 62
     0
  6
CONTINUOUS
 10
1.536480
 20
2.005520
 11
1.541760
 21
1.993200
  0
LINE
  8
0
 62
     0
  6
CONTINUOUS
 10
1.541760
 20
1.993200
 11
1.536480
 21
2.005520
  0
LINE
  8
0
 62
     0
  6
CONTINUOUS
 10
1.536480
 20
2.005520
 11
1.532960
 21
2.002000
  0
LINE
  8
0
 62
     0
  6
CONTINUOUS
 10
1.532960
 20
2.002000
 11
1.541760
 21
1.993200
  0
LINE
  8
0
 62
     0
  6
CONTINUOUS
 10
1.541760
 20
1.993200
 11
1.532960
 21
2.002000
  0
LINE
  8
0
 62
     0
  6
CONTINUOUS
 10
1.532960
 20
2.002000
 11
1.529440
 21
1.997600
  0
LINE
  8
0
 62
     0
  6
CONTINUOUS
 10
1.529440
 20
1.997600
 11
1.541760
 21
1.993200
  0
LINE
  8
0
 62
     0
  6
CONTINUOUS
 10
1.541760
 20
1.993200
 11
1.529440
 21
1.997600
  0
LINE
  8
0
 62
     0
  6
CONTINUOUS
 10
1.529440
 20
1.997600
 11
1.529440
 21
1.993200
  0
LINE
  8
0
 62
     0
  6
CONTINUOUS
 10
1.529440
 20
1.993200
 11
1.541760
 21
1.993200
  0
LINE
  8
0
 62
     0
  6
CONTINUOUS
 10
1.541760
 20
1.993200
 11
1.529440
 21
1.993200
  0
LINE
  8
0
 62
     0
  6
CONTINUOUS
 10
1.529440
 20
1.993200
 11
1.529440
 21
1.988800
  0
LINE
  8
0
 62
     0
  6
CONTINUOUS
 10
1.529440
 20
1.988800
 11
1.541760
 21
1.993200
  0
LINE
  8
0
 62
     0
  6
CONTINUOUS
 10
1.541760
 20
1.993200
 11
1.529440
 21
1.988800
  0
LINE
  8
0
 62
     0
  6
CONTINUOUS
 10
1.529440
 20
1.988800
 11
1.532960
 21
1.984400
  0
LINE
  8
0
 62
     0
  6
CONTINUOUS
 10
1.532960
 20
1.984400
 11
1.541760
 21
1.993200
  0
LINE
  8
0
 62
     0
  6
CONTINUOUS
 10
1.541760
 20
1.993200
 11
1.532960
 21
1.984400
  0
LINE
  8
0
 62
     0
  6
CONTINUOUS
 10
1.532960
 20
1.984400
 11
1.536480
 21
1.982200
  0
LINE
  8
0
 62
     0
  6
CONTINUOUS
 10
1.536480
 20
1.982200
 11
1.541760
 21
1.993200
  0
LINE
  8
0
 62
     0
  6
CONTINUOUS
 10
1.541760
 20
1.993200
 11
1.541760
 21
1.980880
  0
LINE
  8
0
 62
     0
  6
CONTINUOUS
 10
1.541760
 20
1.980880
 11
1.541760
 21
1.993200
  0
LINE
  8
0
 62
     0
  6
CONTINUOUS
 10
1.541760
 20
1.993200
 11
1.536480
 21
1.982200
  0
LINE
  8
0
 62
     0
  6
CONTINUOUS
 10
1.536480
 20
1.982200
 11
1.541760
 21
1.980880
  0
LINE
  8
0
 62
     0
  6
CONTINUOUS
 10
1.541760
 20
1.980880
 11
1.541760
 21
1.993200
  0
LINE
  8
0
 62
     0
  6
CONTINUOUS
 10
1.541760
 20
1.993200
 11
1.541760
 21
1.980880
  0
LINE
  8
0
 62
     0
  6
CONTINUOUS
 10
1.541760
 20
1.980880
 11
1.546160
 21
1.982200
  0
LINE
  8
0
 62
     0
  6
CONTINUOUS
 10
1.546160
 20
1.982200
 11
1.541760
 21
1.993200
  0
LINE
  8
0
 62
     0
  6
CONTINUOUS
 10
1.541760
 20
1.993200
 11
1.546160
 21
1.982200
  0
LINE
  8
0
 62
     0
  6
CONTINUOUS
 10
1.546160
 20
1.982200
 11
1.551000
 21
1.984400
  0
LINE
  8
0
 62
     0
  6
CONTINUOUS
 10
1.551000
 20
1.984400
 11
1.541760
 21
1.993200
  0
LINE
  8
0
 62
     0
  6
CONTINUOUS
 10
1.541760
 20
1.993200
 11
1.551000
 21
1.984400
  0
LINE
  8
0
 62
     0
  6
CONTINUOUS
 10
1.551000
 20
1.984400
 11
1.553200
 21
1.988800
  0
LINE
  8
0
 62
     0
  6
CONTINUOUS
 10
1.553200
 20
1.988800
 11
1.541760
 21
1.993200
  0
LINE
  8
0
 62
     0
  6
CONTINUOUS
 10
1.541760
 20
1.993200
 11
1.553200
 21
1.988800
  0
LINE
  8
0
 62
     0
  6
CONTINUOUS
 10
1.553200
 20
1.988800
 11
1.554080
 21
1.993200
  0
LINE
  8
0
 62
     0
  6
CONTINUOUS
 10
1.554080
 20
1.993200
 11
1.541760
 21
1.993200
  0
LINE
  8
0
 62
     0
  6
CONTINUOUS
 10
1.541760
 20
1.993200
 11
1.539560
 21
1.991880
  0
LINE
  8
0
 62
     0
  6
CONTINUOUS
 10
1.539560
 20
1.991880
 11
1.529440
 21
1.991880
  0
LINE
  8
0
 62
     0
  6
CONTINUOUS
 10
1.530760
 20
1.988800
 11
1.536480
 21
1.988800
  0
LINE
  8
0
 62
     0
  6
CONTINUOUS
 10
1.546160
 20
1.988800
 11
1.546160
 21
1.982200
  0
LINE
  8
0
 62
     0
  6
CONTINUOUS
 10
1.546160
 20
1.988800
 11
1.553200
 21
1.988800
  0
LINE
  8
0
 62
     0
  6
CONTINUOUS
 10
1.554080
 20
1.991880
 11
1.545280
 21
1.991880
  0
LINE
  8
0
 62
     0
  6
CONTINUOUS
 10
1.541760
 20
2.061400
 11
1.554080
 21
2.061400
  0
LINE
  8
0
 62
     0
  6
CONTINUOUS
 10
1.554080
 20
2.061400
 11
1.553200
 21
2.066680
  0
LINE
  8
0
 62
     0
  6
CONTINUOUS
 10
1.553200
 20
2.066680
 11
1.541760
 21
2.061400
  0
LINE
  8
0
 62
     0
  6
CONTINUOUS
 10
1.541760
 20
2.061400
 11
1.553200
 21
2.066680
  0
LINE
  8
0
 62
     0
  6
CONTINUOUS
 10
1.553200
 20
2.066680
 11
1.551000
 21
2.071520
  0
LINE
  8
0
 62
     0
  6
CONTINUOUS
 10
1.551000
 20
2.071520
 11
1.541760
 21
2.061400
  0
LINE
  8
0
 62
     0
  6
CONTINUOUS
 10
1.541760
 20
2.061400
 11
1.551000
 21
2.071520
  0
LINE
  8
0
 62
     0
  6
CONTINUOUS
 10
1.551000
 20
2.071520
 11
1.546160
 21
2.073720
  0
LINE
  8
0
 62
     0
  6
CONTINUOUS
 10
1.546160
 20
2.073720
 11
1.541760
 21
2.061400
  0
LINE
  8
0
 62
     0
  6
CONTINUOUS
 10
1.541760
 20
2.061400
 11
1.541760
 21
2.074600
  0
LINE
  8
0
 62
     0
  6
CONTINUOUS
 10
1.541760
 20
2.074600
 11
1.541760
 21
2.061400
  0
LINE
  8
0
 62
     0
  6
CONTINUOUS
 10
1.541760
 20
2.061400
 11
1.546160
 21
2.073720
  0
LINE
  8
0
 62
     0
  6
CONTINUOUS
 10
1.546160
 20
2.073720
 11
1.546160
 21
2.066680
  0
LINE
  8
0
 62
     0
  6
CONTINUOUS
 10
1.546160
 20
2.073720
 11
1.541760
 21
2.074600
  0
LINE
  8
0
 62
     0
  6
CONTINUOUS
 10
1.541760
 20
2.074600
 11
1.541760
 21
2.061400
  0
LINE
  8
0
 62
     0
  6
CONTINUOUS
 10
1.541760
 20
2.061400
 11
1.541760
 21
2.074600
  0
LINE
  8
0
 62
     0
  6
CONTINUOUS
 10
1.541760
 20
2.074600
 11
1.536480
 21
2.073720
  0
LINE
  8
0
 62
     0
  6
CONTINUOUS
 10
1.536480
 20
2.073720
 11
1.541760
 21
2.061400
  0
LINE
  8
0
 62
     0
  6
CONTINUOUS
 10
1.541760
 20
2.061400
 11
1.536480
 21
2.073720
  0
LINE
  8
0
 62
     0
  6
CONTINUOUS
 10
1.536480
 20
2.073720
 11
1.532960
 21
2.071520
  0
LINE
  8
0
 62
     0
  6
CONTINUOUS
 10
1.532960
 20
2.071520
 11
1.541760
 21
2.061400
  0
LINE
  8
0
 62
     0
  6
CONTINUOUS
 10
1.541760
 20
2.061400
 11
1.532960
 21
2.071520
  0
LINE
  8
0
 62
     0
  6
CONTINUOUS
 10
1.532960
 20
2.071520
 11
1.529440
 21
2.066680
  0
LINE
  8
0
 62
     0
  6
CONTINUOUS
 10
1.529440
 20
2.066680
 11
1.541760
 21
2.061400
  0
LINE
  8
0
 62
     0
  6
CONTINUOUS
 10
1.541760
 20
2.061400
 11
1.529440
 21
2.066680
  0
LINE
  8
0
 62
     0
  6
CONTINUOUS
 10
1.529440
 20
2.066680
 11
1.529440
 21
2.061400
  0
LINE
  8
0
 62
     0
  6
CONTINUOUS
 10
1.529440
 20
2.061400
 11
1.541760
 21
2.061400
  0
LINE
  8
0
 62
     0
  6
CONTINUOUS
 10
1.541760
 20
2.061400
 11
1.529440
 21
2.061400
  0
LINE
  8
0
 62
     0
  6
CONTINUOUS
 10
1.529440
 20
2.061400
 11
1.529440
 21
2.057000
  0
LINE
  8
0
 62
     0
  6
CONTINUOUS
 10
1.529440
 20
2.057000
 11
1.541760
 21
2.061400
  0
LINE
  8
0
 62
     0
  6
CONTINUOUS
 10
1.541760
 20
2.061400
 11
1.529440
 21
2.057000
  0
LINE
  8
0
 62
     0
  6
CONTINUOUS
 10
1.529440
 20
2.057000
 11
1.532960
 21
2.053480
  0
LINE
  8
0
 62
     0
  6
CONTINUOUS
 10
1.532960
 20
2.053480
 11
1.541760
 21
2.061400
  0
LINE
  8
0
 62
     0
  6
CONTINUOUS
 10
1.541760
 20
2.061400
 11
1.532960
 21
2.053480
  0
LINE
  8
0
 62
     0
  6
CONTINUOUS
 10
1.532960
 20
2.053480
 11
1.536480
 21
2.049960
  0
LINE
  8
0
 62
     0
  6
CONTINUOUS
 10
1.536480
 20
2.049960
 11
1.541760
 21
2.061400
  0
LINE
  8
0
 62
     0
  6
CONTINUOUS
 10
1.541760
 20
2.061400
 11
1.541760
 21
2.049960
  0
LINE
  8
0
 62
     0
  6
CONTINUOUS
 10
1.541760
 20
2.049960
 11
1.541760
 21
2.061400
  0
LINE
  8
0
 62
     0
  6
CONTINUOUS
 10
1.541760
 20
2.061400
 11
1.536480
 21
2.049960
  0
LINE
  8
0
 62
     0
  6
CONTINUOUS
 10
1.536480
 20
2.049960
 11
1.541760
 21
2.049960
  0
LINE
  8
0
 62
     0
  6
CONTINUOUS
 10
1.541760
 20
2.049960
 11
1.541760
 21
2.061400
  0
LINE
  8
0
 62
     0
  6
CONTINUOUS
 10
1.541760
 20
2.061400
 11
1.541760
 21
2.049960
  0
LINE
  8
0
 62
     0
  6
CONTINUOUS
 10
1.541760
 20
2.049960
 11
1.546160
 21
2.049960
  0
LINE
  8
0
 62
     0
  6
CONTINUOUS
 10
1.546160
 20
2.049960
 11
1.541760
 21
2.061400
  0
LINE
  8
0
 62
     0
  6
CONTINUOUS
 10
1.541760
 20
2.061400
 11
1.546160
 21
2.049960
  0
LINE
  8
0
 62
     0
  6
CONTINUOUS
 10
1.546160
 20
2.049960
 11
1.551000
 21
2.053480
  0
LINE
  8
0
 62
     0
  6
CONTINUOUS
 10
1.551000
 20
2.053480
 11
1.541760
 21
2.061400
  0
LINE
  8
0
 62
     0
  6
CONTINUOUS
 10
1.541760
 20
2.061400
 11
1.551000
 21
2.053480
  0
LINE
  8
0
 62
     0
  6
CONTINUOUS
 10
1.551000
 20
2.053480
 11
1.553200
 21
2.057000
  0
LINE
  8
0
 62
     0
  6
CONTINUOUS
 10
1.553200
 20
2.057000
 11
1.541760
 21
2.061400
  0
LINE
  8
0
 62
     0
  6
CONTINUOUS
 10
1.541760
 20
2.061400
 11
1.553200
 21
2.057000
  0
LINE
  8
0
 62
     0
  6
CONTINUOUS
 10
1.553200
 20
2.057000
 11
1.554080
 21
2.061400
  0
LINE
  8
0
 62
     0
  6
CONTINUOUS
 10
1.554080
 20
2.061400
 11
1.541760
 21
2.061400
  0
LINE
  8
0
 62
     0
  6
CONTINUOUS
 10
1.546160
 20
2.057000
 11
1.546160
 21
2.049960
  0
LINE
  8
0
 62
     0
  6
CONTINUOUS
 10
1.617880
 20
2.028840
 11
1.454640
 21
2.105840
  0
LINE
  8
0
 62
     0
  6
CONTINUOUS
 10
1.454640
 20
1.872640
 11
1.617880
 21
1.795640
  0
LINE
  8
0
 62
     0
  6
CONTINUOUS
 10
1.617880
 20
1.723040
 11
1.454640
 21
1.800040
  0
LINE
  8
0
 62
     0
  6
CONTINUOUS
 10
3.967040
 20
1.818960
 11
3.966160
 21
1.819840
  0
LINE
  8
0
 62
     0
  6
CONTINUOUS
 10
3.966160
 20
1.819840
 11
3.966160
 21
1.821160
  0
LINE
  8
0
 62
     0
  6
CONTINUOUS
 10
3.966160
 20
1.821160
 11
3.964840
 21
1.821160
  0
LINE
  8
0
 62
     0
  6
CONTINUOUS
 10
3.964840
 20
1.821160
 11
3.964840
 21
1.822480
  0
LINE
  8
0
 62
     0
  6
CONTINUOUS
 10
3.964840
 20
1.822480
 11
3.964840
 21
1.823360
  0
LINE
  8
0
 62
     0
  6
CONTINUOUS
 10
3.964840
 20
1.823360
 11
3.966160
 21
1.824680
  0
LINE
  8
0
 62
     0
  6
CONTINUOUS
 10
3.966160
 20
1.824680
 11
3.966160
 21
1.825560
  0
LINE
  8
0
 62
     0
  6
CONTINUOUS
 10
3.966160
 20
1.825560
 11
3.967040
 21
1.827760
  0
LINE
  8
0
 62
     0
  6
CONTINUOUS
 10
3.967040
 20
1.827760
 11
3.968360
 21
1.827760
  0
LINE
  8
0
 62
     0
  6
CONTINUOUS
 10
3.968360
 20
1.827760
 11
3.969240
 21
1.829080
  0
LINE
  8
0
 62
     0
  6
CONTINUOUS
 10
3.969240
 20
1.829080
 11
3.972760
 21
1.829080
  0
LINE
  8
0
 62
     0
  6
CONTINUOUS
 10
3.972760
 20
1.829080
 11
3.977160
 21
1.831280
  0
LINE
  8
0
 62
     0
  6
CONTINUOUS
 10
3.977160
 20
1.831280
 11
3.983760
 21
1.833480
  0
LINE
  8
0
 62
     0
  6
CONTINUOUS
 10
3.983760
 20
1.833480
 11
3.996080
 21
1.835680
  0
LINE
  8
0
 62
     0
  6
CONTINUOUS
 10
3.996080
 20
1.835680
 11
4.008400
 21
1.839200
  0
LINE
  8
0
 62
     0
  6
CONTINUOUS
 10
4.008400
 20
1.839200
 11
4.026440
 21
1.844480
  0
LINE
  8
0
 62
     0
  6
CONTINUOUS
 10
4.026440
 20
1.844480
 11
4.046240
 21
1.850200
  0
LINE
  8
0
 62
     0
  6
CONTINUOUS
 10
4.046240
 20
1.850200
 11
4.067360
 21
1.855920
  0
LINE
  8
0
 62
     0
  6
CONTINUOUS
 10
4.067360
 20
1.855920
 11
4.091120
 21
1.861200
  0
LINE
  8
0
 62
     0
  6
CONTINUOUS
 10
4.091120
 20
1.861200
 11
4.114440
 21
1.866920
  0
LINE
  8
0
 62
     0
  6
CONTINUOUS
 10
4.114440
 20
1.866920
 11
4.135560
 21
1.872640
  0
LINE
  8
0
 62
     0
  6
CONTINUOUS
 10
4.135560
 20
1.872640
 11
4.156680
 21
1.877920
  0
LINE
  8
0
 62
     0
  6
CONTINUOUS
 10
4.156680
 20
1.877920
 11
4.173840
 21
1.882760
  0
LINE
  8
0
 62
     0
  6
CONTINUOUS
 10
4.173840
 20
1.882760
 11
4.188360
 21
1.884960
  0
LINE
  8
0
 62
     0
  6
CONTINUOUS
 10
4.188360
 20
1.884960
 11
4.197160
 21
1.888040
  0
LINE
  8
0
 62
     0
  6
CONTINUOUS
 10
4.197160
 20
1.888040
 11
4.205960
 21
1.889360
  0
LINE
  8
0
 62
     0
  6
CONTINUOUS
 10
4.205960
 20
1.889360
 11
4.211680
 21
1.890240
  0
LINE
  8
0
 62
     0
  6
CONTINUOUS
 10
4.211680
 20
1.890240
 11
4.214760
 21
1.891560
  0
LINE
  8
0
 62
     0
  6
CONTINUOUS
 10
4.214760
 20
1.891560
 11
4.217400
 21
1.892440
  0
LINE
  8
0
 62
     0
  6
CONTINUOUS
 10
4.217400
 20
1.892440
 11
4.218280
 21
1.892440
  0
LINE
  8
0
 62
     0
  6
CONTINUOUS
 10
4.218280
 20
1.892440
 11
4.218280
 21
1.893760
  0
LINE
  8
0
 62
     0
  6
CONTINUOUS
 10
4.218280
 20
1.893760
 11
4.219600
 21
1.893760
  0
LINE
  8
0
 62
     0
  6
CONTINUOUS
 10
4.219600
 20
1.893760
 11
4.219600
 21
1.895080
  0
LINE
  8
0
 62
     0
  6
CONTINUOUS
 10
4.219600
 20
1.895080
 11
4.220480
 21
1.895080
  0
LINE
  8
0
 62
     0
  6
CONTINUOUS
 10
4.220480
 20
1.895080
 11
4.220480
 21
1.895960
  0
LINE
  8
0
 62
     0
  6
CONTINUOUS
 10
4.220480
 20
1.895960
 11
4.220480
 21
1.897280
  0
LINE
  8
0
 62
     0
  6
CONTINUOUS
 10
4.220480
 20
1.897280
 11
4.220480
 21
1.898160
  0
LINE
  8
0
 62
     0
  6
CONTINUOUS
 10
4.220480
 20
1.898160
 11
4.220480
 21
1.900360
  0
LINE
  8
0
 62
     0
  6
CONTINUOUS
 10
4.220480
 20
1.900360
 11
4.220480
 21
1.901680
  0
LINE
  8
0
 62
     0
  6
CONTINUOUS
 10
4.220480
 20
1.901680
 11
4.219600
 21
1.903880
  0
LINE
  8
0
 62
     0
  6
CONTINUOUS
 10
4.219600
 20
1.903880
 11
4.218280
 21
1.904760
  0
LINE
  8
0
 62
     0
  6
CONTINUOUS
 10
4.218280
 20
1.904760
 11
4.217400
 21
1.906960
  0
LINE
  8
0
 62
     0
  6
CONTINUOUS
 10
4.217400
 20
1.906960
 11
4.214760
 21
1.908280
  0
LINE
  8
0
 62
     0
  6
CONTINUOUS
 10
4.214760
 20
1.908280
 11
4.212560
 21
1.910480
  0
LINE
  8
0
 62
     0
  6
CONTINUOUS
 10
4.212560
 20
1.910480
 11
4.207280
 21
1.911800
  0
LINE
  8
0
 62
     0
  6
CONTINUOUS
 10
4.207280
 20
1.911800
 11
4.202880
 21
1.914000
  0
LINE
  8
0
 62
     0
  6
CONTINUOUS
 10
4.202880
 20
1.914000
 11
4.192760
 21
1.917080
  0
LINE
  8
0
 62
     0
  6
CONTINUOUS
 10
4.192760
 20
1.917080
 11
4.182640
 21
1.919280
  0
LINE
  8
0
 62
     0
  6
CONTINUOUS
 10
4.182640
 20
1.919280
 11
4.168120
 21
1.924120
  0
LINE
  8
0
 62
     0
  6
CONTINUOUS
 10
4.168120
 20
1.924120
 11
4.151400
 21
1.929400
  0
LINE
  8
0
 62
     0
  6
CONTINUOUS
 10
4.151400
 20
1.929400
 11
4.131160
 21
1.936000
  0
LINE
  8
0
 62
     0
  6
CONTINUOUS
 10
4.131160
 20
1.936000
 11
4.110040
 21
1.943040
  0
LINE
  8
0
 62
     0
  6
CONTINUOUS
 10
4.110040
 20
1.943040
 11
4.087600
 21
1.949640
  0
LINE
  8
0
 62
     0
  6
CONTINUOUS
 10
4.087600
 20
1.949640
 11
4.065160
 21
1.955360
  0
LINE
  8
0
 62
     0
  6
CONTINUOUS
 10
4.065160
 20
1.955360
 11
4.044040
 21
1.961960
  0
LINE
  8
0
 62
     0
  6
CONTINUOUS
 10
4.044040
 20
1.961960
 11
4.025120
 21
1.967680
  0
LINE
  8
0
 62
     0
  6
CONTINUOUS
 10
4.025120
 20
1.967680
 11
4.007080
 21
1.972960
  0
LINE
  8
0
 62
     0
  6
CONTINUOUS
 10
4.007080
 20
1.972960
 11
3.994760
 21
1.977360
  0
LINE
  8
0
 62
     0
  6
CONTINUOUS
 10
3.994760
 20
1.977360
 11
3.982880
 21
1.979560
  0
LINE
  8
0
 62
     0
  6
CONTINUOUS
 10
3.982880
 20
1.979560
 11
3.974960
 21
1.982200
  0
LINE
  8
0
 62
     0
  6
CONTINUOUS
 10
3.974960
 20
1.982200
 11
3.970560
 21
1.983080
  0
LINE
  8
0
 62
     0
  6
CONTINUOUS
 10
3.970560
 20
1.983080
 11
3.967040
 21
1.984400
  0
LINE
  8
0
 62
     0
  6
CONTINUOUS
 10
3.967040
 20
1.984400
 11
3.964840
 21
1.985280
  0
LINE
  8
0
 62
     0
  6
CONTINUOUS
 10
3.964840
 20
1.985280
 11
3.963520
 21
1.986600
  0
LINE
  8
0
 62
     0
  6
CONTINUOUS
 10
3.963520
 20
1.986600
 11
3.963520
 21
1.987480
  0
LINE
  8
0
 62
     0
  6
CONTINUOUS
 10
3.963520
 20
1.987480
 11
3.963520
 21
1.988800
  0
LINE
  8
0
 62
     0
  6
CONTINUOUS
 10
3.963520
 20
1.988800
 11
3.963520
 21
1.989680
  0
LINE
  8
0
 62
     0
  6
CONTINUOUS
 10
3.963520
 20
1.989680
 11
3.963520
 21
1.991000
  0
LINE
  8
0
 62
     0
  6
CONTINUOUS
 10
3.963520
 20
1.991000
 11
3.963520
 21
1.991880
  0
LINE
  8
0
 62
     0
  6
CONTINUOUS
 10
3.963520
 20
1.991880
 11
3.963520
 21
1.993200
  0
LINE
  8
0
 62
     0
  6
CONTINUOUS
 10
3.963520
 20
1.993200
 11
3.963520
 21
1.994080
  0
LINE
  8
0
 62
     0
  6
CONTINUOUS
 10
3.963520
 20
1.994080
 11
3.963520
 21
1.995400
  0
LINE
  8
0
 62
     0
  6
CONTINUOUS
 10
3.963520
 20
1.995400
 11
3.964840
 21
1.995400
  0
LINE
  8
0
 62
     0
  6
CONTINUOUS
 10
3.964840
 20
1.995400
 11
3.964840
 21
1.996720
  0
LINE
  8
0
 62
     0
  6
CONTINUOUS
 10
3.964840
 20
1.996720
 11
3.966160
 21
1.997600
  0
LINE
  8
0
 62
     0
  6
CONTINUOUS
 10
3.966160
 20
1.997600
 11
3.967040
 21
2.001120
  0
LINE
  8
0
 62
     0
  6
CONTINUOUS
 10
3.967040
 20
2.001120
 11
3.968360
 21
2.001120
  0
LINE
  8
0
 62
     0
  6
CONTINUOUS
 10
3.968360
 20
2.001120
 11
3.969240
 21
2.002000
  0
LINE
  8
0
 62
     0
  6
CONTINUOUS
 10
3.969240
 20
2.002000
 11
3.970560
 21
2.003320
  0
LINE
  8
0
 62
     0
  6
CONTINUOUS
 10
3.970560
 20
2.003320
 11
3.973640
 21
2.004200
  0
LINE
  8
0
 62
     0
  6
CONTINUOUS
 10
3.973640
 20
2.004200
 11
3.979360
 21
2.005520
  0
LINE
  8
0
 62
     0
  6
CONTINUOUS
 10
3.979360
 20
2.005520
 11
3.991680
 21
2.009920
  0
LINE
  8
0
 62
     0
  6
CONTINUOUS
 10
3.991680
 20
2.009920
 11
4.011920
 21
2.016520
  0
LINE
  8
0
 62
     0
  6
CONTINUOUS
 10
4.011920
 20
2.016520
 11
4.044040
 21
2.024440
  0
LINE
  8
0
 62
     0
  6
CONTINUOUS
 10
4.044040
 20
2.024440
 11
4.089800
 21
2.038960
  0
LINE
  8
0
 62
     0
  6
CONTINUOUS
 10
4.089800
 20
2.038960
 11
4.151400
 21
2.055680
  0
LINE
  8
0
 62
     0
  6
CONTINUOUS
 10
4.151400
 20
2.055680
 11
4.219600
 21
2.076800
  0
LINE
  8
0
 62
     0
  6
CONTINUOUS
 10
4.219600
 20
2.076800
 11
4.220480
 21
2.075920
  0
LINE
  8
0
 62
     0
  6
CONTINUOUS
 10
4.220480
 20
2.075920
 11
4.217400
 21
2.078120
  0
LINE
  8
0
 62
     0
  6
CONTINUOUS
 10
4.217400
 20
2.078120
 11
4.212560
 21
2.082520
  0
LINE
  8
0
 62
     0
  6
CONTINUOUS
 10
4.212560
 20
2.082520
 11
4.211680
 21
2.086920
  0
LINE
  8
0
 62
     0
  6
CONTINUOUS
 10
4.211680
 20
2.086920
 11
4.209480
 21
2.093520
  0
LINE
  8
0
 62
     0
  6
CONTINUOUS
 10
4.209480
 20
2.093520
 11
4.209480
 21
2.098360
  0
LINE
  8
0
 62
     0
  6
CONTINUOUS
 10
4.248640
 20
2.121680
 11
4.248640
 21
2.093520
  0
LINE
  8
0
 62
     0
  6
CONTINUOUS
 10
4.248640
 20
2.093520
 11
4.250840
 21
2.093520
  0
LINE
  8
0
 62
     0
  6
CONTINUOUS
 10
4.250840
 20
2.093520
 11
4.248640
 21
2.086920
  0
LINE
  8
0
 62
     0
  6
CONTINUOUS
 10
4.248640
 20
2.086920
 11
4.246440
 21
2.082520
  0
LINE
  8
0
 62
     0
  6
CONTINUOUS
 10
4.246440
 20
2.082520
 11
4.242920
 21
2.078120
  0
LINE
  8
0
 62
     0
  6
CONTINUOUS
 10
4.242920
 20
2.078120
 11
4.238520
 21
2.075920
  0
LINE
  8
0
 62
     0
  6
CONTINUOUS
 10
4.238520
 20
2.075920
 11
4.231920
 21
2.074600
  0
LINE
  8
0
 62
     0
  6
CONTINUOUS
 10
4.231920
 20
2.074600
 11
4.227080
 21
2.073720
  0
LINE
  8
0
 62
     0
  6
CONTINUOUS
 10
4.227080
 20
2.073720
 11
4.220480
 21
2.075920
  0
LINE
  8
0
 62
     0
  6
CONTINUOUS
 10
4.220480
 20
2.086040
 11
4.218280
 21
2.086040
  0
LINE
  8
0
 62
     0
  6
CONTINUOUS
 10
4.218280
 20
2.086040
 11
4.214760
 21
2.086040
  0
LINE
  8
0
 62
     0
  6
CONTINUOUS
 10
4.214760
 20
2.086040
 11
4.212560
 21
2.088240
  0
LINE
  8
0
 62
     0
  6
CONTINUOUS
 10
4.212560
 20
2.088240
 11
4.210360
 21
2.090440
  0
LINE
  8
0
 62
     0
  6
CONTINUOUS
 10
4.210360
 20
2.090440
 11
4.209480
 21
2.094840
  0
LINE
  8
0
 62
     0
  6
CONTINUOUS
 10
4.209480
 20
2.094840
 11
4.210360
 21
2.098360
  0
LINE
  8
0
 62
     0
  6
CONTINUOUS
 10
4.224880
 20
2.098360
 11
4.226200
 21
2.094840
  0
LINE
  8
0
 62
     0
  6
CONTINUOUS
 10
4.226200
 20
2.094840
 11
4.224880
 21
2.090440
  0
LINE
  8
0
 62
     0
  6
CONTINUOUS
 10
4.224880
 20
2.090440
 11
4.224000
 21
2.088240
  0
LINE
  8
0
 62
     0
  6
CONTINUOUS
 10
4.224000
 20
2.088240
 11
4.220480
 21
2.086040
  0
LINE
  8
0
 62
     0
  6
CONTINUOUS
 10
4.250840
 20
2.093520
 11
4.248640
 21
2.098360
  0
LINE
  8
0
 62
     0
  6
CONTINUOUS
 10
4.290000
 20
2.112880
 11
4.290000
 21
1.986600
  0
LINE
  8
0
 62
     0
  6
CONTINUOUS
 10
4.290000
 20
1.986600
 11
4.290000
 21
1.707200
  0
LINE
  8
0
 62
     0
  6
CONTINUOUS
 10
4.290000
 20
1.707200
 11
4.182640
 21
1.707200
  0
LINE
  8
0
 62
     0
  6
CONTINUOUS
 10
4.182640
 20
1.707200
 11
4.072200
 21
1.707200
  0
LINE
  8
0
 62
     0
  6
CONTINUOUS
 10
4.072200
 20
1.707200
 11
3.963520
 21
1.707200
  0
LINE
  8
0
 62
     0
  6
CONTINUOUS
 10
3.963520
 20
1.707200
 11
3.963520
 21
1.986600
  0
LINE
  8
0
 62
     0
  6
CONTINUOUS
 10
3.963520
 20
1.986600
 11
3.963520
 21
2.112880
  0
LINE
  8
0
 62
     0
  6
CONTINUOUS
 10
4.265360
 20
2.112880
 11
4.197160
 21
1.776720
  0
LINE
  8
0
 62
     0
  6
CONTINUOUS
 10
4.197160
 20
1.776720
 11
4.126760
 21
1.776720
  0
LINE
  8
0
 62
     0
  6
CONTINUOUS
 10
4.126760
 20
1.776720
 11
4.126760
 21
1.707200
  0
LINE
  8
0
 62
     0
  6
CONTINUOUS
 10
4.126760
 20
1.741960
 11
4.113560
 21
1.742840
  0
LINE
  8
0
 62
     0
  6
CONTINUOUS
 10
4.113560
 20
1.742840
 11
4.095520
 21
1.747680
  0
LINE
  8
0
 62
     0
  6
CONTINUOUS
 10
4.095520
 20
1.747680
 11
4.079680
 21
1.755160
  0
LINE
  8
0
 62
     0
  6
CONTINUOUS
 10
4.079680
 20
1.755160
 11
4.062080
 21
1.763080
  0
LINE
  8
0
 62
     0
  6
CONTINUOUS
 10
4.062080
 20
1.763080
 11
4.044040
 21
1.771880
  0
LINE
  8
0
 62
     0
  6
CONTINUOUS
 10
4.044040
 20
1.771880
 11
4.028640
 21
1.781120
  0
LINE
  8
0
 62
     0
  6
CONTINUOUS
 10
4.028640
 20
1.781120
 11
4.011920
 21
1.789920
  0
LINE
  8
0
 62
     0
  6
CONTINUOUS
 10
4.011920
 20
1.789920
 11
3.998280
 21
1.797840
  0
LINE
  8
0
 62
     0
  6
CONTINUOUS
 10
3.998280
 20
1.797840
 11
3.989480
 21
1.804440
  0
LINE
  8
0
 62
     0
  6
CONTINUOUS
 10
3.989480
 20
1.804440
 11
3.980680
 21
1.808840
  0
LINE
  8
0
 62
     0
  6
CONTINUOUS
 10
3.980680
 20
1.808840
 11
3.974960
 21
1.812360
  0
LINE
  8
0
 62
     0
  6
CONTINUOUS
 10
3.974960
 20
1.812360
 11
3.970560
 21
1.816760
  0
LINE
  8
0
 62
     0
  6
CONTINUOUS
 10
3.970560
 20
1.816760
 11
3.968360
 21
1.817640
  0
LINE
  8
0
 62
     0
  6
CONTINUOUS
 10
3.968360
 20
1.817640
 11
3.967040
 21
1.818960
  0
LINE
  8
0
 62
     0
  6
CONTINUOUS
 10
4.229280
 20
1.742840
 11
4.227080
 21
1.740640
  0
LINE
  8
0
 62
     0
  6
CONTINUOUS
 10
4.227080
 20
1.740640
 11
4.226200
 21
1.736240
  0
LINE
  8
0
 62
     0
  6
CONTINUOUS
 10
4.226200
 20
1.736240
 11
4.227080
 21
1.734040
  0
LINE
  8
0
 62
     0
  6
CONTINUOUS
 10
4.227080
 20
1.734040
 11
4.229280
 21
1.730520
  0
LINE
  8
0
 62
     0
  6
CONTINUOUS
 10
4.229280
 20
1.730520
 11
4.235000
 21
1.729640
  0
LINE
  8
0
 62
     0
  6
CONTINUOUS
 10
4.235000
 20
1.729640
 11
4.238520
 21
1.730520
  0
LINE
  8
0
 62
     0
  6
CONTINUOUS
 10
4.238520
 20
1.730520
 11
4.240720
 21
1.734040
  0
LINE
  8
0
 62
     0
  6
CONTINUOUS
 10
4.240720
 20
1.734040
 11
4.241600
 21
1.736240
  0
LINE
  8
0
 62
     0
  6
CONTINUOUS
 10
4.241600
 20
1.736240
 11
4.240720
 21
1.740640
  0
LINE
  8
0
 62
     0
  6
CONTINUOUS
 10
4.240720
 20
1.740640
 11
4.238520
 21
1.742840
  0
LINE
  8
0
 62
     0
  6
CONTINUOUS
 10
4.238520
 20
1.742840
 11
4.235000
 21
1.744160
  0
LINE
  8
0
 62
     0
  6
CONTINUOUS
 10
4.235000
 20
1.744160
 11
4.229280
 21
1.742840
  0
LINE
  8
0
 62
     0
  6
CONTINUOUS
 10
4.308920
 20
1.818960
 11
4.308920
 21
1.819840
  0
LINE
  8
0
 62
     0
  6
CONTINUOUS
 10
4.308920
 20
1.819840
 11
4.308920
 21
1.821160
  0
LINE
  8
0
 62
     0
  6
CONTINUOUS
 10
4.308920
 20
1.821160
 11
4.307600
 21
1.822480
  0
LINE
  8
0
 62
     0
  6
CONTINUOUS
 10
4.307600
 20
1.822480
 11
4.307600
 21
1.823360
  0
LINE
  8
0
 62
     0
  6
CONTINUOUS
 10
4.307600
 20
1.823360
 11
4.308920
 21
1.823360
  0
LINE
  8
0
 62
     0
  6
CONTINUOUS
 10
4.308920
 20
1.823360
 11
4.308920
 21
1.824680
  0
LINE
  8
0
 62
     0
  6
CONTINUOUS
 10
4.308920
 20
1.824680
 11
4.308920
 21
1.825560
  0
LINE
  8
0
 62
     0
  6
CONTINUOUS
 10
4.308920
 20
1.825560
 11
4.308920
 21
1.827760
  0
LINE
  8
0
 62
     0
  6
CONTINUOUS
 10
4.308920
 20
1.827760
 11
4.309800
 21
1.827760
  0
LINE
  8
0
 62
     0
  6
CONTINUOUS
 10
4.309800
 20
1.827760
 11
4.312000
 21
1.829080
  0
LINE
  8
0
 62
     0
  6
CONTINUOUS
 10
4.312000
 20
1.829080
 11
4.314200
 21
1.829080
  0
LINE
  8
0
 62
     0
  6
CONTINUOUS
 10
4.314200
 20
1.829080
 11
4.319920
 21
1.831280
  0
LINE
  8
0
 62
     0
  6
CONTINUOUS
 10
4.319920
 20
1.831280
 11
4.328720
 21
1.833480
  0
LINE
  8
0
 62
     0
  6
CONTINUOUS
 10
4.328720
 20
1.833480
 11
4.337960
 21
1.835680
  0
LINE
  8
0
 62
     0
  6
CONTINUOUS
 10
4.337960
 20
1.835680
 11
4.351160
 21
1.839200
  0
LINE
  8
0
 62
     0
  6
CONTINUOUS
 10
4.351160
 20
1.839200
 11
4.369200
 21
1.844480
  0
LINE
  8
0
 62
     0
  6
CONTINUOUS
 10
4.369200
 20
1.844480
 11
4.389000
 21
1.850200
  0
LINE
  8
0
 62
     0
  6
CONTINUOUS
 10
4.389000
 20
1.850200
 11
4.411440
 21
1.855920
  0
LINE
  8
0
 62
     0
  6
CONTINUOUS
 10
4.411440
 20
1.855920
 11
4.433880
 21
1.861200
  0
LINE
  8
0
 62
     0
  6
CONTINUOUS
 10
4.433880
 20
1.861200
 11
4.457200
 21
1.866920
  0
LINE
  8
0
 62
     0
  6
CONTINUOUS
 10
4.457200
 20
1.866920
 11
4.479640
 21
1.872640
  0
LINE
  8
0
 62
     0
  6
CONTINUOUS
 10
4.479640
 20
1.872640
 11
4.498560
 21
1.877920
  0
LINE
  8
0
 62
     0
  6
CONTINUOUS
 10
4.498560
 20
1.877920
 11
4.517480
 21
1.882760
  0
LINE
  8
0
 62
     0
  6
CONTINUOUS
 10
4.517480
 20
1.882760
 11
4.531120
 21
1.884960
  0
LINE
  8
0
 62
     0
  6
CONTINUOUS
 10
4.531120
 20
1.884960
 11
4.539920
 21
1.888040
  0
LINE
  8
0
 62
     0
  6
CONTINUOUS
 10
4.539920
 20
1.888040
 11
4.550040
 21
1.889360
  0
LINE
  8
0
 62
     0
  6
CONTINUOUS
 10
4.550040
 20
1.889360
 11
4.554440
 21
1.890240
  0
LINE
  8
0
 62
     0
  6
CONTINUOUS
 10
4.554440
 20
1.890240
 11
4.557960
 21
1.891560
  0
LINE
  8
0
 62
     0
  6
CONTINUOUS
 10
4.557960
 20
1.891560
 11
4.560160
 21
1.892440
  0
LINE
  8
0
 62
     0
  6
CONTINUOUS
 10
4.560160
 20
1.892440
 11
4.561040
 21
1.892440
  0
LINE
  8
0
 62
     0
  6
CONTINUOUS
 10
4.561040
 20
1.892440
 11
4.561040
 21
1.893760
  0
LINE
  8
0
 62
     0
  6
CONTINUOUS
 10
4.561040
 20
1.893760
 11
4.562360
 21
1.895080
  0
LINE
  8
0
 62
     0
  6
CONTINUOUS
 10
4.562360
 20
1.895080
 11
4.562360
 21
1.895960
  0
LINE
  8
0
 62
     0
  6
CONTINUOUS
 10
4.562360
 20
1.895960
 11
4.563240
 21
1.895960
  0
LINE
  8
0
 62
     0
  6
CONTINUOUS
 10
4.563240
 20
1.895960
 11
4.563240
 21
1.897280
  0
LINE
  8
0
 62
     0
  6
CONTINUOUS
 10
4.563240
 20
1.897280
 11
4.563240
 21
1.898160
  0
LINE
  8
0
 62
     0
  6
CONTINUOUS
 10
4.563240
 20
1.898160
 11
4.563240
 21
1.900360
  0
LINE
  8
0
 62
     0
  6
CONTINUOUS
 10
4.563240
 20
1.900360
 11
4.563240
 21
1.901680
  0
LINE
  8
0
 62
     0
  6
CONTINUOUS
 10
4.563240
 20
1.901680
 11
4.562360
 21
1.903880
  0
LINE
  8
0
 62
     0
  6
CONTINUOUS
 10
4.562360
 20
1.903880
 11
4.561040
 21
1.903880
  0
LINE
  8
0
 62
     0
  6
CONTINUOUS
 10
4.561040
 20
1.903880
 11
4.561040
 21
1.904760
  0
LINE
  8
0
 62
     0
  6
CONTINUOUS
 10
4.561040
 20
1.904760
 11
4.560160
 21
1.906960
  0
LINE
  8
0
 62
     0
  6
CONTINUOUS
 10
4.560160
 20
1.906960
 11
4.557960
 21
1.908280
  0
LINE
  8
0
 62
     0
  6
CONTINUOUS
 10
4.557960
 20
1.908280
 11
4.554440
 21
1.910480
  0
LINE
  8
0
 62
     0
  6
CONTINUOUS
 10
4.554440
 20
1.910480
 11
4.550920
 21
1.911800
  0
LINE
  8
0
 62
     0
  6
CONTINUOUS
 10
4.550920
 20
1.911800
 11
4.544320
 21
1.914000
  0
LINE
  8
0
 62
     0
  6
CONTINUOUS
 10
4.544320
 20
1.914000
 11
4.536400
 21
1.917080
  0
LINE
  8
0
 62
     0
  6
CONTINUOUS
 10
4.536400
 20
1.917080
 11
4.525400
 21
1.919280
  0
LINE
  8
0
 62
     0
  6
CONTINUOUS
 10
4.525400
 20
1.919280
 11
4.510880
 21
1.924120
  0
LINE
  8
0
 62
     0
  6
CONTINUOUS
 10
4.510880
 20
1.924120
 11
4.494160
 21
1.929400
  0
LINE
  8
0
 62
     0
  6
CONTINUOUS
 10
4.494160
 20
1.929400
 11
4.473920
 21
1.936000
  0
LINE
  8
0
 62
     0
  6
CONTINUOUS
 10
4.473920
 20
1.936000
 11
4.452800
 21
1.943040
  0
LINE
  8
0
 62
     0
  6
CONTINUOUS
 10
4.452800
 20
1.943040
 11
4.429480
 21
1.949640
  0
LINE
  8
0
 62
     0
  6
CONTINUOUS
 10
4.429480
 20
1.949640
 11
4.408360
 21
1.955360
  0
LINE
  8
0
 62
     0
  6
CONTINUOUS
 10
4.408360
 20
1.955360
 11
4.386800
 21
1.961960
  0
LINE
  8
0
 62
     0
  6
CONTINUOUS
 10
4.386800
 20
1.961960
 11
4.367880
 21
1.967680
  0
LINE
  8
0
 62
     0
  6
CONTINUOUS
 10
4.367880
 20
1.967680
 11
4.350280
 21
1.972960
  0
LINE
  8
0
 62
     0
  6
CONTINUOUS
 10
4.350280
 20
1.972960
 11
4.337960
 21
1.977360
  0
LINE
  8
0
 62
     0
  6
CONTINUOUS
 10
4.337960
 20
1.977360
 11
4.325640
 21
1.979560
  0
LINE
  8
0
 62
     0
  6
CONTINUOUS
 10
4.325640
 20
1.979560
 11
4.317720
 21
1.982200
  0
LINE
  8
0
 62
     0
  6
CONTINUOUS
 10
4.317720
 20
1.982200
 11
4.313320
 21
1.983080
  0
LINE
  8
0
 62
     0
  6
CONTINUOUS
 10
4.313320
 20
1.983080
 11
4.309800
 21
1.984400
  0
LINE
  8
0
 62
     0
  6
CONTINUOUS
 10
4.309800
 20
1.984400
 11
4.307600
 21
1.985280
  0
LINE
  8
0
 62
     0
  6
CONTINUOUS
 10
4.307600
 20
1.985280
 11
4.306720
 21
1.986600
  0
LINE
  8
0
 62
     0
  6
CONTINUOUS
 10
4.306720
 20
1.986600
 11
4.306720
 21
1.987480
  0
LINE
  8
0
 62
     0
  6
CONTINUOUS
 10
4.306720
 20
1.987480
 11
4.306720
 21
1.988800
  0
LINE
  8
0
 62
     0
  6
CONTINUOUS
 10
4.306720
 20
1.988800
 11
4.306720
 21
1.989680
  0
LINE
  8
0
 62
     0
  6
CONTINUOUS
 10
4.306720
 20
1.989680
 11
4.306720
 21
1.991000
  0
LINE
  8
0
 62
     0
  6
CONTINUOUS
 10
4.306720
 20
1.991000
 11
4.306720
 21
1.991880
  0
LINE
  8
0
 62
     0
  6
CONTINUOUS
 10
4.306720
 20
1.991880
 11
4.306720
 21
1.993200
  0
LINE
  8
0
 62
     0
  6
CONTINUOUS
 10
4.306720
 20
1.993200
 11
4.306720
 21
1.994080
  0
LINE
  8
0
 62
     0
  6
CONTINUOUS
 10
4.306720
 20
1.994080
 11
4.306720
 21
1.995400
  0
LINE
  8
0
 62
     0
  6
CONTINUOUS
 10
4.306720
 20
1.995400
 11
4.307600
 21
1.996720
  0
LINE
  8
0
 62
     0
  6
CONTINUOUS
 10
4.307600
 20
1.996720
 11
4.308920
 21
1.997600
  0
LINE
  8
0
 62
     0
  6
CONTINUOUS
 10
4.308920
 20
1.997600
 11
4.308920
 21
2.001120
  0
LINE
  8
0
 62
     0
  6
CONTINUOUS
 10
4.308920
 20
2.001120
 11
4.311120
 21
2.001120
  0
LINE
  8
0
 62
     0
  6
CONTINUOUS
 10
4.311120
 20
2.001120
 11
4.312000
 21
2.002000
  0
LINE
  8
0
 62
     0
  6
CONTINUOUS
 10
4.312000
 20
2.002000
 11
4.313320
 21
2.003320
  0
LINE
  8
0
 62
     0
  6
CONTINUOUS
 10
4.313320
 20
2.003320
 11
4.316400
 21
2.004200
  0
LINE
  8
0
 62
     0
  6
CONTINUOUS
 10
4.316400
 20
2.004200
 11
4.322120
 21
2.005520
  0
LINE
  8
0
 62
     0
  6
CONTINUOUS
 10
4.322120
 20
2.005520
 11
4.334440
 21
2.009920
  0
LINE
  8
0
 62
     0
  6
CONTINUOUS
 10
4.334440
 20
2.009920
 11
4.354680
 21
2.016520
  0
LINE
  8
0
 62
     0
  6
CONTINUOUS
 10
4.354680
 20
2.016520
 11
4.386800
 21
2.024440
  0
LINE
  8
0
 62
     0
  6
CONTINUOUS
 10
4.386800
 20
2.024440
 11
4.432560
 21
2.038960
  0
LINE
  8
0
 62
     0
  6
CONTINUOUS
 10
4.432560
 20
2.038960
 11
4.494160
 21
2.055680
  0
LINE
  8
0
 62
     0
  6
CONTINUOUS
 10
4.494160
 20
2.055680
 11
4.562360
 21
2.076800
  0
LINE
  8
0
 62
     0
  6
CONTINUOUS
 10
4.562360
 20
2.076800
 11
4.564560
 21
2.075920
  0
LINE
  8
0
 62
     0
  6
CONTINUOUS
 10
4.564560
 20
2.075920
 11
4.560160
 21
2.078120
  0
LINE
  8
0
 62
     0
  6
CONTINUOUS
 10
4.560160
 20
2.078120
 11
4.554440
 21
2.082520
  0
LINE
  8
0
 62
     0
  6
CONTINUOUS
 10
4.554440
 20
2.082520
 11
4.554440
 21
2.086920
  0
LINE
  8
0
 62
     0
  6
CONTINUOUS
 10
4.554440
 20
2.086920
 11
4.552240
 21
2.093520
  0
LINE
  8
0
 62
     0
  6
CONTINUOUS
 10
4.552240
 20
2.093520
 11
4.552240
 21
2.098360
  0
LINE
  8
0
 62
     0
  6
CONTINUOUS
 10
4.592280
 20
2.121680
 11
4.592280
 21
2.093520
  0
LINE
  8
0
 62
     0
  6
CONTINUOUS
 10
4.592280
 20
2.093520
 11
4.591400
 21
2.086920
  0
LINE
  8
0
 62
     0
  6
CONTINUOUS
 10
4.591400
 20
2.086920
 11
4.589200
 21
2.082520
  0
LINE
  8
0
 62
     0
  6
CONTINUOUS
 10
4.589200
 20
2.082520
 11
4.584800
 21
2.078120
  0
LINE
  8
0
 62
     0
  6
CONTINUOUS
 10
4.584800
 20
2.078120
 11
4.581280
 21
2.075920
  0
LINE
  8
0
 62
     0
  6
CONTINUOUS
 10
4.581280
 20
2.075920
 11
4.575560
 21
2.074600
  0
LINE
  8
0
 62
     0
  6
CONTINUOUS
 10
4.575560
 20
2.074600
 11
4.568080
 21
2.073720
  0
LINE
  8
0
 62
     0
  6
CONTINUOUS
 10
4.568080
 20
2.073720
 11
4.564560
 21
2.075920
  0
LINE
  8
0
 62
     0
  6
CONTINUOUS
 10
4.563240
 20
2.086040
 11
4.561040
 21
2.086040
  0
LINE
  8
0
 62
     0
  6
CONTINUOUS
 10
4.561040
 20
2.086040
 11
4.557960
 21
2.086040
  0
LINE
  8
0
 62
     0
  6
CONTINUOUS
 10
4.557960
 20
2.086040
 11
4.554440
 21
2.088240
  0
LINE
  8
0
 62
     0
  6
CONTINUOUS
 10
4.554440
 20
2.088240
 11
4.553560
 21
2.090440
  0
LINE
  8
0
 62
     0
  6
CONTINUOUS
 10
4.553560
 20
2.090440
 11
4.552240
 21
2.094840
  0
LINE
  8
0
 62
     0
  6
CONTINUOUS
 10
4.552240
 20
2.094840
 11
4.553560
 21
2.098360
  0
LINE
  8
0
 62
     0
  6
CONTINUOUS
 10
4.568080
 20
2.098360
 11
4.568080
 21
2.094840
  0
LINE
  8
0
 62
     0
  6
CONTINUOUS
 10
4.568080
 20
2.094840
 11
4.568080
 21
2.090440
  0
LINE
  8
0
 62
     0
  6
CONTINUOUS
 10
4.568080
 20
2.090440
 11
4.566760
 21
2.088240
  0
LINE
  8
0
 62
     0
  6
CONTINUOUS
 10
4.566760
 20
2.088240
 11
4.563240
 21
2.086040
  0
LINE
  8
0
 62
     0
  6
CONTINUOUS
 10
4.592280
 20
2.093520
 11
4.592280
 21
2.098360
  0
LINE
  8
0
 62
     0
  6
CONTINUOUS
 10
4.632320
 20
2.112880
 11
4.632320
 21
1.986600
  0
LINE
  8
0
 62
     0
  6
CONTINUOUS
 10
4.632320
 20
1.986600
 11
4.632320
 21
1.707200
  0
LINE
  8
0
 62
     0
  6
CONTINUOUS
 10
4.632320
 20
1.707200
 11
4.524520
 21
1.707200
  0
LINE
  8
0
 62
     0
  6
CONTINUOUS
 10
4.524520
 20
1.707200
 11
4.414960
 21
1.707200
  0
LINE
  8
0
 62
     0
  6
CONTINUOUS
 10
4.414960
 20
1.707200
 11
4.306720
 21
1.707200
  0
LINE
  8
0
 62
     0
  6
CONTINUOUS
 10
4.306720
 20
1.707200
 11
4.306720
 21
1.986600
  0
LINE
  8
0
 62
     0
  6
CONTINUOUS
 10
4.306720
 20
1.986600
 11
4.306720
 21
2.112880
  0
LINE
  8
0
 62
     0
  6
CONTINUOUS
 10
4.607680
 20
2.112880
 11
4.539920
 21
1.776720
  0
LINE
  8
0
 62
     0
  6
CONTINUOUS
 10
4.539920
 20
1.776720
 11
4.469520
 21
1.776720
  0
LINE
  8
0
 62
     0
  6
CONTINUOUS
 10
4.469520
 20
1.776720
 11
4.469520
 21
1.707200
  0
LINE
  8
0
 62
     0
  6
CONTINUOUS
 10
4.469520
 20
1.741960
 11
4.456320
 21
1.742840
  0
LINE
  8
0
 62
     0
  6
CONTINUOUS
 10
4.456320
 20
1.742840
 11
4.439600
 21
1.747680
  0
LINE
  8
0
 62
     0
  6
CONTINUOUS
 10
4.439600
 20
1.747680
 11
4.422880
 21
1.755160
  0
LINE
  8
0
 62
     0
  6
CONTINUOUS
 10
4.422880
 20
1.755160
 11
4.404840
 21
1.763080
  0
LINE
  8
0
 62
     0
  6
CONTINUOUS
 10
4.404840
 20
1.763080
 11
4.388120
 21
1.771880
  0
LINE
  8
0
 62
     0
  6
CONTINUOUS
 10
4.388120
 20
1.771880
 11
4.371400
 21
1.781120
  0
LINE
  8
0
 62
     0
  6
CONTINUOUS
 10
4.371400
 20
1.781120
 11
4.355560
 21
1.789920
  0
LINE
  8
0
 62
     0
  6
CONTINUOUS
 10
4.355560
 20
1.789920
 11
4.342360
 21
1.797840
  0
LINE
  8
0
 62
     0
  6
CONTINUOUS
 10
4.342360
 20
1.797840
 11
4.332240
 21
1.804440
  0
LINE
  8
0
 62
     0
  6
CONTINUOUS
 10
4.332240
 20
1.804440
 11
4.323440
 21
1.808840
  0
LINE
  8
0
 62
     0
  6
CONTINUOUS
 10
4.323440
 20
1.808840
 11
4.317720
 21
1.812360
  0
LINE
  8
0
 62
     0
  6
CONTINUOUS
 10
4.317720
 20
1.812360
 11
4.313320
 21
1.816760
  0
LINE
  8
0
 62
     0
  6
CONTINUOUS
 10
4.313320
 20
1.816760
 11
4.311120
 21
1.817640
  0
LINE
  8
0
 62
     0
  6
CONTINUOUS
 10
4.311120
 20
1.817640
 11
4.308920
 21
1.818960
  0
LINE
  8
0
 62
     0
  6
CONTINUOUS
 10
4.568080
 20
1.740640
 11
4.568080
 21
1.736240
  0
LINE
  8
0
 62
     0
  6
CONTINUOUS
 10
4.568080
 20
1.736240
 11
4.568080
 21
1.734040
  0
LINE
  8
0
 62
     0
  6
CONTINUOUS
 10
4.568080
 20
1.734040
 11
4.573360
 21
1.730520
  0
LINE
  8
0
 62
     0
  6
CONTINUOUS
 10
4.573360
 20
1.730520
 11
4.577760
 21
1.729640
  0
LINE
  8
0
 62
     0
  6
CONTINUOUS
 10
4.577760
 20
1.729640
 11
4.581280
 21
1.730520
  0
LINE
  8
0
 62
     0
  6
CONTINUOUS
 10
4.581280
 20
1.730520
 11
4.582600
 21
1.734040
  0
LINE
  8
0
 62
     0
  6
CONTINUOUS
 10
4.582600
 20
1.734040
 11
4.584800
 21
1.736240
  0
LINE
  8
0
 62
     0
  6
CONTINUOUS
 10
4.584800
 20
1.736240
 11
4.582600
 21
1.740640
  0
LINE
  8
0
 62
     0
  6
CONTINUOUS
 10
4.582600
 20
1.740640
 11
4.581280
 21
1.742840
  0
LINE
  8
0
 62
     0
  6
CONTINUOUS
 10
4.581280
 20
1.742840
 11
4.577760
 21
1.744160
  0
LINE
  8
0
 62
     0
  6
CONTINUOUS
 10
4.577760
 20
1.744160
 11
4.573360
 21
1.742840
  0
LINE
  8
0
 62
     0
  6
CONTINUOUS
 10
4.573360
 20
1.742840
 11
4.568080
 21
1.740640
  0
LINE
  8
0
 62
     0
  6
CONTINUOUS
 10
4.332240
 20
1.701480
 11
4.332240
 21
1.023880
  0
LINE
  8
0
 62
     0
  6
CONTINUOUS
 10
4.261840
 20
1.023880
 11
4.261840
 21
1.701480
  0
LINE
  8
0
 62
     0
  6
CONTINUOUS
 10
2.892560
 20
1.023880
 11
2.892560
 21
1.325280
  0
LINE
  8
0
 62
     0
  6
CONTINUOUS
 10
3.470280
 20
1.341120
 11
3.811720
 21
1.341120
  0
LINE
  8
0
 62
     0
  6
CONTINUOUS
 10
3.811720
 20
1.341120
 11
3.811720
 21
1.622280
  0
LINE
  8
0
 62
     0
  6
CONTINUOUS
 10
3.811720
 20
1.622280
 11
3.470280
 21
1.622280
  0
LINE
  8
0
 62
     0
  6
CONTINUOUS
 10
3.470280
 20
1.622280
 11
3.470280
 21
1.341120
  0
LINE
  8
0
 62
     0
  6
CONTINUOUS
 10
3.525720
 20
1.352120
 11
3.532760
 21
1.360920
  0
LINE
  8
0
 62
     0
  6
CONTINUOUS
 10
3.532760
 20
1.360920
 11
3.531440
 21
1.351240
  0
LINE
  8
0
 62
     0
  6
CONTINUOUS
 10
3.531440
 20
1.351240
 11
3.534960
 21
1.351240
  0
LINE
  8
0
 62
     0
  6
CONTINUOUS
 10
3.534960
 20
1.351240
 11
3.532760
 21
1.360920
  0
LINE
  8
0
 62
     0
  6
CONTINUOUS
 10
3.532760
 20
1.360920
 11
3.538040
 21
1.352120
  0
LINE
  8
0
 62
     0
  6
CONTINUOUS
 10
3.541560
 20
1.355640
 11
3.532760
 21
1.360920
  0
LINE
  8
0
 62
     0
  6
CONTINUOUS
 10
3.532760
 20
1.360920
 11
3.542880
 21
1.363120
  0
LINE
  8
0
 62
     0
  6
CONTINUOUS
 10
3.542880
 20
1.363120
 11
3.542880
 21
1.358720
  0
LINE
  8
0
 62
     0
  6
CONTINUOUS
 10
3.542880
 20
1.358720
 11
3.532760
 21
1.360920
  0
LINE
  8
0
 62
     0
  6
CONTINUOUS
 10
3.532760
 20
1.360920
 11
3.541560
 21
1.366640
  0
LINE
  8
0
 62
     0
  6
CONTINUOUS
 10
3.538040
 20
1.368840
 11
3.532760
 21
1.360920
  0
LINE
  8
0
 62
     0
  6
CONTINUOUS
 10
3.532760
 20
1.360920
 11
3.534960
 21
1.371040
  0
LINE
  8
0
 62
     0
  6
CONTINUOUS
 10
3.534960
 20
1.371040
 11
3.531440
 21
1.371040
  0
LINE
  8
0
 62
     0
  6
CONTINUOUS
 10
3.531440
 20
1.371040
 11
3.532760
 21
1.360920
  0
LINE
  8
0
 62
     0
  6
CONTINUOUS
 10
3.532760
 20
1.360920
 11
3.525720
 21
1.368840
  0
LINE
  8
0
 62
     0
  6
CONTINUOUS
 10
3.524840
 20
1.366640
 11
3.532760
 21
1.360920
  0
LINE
  8
0
 62
     0
  6
CONTINUOUS
 10
3.532760
 20
1.360920
 11
3.523520
 21
1.358720
  0
LINE
  8
0
 62
     0
  6
CONTINUOUS
 10
3.523520
 20
1.358720
 11
3.523520
 21
1.363120
  0
LINE
  8
0
 62
     0
  6
CONTINUOUS
 10
3.523520
 20
1.363120
 11
3.532760
 21
1.360920
  0
LINE
  8
0
 62
     0
  6
CONTINUOUS
 10
3.532760
 20
1.360920
 11
3.524840
 21
1.355640
  0
LINE
  8
0
 62
     0
  6
CONTINUOUS
 10
3.634400
 20
1.355640
 11
3.643200
 21
1.360920
  0
LINE
  8
0
 62
     0
  6
CONTINUOUS
 10
3.643200
 20
1.360920
 11
3.639680
 21
1.351240
  0
LINE
  8
0
 62
     0
  6
CONTINUOUS
 10
3.639680
 20
1.351240
 11
3.645400
 21
1.351240
  0
LINE
  8
0
 62
     0
  6
CONTINUOUS
 10
3.645400
 20
1.351240
 11
3.643200
 21
1.360920
  0
LINE
  8
0
 62
     0
  6
CONTINUOUS
 10
3.643200
 20
1.360920
 11
3.648920
 21
1.352120
  0
LINE
  8
0
 62
     0
  6
CONTINUOUS
 10
3.651120
 20
1.355640
 11
3.643200
 21
1.360920
  0
LINE
  8
0
 62
     0
  6
CONTINUOUS
 10
3.643200
 20
1.360920
 11
3.653320
 21
1.363120
  0
LINE
  8
0
 62
     0
  6
CONTINUOUS
 10
3.653320
 20
1.363120
 11
3.653320
 21
1.358720
  0
LINE
  8
0
 62
     0
  6
CONTINUOUS
 10
3.653320
 20
1.358720
 11
3.643200
 21
1.360920
  0
LINE
  8
0
 62
     0
  6
CONTINUOUS
 10
3.643200
 20
1.360920
 11
3.651120
 21
1.366640
  0
LINE
  8
0
 62
     0
  6
CONTINUOUS
 10
3.648920
 20
1.368840
 11
3.643200
 21
1.360920
  0
LINE
  8
0
 62
     0
  6
CONTINUOUS
 10
3.643200
 20
1.360920
 11
3.645400
 21
1.371040
  0
LINE
  8
0
 62
     0
  6
CONTINUOUS
 10
3.645400
 20
1.371040
 11
3.639680
 21
1.371040
  0
LINE
  8
0
 62
     0
  6
CONTINUOUS
 10
3.639680
 20
1.371040
 11
3.643200
 21
1.360920
  0
LINE
  8
0
 62
     0
  6
CONTINUOUS
 10
3.643200
 20
1.360920
 11
3.636600
 21
1.368840
  0
LINE
  8
0
 62
     0
  6
CONTINUOUS
 10
3.634400
 20
1.366640
 11
3.643200
 21
1.360920
  0
LINE
  8
0
 62
     0
  6
CONTINUOUS
 10
3.643200
 20
1.360920
 11
3.632200
 21
1.358720
  0
LINE
  8
0
 62
     0
  6
CONTINUOUS
 10
3.632200
 20
1.358720
 11
3.632200
 21
1.363120
  0
LINE
  8
0
 62
     0
  6
CONTINUOUS
 10
3.632200
 20
1.363120
 11
3.643200
 21
1.360920
  0
LINE
  8
0
 62
     0
  6
CONTINUOUS
 10
3.643200
 20
1.360920
 11
3.636600
 21
1.352120
  0
LINE
  8
0
 62
     0
  6
CONTINUOUS
 10
3.643200
 20
1.406680
 11
3.654200
 21
1.408000
  0
LINE
  8
0
 62
     0
  6
CONTINUOUS
 10
3.654200
 20
1.408000
 11
3.664320
 21
1.410200
  0
LINE
  8
0
 62
     0
  6
CONTINUOUS
 10
3.664320
 20
1.410200
 11
3.676640
 21
1.414600
  0
LINE
  8
0
 62
     0
  6
CONTINUOUS
 10
3.676640
 20
1.414600
 11
3.686760
 21
1.421200
  0
LINE
  8
0
 62
     0
  6
CONTINUOUS
 10
3.686760
 20
1.421200
 11
3.694680
 21
1.429120
  0
LINE
  8
0
 62
     0
  6
CONTINUOUS
 10
3.694680
 20
1.429120
 11
3.701280
 21
1.437040
  0
LINE
  8
0
 62
     0
  6
CONTINUOUS
 10
3.701280
 20
1.437040
 11
3.709200
 21
1.445840
  0
LINE
  8
0
 62
     0
  6
CONTINUOUS
 10
3.709200
 20
1.445840
 11
3.712280
 21
1.458160
  0
LINE
  8
0
 62
     0
  6
CONTINUOUS
 10
3.712280
 20
1.458160
 11
3.714480
 21
1.468280
  0
LINE
  8
0
 62
     0
  6
CONTINUOUS
 10
3.714480
 20
1.468280
 11
3.715800
 21
1.480600
  0
LINE
  8
0
 62
     0
  6
CONTINUOUS
 10
3.715800
 20
1.480600
 11
3.714480
 21
1.491600
  0
LINE
  8
0
 62
     0
  6
CONTINUOUS
 10
3.714480
 20
1.491600
 11
3.712280
 21
1.503040
  0
LINE
  8
0
 62
     0
  6
CONTINUOUS
 10
3.712280
 20
1.503040
 11
3.709200
 21
1.514040
  0
LINE
  8
0
 62
     0
  6
CONTINUOUS
 10
3.709200
 20
1.514040
 11
3.701280
 21
1.524160
  0
LINE
  8
0
 62
     0
  6
CONTINUOUS
 10
3.701280
 20
1.524160
 11
3.694680
 21
1.532080
  0
LINE
  8
0
 62
     0
  6
CONTINUOUS
 10
3.694680
 20
1.532080
 11
3.686760
 21
1.540880
  0
LINE
  8
0
 62
     0
  6
CONTINUOUS
 10
3.686760
 20
1.540880
 11
3.676640
 21
1.546600
  0
LINE
  8
0
 62
     0
  6
CONTINUOUS
 10
3.676640
 20
1.546600
 11
3.664320
 21
1.551000
  0
LINE
  8
0
 62
     0
  6
CONTINUOUS
 10
3.664320
 20
1.551000
 11
3.654200
 21
1.553200
  0
LINE
  8
0
 62
     0
  6
CONTINUOUS
 10
3.654200
 20
1.553200
 11
3.643200
 21
1.554080
  0
LINE
  8
0
 62
     0
  6
CONTINUOUS
 10
3.643200
 20
1.554080
 11
3.630880
 21
1.553200
  0
LINE
  8
0
 62
     0
  6
CONTINUOUS
 10
3.630880
 20
1.553200
 11
3.620760
 21
1.551000
  0
LINE
  8
0
 62
     0
  6
CONTINUOUS
 10
3.620760
 20
1.551000
 11
3.608440
 21
1.546600
  0
LINE
  8
0
 62
     0
  6
CONTINUOUS
 10
3.608440
 20
1.546600
 11
3.599640
 21
1.540880
  0
LINE
  8
0
 62
     0
  6
CONTINUOUS
 10
3.599640
 20
1.540880
 11
3.590840
 21
1.532080
  0
LINE
  8
0
 62
     0
  6
CONTINUOUS
 10
3.590840
 20
1.532080
 11
3.583800
 21
1.524160
  0
LINE
  8
0
 62
     0
  6
CONTINUOUS
 10
3.583800
 20
1.524160
 11
3.576320
 21
1.514040
  0
LINE
  8
0
 62
     0
  6
CONTINUOUS
 10
3.576320
 20
1.514040
 11
3.572800
 21
1.503040
  0
LINE
  8
0
 62
     0
  6
CONTINUOUS
 10
3.572800
 20
1.503040
 11
3.569280
 21
1.491600
  0
LINE
  8
0
 62
     0
  6
CONTINUOUS
 10
3.569280
 20
1.491600
 11
3.569280
 21
1.480600
  0
LINE
  8
0
 62
     0
  6
CONTINUOUS
 10
3.569280
 20
1.480600
 11
3.569280
 21
1.468280
  0
LINE
  8
0
 62
     0
  6
CONTINUOUS
 10
3.569280
 20
1.468280
 11
3.572800
 21
1.458160
  0
LINE
  8
0
 62
     0
  6
CONTINUOUS
 10
3.572800
 20
1.458160
 11
3.576320
 21
1.445840
  0
LINE
  8
0
 62
     0
  6
CONTINUOUS
 10
3.576320
 20
1.445840
 11
3.583800
 21
1.437040
  0
LINE
  8
0
 62
     0
  6
CONTINUOUS
 10
3.583800
 20
1.437040
 11
3.590840
 21
1.429120
  0
LINE
  8
0
 62
     0
  6
CONTINUOUS
 10
3.590840
 20
1.429120
 11
3.599640
 21
1.421200
  0
LINE
  8
0
 62
     0
  6
CONTINUOUS
 10
3.599640
 20
1.421200
 11
3.608440
 21
1.414600
  0
LINE
  8
0
 62
     0
  6
CONTINUOUS
 10
3.608440
 20
1.414600
 11
3.620760
 21
1.410200
  0
LINE
  8
0
 62
     0
  6
CONTINUOUS
 10
3.620760
 20
1.410200
 11
3.630880
 21
1.408000
  0
LINE
  8
0
 62
     0
  6
CONTINUOUS
 10
3.630880
 20
1.408000
 11
3.643200
 21
1.406680
  0
LINE
  8
0
 62
     0
  6
CONTINUOUS
 10
3.747040
 20
1.368840
 11
3.752760
 21
1.360920
  0
LINE
  8
0
 62
     0
  6
CONTINUOUS
 10
3.752760
 20
1.360920
 11
3.742640
 21
1.358720
  0
LINE
  8
0
 62
     0
  6
CONTINUOUS
 10
3.742640
 20
1.358720
 11
3.742640
 21
1.363120
  0
LINE
  8
0
 62
     0
  6
CONTINUOUS
 10
3.742640
 20
1.363120
 11
3.752760
 21
1.360920
  0
LINE
  8
0
 62
     0
  6
CONTINUOUS
 10
3.752760
 20
1.360920
 11
3.743520
 21
1.355640
  0
LINE
  8
0
 62
     0
  6
CONTINUOUS
 10
3.747040
 20
1.352120
 11
3.752760
 21
1.360920
  0
LINE
  8
0
 62
     0
  6
CONTINUOUS
 10
3.752760
 20
1.360920
 11
3.750560
 21
1.351240
  0
LINE
  8
0
 62
     0
  6
CONTINUOUS
 10
3.750560
 20
1.351240
 11
3.753640
 21
1.351240
  0
LINE
  8
0
 62
     0
  6
CONTINUOUS
 10
3.753640
 20
1.351240
 11
3.752760
 21
1.360920
  0
LINE
  8
0
 62
     0
  6
CONTINUOUS
 10
3.752760
 20
1.360920
 11
3.758040
 21
1.352120
  0
LINE
  8
0
 62
     0
  6
CONTINUOUS
 10
3.760240
 20
1.355640
 11
3.752760
 21
1.360920
  0
LINE
  8
0
 62
     0
  6
CONTINUOUS
 10
3.752760
 20
1.360920
 11
3.761560
 21
1.363120
  0
LINE
  8
0
 62
     0
  6
CONTINUOUS
 10
3.761560
 20
1.363120
 11
3.761560
 21
1.358720
  0
LINE
  8
0
 62
     0
  6
CONTINUOUS
 10
3.761560
 20
1.358720
 11
3.752760
 21
1.360920
  0
LINE
  8
0
 62
     0
  6
CONTINUOUS
 10
3.752760
 20
1.360920
 11
3.760240
 21
1.366640
  0
LINE
  8
0
 62
     0
  6
CONTINUOUS
 10
3.758040
 20
1.368840
 11
3.752760
 21
1.360920
  0
LINE
  8
0
 62
     0
  6
CONTINUOUS
 10
3.752760
 20
1.360920
 11
3.753640
 21
1.371040
  0
LINE
  8
0
 62
     0
  6
CONTINUOUS
 10
3.753640
 20
1.371040
 11
3.750560
 21
1.371040
  0
LINE
  8
0
 62
     0
  6
CONTINUOUS
 10
3.750560
 20
1.371040
 11
3.752760
 21
1.360920
  0
LINE
  8
0
 62
     0
  6
CONTINUOUS
 10
3.752760
 20
1.360920
 11
3.743520
 21
1.366640
  0
LINE
  8
0
 62
     0
  6
CONTINUOUS
 10
3.724600
 20
1.517560
 11
3.725920
 21
1.520640
  0
LINE
  8
0
 62
     0
  6
CONTINUOUS
 10
3.725920
 20
1.520640
 11
3.728120
 21
1.525040
  0
LINE
  8
0
 62
     0
  6
CONTINUOUS
 10
3.728120
 20
1.525040
 11
3.725920
 21
1.529880
  0
LINE
  8
0
 62
     0
  6
CONTINUOUS
 10
3.725920
 20
1.529880
 11
3.724600
 21
1.534280
  0
LINE
  8
0
 62
     0
  6
CONTINUOUS
 10
3.724600
 20
1.534280
 11
3.720200
 21
1.536480
  0
LINE
  8
0
 62
     0
  6
CONTINUOUS
 10
3.720200
 20
1.536480
 11
3.714480
 21
1.537360
  0
LINE
  8
0
 62
     0
  6
CONTINUOUS
 10
3.714480
 20
1.537360
 11
3.711400
 21
1.536480
  0
LINE
  8
0
 62
     0
  6
CONTINUOUS
 10
3.711400
 20
1.536480
 11
3.707000
 21
1.534280
  0
LINE
  8
0
 62
     0
  6
CONTINUOUS
 10
3.707000
 20
1.534280
 11
3.704800
 21
1.529880
  0
LINE
  8
0
 62
     0
  6
CONTINUOUS
 10
3.704800
 20
1.529880
 11
3.704800
 21
1.525040
  0
LINE
  8
0
 62
     0
  6
CONTINUOUS
 10
3.704800
 20
1.525040
 11
3.704800
 21
1.520640
  0
LINE
  8
0
 62
     0
  6
CONTINUOUS
 10
3.704800
 20
1.520640
 11
3.707000
 21
1.517560
  0
LINE
  8
0
 62
     0
  6
CONTINUOUS
 10
3.707000
 20
1.517560
 11
3.711400
 21
1.514040
  0
LINE
  8
0
 62
     0
  6
CONTINUOUS
 10
3.711400
 20
1.514040
 11
3.714480
 21
1.513160
  0
LINE
  8
0
 62
     0
  6
CONTINUOUS
 10
3.714480
 20
1.513160
 11
3.720200
 21
1.514040
  0
LINE
  8
0
 62
     0
  6
CONTINUOUS
 10
3.720200
 20
1.514040
 11
3.724600
 21
1.517560
  0
LINE
  8
0
 62
     0
  6
CONTINUOUS
 10
3.714480
 20
1.525040
 11
3.688960
 21
1.574320
  0
LINE
  8
0
 62
     0
  6
CONTINUOUS
 10
3.688960
 20
1.574320
 11
3.470280
 21
1.574320
  0
LINE
  8
0
 62
     0
  6
CONTINUOUS
 10
3.470280
 20
1.574320
 11
3.473360
 21
1.563320
  0
LINE
  8
0
 62
     0
  6
CONTINUOUS
 10
3.473360
 20
1.563320
 11
3.473360
 21
1.558920
  0
LINE
  8
0
 62
     0
  6
CONTINUOUS
 10
3.473360
 20
1.558920
 11
3.470280
 21
1.549680
  0
LINE
  8
0
 62
     0
  6
CONTINUOUS
 10
3.470280
 20
1.549680
 11
3.473360
 21
1.538680
  0
LINE
  8
0
 62
     0
  6
CONTINUOUS
 10
3.476880
 20
1.540880
 11
3.470280
 21
1.549680
  0
LINE
  8
0
 62
     0
  6
CONTINUOUS
 10
3.470280
 20
1.549680
 11
3.479080
 21
1.544400
  0
LINE
  8
0
 62
     0
  6
CONTINUOUS
 10
3.481280
 20
1.547480
 11
3.470280
 21
1.549680
  0
LINE
  8
0
 62
     0
  6
CONTINUOUS
 10
3.470280
 20
1.549680
 11
3.479080
 21
1.555400
  0
LINE
  8
0
 62
     0
  6
CONTINUOUS
 10
3.476880
 20
1.557600
 11
3.470280
 21
1.549680
  0
LINE
  8
0
 62
     0
  6
CONTINUOUS
 10
3.470280
 20
1.549680
 11
3.549480
 21
1.549680
  0
LINE
  8
0
 62
     0
  6
CONTINUOUS
 10
3.549480
 20
1.549680
 11
3.569280
 21
1.525040
  0
LINE
  8
0
 62
     0
  6
CONTINUOUS
 10
3.569280
 20
1.537360
 11
3.564880
 21
1.536480
  0
LINE
  8
0
 62
     0
  6
CONTINUOUS
 10
3.564880
 20
1.536480
 11
3.560480
 21
1.534280
  0
LINE
  8
0
 62
     0
  6
CONTINUOUS
 10
3.560480
 20
1.534280
 11
3.558280
 21
1.529880
  0
LINE
  8
0
 62
     0
  6
CONTINUOUS
 10
3.558280
 20
1.529880
 11
3.558280
 21
1.525040
  0
LINE
  8
0
 62
     0
  6
CONTINUOUS
 10
3.558280
 20
1.525040
 11
3.558280
 21
1.520640
  0
LINE
  8
0
 62
     0
  6
CONTINUOUS
 10
3.558280
 20
1.520640
 11
3.560480
 21
1.517560
  0
LINE
  8
0
 62
     0
  6
CONTINUOUS
 10
3.560480
 20
1.517560
 11
3.564880
 21
1.514040
  0
LINE
  8
0
 62
     0
  6
CONTINUOUS
 10
3.564880
 20
1.514040
 11
3.569280
 21
1.513160
  0
LINE
  8
0
 62
     0
  6
CONTINUOUS
 10
3.569280
 20
1.513160
 11
3.574120
 21
1.514040
  0
LINE
  8
0
 62
     0
  6
CONTINUOUS
 10
3.574120
 20
1.514040
 11
3.578520
 21
1.517560
  0
LINE
  8
0
 62
     0
  6
CONTINUOUS
 10
3.578520
 20
1.517560
 11
3.580720
 21
1.520640
  0
LINE
  8
0
 62
     0
  6
CONTINUOUS
 10
3.580720
 20
1.520640
 11
3.580720
 21
1.525040
  0
LINE
  8
0
 62
     0
  6
CONTINUOUS
 10
3.580720
 20
1.525040
 11
3.580720
 21
1.529880
  0
LINE
  8
0
 62
     0
  6
CONTINUOUS
 10
3.580720
 20
1.529880
 11
3.578520
 21
1.534280
  0
LINE
  8
0
 62
     0
  6
CONTINUOUS
 10
3.578520
 20
1.534280
 11
3.574120
 21
1.536480
  0
LINE
  8
0
 62
     0
  6
CONTINUOUS
 10
3.574120
 20
1.536480
 11
3.569280
 21
1.537360
  0
LINE
  8
0
 62
     0
  6
CONTINUOUS
 10
3.541560
 20
1.603360
 11
3.532760
 21
1.609080
  0
LINE
  8
0
 62
     0
  6
CONTINUOUS
 10
3.532760
 20
1.609080
 11
3.542880
 21
1.611280
  0
LINE
  8
0
 62
     0
  6
CONTINUOUS
 10
3.542880
 20
1.611280
 11
3.542880
 21
1.606880
  0
LINE
  8
0
 62
     0
  6
CONTINUOUS
 10
3.542880
 20
1.606880
 11
3.532760
 21
1.609080
  0
LINE
  8
0
 62
     0
  6
CONTINUOUS
 10
3.532760
 20
1.609080
 11
3.541560
 21
1.613480
  0
LINE
  8
0
 62
     0
  6
CONTINUOUS
 10
3.538040
 20
1.617880
 11
3.532760
 21
1.609080
  0
LINE
  8
0
 62
     0
  6
CONTINUOUS
 10
3.532760
 20
1.609080
 11
3.534960
 21
1.617880
  0
LINE
  8
0
 62
     0
  6
CONTINUOUS
 10
3.534960
 20
1.617880
 11
3.531440
 21
1.617880
  0
LINE
  8
0
 62
     0
  6
CONTINUOUS
 10
3.531440
 20
1.617880
 11
3.532760
 21
1.609080
  0
LINE
  8
0
 62
     0
  6
CONTINUOUS
 10
3.532760
 20
1.609080
 11
3.525720
 21
1.617880
  0
LINE
  8
0
 62
     0
  6
CONTINUOUS
 10
3.524840
 20
1.613480
 11
3.532760
 21
1.609080
  0
LINE
  8
0
 62
     0
  6
CONTINUOUS
 10
3.532760
 20
1.609080
 11
3.523520
 21
1.606880
  0
LINE
  8
0
 62
     0
  6
CONTINUOUS
 10
3.523520
 20
1.606880
 11
3.523520
 21
1.611280
  0
LINE
  8
0
 62
     0
  6
CONTINUOUS
 10
3.523520
 20
1.611280
 11
3.532760
 21
1.609080
  0
LINE
  8
0
 62
     0
  6
CONTINUOUS
 10
3.532760
 20
1.609080
 11
3.524840
 21
1.603360
  0
LINE
  8
0
 62
     0
  6
CONTINUOUS
 10
3.525720
 20
1.601160
 11
3.532760
 21
1.609080
  0
LINE
  8
0
 62
     0
  6
CONTINUOUS
 10
3.532760
 20
1.609080
 11
3.531440
 21
1.597640
  0
LINE
  8
0
 62
     0
  6
CONTINUOUS
 10
3.531440
 20
1.597640
 11
3.534960
 21
1.597640
  0
LINE
  8
0
 62
     0
  6
CONTINUOUS
 10
3.534960
 20
1.597640
 11
3.532760
 21
1.609080
  0
LINE
  8
0
 62
     0
  6
CONTINUOUS
 10
3.532760
 20
1.609080
 11
3.538040
 21
1.601160
  0
LINE
  8
0
 62
     0
  6
CONTINUOUS
 10
3.476880
 20
1.582240
 11
3.470280
 21
1.574320
  0
LINE
  8
0
 62
     0
  6
CONTINUOUS
 10
3.470280
 20
1.574320
 11
3.479080
 21
1.567720
  0
LINE
  8
0
 62
     0
  6
CONTINUOUS
 10
3.481280
 20
1.572120
 11
3.470280
 21
1.574320
  0
LINE
  8
0
 62
     0
  6
CONTINUOUS
 10
3.470280
 20
1.574320
 11
3.479080
 21
1.580040
  0
LINE
  8
0
 62
     0
  6
CONTINUOUS
 10
3.481280
 20
1.575640
 11
3.470280
 21
1.574320
  0
LINE
  8
0
 62
     0
  6
CONTINUOUS
 10
3.470280
 20
1.574320
 11
3.473360
 21
1.584440
  0
LINE
  8
0
 62
     0
  6
CONTINUOUS
 10
3.470280
 20
1.574320
 11
3.476880
 21
1.564200
  0
LINE
  8
0
 62
     0
  6
CONTINUOUS
 10
3.481280
 20
1.551880
 11
3.470280
 21
1.549680
  0
LINE
  8
0
 62
     0
  6
CONTINUOUS
 10
3.634400
 20
1.603360
 11
3.643200
 21
1.609080
  0
LINE
  8
0
 62
     0
  6
CONTINUOUS
 10
3.643200
 20
1.609080
 11
3.639680
 21
1.597640
  0
LINE
  8
0
 62
     0
  6
CONTINUOUS
 10
3.639680
 20
1.597640
 11
3.645400
 21
1.597640
  0
LINE
  8
0
 62
     0
  6
CONTINUOUS
 10
3.645400
 20
1.597640
 11
3.643200
 21
1.609080
  0
LINE
  8
0
 62
     0
  6
CONTINUOUS
 10
3.643200
 20
1.609080
 11
3.648920
 21
1.601160
  0
LINE
  8
0
 62
     0
  6
CONTINUOUS
 10
3.651120
 20
1.603360
 11
3.643200
 21
1.609080
  0
LINE
  8
0
 62
     0
  6
CONTINUOUS
 10
3.643200
 20
1.609080
 11
3.653320
 21
1.611280
  0
LINE
  8
0
 62
     0
  6
CONTINUOUS
 10
3.653320
 20
1.611280
 11
3.653320
 21
1.606880
  0
LINE
  8
0
 62
     0
  6
CONTINUOUS
 10
3.653320
 20
1.606880
 11
3.643200
 21
1.609080
  0
LINE
  8
0
 62
     0
  6
CONTINUOUS
 10
3.643200
 20
1.609080
 11
3.651120
 21
1.613480
  0
LINE
  8
0
 62
     0
  6
CONTINUOUS
 10
3.648920
 20
1.617880
 11
3.643200
 21
1.609080
  0
LINE
  8
0
 62
     0
  6
CONTINUOUS
 10
3.643200
 20
1.609080
 11
3.645400
 21
1.617880
  0
LINE
  8
0
 62
     0
  6
CONTINUOUS
 10
3.645400
 20
1.617880
 11
3.639680
 21
1.617880
  0
LINE
  8
0
 62
     0
  6
CONTINUOUS
 10
3.639680
 20
1.617880
 11
3.643200
 21
1.609080
  0
LINE
  8
0
 62
     0
  6
CONTINUOUS
 10
3.643200
 20
1.609080
 11
3.636600
 21
1.617880
  0
LINE
  8
0
 62
     0
  6
CONTINUOUS
 10
3.634400
 20
1.613480
 11
3.643200
 21
1.609080
  0
LINE
  8
0
 62
     0
  6
CONTINUOUS
 10
3.643200
 20
1.609080
 11
3.632200
 21
1.606880
  0
LINE
  8
0
 62
     0
  6
CONTINUOUS
 10
3.632200
 20
1.606880
 11
3.632200
 21
1.611280
  0
LINE
  8
0
 62
     0
  6
CONTINUOUS
 10
3.632200
 20
1.611280
 11
3.643200
 21
1.609080
  0
LINE
  8
0
 62
     0
  6
CONTINUOUS
 10
3.643200
 20
1.609080
 11
3.636600
 21
1.601160
  0
LINE
  8
0
 62
     0
  6
CONTINUOUS
 10
3.636600
 20
1.492920
 11
3.634400
 21
1.490720
  0
LINE
  8
0
 62
     0
  6
CONTINUOUS
 10
3.634400
 20
1.490720
 11
3.633080
 21
1.486320
  0
LINE
  8
0
 62
     0
  6
CONTINUOUS
 10
3.633080
 20
1.486320
 11
3.634400
 21
1.482800
  0
LINE
  8
0
 62
     0
  6
CONTINUOUS
 10
3.634400
 20
1.482800
 11
3.635280
 21
1.480600
  0
LINE
  8
0
 62
     0
  6
CONTINUOUS
 10
3.635280
 20
1.480600
 11
3.636600
 21
1.480600
  0
LINE
  8
0
 62
     0
  6
CONTINUOUS
 10
3.636600
 20
1.480600
 11
3.648920
 21
1.474880
  0
LINE
  8
0
 62
     0
  6
CONTINUOUS
 10
3.648920
 20
1.474880
 11
3.651120
 21
1.474000
  0
LINE
  8
0
 62
     0
  6
CONTINUOUS
 10
3.651120
 20
1.474000
 11
3.651120
 21
1.471800
  0
LINE
  8
0
 62
     0
  6
CONTINUOUS
 10
3.651120
 20
1.471800
 11
3.653320
 21
1.468280
  0
LINE
  8
0
 62
     0
  6
CONTINUOUS
 10
3.653320
 20
1.468280
 11
3.651120
 21
1.462560
  0
LINE
  8
0
 62
     0
  6
CONTINUOUS
 10
3.651120
 20
1.462560
 11
3.647600
 21
1.460360
  0
LINE
  8
0
 62
     0
  6
CONTINUOUS
 10
3.647600
 20
1.460360
 11
3.643200
 21
1.458160
  0
LINE
  8
0
 62
     0
  6
CONTINUOUS
 10
3.643200
 20
1.458160
 11
3.634400
 21
1.458160
  0
LINE
  8
0
 62
     0
  6
CONTINUOUS
 10
3.634400
 20
1.458160
 11
3.630000
 21
1.460360
  0
LINE
  8
0
 62
     0
  6
CONTINUOUS
 10
3.630000
 20
1.460360
 11
3.626480
 21
1.462560
  0
LINE
  8
0
 62
     0
  6
CONTINUOUS
 10
3.636600
 20
1.492920
 11
3.643200
 21
1.495120
  0
LINE
  8
0
 62
     0
  6
CONTINUOUS
 10
3.643200
 20
1.495120
 11
3.651120
 21
1.495120
  0
LINE
  8
0
 62
     0
  6
CONTINUOUS
 10
3.651120
 20
1.495120
 11
3.655520
 21
1.492920
  0
LINE
  8
0
 62
     0
  6
CONTINUOUS
 10
3.655520
 20
1.492920
 11
3.659040
 21
1.490720
  0
LINE
  8
0
 62
     0
  6
CONTINUOUS
 10
3.643200
 20
1.360920
 11
3.643200
 21
1.291840
  0
LINE
  8
0
 62
     0
  6
CONTINUOUS
 10
3.643200
 20
1.273800
 11
3.635280
 21
1.273800
  0
LINE
  8
0
 62
     0
  6
CONTINUOUS
 10
3.635280
 20
1.273800
 11
3.630000
 21
1.272920
  0
LINE
  8
0
 62
     0
  6
CONTINUOUS
 10
3.630000
 20
1.272920
 11
3.625160
 21
1.269400
  0
LINE
  8
0
 62
     0
  6
CONTINUOUS
 10
3.625160
 20
1.269400
 11
3.625160
 21
1.266320
  0
LINE
  8
0
 62
     0
  6
CONTINUOUS
 10
3.625160
 20
1.266320
 11
3.625160
 21
1.262800
  0
LINE
  8
0
 62
     0
  6
CONTINUOUS
 10
3.625160
 20
1.262800
 11
3.626480
 21
1.259280
  0
LINE
  8
0
 62
     0
  6
CONTINUOUS
 10
3.626480
 20
1.259280
 11
3.630000
 21
1.258400
  0
LINE
  8
0
 62
     0
  6
CONTINUOUS
 10
3.630000
 20
1.258400
 11
3.636600
 21
1.254880
  0
LINE
  8
0
 62
     0
  6
CONTINUOUS
 10
3.636600
 20
1.254880
 11
3.643200
 21
1.252680
  0
LINE
  8
0
 62
     0
  6
CONTINUOUS
 10
3.643200
 20
1.252680
 11
3.643200
 21
1.248280
  0
LINE
  8
0
 62
     0
  6
CONTINUOUS
 10
3.643200
 20
1.248280
 11
3.643200
 21
1.242560
  0
LINE
  8
0
 62
     0
  6
CONTINUOUS
 10
3.643200
 20
1.242560
 11
3.636600
 21
1.240360
  0
LINE
  8
0
 62
     0
  6
CONTINUOUS
 10
3.636600
 20
1.240360
 11
3.632200
 21
1.238160
  0
LINE
  8
0
 62
     0
  6
CONTINUOUS
 10
3.632200
 20
1.238160
 11
3.626480
 21
1.238160
  0
LINE
  8
0
 62
     0
  6
CONTINUOUS
 10
3.626480
 20
1.238160
 11
3.620760
 21
1.240360
  0
LINE
  8
0
 62
     0
  6
CONTINUOUS
 10
3.620760
 20
1.240360
 11
3.619880
 21
1.242560
  0
LINE
  8
0
 62
     0
  6
CONTINUOUS
 10
3.656400
 20
1.242560
 11
3.659040
 21
1.240360
  0
LINE
  8
0
 62
     0
  6
CONTINUOUS
 10
3.659040
 20
1.240360
 11
3.663440
 21
1.238160
  0
LINE
  8
0
 62
     0
  6
CONTINUOUS
 10
3.663440
 20
1.238160
 11
3.666520
 21
1.238160
  0
LINE
  8
0
 62
     0
  6
CONTINUOUS
 10
3.666520
 20
1.238160
 11
3.672240
 21
1.240360
  0
LINE
  8
0
 62
     0
  6
CONTINUOUS
 10
3.672240
 20
1.240360
 11
3.676640
 21
1.242560
  0
LINE
  8
0
 62
     0
  6
CONTINUOUS
 10
3.676640
 20
1.242560
 11
3.681040
 21
1.248280
  0
LINE
  8
0
 62
     0
  6
CONTINUOUS
 10
3.681040
 20
1.248280
 11
3.687640
 21
1.273800
  0
LINE
  8
0
 62
     0
  6
CONTINUOUS
 10
3.701280
 20
1.273800
 11
3.692480
 21
1.238160
  0
LINE
  8
0
 62
     0
  6
CONTINUOUS
 10
3.695560
 20
1.254880
 11
3.712280
 21
1.254880
  0
LINE
  8
0
 62
     0
  6
CONTINUOUS
 10
3.712280
 20
1.254880
 11
3.716680
 21
1.257080
  0
LINE
  8
0
 62
     0
  6
CONTINUOUS
 10
3.716680
 20
1.257080
 11
3.720200
 21
1.258400
  0
LINE
  8
0
 62
     0
  6
CONTINUOUS
 10
3.720200
 20
1.258400
 11
3.722400
 21
1.262800
  0
LINE
  8
0
 62
     0
  6
CONTINUOUS
 10
3.722400
 20
1.262800
 11
3.723720
 21
1.268520
  0
LINE
  8
0
 62
     0
  6
CONTINUOUS
 10
3.723720
 20
1.268520
 11
3.722400
 21
1.270720
  0
LINE
  8
0
 62
     0
  6
CONTINUOUS
 10
3.722400
 20
1.270720
 11
3.720200
 21
1.272920
  0
LINE
  8
0
 62
     0
  6
CONTINUOUS
 10
3.720200
 20
1.272920
 11
3.716680
 21
1.273800
  0
LINE
  8
0
 62
     0
  6
CONTINUOUS
 10
3.716680
 20
1.273800
 11
3.701280
 21
1.273800
  0
LINE
  8
0
 62
     0
  6
CONTINUOUS
 10
3.738240
 20
1.273800
 11
3.726800
 21
1.238160
  0
LINE
  8
0
 62
     0
  6
CONTINUOUS
 10
3.731200
 20
1.254880
 11
3.748360
 21
1.254880
  0
LINE
  8
0
 62
     0
  6
CONTINUOUS
 10
3.748360
 20
1.254880
 11
3.753640
 21
1.257080
  0
LINE
  8
0
 62
     0
  6
CONTINUOUS
 10
3.753640
 20
1.257080
 11
3.755840
 21
1.258400
  0
LINE
  8
0
 62
     0
  6
CONTINUOUS
 10
3.755840
 20
1.258400
 11
3.758040
 21
1.262800
  0
LINE
  8
0
 62
     0
  6
CONTINUOUS
 10
3.758040
 20
1.262800
 11
3.759360
 21
1.268520
  0
LINE
  8
0
 62
     0
  6
CONTINUOUS
 10
3.759360
 20
1.268520
 11
3.758040
 21
1.270720
  0
LINE
  8
0
 62
     0
  6
CONTINUOUS
 10
3.758040
 20
1.270720
 11
3.758040
 21
1.272920
  0
LINE
  8
0
 62
     0
  6
CONTINUOUS
 10
3.758040
 20
1.272920
 11
3.753640
 21
1.273800
  0
LINE
  8
0
 62
     0
  6
CONTINUOUS
 10
3.753640
 20
1.273800
 11
3.738240
 21
1.273800
  0
LINE
  8
0
 62
     0
  6
CONTINUOUS
 10
3.753640
 20
1.291840
 11
3.753640
 21
1.360920
  0
LINE
  8
0
 62
     0
  6
CONTINUOUS
 10
3.774760
 20
1.273800
 11
3.763760
 21
1.238160
  0
LINE
  8
0
 62
     0
  6
CONTINUOUS
 10
3.763760
 20
1.238160
 11
3.784880
 21
1.238160
  0
LINE
  8
0
 62
     0
  6
CONTINUOUS
 10
3.802920
 20
1.238160
 11
3.807320
 21
1.257080
  0
LINE
  8
0
 62
     0
  6
CONTINUOUS
 10
3.807320
 20
1.257080
 11
3.825360
 21
1.273800
  0
LINE
  8
0
 62
     0
  6
CONTINUOUS
 10
3.798520
 20
1.273800
 11
3.807320
 21
1.257080
  0
LINE
  8
0
 62
     0
  6
CONTINUOUS
 10
3.656400
 20
1.248280
 11
3.656400
 21
1.242560
  0
LINE
  8
0
 62
     0
  6
CONTINUOUS
 10
3.656400
 20
1.248280
 11
3.663440
 21
1.273800
  0
LINE
  8
0
 62
     0
  6
CONTINUOUS
 10
3.647600
 20
1.272920
 11
3.643200
 21
1.273800
  0
LINE
  8
0
 62
     0
  6
CONTINUOUS
 10
3.647600
 20
1.272920
 11
3.649800
 21
1.269400
  0
LINE
  8
0
 62
     0
  6
CONTINUOUS
 10
3.580720
 20
1.273800
 11
3.559600
 21
1.273800
  0
LINE
  8
0
 62
     0
  6
CONTINUOUS
 10
3.559600
 20
1.273800
 11
3.549480
 21
1.238160
  0
LINE
  8
0
 62
     0
  6
CONTINUOUS
 10
3.549480
 20
1.238160
 11
3.571920
 21
1.238160
  0
LINE
  8
0
 62
     0
  6
CONTINUOUS
 10
3.567080
 20
1.257080
 11
3.553880
 21
1.257080
  0
LINE
  8
0
 62
     0
  6
CONTINUOUS
 10
3.545080
 20
1.273800
 11
3.535840
 21
1.238160
  0
LINE
  8
0
 62
     0
  6
CONTINUOUS
 10
3.535840
 20
1.238160
 11
3.521320
 21
1.273800
  0
LINE
  8
0
 62
     0
  6
CONTINUOUS
 10
3.521320
 20
1.273800
 11
3.511200
 21
1.238160
  0
LINE
  8
0
 62
     0
  6
CONTINUOUS
 10
3.498000
 20
1.238160
 11
3.508120
 21
1.273800
  0
LINE
  8
0
 62
     0
  6
CONTINUOUS
 10
3.476880
 20
1.273800
 11
3.468960
 21
1.238160
  0
LINE
  8
0
 62
     0
  6
CONTINUOUS
 10
3.468960
 20
1.238160
 11
3.487880
 21
1.238160
  0
LINE
  8
0
 62
     0
  6
CONTINUOUS
 10
3.532760
 20
1.291840
 11
3.532760
 21
1.360920
  0
LINE
  8
0
 62
     0
  6
CONTINUOUS
 10
3.472480
 20
1.548800
 11
3.391960
 21
1.548800
  0
LINE
  8
0
 62
     0
  6
CONTINUOUS
 10
3.391960
 20
1.548800
 11
3.391960
 21
1.023880
  0
LINE
  8
0
 62
     0
  6
CONTINUOUS
 10
3.532760
 20
1.677280
 11
3.595240
 21
1.739760
  0
LINE
  8
0
 62
     0
  6
CONTINUOUS
 10
3.626480
 20
1.792120
 11
3.630880
 21
1.789920
  0
LINE
  8
0
 62
     0
  6
CONTINUOUS
 10
3.630880
 20
1.789920
 11
3.636600
 21
1.786400
  0
LINE
  8
0
 62
     0
  6
CONTINUOUS
 10
3.636600
 20
1.786400
 11
3.643200
 21
1.786400
  0
LINE
  8
0
 62
     0
  6
CONTINUOUS
 10
3.643200
 20
1.786400
 11
3.648920
 21
1.786400
  0
LINE
  8
0
 62
     0
  6
CONTINUOUS
 10
3.648920
 20
1.786400
 11
3.653320
 21
1.789920
  0
LINE
  8
0
 62
     0
  6
CONTINUOUS
 10
3.653320
 20
1.789920
 11
3.657720
 21
1.792120
  0
LINE
  8
0
 62
     0
  6
CONTINUOUS
 10
3.657720
 20
1.792120
 11
3.661240
 21
1.796520
  0
LINE
  8
0
 62
     0
  6
CONTINUOUS
 10
3.661240
 20
1.796520
 11
3.663440
 21
1.800920
  0
LINE
  8
0
 62
     0
  6
CONTINUOUS
 10
3.663440
 20
1.800920
 11
3.663440
 21
1.806640
  0
LINE
  8
0
 62
     0
  6
CONTINUOUS
 10
3.663440
 20
1.806640
 11
3.663440
 21
1.812360
  0
LINE
  8
0
 62
     0
  6
CONTINUOUS
 10
3.663440
 20
1.812360
 11
3.661240
 21
1.817640
  0
LINE
  8
0
 62
     0
  6
CONTINUOUS
 10
3.661240
 20
1.817640
 11
3.657720
 21
1.823360
  0
LINE
  8
0
 62
     0
  6
CONTINUOUS
 10
3.657720
 20
1.823360
 11
3.653320
 21
1.826880
  0
LINE
  8
0
 62
     0
  6
CONTINUOUS
 10
3.653320
 20
1.826880
 11
3.648920
 21
1.829080
  0
LINE
  8
0
 62
     0
  6
CONTINUOUS
 10
3.648920
 20
1.829080
 11
3.643200
 21
1.829080
  0
LINE
  8
0
 62
     0
  6
CONTINUOUS
 10
3.643200
 20
1.829080
 11
3.636600
 21
1.829080
  0
LINE
  8
0
 62
     0
  6
CONTINUOUS
 10
3.636600
 20
1.829080
 11
3.630880
 21
1.826880
  0
LINE
  8
0
 62
     0
  6
CONTINUOUS
 10
3.630880
 20
1.826880
 11
3.626480
 21
1.823360
  0
LINE
  8
0
 62
     0
  6
CONTINUOUS
 10
3.626480
 20
1.823360
 11
3.622960
 21
1.817640
  0
LINE
  8
0
 62
     0
  6
CONTINUOUS
 10
3.622960
 20
1.817640
 11
3.620760
 21
1.812360
  0
LINE
  8
0
 62
     0
  6
CONTINUOUS
 10
3.620760
 20
1.812360
 11
3.620760
 21
1.806640
  0
LINE
  8
0
 62
     0
  6
CONTINUOUS
 10
3.620760
 20
1.806640
 11
3.620760
 21
1.800920
  0
LINE
  8
0
 62
     0
  6
CONTINUOUS
 10
3.620760
 20
1.800920
 11
3.622960
 21
1.796520
  0
LINE
  8
0
 62
     0
  6
CONTINUOUS
 10
3.622960
 20
1.796520
 11
3.626480
 21
1.792120
  0
LINE
  8
0
 62
     0
  6
CONTINUOUS
 10
3.643200
 20
1.786400
 11
3.354120
 21
1.787720
  0
LINE
  8
0
 62
     0
  6
CONTINUOUS
 10
3.355000
 20
1.794320
 11
3.355000
 21
1.814560
  0
LINE
  8
0
 62
     0
  6
CONTINUOUS
 10
3.355000
 20
1.806640
 11
3.368640
 21
1.807960
  0
LINE
  8
0
 62
     0
  6
CONTINUOUS
 10
3.368640
 20
1.807960
 11
3.381840
 21
1.811040
  0
LINE
  8
0
 62
     0
  6
CONTINUOUS
 10
3.381840
 20
1.811040
 11
3.392840
 21
1.816760
  0
LINE
  8
0
 62
     0
  6
CONTINUOUS
 10
3.392840
 20
1.816760
 11
3.405160
 21
1.822480
  0
LINE
  8
0
 62
     0
  6
CONTINUOUS
 10
3.405160
 20
1.822480
 11
3.414400
 21
1.829080
  0
LINE
  8
0
 62
     0
  6
CONTINUOUS
 10
3.414400
 20
1.829080
 11
3.427600
 21
1.837880
  0
LINE
  8
0
 62
     0
  6
CONTINUOUS
 10
3.427600
 20
1.837880
 11
3.435520
 21
1.848000
  0
LINE
  8
0
 62
     0
  6
CONTINUOUS
 10
3.435520
 20
1.848000
 11
3.442120
 21
1.859000
  0
LINE
  8
0
 62
     0
  6
CONTINUOUS
 10
3.442120
 20
1.859000
 11
3.448720
 21
1.871320
  0
LINE
  8
0
 62
     0
  6
CONTINUOUS
 10
3.448720
 20
1.871320
 11
3.453120
 21
1.883640
  0
LINE
  8
0
 62
     0
  6
CONTINUOUS
 10
3.453120
 20
1.883640
 11
3.456640
 21
1.895960
  0
LINE
  8
0
 62
     0
  6
CONTINUOUS
 10
3.456640
 20
1.895960
 11
3.456640
 21
1.910480
  0
LINE
  8
0
 62
     0
  6
CONTINUOUS
 10
3.456640
 20
1.910480
 11
3.456640
 21
1.922800
  0
LINE
  8
0
 62
     0
  6
CONTINUOUS
 10
3.456640
 20
1.922800
 11
3.453120
 21
1.937320
  0
LINE
  8
0
 62
     0
  6
CONTINUOUS
 10
3.453120
 20
1.937320
 11
3.448720
 21
1.950520
  0
LINE
  8
0
 62
     0
  6
CONTINUOUS
 10
3.448720
 20
1.950520
 11
3.442120
 21
1.960640
  0
LINE
  8
0
 62
     0
  6
CONTINUOUS
 10
3.442120
 20
1.960640
 11
3.435520
 21
1.972960
  0
LINE
  8
0
 62
     0
  6
CONTINUOUS
 10
3.435520
 20
1.972960
 11
3.427600
 21
1.983080
  0
LINE
  8
0
 62
     0
  6
CONTINUOUS
 10
3.427600
 20
1.983080
 11
3.414400
 21
1.991000
  0
LINE
  8
0
 62
     0
  6
CONTINUOUS
 10
3.414400
 20
1.991000
 11
3.405160
 21
1.999800
  0
LINE
  8
0
 62
     0
  6
CONTINUOUS
 10
3.405160
 20
1.999800
 11
3.392840
 21
2.005520
  0
LINE
  8
0
 62
     0
  6
CONTINUOUS
 10
3.392840
 20
2.005520
 11
3.381840
 21
2.009920
  0
LINE
  8
0
 62
     0
  6
CONTINUOUS
 10
3.381840
 20
2.009920
 11
3.368640
 21
2.011240
  0
LINE
  8
0
 62
     0
  6
CONTINUOUS
 10
3.368640
 20
2.011240
 11
3.355000
 21
2.012120
  0
LINE
  8
0
 62
     0
  6
CONTINUOUS
 10
3.355000
 20
2.012120
 11
3.341800
 21
2.011240
  0
LINE
  8
0
 62
     0
  6
CONTINUOUS
 10
3.341800
 20
2.011240
 11
3.327280
 21
2.009920
  0
LINE
  8
0
 62
     0
  6
CONTINUOUS
 10
3.327280
 20
2.009920
 11
3.315840
 21
2.005520
  0
LINE
  8
0
 62
     0
  6
CONTINUOUS
 10
3.315840
 20
2.005520
 11
3.302640
 21
1.999800
  0
LINE
  8
0
 62
     0
  6
CONTINUOUS
 10
3.302640
 20
1.999800
 11
3.291200
 21
1.991000
  0
LINE
  8
0
 62
     0
  6
CONTINUOUS
 10
3.291200
 20
1.991000
 11
3.282400
 21
1.983080
  0
LINE
  8
0
 62
     0
  6
CONTINUOUS
 10
3.282400
 20
1.983080
 11
3.271400
 21
1.972960
  0
LINE
  8
0
 62
     0
  6
CONTINUOUS
 10
3.271400
 20
1.972960
 11
3.265680
 21
1.960640
  0
LINE
  8
0
 62
     0
  6
CONTINUOUS
 10
3.265680
 20
1.960640
 11
3.259960
 21
1.950520
  0
LINE
  8
0
 62
     0
  6
CONTINUOUS
 10
3.259960
 20
1.950520
 11
3.255560
 21
1.937320
  0
LINE
  8
0
 62
     0
  6
CONTINUOUS
 10
3.255560
 20
1.937320
 11
3.252480
 21
1.922800
  0
LINE
  8
0
 62
     0
  6
CONTINUOUS
 10
3.252480
 20
1.922800
 11
3.251160
 21
1.910480
  0
LINE
  8
0
 62
     0
  6
CONTINUOUS
 10
3.251160
 20
1.910480
 11
3.252480
 21
1.895960
  0
LINE
  8
0
 62
     0
  6
CONTINUOUS
 10
3.252480
 20
1.895960
 11
3.255560
 21
1.883640
  0
LINE
  8
0
 62
     0
  6
CONTINUOUS
 10
3.255560
 20
1.883640
 11
3.259960
 21
1.871320
  0
LINE
  8
0
 62
     0
  6
CONTINUOUS
 10
3.259960
 20
1.871320
 11
3.265680
 21
1.859000
  0
LINE
  8
0
 62
     0
  6
CONTINUOUS
 10
3.265680
 20
1.859000
 11
3.271400
 21
1.848000
  0
LINE
  8
0
 62
     0
  6
CONTINUOUS
 10
3.271400
 20
1.848000
 11
3.282400
 21
1.837880
  0
LINE
  8
0
 62
     0
  6
CONTINUOUS
 10
3.282400
 20
1.837880
 11
3.291200
 21
1.829080
  0
LINE
  8
0
 62
     0
  6
CONTINUOUS
 10
3.291200
 20
1.829080
 11
3.302640
 21
1.822480
  0
LINE
  8
0
 62
     0
  6
CONTINUOUS
 10
3.302640
 20
1.822480
 11
3.315840
 21
1.816760
  0
LINE
  8
0
 62
     0
  6
CONTINUOUS
 10
3.315840
 20
1.816760
 11
3.327280
 21
1.811040
  0
LINE
  8
0
 62
     0
  6
CONTINUOUS
 10
3.327280
 20
1.811040
 11
3.341800
 21
1.807960
  0
LINE
  8
0
 62
     0
  6
CONTINUOUS
 10
3.341800
 20
1.807960
 11
3.355000
 21
1.806640
  0
LINE
  8
0
 62
     0
  6
CONTINUOUS
 10
3.388440
 20
1.821160
 11
3.397680
 21
1.800920
  0
LINE
  8
0
 62
     0
  6
CONTINUOUS
 10
3.441240
 20
1.829960
 11
3.427600
 21
1.844480
  0
LINE
  8
0
 62
     0
  6
CONTINUOUS
 10
3.447840
 20
1.873520
 11
3.466760
 21
1.866920
  0
LINE
  8
0
 62
     0
  6
CONTINUOUS
 10
3.476880
 20
1.910480
 11
3.476880
 21
1.925000
  0
LINE
  8
0
 62
     0
  6
CONTINUOUS
 10
3.476880
 20
1.925000
 11
3.473360
 21
1.938640
  0
LINE
  8
0
 62
     0
  6
CONTINUOUS
 10
3.473360
 20
1.938640
 11
3.470280
 21
1.954040
  0
LINE
  8
0
 62
     0
  6
CONTINUOUS
 10
3.470280
 20
1.954040
 11
3.464560
 21
1.966360
  0
LINE
  8
0
 62
     0
  6
CONTINUOUS
 10
3.464560
 20
1.966360
 11
3.454440
 21
1.980880
  0
LINE
  8
0
 62
     0
  6
CONTINUOUS
 10
3.454440
 20
1.980880
 11
3.446520
 21
1.991880
  0
LINE
  8
0
 62
     0
  6
CONTINUOUS
 10
3.446520
 20
1.991880
 11
3.436400
 21
2.002000
  0
LINE
  8
0
 62
     0
  6
CONTINUOUS
 10
3.436400
 20
2.002000
 11
3.423200
 21
2.011240
  0
LINE
  8
0
 62
     0
  6
CONTINUOUS
 10
3.423200
 20
2.011240
 11
3.412200
 21
2.018720
  0
LINE
  8
0
 62
     0
  6
CONTINUOUS
 10
3.412200
 20
2.018720
 11
3.398560
 21
2.024440
  0
LINE
  8
0
 62
     0
  6
CONTINUOUS
 10
3.398560
 20
2.024440
 11
3.383160
 21
2.030160
  0
LINE
  8
0
 62
     0
  6
CONTINUOUS
 10
3.383160
 20
2.030160
 11
3.369520
 21
2.033240
  0
LINE
  8
0
 62
     0
  6
CONTINUOUS
 10
3.369520
 20
2.033240
 11
3.355000
 21
2.033240
  0
LINE
  8
0
 62
     0
  6
CONTINUOUS
 10
3.355000
 20
2.033240
 11
3.339600
 21
2.033240
  0
LINE
  8
0
 62
     0
  6
CONTINUOUS
 10
3.339600
 20
2.033240
 11
3.325080
 21
2.030160
  0
LINE
  8
0
 62
     0
  6
CONTINUOUS
 10
3.325080
 20
2.030160
 11
3.310560
 21
2.024440
  0
LINE
  8
0
 62
     0
  6
CONTINUOUS
 10
3.310560
 20
2.024440
 11
3.296920
 21
2.018720
  0
LINE
  8
0
 62
     0
  6
CONTINUOUS
 10
3.296920
 20
2.018720
 11
3.284600
 21
2.011240
  0
LINE
  8
0
 62
     0
  6
CONTINUOUS
 10
3.284600
 20
2.011240
 11
3.271400
 21
2.002000
  0
LINE
  8
0
 62
     0
  6
CONTINUOUS
 10
3.271400
 20
2.002000
 11
3.261280
 21
1.991880
  0
LINE
  8
0
 62
     0
  6
CONTINUOUS
 10
3.261280
 20
1.991880
 11
3.253360
 21
1.980880
  0
LINE
  8
0
 62
     0
  6
CONTINUOUS
 10
3.253360
 20
1.980880
 11
3.245440
 21
1.966360
  0
LINE
  8
0
 62
     0
  6
CONTINUOUS
 10
3.245440
 20
1.966360
 11
3.238840
 21
1.954040
  0
LINE
  8
0
 62
     0
  6
CONTINUOUS
 10
3.238840
 20
1.954040
 11
3.233120
 21
1.938640
  0
LINE
  8
0
 62
     0
  6
CONTINUOUS
 10
3.233120
 20
1.938640
 11
3.232240
 21
1.925000
  0
LINE
  8
0
 62
     0
  6
CONTINUOUS
 10
3.232240
 20
1.925000
 11
3.230920
 21
1.910480
  0
LINE
  8
0
 62
     0
  6
CONTINUOUS
 10
3.230920
 20
1.910480
 11
3.232240
 21
1.895080
  0
LINE
  8
0
 62
     0
  6
CONTINUOUS
 10
3.232240
 20
1.895080
 11
3.233120
 21
1.881440
  0
LINE
  8
0
 62
     0
  6
CONTINUOUS
 10
3.233120
 20
1.881440
 11
3.238840
 21
1.866920
  0
LINE
  8
0
 62
     0
  6
CONTINUOUS
 10
3.238840
 20
1.866920
 11
3.245440
 21
1.853720
  0
LINE
  8
0
 62
     0
  6
CONTINUOUS
 10
3.245440
 20
1.853720
 11
3.253360
 21
1.840080
  0
LINE
  8
0
 62
     0
  6
CONTINUOUS
 10
3.253360
 20
1.840080
 11
3.261280
 21
1.829080
  0
LINE
  8
0
 62
     0
  6
CONTINUOUS
 10
3.261280
 20
1.829080
 11
3.271400
 21
1.817640
  0
LINE
  8
0
 62
     0
  6
CONTINUOUS
 10
3.271400
 20
1.817640
 11
3.284600
 21
1.808840
  0
LINE
  8
0
 62
     0
  6
CONTINUOUS
 10
3.284600
 20
1.808840
 11
3.296920
 21
1.800920
  0
LINE
  8
0
 62
     0
  6
CONTINUOUS
 10
3.296920
 20
1.800920
 11
3.310560
 21
1.795640
  0
LINE
  8
0
 62
     0
  6
CONTINUOUS
 10
3.310560
 20
1.795640
 11
3.325080
 21
1.791240
  0
LINE
  8
0
 62
     0
  6
CONTINUOUS
 10
3.325080
 20
1.791240
 11
3.339600
 21
1.788600
  0
LINE
  8
0
 62
     0
  6
CONTINUOUS
 10
3.339600
 20
1.788600
 11
3.355000
 21
1.787720
  0
LINE
  8
0
 62
     0
  6
CONTINUOUS
 10
3.355000
 20
1.787720
 11
3.369520
 21
1.788600
  0
LINE
  8
0
 62
     0
  6
CONTINUOUS
 10
3.369520
 20
1.788600
 11
3.383160
 21
1.791240
  0
LINE
  8
0
 62
     0
  6
CONTINUOUS
 10
3.383160
 20
1.791240
 11
3.398560
 21
1.795640
  0
LINE
  8
0
 62
     0
  6
CONTINUOUS
 10
3.398560
 20
1.795640
 11
3.412200
 21
1.800920
  0
LINE
  8
0
 62
     0
  6
CONTINUOUS
 10
3.412200
 20
1.800920
 11
3.423200
 21
1.808840
  0
LINE
  8
0
 62
     0
  6
CONTINUOUS
 10
3.423200
 20
1.808840
 11
3.436400
 21
1.817640
  0
LINE
  8
0
 62
     0
  6
CONTINUOUS
 10
3.436400
 20
1.817640
 11
3.446520
 21
1.829080
  0
LINE
  8
0
 62
     0
  6
CONTINUOUS
 10
3.446520
 20
1.829080
 11
3.454440
 21
1.840080
  0
LINE
  8
0
 62
     0
  6
CONTINUOUS
 10
3.454440
 20
1.840080
 11
3.464560
 21
1.853720
  0
LINE
  8
0
 62
     0
  6
CONTINUOUS
 10
3.464560
 20
1.853720
 11
3.470280
 21
1.866920
  0
LINE
  8
0
 62
     0
  6
CONTINUOUS
 10
3.470280
 20
1.866920
 11
3.473360
 21
1.881440
  0
LINE
  8
0
 62
     0
  6
CONTINUOUS
 10
3.473360
 20
1.881440
 11
3.476880
 21
1.895080
  0
LINE
  8
0
 62
     0
  6
CONTINUOUS
 10
3.476880
 20
1.895080
 11
3.476880
 21
1.910480
  0
LINE
  8
0
 62
     0
  6
CONTINUOUS
 10
3.476880
 20
1.917080
 11
3.456640
 21
1.917080
  0
LINE
  8
0
 62
     0
  6
CONTINUOUS
 10
3.447840
 20
1.959760
 11
3.466760
 21
1.966360
  0
LINE
  8
0
 62
     0
  6
CONTINUOUS
 10
3.446520
 20
1.999800
 11
3.431120
 21
1.985280
  0
LINE
  8
0
 62
     0
  6
CONTINUOUS
 10
3.432000
 20
2.005520
 11
3.655520
 21
1.824680
  0
LINE
  8
0
 62
     0
  6
CONTINUOUS
 10
3.654200
 20
1.889360
 11
3.643200
 21
1.889360
  0
LINE
  8
0
 62
     0
  6
CONTINUOUS
 10
3.643200
 20
1.889360
 11
3.630000
 21
1.889360
  0
LINE
  8
0
 62
     0
  6
CONTINUOUS
 10
3.630000
 20
1.889360
 11
3.619880
 21
1.887160
  0
LINE
  8
0
 62
     0
  6
CONTINUOUS
 10
3.619880
 20
1.887160
 11
3.607560
 21
1.882760
  0
LINE
  8
0
 62
     0
  6
CONTINUOUS
 10
3.607560
 20
1.882760
 11
3.597440
 21
1.875720
  0
LINE
  8
0
 62
     0
  6
CONTINUOUS
 10
3.597440
 20
1.875720
 11
3.588640
 21
1.869120
  0
LINE
  8
0
 62
     0
  6
CONTINUOUS
 10
3.588640
 20
1.869120
 11
3.578520
 21
1.861200
  0
LINE
  8
0
 62
     0
  6
CONTINUOUS
 10
3.578520
 20
1.861200
 11
3.572800
 21
1.852400
  0
LINE
  8
0
 62
     0
  6
CONTINUOUS
 10
3.572800
 20
1.852400
 11
3.566200
 21
1.841400
  0
LINE
  8
0
 62
     0
  6
CONTINUOUS
 10
3.566200
 20
1.841400
 11
3.562680
 21
1.831280
  0
LINE
  8
0
 62
     0
  6
CONTINUOUS
 10
3.562680
 20
1.831280
 11
3.560480
 21
1.819840
  0
LINE
  8
0
 62
     0
  6
CONTINUOUS
 10
3.560480
 20
1.819840
 11
3.559600
 21
1.806640
  0
LINE
  8
0
 62
     0
  6
CONTINUOUS
 10
3.559600
 20
1.806640
 11
3.560480
 21
1.795640
  0
LINE
  8
0
 62
     0
  6
CONTINUOUS
 10
3.560480
 20
1.795640
 11
3.562680
 21
1.783320
  0
LINE
  8
0
 62
     0
  6
CONTINUOUS
 10
3.562680
 20
1.783320
 11
3.566200
 21
1.773200
  0
LINE
  8
0
 62
     0
  6
CONTINUOUS
 10
3.566200
 20
1.773200
 11
3.572800
 21
1.763080
  0
LINE
  8
0
 62
     0
  6
CONTINUOUS
 10
3.572800
 20
1.763080
 11
3.578520
 21
1.752960
  0
LINE
  8
0
 62
     0
  6
CONTINUOUS
 10
3.578520
 20
1.752960
 11
3.588640
 21
1.745040
  0
LINE
  8
0
 62
     0
  6
CONTINUOUS
 10
3.588640
 20
1.745040
 11
3.597440
 21
1.738440
  0
LINE
  8
0
 62
     0
  6
CONTINUOUS
 10
3.597440
 20
1.738440
 11
3.607560
 21
1.734040
  0
LINE
  8
0
 62
     0
  6
CONTINUOUS
 10
3.607560
 20
1.734040
 11
3.619880
 21
1.729640
  0
LINE
  8
0
 62
     0
  6
CONTINUOUS
 10
3.619880
 20
1.729640
 11
3.630000
 21
1.726120
  0
LINE
  8
0
 62
     0
  6
CONTINUOUS
 10
3.630000
 20
1.726120
 11
3.643200
 21
1.726120
  0
LINE
  8
0
 62
     0
  6
CONTINUOUS
 10
3.643200
 20
1.726120
 11
3.654200
 21
1.726120
  0
LINE
  8
0
 62
     0
  6
CONTINUOUS
 10
3.654200
 20
1.726120
 11
3.664320
 21
1.729640
  0
LINE
  8
0
 62
     0
  6
CONTINUOUS
 10
3.664320
 20
1.729640
 11
3.676640
 21
1.734040
  0
LINE
  8
0
 62
     0
  6
CONTINUOUS
 10
3.676640
 20
1.734040
 11
3.686760
 21
1.738440
  0
LINE
  8
0
 62
     0
  6
CONTINUOUS
 10
3.686760
 20
1.738440
 11
3.695560
 21
1.745040
  0
LINE
  8
0
 62
     0
  6
CONTINUOUS
 10
3.695560
 20
1.745040
 11
3.704800
 21
1.752960
  0
LINE
  8
0
 62
     0
  6
CONTINUOUS
 10
3.704800
 20
1.752960
 11
3.711400
 21
1.763080
  0
LINE
  8
0
 62
     0
  6
CONTINUOUS
 10
3.711400
 20
1.763080
 11
3.715800
 21
1.773200
  0
LINE
  8
0
 62
     0
  6
CONTINUOUS
 10
3.715800
 20
1.773200
 11
3.720200
 21
1.783320
  0
LINE
  8
0
 62
     0
  6
CONTINUOUS
 10
3.720200
 20
1.783320
 11
3.722400
 21
1.795640
  0
LINE
  8
0
 62
     0
  6
CONTINUOUS
 10
3.722400
 20
1.795640
 11
3.723720
 21
1.806640
  0
LINE
  8
0
 62
     0
  6
CONTINUOUS
 10
3.723720
 20
1.806640
 11
3.722400
 21
1.819840
  0
LINE
  8
0
 62
     0
  6
CONTINUOUS
 10
3.722400
 20
1.819840
 11
3.720200
 21
1.831280
  0
LINE
  8
0
 62
     0
  6
CONTINUOUS
 10
3.720200
 20
1.831280
 11
3.715800
 21
1.841400
  0
LINE
  8
0
 62
     0
  6
CONTINUOUS
 10
3.715800
 20
1.841400
 11
3.711400
 21
1.852400
  0
LINE
  8
0
 62
     0
  6
CONTINUOUS
 10
3.711400
 20
1.852400
 11
3.704800
 21
1.861200
  0
LINE
  8
0
 62
     0
  6
CONTINUOUS
 10
3.704800
 20
1.861200
 11
3.695560
 21
1.869120
  0
LINE
  8
0
 62
     0
  6
CONTINUOUS
 10
3.695560
 20
1.869120
 11
3.686760
 21
1.875720
  0
LINE
  8
0
 62
     0
  6
CONTINUOUS
 10
3.686760
 20
1.875720
 11
3.676640
 21
1.882760
  0
LINE
  8
0
 62
     0
  6
CONTINUOUS
 10
3.676640
 20
1.882760
 11
3.664320
 21
1.887160
  0
LINE
  8
0
 62
     0
  6
CONTINUOUS
 10
3.664320
 20
1.887160
 11
3.654200
 21
1.889360
  0
LINE
  8
0
 62
     0
  6
CONTINUOUS
 10
3.558280
 20
1.885840
 11
3.559600
 21
1.903880
  0
LINE
  8
0
 62
     0
  6
CONTINUOUS
 10
3.559600
 20
1.903880
 11
3.559600
 21
1.922800
  0
LINE
  8
0
 62
     0
  6
CONTINUOUS
 10
3.559600
 20
1.922800
 11
3.759360
 21
1.922800
  0
LINE
  8
0
 62
     0
  6
CONTINUOUS
 10
3.759360
 20
1.922800
 11
3.759360
 21
2.115960
  0
LINE
  8
0
 62
     0
  6
CONTINUOUS
 10
3.759360
 20
2.115960
 11
3.357200
 21
2.115960
  0
LINE
  8
0
 62
     0
  6
CONTINUOUS
 10
3.357200
 20
2.115960
 11
3.355000
 21
2.115960
  0
LINE
  8
0
 62
     0
  6
CONTINUOUS
 10
3.355000
 20
2.115960
 11
3.334760
 21
2.115080
  0
LINE
  8
0
 62
     0
  6
CONTINUOUS
 10
3.334760
 20
2.115080
 11
3.315840
 21
2.111560
  0
LINE
  8
0
 62
     0
  6
CONTINUOUS
 10
3.315840
 20
2.111560
 11
3.298240
 21
2.108040
  0
LINE
  8
0
 62
     0
  6
CONTINUOUS
 10
3.298240
 20
2.108040
 11
3.280200
 21
2.101440
  0
LINE
  8
0
 62
     0
  6
CONTINUOUS
 10
3.280200
 20
2.101440
 11
3.261280
 21
2.094840
  0
LINE
  8
0
 62
     0
  6
CONTINUOUS
 10
3.261280
 20
2.094840
 11
3.247640
 21
2.084720
  0
LINE
  8
0
 62
     0
  6
CONTINUOUS
 10
3.247640
 20
2.084720
 11
3.230920
 21
2.074600
  0
LINE
  8
0
 62
     0
  6
CONTINUOUS
 10
3.230920
 20
2.074600
 11
3.216400
 21
2.061400
  0
LINE
  8
0
 62
     0
  6
CONTINUOUS
 10
3.216400
 20
2.061400
 11
3.203200
 21
2.049960
  0
LINE
  8
0
 62
     0
  6
CONTINUOUS
 10
3.203200
 20
2.049960
 11
3.190880
 21
2.034560
  0
LINE
  8
0
 62
     0
  6
CONTINUOUS
 10
3.190880
 20
2.034560
 11
3.179880
 21
2.018720
  0
LINE
  8
0
 62
     0
  6
CONTINUOUS
 10
3.179880
 20
2.018720
 11
3.170640
 21
2.003320
  0
LINE
  8
0
 62
     0
  6
CONTINUOUS
 10
3.170640
 20
2.003320
 11
3.163160
 21
1.985280
  0
LINE
  8
0
 62
     0
  6
CONTINUOUS
 10
3.163160
 20
1.985280
 11
3.157440
 21
1.967680
  0
LINE
  8
0
 62
     0
  6
CONTINUOUS
 10
3.157440
 20
1.967680
 11
3.153040
 21
1.950520
  0
LINE
  8
0
 62
     0
  6
CONTINUOUS
 10
3.153040
 20
1.950520
 11
3.149520
 21
1.930720
  0
LINE
  8
0
 62
     0
  6
CONTINUOUS
 10
3.149520
 20
1.930720
 11
3.149520
 21
1.911800
  0
LINE
  8
0
 62
     0
  6
CONTINUOUS
 10
3.149520
 20
1.911800
 11
3.149520
 21
1.893760
  0
LINE
  8
0
 62
     0
  6
CONTINUOUS
 10
3.149520
 20
1.893760
 11
3.153040
 21
1.873520
  0
LINE
  8
0
 62
     0
  6
CONTINUOUS
 10
3.153040
 20
1.873520
 11
3.156120
 21
1.855920
  0
LINE
  8
0
 62
     0
  6
CONTINUOUS
 10
3.156120
 20
1.855920
 11
3.161840
 21
1.837880
  0
LINE
  8
0
 62
     0
  6
CONTINUOUS
 10
3.161840
 20
1.837880
 11
3.169760
 21
1.821160
  0
LINE
  8
0
 62
     0
  6
CONTINUOUS
 10
3.169760
 20
1.821160
 11
3.177680
 21
1.804440
  0
LINE
  8
0
 62
     0
  6
CONTINUOUS
 10
3.177680
 20
1.804440
 11
3.188680
 21
1.789920
  0
LINE
  8
0
 62
     0
  6
CONTINUOUS
 10
3.188680
 20
1.789920
 11
3.201000
 21
1.773200
  0
LINE
  8
0
 62
     0
  6
CONTINUOUS
 10
3.201000
 20
1.773200
 11
3.214200
 21
1.760880
  0
LINE
  8
0
 62
     0
  6
CONTINUOUS
 10
3.214200
 20
1.760880
 11
3.227840
 21
1.748560
  0
LINE
  8
0
 62
     0
  6
CONTINUOUS
 10
3.227840
 20
1.748560
 11
3.243240
 21
1.737560
  0
LINE
  8
0
 62
     0
  6
CONTINUOUS
 10
3.243240
 20
1.737560
 11
3.259960
 21
1.728320
  0
LINE
  8
0
 62
     0
  6
CONTINUOUS
 10
3.259960
 20
1.728320
 11
3.278000
 21
1.719520
  0
LINE
  8
0
 62
     0
  6
CONTINUOUS
 10
3.278000
 20
1.719520
 11
3.294720
 21
1.712920
  0
LINE
  8
0
 62
     0
  6
CONTINUOUS
 10
3.294720
 20
1.712920
 11
3.313640
 21
1.709400
  0
LINE
  8
0
 62
     0
  6
CONTINUOUS
 10
3.313640
 20
1.709400
 11
3.330360
 21
1.707200
  0
LINE
  8
0
 62
     0
  6
CONTINUOUS
 10
3.330360
 20
1.707200
 11
3.350600
 21
1.705000
  0
LINE
  8
0
 62
     0
  6
CONTINUOUS
 10
3.350600
 20
1.705000
 11
3.369520
 21
1.706320
  0
LINE
  8
0
 62
     0
  6
CONTINUOUS
 10
3.369520
 20
1.706320
 11
3.386240
 21
1.707200
  0
LINE
  8
0
 62
     0
  6
CONTINUOUS
 10
3.386240
 20
1.707200
 11
3.406480
 21
1.711600
  0
LINE
  8
0
 62
     0
  6
CONTINUOUS
 10
3.406480
 20
1.711600
 11
3.424080
 21
1.717320
  0
LINE
  8
0
 62
     0
  6
CONTINUOUS
 10
3.424080
 20
1.717320
 11
3.442120
 21
1.725240
  0
LINE
  8
0
 62
     0
  6
CONTINUOUS
 10
3.442120
 20
1.725240
 11
3.457960
 21
1.734040
  0
LINE
  8
0
 62
     0
  6
CONTINUOUS
 10
3.457960
 20
1.734040
 11
3.474680
 21
1.744160
  0
LINE
  8
0
 62
     0
  6
CONTINUOUS
 10
3.474680
 20
1.744160
 11
3.487880
 21
1.756480
  0
LINE
  8
0
 62
     0
  6
CONTINUOUS
 10
3.487880
 20
1.756480
 11
3.502400
 21
1.768800
  0
LINE
  8
0
 62
     0
  6
CONTINUOUS
 10
3.502400
 20
1.768800
 11
3.514720
 21
1.782000
  0
LINE
  8
0
 62
     0
  6
CONTINUOUS
 10
3.514720
 20
1.782000
 11
3.525720
 21
1.797840
  0
LINE
  8
0
 62
     0
  6
CONTINUOUS
 10
3.525720
 20
1.797840
 11
3.535840
 21
1.814560
  0
LINE
  8
0
 62
     0
  6
CONTINUOUS
 10
3.535840
 20
1.814560
 11
3.542880
 21
1.831280
  0
LINE
  8
0
 62
     0
  6
CONTINUOUS
 10
3.542880
 20
1.831280
 11
3.549480
 21
1.848880
  0
LINE
  8
0
 62
     0
  6
CONTINUOUS
 10
3.549480
 20
1.848880
 11
3.553880
 21
1.866920
  0
LINE
  8
0
 62
     0
  6
CONTINUOUS
 10
3.553880
 20
1.866920
 11
3.558280
 21
1.885840
  0
LINE
  8
0
 62
     0
  6
CONTINUOUS
 10
3.559600
 20
1.806640
 11
3.559600
 21
1.725240
  0
LINE
  8
0
 62
     0
  6
CONTINUOUS
 10
3.532760
 20
1.677280
 11
3.532760
 21
1.609080
  0
LINE
  8
0
 62
     0
  6
CONTINUOUS
 10
3.643200
 20
1.609080
 11
3.643200
 21
1.723920
  0
LINE
  8
0
 62
     0
  6
CONTINUOUS
 10
3.691160
 20
1.739760
 11
3.752760
 21
1.677280
  0
LINE
  8
0
 62
     0
  6
CONTINUOUS
 10
3.752760
 20
1.677280
 11
3.752760
 21
1.609080
  0
LINE
  8
0
 62
     0
  6
CONTINUOUS
 10
3.752760
 20
1.609080
 11
3.761560
 21
1.611280
  0
LINE
  8
0
 62
     0
  6
CONTINUOUS
 10
3.761560
 20
1.611280
 11
3.761560
 21
1.606880
  0
LINE
  8
0
 62
     0
  6
CONTINUOUS
 10
3.761560
 20
1.606880
 11
3.752760
 21
1.609080
  0
LINE
  8
0
 62
     0
  6
CONTINUOUS
 10
3.752760
 20
1.609080
 11
3.760240
 21
1.613480
  0
LINE
  8
0
 62
     0
  6
CONTINUOUS
 10
3.758040
 20
1.617880
 11
3.752760
 21
1.609080
  0
LINE
  8
0
 62
     0
  6
CONTINUOUS
 10
3.752760
 20
1.609080
 11
3.753640
 21
1.617880
  0
LINE
  8
0
 62
     0
  6
CONTINUOUS
 10
3.753640
 20
1.617880
 11
3.750560
 21
1.617880
  0
LINE
  8
0
 62
     0
  6
CONTINUOUS
 10
3.750560
 20
1.617880
 11
3.752760
 21
1.609080
  0
LINE
  8
0
 62
     0
  6
CONTINUOUS
 10
3.752760
 20
1.609080
 11
3.747040
 21
1.617880
  0
LINE
  8
0
 62
     0
  6
CONTINUOUS
 10
3.743520
 20
1.613480
 11
3.752760
 21
1.609080
  0
LINE
  8
0
 62
     0
  6
CONTINUOUS
 10
3.752760
 20
1.609080
 11
3.742640
 21
1.606880
  0
LINE
  8
0
 62
     0
  6
CONTINUOUS
 10
3.742640
 20
1.606880
 11
3.742640
 21
1.611280
  0
LINE
  8
0
 62
     0
  6
CONTINUOUS
 10
3.742640
 20
1.611280
 11
3.752760
 21
1.609080
  0
LINE
  8
0
 62
     0
  6
CONTINUOUS
 10
3.752760
 20
1.609080
 11
3.743520
 21
1.603360
  0
LINE
  8
0
 62
     0
  6
CONTINUOUS
 10
3.747040
 20
1.601160
 11
3.752760
 21
1.609080
  0
LINE
  8
0
 62
     0
  6
CONTINUOUS
 10
3.752760
 20
1.609080
 11
3.750560
 21
1.597640
  0
LINE
  8
0
 62
     0
  6
CONTINUOUS
 10
3.750560
 20
1.597640
 11
3.753640
 21
1.597640
  0
LINE
  8
0
 62
     0
  6
CONTINUOUS
 10
3.753640
 20
1.597640
 11
3.752760
 21
1.609080
  0
LINE
  8
0
 62
     0
  6
CONTINUOUS
 10
3.752760
 20
1.609080
 11
3.758040
 21
1.601160
  0
LINE
  8
0
 62
     0
  6
CONTINUOUS
 10
3.760240
 20
1.603360
 11
3.752760
 21
1.609080
  0
LINE
  8
0
 62
     0
  6
CONTINUOUS
 10
3.722400
 20
1.705000
 11
3.722400
 21
1.806640
  0
LINE
  8
0
 62
     0
  6
CONTINUOUS
 10
3.722400
 20
1.725240
 11
3.444320
 21
1.725240
  0
LINE
  8
0
 62
     0
  6
CONTINUOUS
 10
3.305720
 20
1.804440
 11
3.313640
 21
1.823360
  0
LINE
  8
0
 62
     0
  6
CONTINUOUS
 10
3.275800
 20
1.852400
 11
3.259080
 21
1.839200
  0
LINE
  8
0
 62
     0
  6
CONTINUOUS
 10
3.259960
 20
1.877920
 11
3.242360
 21
1.868240
  0
LINE
  8
0
 62
     0
  6
CONTINUOUS
 10
3.230920
 20
1.917080
 11
3.251160
 21
1.917080
  0
LINE
  8
0
 62
     0
  6
CONTINUOUS
 10
3.259960
 20
1.957560
 11
3.242360
 21
1.965040
  0
LINE
  8
0
 62
     0
  6
CONTINUOUS
 10
3.282400
 20
1.983080
 11
3.267000
 21
1.996720
  0
LINE
  8
0
 62
     0
  6
CONTINUOUS
 10
3.312760
 20
2.004200
 11
3.305720
 21
2.022240
  0
LINE
  8
0
 62
     0
  6
CONTINUOUS
 10
3.355000
 20
2.018720
 11
3.355000
 21
2.040280
  0
LINE
  8
0
 62
     0
  6
CONTINUOUS
 10
3.402960
 20
2.031040
 11
3.394160
 21
2.011240
  0
LINE
  8
0
 62
     0
  6
CONTINUOUS
 10
2.418240
 20
1.861200
 11
2.355760
 21
1.889360
  0
LINE
  8
0
 62
     0
  6
CONTINUOUS
 10
2.355760
 20
1.898160
 11
2.418240
 21
1.925000
  0
LINE
  8
0
 62
     0
  6
CONTINUOUS
 10
2.418240
 20
1.917080
 11
2.355760
 21
1.945240
  0
LINE
  8
0
 62
     0
  6
CONTINUOUS
 10
2.355760
 20
1.945240
 11
2.418240
 21
1.972080
  0
LINE
  8
0
 62
     0
  6
CONTINUOUS
 10
2.418240
 20
1.957560
 11
2.355760
 21
1.984400
  0
LINE
  8
0
 62
     0
  6
CONTINUOUS
 10
2.355760
 20
1.991000
 11
2.418240
 21
2.017840
  0
LINE
  8
0
 62
     0
  6
CONTINUOUS
 10
2.418240
 20
2.011240
 11
2.355760
 21
2.037640
  0
LINE
  8
0
 62
     0
  6
CONTINUOUS
 10
2.355760
 20
2.028840
 11
2.418240
 21
2.054800
  0
LINE
  8
0
 62
     0
  6
CONTINUOUS
 10
2.418240
 20
2.060080
 11
2.355760
 21
2.086920
  0
LINE
  8
0
 62
     0
  6
CONTINUOUS
 10
2.355760
 20
2.080320
 11
2.418240
 21
2.107160
  0
LINE
  8
0
 62
     0
  6
CONTINUOUS
 10
2.418240
 20
2.123880
 11
2.418240
 21
1.701480
  0
LINE
  8
0
 62
     0
  6
CONTINUOUS
 10
2.418240
 20
1.710720
 11
2.355760
 21
1.737560
  0
LINE
  8
0
 62
     0
  6
CONTINUOUS
 10
2.355760
 20
1.729640
 11
2.418240
 21
1.757360
  0
LINE
  8
0
 62
     0
  6
CONTINUOUS
 10
2.418240
 20
1.763080
 11
2.355760
 21
1.789920
  0
LINE
  8
0
 62
     0
  6
CONTINUOUS
 10
2.355760
 20
1.800040
 11
2.418240
 21
1.826880
  0
LINE
  8
0
 62
     0
  6
CONTINUOUS
 10
2.418240
 20
1.826880
 11
2.418240
 21
1.829080
  0
LINE
  8
0
 62
     0
  6
CONTINUOUS
 10
2.418240
 20
1.829080
 11
2.355760
 21
1.855920
  0
LINE
  8
0
 62
     0
  6
CONTINUOUS
 10
2.355760
 20
1.855920
 11
2.418240
 21
1.883640
  0
LINE
  8
0
 62
     0
  6
CONTINUOUS
 10
2.418240
 20
1.891560
 11
2.355760
 21
1.919280
  0
LINE
  8
0
 62
     0
  6
CONTINUOUS
 10
2.355760
 20
1.928520
 11
2.418240
 21
1.955360
  0
LINE
  8
0
 62
     0
  6
CONTINUOUS
 10
2.418240
 20
1.933800
 11
2.355760
 21
1.960640
  0
LINE
  8
0
 62
     0
  6
CONTINUOUS
 10
2.355760
 20
1.960640
 11
2.418240
 21
1.988800
  0
LINE
  8
0
 62
     0
  6
CONTINUOUS
 10
2.418240
 20
1.988800
 11
2.418240
 21
1.989680
  0
LINE
  8
0
 62
     0
  6
CONTINUOUS
 10
2.418240
 20
1.989680
 11
2.355760
 21
2.016520
  0
LINE
  8
0
 62
     0
  6
CONTINUOUS
 10
2.355760
 20
2.005520
 11
2.418240
 21
2.032360
  0
LINE
  8
0
 62
     0
  6
CONTINUOUS
 10
2.418240
 20
2.032360
 11
2.418240
 21
2.034560
  0
LINE
  8
0
 62
     0
  6
CONTINUOUS
 10
2.418240
 20
2.034560
 11
2.355760
 21
2.060080
  0
LINE
  8
0
 62
     0
  6
CONTINUOUS
 10
2.355760
 20
2.053480
 11
2.418240
 21
2.080320
  0
LINE
  8
0
 62
     0
  6
CONTINUOUS
 10
2.418240
 20
2.080320
 11
2.418240
 21
2.082520
  0
LINE
  8
0
 62
     0
  6
CONTINUOUS
 10
2.418240
 20
2.082520
 11
2.355760
 21
2.110240
  0
LINE
  8
0
 62
     0
  6
CONTINUOUS
 10
2.355760
 20
2.123880
 11
2.355760
 21
1.701480
  0
LINE
  8
0
 62
     0
  6
CONTINUOUS
 10
2.355760
 20
1.707200
 11
2.418240
 21
1.734040
  0
LINE
  8
0
 62
     0
  6
CONTINUOUS
 10
2.418240
 20
1.734040
 11
2.418240
 21
1.736240
  0
LINE
  8
0
 62
     0
  6
CONTINUOUS
 10
2.418240
 20
1.736240
 11
2.355760
 21
1.763080
  0
LINE
  8
0
 62
     0
  6
CONTINUOUS
 10
2.355760
 20
1.769680
 11
2.418240
 21
1.742840
  0
LINE
  8
0
 62
     0
  6
CONTINUOUS
 10
2.418240
 20
1.783320
 11
2.355760
 21
1.757360
  0
LINE
  8
0
 62
     0
  6
CONTINUOUS
 10
2.355760
 20
1.778920
 11
2.418240
 21
1.806640
  0
LINE
  8
0
 62
     0
  6
CONTINUOUS
 10
2.418240
 20
1.798720
 11
2.355760
 21
1.825560
  0
LINE
  8
0
 62
     0
  6
CONTINUOUS
 10
2.355760
 20
1.833480
 11
2.418240
 21
1.859000
  0
LINE
  8
0
 62
     0
  6
CONTINUOUS
 10
2.418240
 20
1.844480
 11
2.355760
 21
1.872640
  0
LINE
  8
0
 62
     0
  6
CONTINUOUS
 10
2.355760
 20
1.872640
 11
2.355760
 21
1.871320
  0
LINE
  8
0
 62
     0
  6
CONTINUOUS
 10
2.355760
 20
1.871320
 11
2.418240
 21
1.899480
  0
LINE
  8
0
 62
     0
  6
CONTINUOUS
 10
2.418240
 20
1.786400
 11
2.355760
 21
1.812360
  0
LINE
  8
0
 62
     0
  6
CONTINUOUS
 10
2.271720
 20
1.701480
 11
4.789840
 21
1.701480
  0
LINE
  8
0
 62
     0
  6
CONTINUOUS
 10
4.789840
 20
1.701480
 11
4.788520
 21
1.701480
  0
LINE
  8
0
 62
     0
  6
CONTINUOUS
 10
4.788520
 20
1.701480
 11
5.007640
 21
1.904760
  0
LINE
  8
0
 62
     0
  6
CONTINUOUS
 10
5.007640
 20
1.904760
 11
4.789840
 21
2.123880
  0
LINE
  8
0
 62
     0
  6
CONTINUOUS
 10
2.418240
 20
2.074600
 11
2.355760
 21
2.047760
  0
LINE
  8
0
 62
     0
  6
CONTINUOUS
 10
2.255000
 20
1.623600
 11
2.178440
 21
1.461680
  0
LINE
  8
0
 62
     0
  6
CONTINUOUS
 10
2.104520
 20
1.461680
 11
2.181960
 21
1.623600
  0
LINE
  8
0
 62
     0
  6
CONTINUOUS
 10
2.212760
 20
1.558920
 11
2.220240
 21
1.549680
  0
LINE
  8
0
 62
     0
  6
CONTINUOUS
 10
2.220240
 20
1.549680
 11
2.215840
 21
1.561120
  0
LINE
  8
0
 62
     0
  6
CONTINUOUS
 10
2.215840
 20
1.561120
 11
2.220240
 21
1.549680
  0
LINE
  8
0
 62
     0
  6
CONTINUOUS
 10
2.220240
 20
1.549680
 11
2.220240
 21
1.562000
  0
LINE
  8
0
 62
     0
  6
CONTINUOUS
 10
2.220240
 20
1.562000
 11
2.220240
 21
1.549680
  0
LINE
  8
0
 62
     0
  6
CONTINUOUS
 10
2.220240
 20
1.549680
 11
2.225080
 21
1.561120
  0
LINE
  8
0
 62
     0
  6
CONTINUOUS
 10
2.225080
 20
1.561120
 11
2.220240
 21
1.549680
  0
LINE
  8
0
 62
     0
  6
CONTINUOUS
 10
2.220240
 20
1.549680
 11
2.230360
 21
1.558920
  0
LINE
  8
0
 62
     0
  6
CONTINUOUS
 10
2.230360
 20
1.558920
 11
2.220240
 21
1.549680
  0
LINE
  8
0
 62
     0
  6
CONTINUOUS
 10
2.220240
 20
1.549680
 11
2.232560
 21
1.554080
  0
LINE
  8
0
 62
     0
  6
CONTINUOUS
 10
2.232560
 20
1.554080
 11
2.220240
 21
1.549680
  0
LINE
  8
0
 62
     0
  6
CONTINUOUS
 10
2.220240
 20
1.549680
 11
2.233880
 21
1.549680
  0
LINE
  8
0
 62
     0
  6
CONTINUOUS
 10
2.233880
 20
1.549680
 11
2.220240
 21
1.549680
  0
LINE
  8
0
 62
     0
  6
CONTINUOUS
 10
2.220240
 20
1.549680
 11
2.232560
 21
1.545280
  0
LINE
  8
0
 62
     0
  6
CONTINUOUS
 10
2.232560
 20
1.545280
 11
2.220240
 21
1.549680
  0
LINE
  8
0
 62
     0
  6
CONTINUOUS
 10
2.220240
 20
1.549680
 11
2.230360
 21
1.540880
  0
LINE
  8
0
 62
     0
  6
CONTINUOUS
 10
2.230360
 20
1.540880
 11
2.220240
 21
1.549680
  0
LINE
  8
0
 62
     0
  6
CONTINUOUS
 10
2.220240
 20
1.549680
 11
2.225080
 21
1.537360
  0
LINE
  8
0
 62
     0
  6
CONTINUOUS
 10
2.225080
 20
1.537360
 11
2.220240
 21
1.549680
  0
LINE
  8
0
 62
     0
  6
CONTINUOUS
 10
2.220240
 20
1.549680
 11
2.220240
 21
1.537360
  0
LINE
  8
0
 62
     0
  6
CONTINUOUS
 10
2.220240
 20
1.537360
 11
2.220240
 21
1.549680
  0
LINE
  8
0
 62
     0
  6
CONTINUOUS
 10
2.220240
 20
1.549680
 11
2.215840
 21
1.537360
  0
LINE
  8
0
 62
     0
  6
CONTINUOUS
 10
2.215840
 20
1.537360
 11
2.220240
 21
1.549680
  0
LINE
  8
0
 62
     0
  6
CONTINUOUS
 10
2.220240
 20
1.549680
 11
2.212760
 21
1.540880
  0
LINE
  8
0
 62
     0
  6
CONTINUOUS
 10
2.212760
 20
1.540880
 11
2.220240
 21
1.549680
  0
LINE
  8
0
 62
     0
  6
CONTINUOUS
 10
2.220240
 20
1.549680
 11
2.209240
 21
1.545280
  0
LINE
  8
0
 62
     0
  6
CONTINUOUS
 10
2.209240
 20
1.545280
 11
2.220240
 21
1.549680
  0
LINE
  8
0
 62
     0
  6
CONTINUOUS
 10
2.220240
 20
1.549680
 11
2.209240
 21
1.549680
  0
LINE
  8
0
 62
     0
  6
CONTINUOUS
 10
2.209240
 20
1.549680
 11
2.220240
 21
1.549680
  0
LINE
  8
0
 62
     0
  6
CONTINUOUS
 10
2.220240
 20
1.549680
 11
2.209240
 21
1.554080
  0
LINE
  8
0
 62
     0
  6
CONTINUOUS
 10
2.209240
 20
1.554080
 11
2.220240
 21
1.549680
  0
LINE
  8
0
 62
     0
  6
CONTINUOUS
 10
2.220240
 20
1.549680
 11
2.212760
 21
1.558920
  0
LINE
  8
0
 62
     0
  6
CONTINUOUS
 10
2.212760
 20
1.558920
 11
2.209240
 21
1.554080
  0
LINE
  8
0
 62
     0
  6
CONTINUOUS
 10
2.209240
 20
1.554080
 11
2.209240
 21
1.549680
  0
LINE
  8
0
 62
     0
  6
CONTINUOUS
 10
2.209240
 20
1.549680
 11
2.209240
 21
1.545280
  0
LINE
  8
0
 62
     0
  6
CONTINUOUS
 10
2.209240
 20
1.545280
 11
2.212760
 21
1.540880
  0
LINE
  8
0
 62
     0
  6
CONTINUOUS
 10
2.212760
 20
1.540880
 11
2.215840
 21
1.537360
  0
LINE
  8
0
 62
     0
  6
CONTINUOUS
 10
2.215840
 20
1.537360
 11
2.220240
 21
1.537360
  0
LINE
  8
0
 62
     0
  6
CONTINUOUS
 10
2.220240
 20
1.537360
 11
2.220240
 21
1.549680
  0
LINE
  8
0
 62
     0
  6
CONTINUOUS
 10
2.220240
 20
1.549680
 11
2.220240
 21
1.562000
  0
LINE
  8
0
 62
     0
  6
CONTINUOUS
 10
2.220240
 20
1.562000
 11
2.215840
 21
1.561120
  0
LINE
  8
0
 62
     0
  6
CONTINUOUS
 10
2.215840
 20
1.561120
 11
2.212760
 21
1.558920
  0
LINE
  8
0
 62
     0
  6
CONTINUOUS
 10
2.209240
 20
1.555400
 11
2.215840
 21
1.555400
  0
LINE
  8
0
 62
     0
  6
CONTINUOUS
 10
2.219360
 20
1.551000
 11
2.209240
 21
1.551000
  0
LINE
  8
0
 62
     0
  6
CONTINUOUS
 10
2.223760
 20
1.551000
 11
2.233880
 21
1.551000
  0
LINE
  8
0
 62
     0
  6
CONTINUOUS
 10
2.233880
 20
1.551000
 11
2.233880
 21
1.549680
  0
LINE
  8
0
 62
     0
  6
CONTINUOUS
 10
2.233880
 20
1.549680
 11
2.232560
 21
1.554080
  0
LINE
  8
0
 62
     0
  6
CONTINUOUS
 10
2.232560
 20
1.554080
 11
2.230360
 21
1.558920
  0
LINE
  8
0
 62
     0
  6
CONTINUOUS
 10
2.230360
 20
1.558920
 11
2.225080
 21
1.561120
  0
LINE
  8
0
 62
     0
  6
CONTINUOUS
 10
2.225080
 20
1.561120
 11
2.220240
 21
1.562000
  0
LINE
  8
0
 62
     0
  6
CONTINUOUS
 10
2.227280
 20
1.561120
 11
2.227280
 21
1.555400
  0
LINE
  8
0
 62
     0
  6
CONTINUOUS
 10
2.227280
 20
1.555400
 11
2.225080
 21
1.555400
  0
LINE
  8
0
 62
     0
  6
CONTINUOUS
 10
2.225080
 20
1.555400
 11
2.231680
 21
1.555400
  0
LINE
  8
0
 62
     0
  6
CONTINUOUS
 10
2.233880
 20
1.549680
 11
2.232560
 21
1.545280
  0
LINE
  8
0
 62
     0
  6
CONTINUOUS
 10
2.232560
 20
1.545280
 11
2.230360
 21
1.540880
  0
LINE
  8
0
 62
     0
  6
CONTINUOUS
 10
2.230360
 20
1.540880
 11
2.225080
 21
1.537360
  0
LINE
  8
0
 62
     0
  6
CONTINUOUS
 10
2.225080
 20
1.537360
 11
2.220240
 21
1.537360
  0
LINE
  8
0
 62
     0
  6
CONTINUOUS
 10
2.227280
 20
1.537360
 11
2.227280
 21
1.544400
  0
LINE
  8
0
 62
     0
  6
CONTINUOUS
 10
2.159520
 20
1.545280
 11
2.149400
 21
1.549680
  0
LINE
  8
0
 62
     0
  6
CONTINUOUS
 10
2.149400
 20
1.549680
 11
2.157320
 21
1.540880
  0
LINE
  8
0
 62
     0
  6
CONTINUOUS
 10
2.157320
 20
1.540880
 11
2.149400
 21
1.549680
  0
LINE
  8
0
 62
     0
  6
CONTINUOUS
 10
2.149400
 20
1.549680
 11
2.153800
 21
1.537360
  0
LINE
  8
0
 62
     0
  6
CONTINUOUS
 10
2.153800
 20
1.537360
 11
2.149400
 21
1.549680
  0
LINE
  8
0
 62
     0
  6
CONTINUOUS
 10
2.149400
 20
1.549680
 11
2.149400
 21
1.537360
  0
LINE
  8
0
 62
     0
  6
CONTINUOUS
 10
2.149400
 20
1.537360
 11
2.149400
 21
1.549680
  0
LINE
  8
0
 62
     0
  6
CONTINUOUS
 10
2.149400
 20
1.549680
 11
2.143680
 21
1.537360
  0
LINE
  8
0
 62
     0
  6
CONTINUOUS
 10
2.143680
 20
1.537360
 11
2.149400
 21
1.549680
  0
LINE
  8
0
 62
     0
  6
CONTINUOUS
 10
2.149400
 20
1.549680
 11
2.140600
 21
1.540880
  0
LINE
  8
0
 62
     0
  6
CONTINUOUS
 10
2.140600
 20
1.540880
 11
2.149400
 21
1.549680
  0
LINE
  8
0
 62
     0
  6
CONTINUOUS
 10
2.149400
 20
1.549680
 11
2.135760
 21
1.545280
  0
LINE
  8
0
 62
     0
  6
CONTINUOUS
 10
2.135760
 20
1.545280
 11
2.149400
 21
1.549680
  0
LINE
  8
0
 62
     0
  6
CONTINUOUS
 10
2.149400
 20
1.549680
 11
2.135760
 21
1.549680
  0
LINE
  8
0
 62
     0
  6
CONTINUOUS
 10
2.135760
 20
1.549680
 11
2.149400
 21
1.549680
  0
LINE
  8
0
 62
     0
  6
CONTINUOUS
 10
2.149400
 20
1.549680
 11
2.135760
 21
1.554080
  0
LINE
  8
0
 62
     0
  6
CONTINUOUS
 10
2.135760
 20
1.554080
 11
2.149400
 21
1.549680
  0
LINE
  8
0
 62
     0
  6
CONTINUOUS
 10
2.149400
 20
1.549680
 11
2.140600
 21
1.558920
  0
LINE
  8
0
 62
     0
  6
CONTINUOUS
 10
2.140600
 20
1.558920
 11
2.149400
 21
1.549680
  0
LINE
  8
0
 62
     0
  6
CONTINUOUS
 10
2.149400
 20
1.549680
 11
2.143680
 21
1.561120
  0
LINE
  8
0
 62
     0
  6
CONTINUOUS
 10
2.143680
 20
1.561120
 11
2.149400
 21
1.549680
  0
LINE
  8
0
 62
     0
  6
CONTINUOUS
 10
2.149400
 20
1.549680
 11
2.149400
 21
1.562000
  0
LINE
  8
0
 62
     0
  6
CONTINUOUS
 10
2.149400
 20
1.562000
 11
2.149400
 21
1.549680
  0
LINE
  8
0
 62
     0
  6
CONTINUOUS
 10
2.149400
 20
1.549680
 11
2.153800
 21
1.561120
  0
LINE
  8
0
 62
     0
  6
CONTINUOUS
 10
2.153800
 20
1.561120
 11
2.149400
 21
1.549680
  0
LINE
  8
0
 62
     0
  6
CONTINUOUS
 10
2.149400
 20
1.549680
 11
2.157320
 21
1.558920
  0
LINE
  8
0
 62
     0
  6
CONTINUOUS
 10
2.157320
 20
1.558920
 11
2.149400
 21
1.549680
  0
LINE
  8
0
 62
     0
  6
CONTINUOUS
 10
2.149400
 20
1.549680
 11
2.159520
 21
1.554080
  0
LINE
  8
0
 62
     0
  6
CONTINUOUS
 10
2.159520
 20
1.554080
 11
2.149400
 21
1.549680
  0
LINE
  8
0
 62
     0
  6
CONTINUOUS
 10
2.149400
 20
1.549680
 11
2.160400
 21
1.549680
  0
LINE
  8
0
 62
     0
  6
CONTINUOUS
 10
2.160400
 20
1.549680
 11
2.149400
 21
1.549680
  0
LINE
  8
0
 62
     0
  6
CONTINUOUS
 10
2.149400
 20
1.549680
 11
2.159520
 21
1.545280
  0
LINE
  8
0
 62
     0
  6
CONTINUOUS
 10
2.159520
 20
1.545280
 11
2.160400
 21
1.549680
  0
LINE
  8
0
 62
     0
  6
CONTINUOUS
 10
2.160400
 20
1.549680
 11
2.159520
 21
1.554080
  0
LINE
  8
0
 62
     0
  6
CONTINUOUS
 10
2.159520
 20
1.554080
 11
2.157320
 21
1.558920
  0
LINE
  8
0
 62
     0
  6
CONTINUOUS
 10
2.157320
 20
1.558920
 11
2.153800
 21
1.561120
  0
LINE
  8
0
 62
     0
  6
CONTINUOUS
 10
2.153800
 20
1.561120
 11
2.149400
 21
1.562000
  0
LINE
  8
0
 62
     0
  6
CONTINUOUS
 10
2.149400
 20
1.562000
 11
2.143680
 21
1.561120
  0
LINE
  8
0
 62
     0
  6
CONTINUOUS
 10
2.143680
 20
1.561120
 11
2.140600
 21
1.558920
  0
LINE
  8
0
 62
     0
  6
CONTINUOUS
 10
2.140600
 20
1.558920
 11
2.135760
 21
1.554080
  0
LINE
  8
0
 62
     0
  6
CONTINUOUS
 10
2.135760
 20
1.554080
 11
2.135760
 21
1.549680
  0
LINE
  8
0
 62
     0
  6
CONTINUOUS
 10
2.135760
 20
1.549680
 11
2.135760
 21
1.545280
  0
LINE
  8
0
 62
     0
  6
CONTINUOUS
 10
2.135760
 20
1.545280
 11
2.140600
 21
1.540880
  0
LINE
  8
0
 62
     0
  6
CONTINUOUS
 10
2.140600
 20
1.540880
 11
2.143680
 21
1.537360
  0
LINE
  8
0
 62
     0
  6
CONTINUOUS
 10
2.143680
 20
1.537360
 11
2.149400
 21
1.537360
  0
LINE
  8
0
 62
     0
  6
CONTINUOUS
 10
2.149400
 20
1.537360
 11
2.153800
 21
1.537360
  0
LINE
  8
0
 62
     0
  6
CONTINUOUS
 10
2.153800
 20
1.537360
 11
2.157320
 21
1.540880
  0
LINE
  8
0
 62
     0
  6
CONTINUOUS
 10
2.157320
 20
1.540880
 11
2.159520
 21
1.545280
  0
LINE
  8
0
 62
     0
  6
CONTINUOUS
 10
2.160400
 20
1.551000
 11
2.150280
 21
1.551000
  0
LINE
  8
0
 62
     0
  6
CONTINUOUS
 10
2.150280
 20
1.551000
 11
2.150280
 21
1.553200
  0
LINE
  8
0
 62
     0
  6
CONTINUOUS
 10
2.150280
 20
1.553200
 11
2.150280
 21
1.562000
  0
LINE
  8
0
 62
     0
  6
CONTINUOUS
 10
2.153800
 20
1.555400
 11
2.159520
 21
1.555400
  0
LINE
  8
0
 62
     0
  6
CONTINUOUS
 10
2.143680
 20
1.555400
 11
2.138400
 21
1.555400
  0
LINE
  8
0
 62
     0
  6
CONTINUOUS
 10
2.135760
 20
1.551000
 11
2.145880
 21
1.551000
  0
LINE
  8
0
 62
     0
  6
CONTINUOUS
 10
2.150280
 20
1.546600
 11
2.150280
 21
1.537360
  0
LINE
  8
0
 62
     0
  6
CONTINUOUS
 10
2.073280
 20
1.540880
 11
2.064480
 21
1.549680
  0
LINE
  8
0
 62
     0
  6
CONTINUOUS
 10
2.064480
 20
1.549680
 11
2.068880
 21
1.537360
  0
LINE
  8
0
 62
     0
  6
CONTINUOUS
 10
2.068880
 20
1.537360
 11
2.064480
 21
1.549680
  0
LINE
  8
0
 62
     0
  6
CONTINUOUS
 10
2.064480
 20
1.549680
 11
2.064480
 21
1.537360
  0
LINE
  8
0
 62
     0
  6
CONTINUOUS
 10
2.064480
 20
1.537360
 11
2.064480
 21
1.549680
  0
LINE
  8
0
 62
     0
  6
CONTINUOUS
 10
2.064480
 20
1.549680
 11
2.060080
 21
1.537360
  0
LINE
  8
0
 62
     0
  6
CONTINUOUS
 10
2.060080
 20
1.537360
 11
2.064480
 21
1.549680
  0
LINE
  8
0
 62
     0
  6
CONTINUOUS
 10
2.064480
 20
1.549680
 11
2.055680
 21
1.540880
  0
LINE
  8
0
 62
     0
  6
CONTINUOUS
 10
2.055680
 20
1.540880
 11
2.064480
 21
1.549680
  0
LINE
  8
0
 62
     0
  6
CONTINUOUS
 10
2.064480
 20
1.549680
 11
2.054360
 21
1.545280
  0
LINE
  8
0
 62
     0
  6
CONTINUOUS
 10
2.054360
 20
1.545280
 11
2.064480
 21
1.549680
  0
LINE
  8
0
 62
     0
  6
CONTINUOUS
 10
2.064480
 20
1.549680
 11
2.052160
 21
1.549680
  0
LINE
  8
0
 62
     0
  6
CONTINUOUS
 10
2.052160
 20
1.549680
 11
2.064480
 21
1.549680
  0
LINE
  8
0
 62
     0
  6
CONTINUOUS
 10
2.064480
 20
1.549680
 11
2.054360
 21
1.554080
  0
LINE
  8
0
 62
     0
  6
CONTINUOUS
 10
2.054360
 20
1.554080
 11
2.064480
 21
1.549680
  0
LINE
  8
0
 62
     0
  6
CONTINUOUS
 10
2.064480
 20
1.549680
 11
2.055680
 21
1.558920
  0
LINE
  8
0
 62
     0
  6
CONTINUOUS
 10
2.055680
 20
1.558920
 11
2.064480
 21
1.549680
  0
LINE
  8
0
 62
     0
  6
CONTINUOUS
 10
2.064480
 20
1.549680
 11
2.060080
 21
1.561120
  0
LINE
  8
0
 62
     0
  6
CONTINUOUS
 10
2.060080
 20
1.561120
 11
2.064480
 21
1.549680
  0
LINE
  8
0
 62
     0
  6
CONTINUOUS
 10
2.064480
 20
1.549680
 11
2.064480
 21
1.562000
  0
LINE
  8
0
 62
     0
  6
CONTINUOUS
 10
2.064480
 20
1.562000
 11
2.064480
 21
1.549680
  0
LINE
  8
0
 62
     0
  6
CONTINUOUS
 10
2.064480
 20
1.549680
 11
2.068880
 21
1.561120
  0
LINE
  8
0
 62
     0
  6
CONTINUOUS
 10
2.068880
 20
1.561120
 11
2.064480
 21
1.549680
  0
LINE
  8
0
 62
     0
  6
CONTINUOUS
 10
2.064480
 20
1.549680
 11
2.073280
 21
1.558920
  0
LINE
  8
0
 62
     0
  6
CONTINUOUS
 10
2.073280
 20
1.558920
 11
2.064480
 21
1.549680
  0
LINE
  8
0
 62
     0
  6
CONTINUOUS
 10
2.064480
 20
1.549680
 11
2.078120
 21
1.554080
  0
LINE
  8
0
 62
     0
  6
CONTINUOUS
 10
2.078120
 20
1.554080
 11
2.064480
 21
1.549680
  0
LINE
  8
0
 62
     0
  6
CONTINUOUS
 10
2.064480
 20
1.549680
 11
2.078120
 21
1.549680
  0
LINE
  8
0
 62
     0
  6
CONTINUOUS
 10
2.078120
 20
1.549680
 11
2.064480
 21
1.549680
  0
LINE
  8
0
 62
     0
  6
CONTINUOUS
 10
2.064480
 20
1.549680
 11
2.078120
 21
1.545280
  0
LINE
  8
0
 62
     0
  6
CONTINUOUS
 10
2.078120
 20
1.545280
 11
2.064480
 21
1.549680
  0
LINE
  8
0
 62
     0
  6
CONTINUOUS
 10
2.064480
 20
1.549680
 11
2.073280
 21
1.540880
  0
LINE
  8
0
 62
     0
  6
CONTINUOUS
 10
2.073280
 20
1.540880
 11
2.078120
 21
1.545280
  0
LINE
  8
0
 62
     0
  6
CONTINUOUS
 10
2.078120
 20
1.545280
 11
2.078120
 21
1.549680
  0
LINE
  8
0
 62
     0
  6
CONTINUOUS
 10
2.078120
 20
1.549680
 11
2.078120
 21
1.554080
  0
LINE
  8
0
 62
     0
  6
CONTINUOUS
 10
2.078120
 20
1.554080
 11
2.073280
 21
1.558920
  0
LINE
  8
0
 62
     0
  6
CONTINUOUS
 10
2.073280
 20
1.558920
 11
2.068880
 21
1.561120
  0
LINE
  8
0
 62
     0
  6
CONTINUOUS
 10
2.068880
 20
1.561120
 11
2.064480
 21
1.562000
  0
LINE
  8
0
 62
     0
  6
CONTINUOUS
 10
2.064480
 20
1.562000
 11
2.064480
 21
1.549680
  0
LINE
  8
0
 62
     0
  6
CONTINUOUS
 10
2.064480
 20
1.549680
 11
2.064480
 21
1.537360
  0
LINE
  8
0
 62
     0
  6
CONTINUOUS
 10
2.064480
 20
1.537360
 11
2.064480
 21
1.549680
  0
LINE
  8
0
 62
     0
  6
CONTINUOUS
 10
2.064480
 20
1.549680
 11
2.064480
 21
1.562000
  0
LINE
  8
0
 62
     0
  6
CONTINUOUS
 10
2.064480
 20
1.562000
 11
2.060080
 21
1.561120
  0
LINE
  8
0
 62
     0
  6
CONTINUOUS
 10
2.060080
 20
1.561120
 11
2.055680
 21
1.558920
  0
LINE
  8
0
 62
     0
  6
CONTINUOUS
 10
2.055680
 20
1.558920
 11
2.054360
 21
1.554080
  0
LINE
  8
0
 62
     0
  6
CONTINUOUS
 10
2.054360
 20
1.554080
 11
2.052160
 21
1.549680
  0
LINE
  8
0
 62
     0
  6
CONTINUOUS
 10
2.052160
 20
1.549680
 11
2.054360
 21
1.545280
  0
LINE
  8
0
 62
     0
  6
CONTINUOUS
 10
2.054360
 20
1.545280
 11
2.055680
 21
1.540880
  0
LINE
  8
0
 62
     0
  6
CONTINUOUS
 10
2.055680
 20
1.540880
 11
2.060080
 21
1.537360
  0
LINE
  8
0
 62
     0
  6
CONTINUOUS
 10
2.060080
 20
1.537360
 11
2.064480
 21
1.537360
  0
LINE
  8
0
 62
     0
  6
CONTINUOUS
 10
2.064480
 20
1.537360
 11
2.068880
 21
1.537360
  0
LINE
  8
0
 62
     0
  6
CONTINUOUS
 10
2.068880
 20
1.537360
 11
2.073280
 21
1.540880
  0
LINE
  8
0
 62
     0
  6
CONTINUOUS
 10
2.078120
 20
1.551000
 11
2.066680
 21
1.551000
  0
LINE
  8
0
 62
     0
  6
CONTINUOUS
 10
2.066680
 20
1.551000
 11
2.062280
 21
1.551000
  0
LINE
  8
0
 62
     0
  6
CONTINUOUS
 10
2.062280
 20
1.551000
 11
2.052160
 21
1.551000
  0
LINE
  8
0
 62
     0
  6
CONTINUOUS
 10
2.054360
 20
1.555400
 11
2.060080
 21
1.555400
  0
LINE
  8
0
 62
     0
  6
CONTINUOUS
 10
2.070200
 20
1.555400
 11
2.076800
 21
1.555400
  0
LINE
  8
0
 62
     0
  6
CONTINUOUS
 10
1.996280
 20
1.554080
 11
1.985280
 21
1.549680
  0
LINE
  8
0
 62
     0
  6
CONTINUOUS
 10
1.985280
 20
1.549680
 11
1.997600
 21
1.549680
  0
LINE
  8
0
 62
     0
  6
CONTINUOUS
 10
1.997600
 20
1.549680
 11
1.985280
 21
1.549680
  0
LINE
  8
0
 62
     0
  6
CONTINUOUS
 10
1.985280
 20
1.549680
 11
1.996280
 21
1.545280
  0
LINE
  8
0
 62
     0
  6
CONTINUOUS
 10
1.996280
 20
1.545280
 11
1.985280
 21
1.549680
  0
LINE
  8
0
 62
     0
  6
CONTINUOUS
 10
1.985280
 20
1.549680
 11
1.994080
 21
1.540880
  0
LINE
  8
0
 62
     0
  6
CONTINUOUS
 10
1.994080
 20
1.540880
 11
1.985280
 21
1.549680
  0
LINE
  8
0
 62
     0
  6
CONTINUOUS
 10
1.985280
 20
1.549680
 11
1.989680
 21
1.537360
  0
LINE
  8
0
 62
     0
  6
CONTINUOUS
 10
1.989680
 20
1.537360
 11
1.985280
 21
1.549680
  0
LINE
  8
0
 62
     0
  6
CONTINUOUS
 10
1.985280
 20
1.549680
 11
1.985280
 21
1.537360
  0
LINE
  8
0
 62
     0
  6
CONTINUOUS
 10
1.985280
 20
1.537360
 11
1.985280
 21
1.549680
  0
LINE
  8
0
 62
     0
  6
CONTINUOUS
 10
1.985280
 20
1.549680
 11
1.979560
 21
1.537360
  0
LINE
  8
0
 62
     0
  6
CONTINUOUS
 10
1.979560
 20
1.537360
 11
1.985280
 21
1.549680
  0
LINE
  8
0
 62
     0
  6
CONTINUOUS
 10
1.985280
 20
1.549680
 11
1.975160
 21
1.540880
  0
LINE
  8
0
 62
     0
  6
CONTINUOUS
 10
1.975160
 20
1.540880
 11
1.985280
 21
1.549680
  0
LINE
  8
0
 62
     0
  6
CONTINUOUS
 10
1.985280
 20
1.549680
 11
1.972960
 21
1.545280
  0
LINE
  8
0
 62
     0
  6
CONTINUOUS
 10
1.972960
 20
1.545280
 11
1.985280
 21
1.549680
  0
LINE
  8
0
 62
     0
  6
CONTINUOUS
 10
1.985280
 20
1.549680
 11
1.971640
 21
1.549680
  0
LINE
  8
0
 62
     0
  6
CONTINUOUS
 10
1.971640
 20
1.549680
 11
1.985280
 21
1.549680
  0
LINE
  8
0
 62
     0
  6
CONTINUOUS
 10
1.985280
 20
1.549680
 11
1.972960
 21
1.554080
  0
LINE
  8
0
 62
     0
  6
CONTINUOUS
 10
1.972960
 20
1.554080
 11
1.985280
 21
1.549680
  0
LINE
  8
0
 62
     0
  6
CONTINUOUS
 10
1.985280
 20
1.549680
 11
1.975160
 21
1.558920
  0
LINE
  8
0
 62
     0
  6
CONTINUOUS
 10
1.975160
 20
1.558920
 11
1.985280
 21
1.549680
  0
LINE
  8
0
 62
     0
  6
CONTINUOUS
 10
1.985280
 20
1.549680
 11
1.979560
 21
1.561120
  0
LINE
  8
0
 62
     0
  6
CONTINUOUS
 10
1.979560
 20
1.561120
 11
1.985280
 21
1.549680
  0
LINE
  8
0
 62
     0
  6
CONTINUOUS
 10
1.985280
 20
1.549680
 11
1.985280
 21
1.562000
  0
LINE
  8
0
 62
     0
  6
CONTINUOUS
 10
1.985280
 20
1.562000
 11
1.985280
 21
1.549680
  0
LINE
  8
0
 62
     0
  6
CONTINUOUS
 10
1.985280
 20
1.549680
 11
1.989680
 21
1.561120
  0
LINE
  8
0
 62
     0
  6
CONTINUOUS
 10
1.989680
 20
1.561120
 11
1.985280
 21
1.549680
  0
LINE
  8
0
 62
     0
  6
CONTINUOUS
 10
1.985280
 20
1.549680
 11
1.994080
 21
1.558920
  0
LINE
  8
0
 62
     0
  6
CONTINUOUS
 10
1.994080
 20
1.558920
 11
1.985280
 21
1.549680
  0
LINE
  8
0
 62
     0
  6
CONTINUOUS
 10
1.985280
 20
1.549680
 11
1.996280
 21
1.554080
  0
LINE
  8
0
 62
     0
  6
CONTINUOUS
 10
1.996280
 20
1.554080
 11
1.994080
 21
1.558920
  0
LINE
  8
0
 62
     0
  6
CONTINUOUS
 10
1.994080
 20
1.558920
 11
1.989680
 21
1.561120
  0
LINE
  8
0
 62
     0
  6
CONTINUOUS
 10
1.989680
 20
1.561120
 11
1.985280
 21
1.562000
  0
LINE
  8
0
 62
     0
  6
CONTINUOUS
 10
1.985280
 20
1.562000
 11
1.985280
 21
1.549680
  0
LINE
  8
0
 62
     0
  6
CONTINUOUS
 10
1.985280
 20
1.549680
 11
1.985280
 21
1.537360
  0
LINE
  8
0
 62
     0
  6
CONTINUOUS
 10
1.985280
 20
1.537360
 11
1.989680
 21
1.537360
  0
LINE
  8
0
 62
     0
  6
CONTINUOUS
 10
1.989680
 20
1.537360
 11
1.994080
 21
1.540880
  0
LINE
  8
0
 62
     0
  6
CONTINUOUS
 10
1.994080
 20
1.540880
 11
1.996280
 21
1.545280
  0
LINE
  8
0
 62
     0
  6
CONTINUOUS
 10
1.996280
 20
1.545280
 11
1.997600
 21
1.549680
  0
LINE
  8
0
 62
     0
  6
CONTINUOUS
 10
1.997600
 20
1.549680
 11
1.996280
 21
1.554080
  0
LINE
  8
0
 62
     0
  6
CONTINUOUS
 10
1.996280
 20
1.554080
 11
1.995400
 21
1.555400
  0
LINE
  8
0
 62
     0
  6
CONTINUOUS
 10
1.995400
 20
1.555400
 11
1.989680
 21
1.555400
  0
LINE
  8
0
 62
     0
  6
CONTINUOUS
 10
1.987480
 20
1.551000
 11
1.997600
 21
1.551000
  0
LINE
  8
0
 62
     0
  6
CONTINUOUS
 10
1.983080
 20
1.551000
 11
1.971640
 21
1.551000
  0
LINE
  8
0
 62
     0
  6
CONTINUOUS
 10
1.971640
 20
1.551000
 11
1.971640
 21
1.549680
  0
LINE
  8
0
 62
     0
  6
CONTINUOUS
 10
1.971640
 20
1.549680
 11
1.972960
 21
1.545280
  0
LINE
  8
0
 62
     0
  6
CONTINUOUS
 10
1.972960
 20
1.545280
 11
1.975160
 21
1.540880
  0
LINE
  8
0
 62
     0
  6
CONTINUOUS
 10
1.975160
 20
1.540880
 11
1.979560
 21
1.537360
  0
LINE
  8
0
 62
     0
  6
CONTINUOUS
 10
1.979560
 20
1.537360
 11
1.985280
 21
1.537360
  0
LINE
  8
0
 62
     0
  6
CONTINUOUS
 10
1.978680
 20
1.537360
 11
1.978680
 21
1.544400
  0
LINE
  8
0
 62
     0
  6
CONTINUOUS
 10
1.978680
 20
1.555400
 11
1.978680
 21
1.561120
  0
LINE
  8
0
 62
     0
  6
CONTINUOUS
 10
1.978680
 20
1.561120
 11
1.979560
 21
1.561120
  0
LINE
  8
0
 62
     0
  6
CONTINUOUS
 10
1.979560
 20
1.561120
 11
1.975160
 21
1.558920
  0
LINE
  8
0
 62
     0
  6
CONTINUOUS
 10
1.975160
 20
1.558920
 11
1.972960
 21
1.554080
  0
LINE
  8
0
 62
     0
  6
CONTINUOUS
 10
1.972960
 20
1.554080
 11
1.971640
 21
1.549680
  0
LINE
  8
0
 62
     0
  6
CONTINUOUS
 10
1.972960
 20
1.555400
 11
1.978680
 21
1.555400
  0
LINE
  8
0
 62
     0
  6
CONTINUOUS
 10
1.979560
 20
1.561120
 11
1.985280
 21
1.562000
  0
LINE
  8
0
 62
     0
  6
CONTINUOUS
 10
1.925000
 20
1.558920
 11
1.917080
 21
1.549680
  0
LINE
  8
0
 62
     0
  6
CONTINUOUS
 10
1.917080
 20
1.549680
 11
1.928080
 21
1.554080
  0
LINE
  8
0
 62
     0
  6
CONTINUOUS
 10
1.928080
 20
1.554080
 11
1.917080
 21
1.549680
  0
LINE
  8
0
 62
     0
  6
CONTINUOUS
 10
1.917080
 20
1.549680
 11
1.928080
 21
1.549680
  0
LINE
  8
0
 62
     0
  6
CONTINUOUS
 10
1.928080
 20
1.549680
 11
1.917080
 21
1.549680
  0
LINE
  8
0
 62
     0
  6
CONTINUOUS
 10
1.917080
 20
1.549680
 11
1.928080
 21
1.545280
  0
LINE
  8
0
 62
     0
  6
CONTINUOUS
 10
1.928080
 20
1.545280
 11
1.917080
 21
1.549680
  0
LINE
  8
0
 62
     0
  6
CONTINUOUS
 10
1.917080
 20
1.549680
 11
1.925000
 21
1.540880
  0
LINE
  8
0
 62
     0
  6
CONTINUOUS
 10
1.925000
 20
1.540880
 11
1.917080
 21
1.549680
  0
LINE
  8
0
 62
     0
  6
CONTINUOUS
 10
1.917080
 20
1.549680
 11
1.921480
 21
1.537360
  0
LINE
  8
0
 62
     0
  6
CONTINUOUS
 10
1.921480
 20
1.537360
 11
1.917080
 21
1.549680
  0
LINE
  8
0
 62
     0
  6
CONTINUOUS
 10
1.917080
 20
1.549680
 11
1.917080
 21
1.537360
  0
LINE
  8
0
 62
     0
  6
CONTINUOUS
 10
1.917080
 20
1.537360
 11
1.917080
 21
1.549680
  0
LINE
  8
0
 62
     0
  6
CONTINUOUS
 10
1.917080
 20
1.549680
 11
1.910480
 21
1.537360
  0
LINE
  8
0
 62
     0
  6
CONTINUOUS
 10
1.910480
 20
1.537360
 11
1.917080
 21
1.549680
  0
LINE
  8
0
 62
     0
  6
CONTINUOUS
 10
1.917080
 20
1.549680
 11
1.906080
 21
1.540880
  0
LINE
  8
0
 62
     0
  6
CONTINUOUS
 10
1.906080
 20
1.540880
 11
1.917080
 21
1.549680
  0
LINE
  8
0
 62
     0
  6
CONTINUOUS
 10
1.917080
 20
1.549680
 11
1.903880
 21
1.545280
  0
LINE
  8
0
 62
     0
  6
CONTINUOUS
 10
1.903880
 20
1.545280
 11
1.917080
 21
1.549680
  0
LINE
  8
0
 62
     0
  6
CONTINUOUS
 10
1.917080
 20
1.549680
 11
1.902560
 21
1.549680
  0
LINE
  8
0
 62
     0
  6
CONTINUOUS
 10
1.902560
 20
1.549680
 11
1.917080
 21
1.549680
  0
LINE
  8
0
 62
     0
  6
CONTINUOUS
 10
1.917080
 20
1.549680
 11
1.903880
 21
1.554080
  0
LINE
  8
0
 62
     0
  6
CONTINUOUS
 10
1.903880
 20
1.554080
 11
1.917080
 21
1.549680
  0
LINE
  8
0
 62
     0
  6
CONTINUOUS
 10
1.917080
 20
1.549680
 11
1.906080
 21
1.558920
  0
LINE
  8
0
 62
     0
  6
CONTINUOUS
 10
1.906080
 20
1.558920
 11
1.917080
 21
1.549680
  0
LINE
  8
0
 62
     0
  6
CONTINUOUS
 10
1.917080
 20
1.549680
 11
1.910480
 21
1.561120
  0
LINE
  8
0
 62
     0
  6
CONTINUOUS
 10
1.910480
 20
1.561120
 11
1.917080
 21
1.549680
  0
LINE
  8
0
 62
     0
  6
CONTINUOUS
 10
1.917080
 20
1.549680
 11
1.917080
 21
1.562000
  0
LINE
  8
0
 62
     0
  6
CONTINUOUS
 10
1.917080
 20
1.562000
 11
1.917080
 21
1.549680
  0
LINE
  8
0
 62
     0
  6
CONTINUOUS
 10
1.917080
 20
1.549680
 11
1.921480
 21
1.561120
  0
LINE
  8
0
 62
     0
  6
CONTINUOUS
 10
1.921480
 20
1.561120
 11
1.921480
 21
1.554080
  0
LINE
  8
0
 62
     0
  6
CONTINUOUS
 10
1.921480
 20
1.554080
 11
1.921480
 21
1.555400
  0
LINE
  8
0
 62
     0
  6
CONTINUOUS
 10
1.921480
 20
1.555400
 11
1.927200
 21
1.555400
  0
LINE
  8
0
 62
     0
  6
CONTINUOUS
 10
1.927200
 20
1.555400
 11
1.928080
 21
1.554080
  0
LINE
  8
0
 62
     0
  6
CONTINUOUS
 10
1.928080
 20
1.554080
 11
1.925000
 21
1.558920
  0
LINE
  8
0
 62
     0
  6
CONTINUOUS
 10
1.925000
 20
1.558920
 11
1.921480
 21
1.561120
  0
LINE
  8
0
 62
     0
  6
CONTINUOUS
 10
1.921480
 20
1.561120
 11
1.917080
 21
1.549680
  0
LINE
  8
0
 62
     0
  6
CONTINUOUS
 10
1.917080
 20
1.549680
 11
1.925000
 21
1.558920
  0
LINE
  8
0
 62
     0
  6
CONTINUOUS
 10
1.921480
 20
1.561120
 11
1.917080
 21
1.562000
  0
LINE
  8
0
 62
     0
  6
CONTINUOUS
 10
1.917080
 20
1.562000
 11
1.917080
 21
1.549680
  0
LINE
  8
0
 62
     0
  6
CONTINUOUS
 10
1.917080
 20
1.549680
 11
1.917080
 21
1.537360
  0
LINE
  8
0
 62
     0
  6
CONTINUOUS
 10
1.917080
 20
1.537360
 11
1.921480
 21
1.537360
  0
LINE
  8
0
 62
     0
  6
CONTINUOUS
 10
1.921480
 20
1.537360
 11
1.925000
 21
1.540880
  0
LINE
  8
0
 62
     0
  6
CONTINUOUS
 10
1.925000
 20
1.540880
 11
1.928080
 21
1.545280
  0
LINE
  8
0
 62
     0
  6
CONTINUOUS
 10
1.928080
 20
1.545280
 11
1.928080
 21
1.549680
  0
LINE
  8
0
 62
     0
  6
CONTINUOUS
 10
1.928080
 20
1.549680
 11
1.928080
 21
1.554080
  0
LINE
  8
0
 62
     0
  6
CONTINUOUS
 10
1.928080
 20
1.551000
 11
1.918400
 21
1.551000
  0
LINE
  8
0
 62
     0
  6
CONTINUOUS
 10
1.918400
 20
1.551000
 11
1.917080
 21
1.551000
  0
LINE
  8
0
 62
     0
  6
CONTINUOUS
 10
1.917080
 20
1.551000
 11
1.917080
 21
1.562000
  0
LINE
  8
0
 62
     0
  6
CONTINUOUS
 10
1.917080
 20
1.562000
 11
1.910480
 21
1.561120
  0
LINE
  8
0
 62
     0
  6
CONTINUOUS
 10
1.910480
 20
1.561120
 11
1.906080
 21
1.558920
  0
LINE
  8
0
 62
     0
  6
CONTINUOUS
 10
1.906080
 20
1.558920
 11
1.903880
 21
1.554080
  0
LINE
  8
0
 62
     0
  6
CONTINUOUS
 10
1.903880
 20
1.554080
 11
1.902560
 21
1.549680
  0
LINE
  8
0
 62
     0
  6
CONTINUOUS
 10
1.902560
 20
1.549680
 11
1.903880
 21
1.545280
  0
LINE
  8
0
 62
     0
  6
CONTINUOUS
 10
1.903880
 20
1.545280
 11
1.906080
 21
1.540880
  0
LINE
  8
0
 62
     0
  6
CONTINUOUS
 10
1.906080
 20
1.540880
 11
1.910480
 21
1.537360
  0
LINE
  8
0
 62
     0
  6
CONTINUOUS
 10
1.910480
 20
1.537360
 11
1.917080
 21
1.537360
  0
LINE
  8
0
 62
     0
  6
CONTINUOUS
 10
1.917080
 20
1.537360
 11
1.917080
 21
1.548800
  0
LINE
  8
0
 62
     0
  6
CONTINUOUS
 10
1.917080
 20
1.548800
 11
1.912680
 21
1.551000
  0
LINE
  8
0
 62
     0
  6
CONTINUOUS
 10
1.912680
 20
1.551000
 11
1.902560
 21
1.551000
  0
LINE
  8
0
 62
     0
  6
CONTINUOUS
 10
1.904760
 20
1.555400
 11
1.910480
 21
1.555400
  0
LINE
  8
0
 62
     0
  6
CONTINUOUS
 10
1.921480
 20
1.545280
 11
1.921480
 21
1.537360
  0
LINE
  8
0
 62
     0
  6
CONTINUOUS
 10
1.940400
 20
1.461680
 11
2.018720
 21
1.623600
  0
LINE
  8
0
 62
     0
  6
CONTINUOUS
 10
1.950520
 20
1.623600
 11
1.872200
 21
1.461680
  0
LINE
  8
0
 62
     0
  6
CONTINUOUS
 10
2.022240
 20
1.461680
 11
2.099240
 21
1.623600
  0
LINE
  8
0
 62
     0
  6
CONTINUOUS
 10
1.850200
 20
1.701480
 11
1.850200
 21
1.081960
  0
LINE
  8
0
 62
     0
  6
CONTINUOUS
 10
1.850200
 20
1.081960
 11
2.068000
 21
1.299760
  0
LINE
  8
0
 62
     0
  6
CONTINUOUS
 10
2.068000
 20
1.299760
 11
2.271720
 21
1.081960
  0
LINE
  8
0
 62
     0
  6
CONTINUOUS
 10
2.271720
 20
1.081960
 11
2.271720
 21
1.701480
  0
LINE
  8
0
 62
     0
  6
CONTINUOUS
 10
1.211320
 20
1.904760
 11
0.992200
 21
1.701480
  0
LINE
  8
0
 62
     0
  6
CONTINUOUS
 10
0.992200
 20
1.701480
 11
1.850200
 21
1.701480
  0
LINE
  8
0
 62
     0
  6
CONTINUOUS
 10
1.864720
 20
1.549680
 11
1.967240
 21
1.549680
  0
LINE
  8
0
 62
     0
  6
CONTINUOUS
 10
2.022240
 20
1.549680
 11
2.126080
 21
1.549680
  0
LINE
  8
0
 62
     0
  6
CONTINUOUS
 10
2.178440
 20
1.549680
 11
2.292840
 21
1.549680
  0
LINE
  8
0
 62
     0
  6
CONTINUOUS
 10
1.211320
 20
1.904760
 11
0.992200
 21
2.123880
  0
LINE
  8
0
 62
     0
  6
CONTINUOUS
 10
0.992200
 20
2.123880
 11
4.789840
 21
2.123880
  0
LINE
  8
0
 62
     0
  6
CONTINUOUS
 10
2.323200
 20
1.408000
 11
2.323200
 21
1.372360
  0
LINE
  8
0
 62
     0
  6
CONTINUOUS
 10
2.323200
 20
1.391280
 11
2.346520
 21
1.391280
  0
LINE
  8
0
 62
     0
  6
CONTINUOUS
 10
2.346520
 20
1.408000
 11
2.346520
 21
1.372360
  0
LINE
  8
0
 62
     0
  6
CONTINUOUS
 10
2.368960
 20
1.404480
 11
2.430560
 21
1.404480
  0
LINE
  8
0
 62
     0
  6
CONTINUOUS
 10
2.430560
 20
1.387760
 11
2.454760
 21
1.387760
  0
LINE
  8
0
 62
     0
  6
CONTINUOUS
 10
2.454760
 20
1.367960
 11
2.454760
 21
1.470480
  0
LINE
  8
0
 62
     0
  6
CONTINUOUS
 10
2.454760
 20
1.470480
 11
2.518560
 21
1.470480
  0
LINE
  8
0
 62
     0
  6
CONTINUOUS
 10
2.518560
 20
1.470480
 11
2.518560
 21
1.367960
  0
LINE
  8
0
 62
     0
  6
CONTINUOUS
 10
2.518560
 20
1.367960
 11
2.454760
 21
1.367960
  0
LINE
  8
0
 62
     0
  6
CONTINUOUS
 10
2.430560
 20
1.387760
 11
2.430560
 21
1.450240
  0
LINE
  8
0
 62
     0
  6
CONTINUOUS
 10
2.430560
 20
1.450240
 11
2.454760
 21
1.450240
  0
LINE
  8
0
 62
     0
  6
CONTINUOUS
 10
2.430560
 20
1.433520
 11
2.368960
 21
1.433520
  0
LINE
  8
0
 62
     0
  6
CONTINUOUS
 10
2.346520
 20
1.430440
 11
2.323200
 21
1.466080
  0
LINE
  8
0
 62
     0
  6
CONTINUOUS
 10
2.323200
 20
1.466080
 11
2.323200
 21
1.430440
  0
LINE
  8
0
 62
     0
  6
CONTINUOUS
 10
2.346520
 20
1.430440
 11
2.346520
 21
1.466080
  0
LINE
  8
0
 62
     0
  6
CONTINUOUS
 10
2.518560
 20
1.450240
 11
2.541880
 21
1.450240
  0
LINE
  8
0
 62
     0
  6
CONTINUOUS
 10
2.541880
 20
1.450240
 11
2.541880
 21
1.387760
  0
LINE
  8
0
 62
     0
  6
CONTINUOUS
 10
2.541880
 20
1.387760
 11
2.518560
 21
1.387760
  0
LINE
  8
0
 62
     0
  6
CONTINUOUS
 10
2.541880
 20
1.404480
 11
2.634720
 21
1.404480
  0
LINE
  8
0
 62
     0
  6
CONTINUOUS
 10
2.634720
 20
1.404480
 11
2.634720
 21
1.023880
  0
LINE
  8
0
 62
     0
  6
CONTINUOUS
 10
2.998600
 20
1.023880
 11
2.998600
 21
1.325280
  0
LINE
  8
0
 62
     0
  6
CONTINUOUS
 10
2.669480
 20
1.701480
 11
2.669480
 21
1.547480
  0
LINE
  8
0
 62
     0
  6
CONTINUOUS
 10
2.669480
 20
1.547480
 11
2.669480
 21
1.433520
  0
LINE
  8
0
 62
     0
  6
CONTINUOUS
 10
2.717440
 20
1.433520
 11
2.541880
 21
1.433520
  0
LINE
  8
0
 62
     0
  6
CONTINUOUS
 10
2.811160
 20
1.430440
 11
3.333880
 21
1.430440
  0
LINE
  8
0
 62
     0
  6
CONTINUOUS
 10
3.275800
 20
1.430440
 11
3.275800
 21
1.580040
  0
LINE
  8
0
 62
     0
  6
CONTINUOUS
 10
3.275800
 20
1.580040
 11
3.470280
 21
1.580040
  0
LINE
  8
0
 62
     0
  6
CONTINUOUS
 10
3.856600
 20
1.430440
 11
4.117960
 21
1.430440
  0
LINE
  8
0
 62
     0
  6
CONTINUOUS
 10
4.117960
 20
1.430440
 11
4.117960
 21
1.701480
  0
TEXT
  8
0
 62
     0
 10
2.602160
 20
0.970640
 40
0.045578
  1
R
 41
1.000000
  7
SN0
 71
     0
 72
     5
 11
2.626800
 21
0.970640
  0
TEXT
  8
0
 62
     0
 10
2.847240
 20
0.970640
 40
0.045578
  1
Y1
 41
1.000000
  7
SN0
 71
     0
 72
     5
 11
2.887720
 21
0.970640
  0
TEXT
  8
0
 62
     0
 10
2.996840
 20
0.970640
 40
0.045578
  1
Y2
 41
1.000000
  7
SN0
 71
     0
 72
     5
 11
3.045240
 21
0.970640
  0
TEXT
  8
0
 62
     0
 10
3.372160
 20
0.970640
 40
0.045578
  1
G
 41
1.000000
  7
SN0
 71
     0
 72
     5
 11
3.394600
 21
0.970640
  0
TEXT
  8
0
 62
     0
 10
4.142160
 20
0.970640
 40
0.045578
  1
W1
 41
1.000000
  7
SN0
 71
     0
 72
     5
 11
4.194520
 21
0.970640
  0
TEXT
  8
0
 62
     0
 10
4.306720
 20
0.970640
 40
0.045578
  1
W2
 41
1.000000
  7
SN0
 71
     0
 72
     5
 11
4.366560
 21
0.970640
  0
POLYLINE
  8
0
 62
     0
  6
CONTINUOUS
 66
     1
 40
0.014520
 41
0.014520
  0
VERTEX
  8
0
 62
     0
  6
CONTINUOUS
 10
2.596880
 20
1.028280
  0
VERTEX
  8
0
 62
     0
  6
CONTINUOUS
 10
2.663760
 20
1.028280
  0
VERTEX
  8
0
 62
     0
  6
CONTINUOUS
 10
2.663760
 20
0.920920
  0
VERTEX
  8
0
 62
     0
  6
CONTINUOUS
 10
2.596880
 20
0.920920
  0
VERTEX
  8
0
 62
     0
  6
CONTINUOUS
 10
2.596880
 20
1.028280
  0
SEQEND
  8
0
  0
POLYLINE
  8
0
 62
     0
  6
CONTINUOUS
 66
     1
 40
0.014520
 41
0.014520
  0
VERTEX
  8
0
 62
     0
  6
CONTINUOUS
 10
2.850320
 20
1.028280
  0
VERTEX
  8
0
 62
     0
  6
CONTINUOUS
 10
2.947560
 20
1.028280
  0
VERTEX
  8
0
 62
     0
  6
CONTINUOUS
 10
2.947560
 20
0.920920
  0
VERTEX
  8
0
 62
     0
  6
CONTINUOUS
 10
2.850320
 20
0.920920
  0
VERTEX
  8
0
 62
     0
  6
CONTINUOUS
 10
2.850320
 20
1.028280
  0
SEQEND
  8
0
  0
POLYLINE
  8
0
 62
     0
  6
CONTINUOUS
 66
     1
 40
0.014520
 41
0.014520
  0
VERTEX
  8
0
 62
     0
  6
CONTINUOUS
 10
2.995520
 20
1.028280
  0
VERTEX
  8
0
 62
     0
  6
CONTINUOUS
 10
3.092760
 20
1.028280
  0
VERTEX
  8
0
 62
     0
  6
CONTINUOUS
 10
3.092760
 20
0.920920
  0
VERTEX
  8
0
 62
     0
  6
CONTINUOUS
 10
2.995520
 20
0.920920
  0
VERTEX
  8
0
 62
     0
  6
CONTINUOUS
 10
2.995520
 20
1.028280
  0
SEQEND
  8
0
  0
POLYLINE
  8
0
 62
     0
  6
CONTINUOUS
 66
     1
 40
0.014520
 41
0.014520
  0
VERTEX
  8
0
 62
     0
  6
CONTINUOUS
 10
3.361600
 20
1.028280
  0
VERTEX
  8
0
 62
     0
  6
CONTINUOUS
 10
3.438600
 20
1.028280
  0
VERTEX
  8
0
 62
     0
  6
CONTINUOUS
 10
3.438600
 20
0.920920
  0
VERTEX
  8
0
 62
     0
  6
CONTINUOUS
 10
3.361600
 20
0.920920
  0
VERTEX
  8
0
 62
     0
  6
CONTINUOUS
 10
3.361600
 20
1.028280
  0
SEQEND
  8
0
  0
POLYLINE
  8
0
 62
     0
  6
CONTINUOUS
 66
     1
 40
0.014520
 41
0.014520
  0
VERTEX
  8
0
 62
     0
  6
CONTINUOUS
 10
4.141280
 20
1.028280
  0
VERTEX
  8
0
 62
     0
  6
CONTINUOUS
 10
4.267560
 20
1.028280
  0
VERTEX
  8
0
 62
     0
  6
CONTINUOUS
 10
4.267560
 20
0.920920
  0
VERTEX
  8
0
 62
     0
  6
CONTINUOUS
 10
4.141280
 20
0.920920
  0
VERTEX
  8
0
 62
     0
  6
CONTINUOUS
 10
4.141280
 20
1.028280
  0
SEQEND
  8
0
  0
POLYLINE
  8
0
 62
     0
  6
CONTINUOUS
 66
     1
 40
0.014520
 41
0.014520
  0
VERTEX
  8
0
 62
     0
  6
CONTINUOUS
 10
4.301000
 20
1.028280
  0
VERTEX
  8
0
 62
     0
  6
CONTINUOUS
 10
4.425960
 20
1.028280
  0
VERTEX
  8
0
 62
     0
  6
CONTINUOUS
 10
4.425960
 20
0.920920
  0
VERTEX
  8
0
 62
     0
  6
CONTINUOUS
 10
4.301000
 20
0.920920
  0
VERTEX
  8
0
 62
     0
  6
CONTINUOUS
 10
4.301000
 20
1.028280
  0
SEQEND
  8
0
  0
POLYLINE
  8
0
 62
     0
  6
CONTINUOUS
 66
     1
 40
0.000000
 41
0.000000
  0
VERTEX
  8
0
 62
     0
  6
CONTINUOUS
 10
1.540880
 20
1.697080
  0
VERTEX
  8
0
 62
     0
  6
CONTINUOUS
 10
1.540880
 20
1.554080
  0
VERTEX
  8
0
 62
     0
  6
CONTINUOUS
 10
1.848000
 20
1.554080
  0
SEQEND
  8
0
  0
SOLID
  8
0
 62
     0
 10
1.481480
 20
1.630200
 11
1.720400
 21
1.630200
 12
1.481480
 22
1.434840
 13
1.720400
 23
1.434840
  0
POLYLINE
  8
0
 62
     0
  6
CONTINUOUS
 66
     1
 40
0.000000
 41
0.000000
  0
VERTEX
  8
0
 62
     0
  6
CONTINUOUS
 10
1.481480
 20
1.630200
  0
VERTEX
  8
0
 62
     0
  6
CONTINUOUS
 10
1.720400
 20
1.630200
  0
VERTEX
  8
0
 62
     0
  6
CONTINUOUS
 10
1.720400
 20
1.434840
  0
VERTEX
  8
0
 62
     0
  6
CONTINUOUS
 10
1.481480
 20
1.434840
  0
VERTEX
  8
0
 62
     0
  6
CONTINUOUS
 10
1.481480
 20
1.630200
  0
SEQEND
  8
0
  0
POLYLINE
  8
0
 62
     0
  6
CONTINUOUS
 66
     1
 40
0.000000
 41
0.000000
  0
VERTEX
  8
0
 62
     0
  6
CONTINUOUS
 10
1.481480
 20
1.630200
  0
VERTEX
  8
0
 62
     0
  6
CONTINUOUS
 10
1.720400
 20
1.630200
  0
VERTEX
  8
0
 62
     0
  6
CONTINUOUS
 10
1.720400
 20
1.434840
  0
VERTEX
  8
0
 62
     0
  6
CONTINUOUS
 10
1.481480
 20
1.434840
  0
VERTEX
  8
0
 62
     0
  6
CONTINUOUS
 10
1.481480
 20
1.630200
  0
SEQEND
  8
0
  0
TEXT
  8
0
 62
     0
 10
1.488520
 20
1.576520
 40
0.037108
  1
   OA
 41
1.000000
  7
SN0
 71
     0
 72
     5
 11
1.555400
 21
1.576520
  0
TEXT
  8
0
 62
     0
 10
1.488520
 20
1.500400
 40
0.037108
  1
Damper
 41
1.000000
  7
SN0
 71
     0
 72
     5
 11
1.606000
 21
1.500400
  0
LINE
  8
0
 62
     0
  6
CONTINUOUS
 10
1.532960
 20
1.434840
 11
1.532960
 21
1.029600
  0
LINE
  8
0
 62
     0
  6
CONTINUOUS
 10
1.660120
 20
1.434840
 11
1.660120
 21
1.037080
  0
TEXT
  8
0
 62
     0
 10
1.475320
 20
0.970640
 40
0.045578
  1
A1
 41
1.000000
  7
SN0
 71
     0
 72
     5
 11
1.515800
 21
0.970640
  0
TEXT
  8
0
 62
     0
 10
1.623160
 20
0.970640
 40
0.045578
  1
A2
 41
1.000000
  7
SN0
 71
     0
 72
     5
 11
1.671560
 21
0.970640
  0
POLYLINE
  8
0
 62
     0
  6
CONTINUOUS
 66
     1
 40
0.014520
 41
0.014520
  0
VERTEX
  8
0
 62
     0
  6
CONTINUOUS
 10
1.471360
 20
1.028280
  0
VERTEX
  8
0
 62
     0
  6
CONTINUOUS
 10
1.574320
 20
1.028280
  0
VERTEX
  8
0
 62
     0
  6
CONTINUOUS
 10
1.574320
 20
0.920920
  0
VERTEX
  8
0
 62
     0
  6
CONTINUOUS
 10
1.471360
 20
0.920920
  0
VERTEX
  8
0
 62
     0
  6
CONTINUOUS
 10
1.471360
 20
1.028280
  0
SEQEND
  8
0
  0
POLYLINE
  8
0
 62
     0
  6
CONTINUOUS
 66
     1
 40
0.014520
 41
0.014520
  0
VERTEX
  8
0
 62
     0
  6
CONTINUOUS
 10
1.622280
 20
1.028280
  0
VERTEX
  8
0
 62
     0
  6
CONTINUOUS
 10
1.727440
 20
1.028280
  0
VERTEX
  8
0
 62
     0
  6
CONTINUOUS
 10
1.727440
 20
0.920920
  0
VERTEX
  8
0
 62
     0
  6
CONTINUOUS
 10
1.622280
 20
0.920920
  0
VERTEX
  8
0
 62
     0
  6
CONTINUOUS
 10
1.622280
 20
1.028280
  0
SEQEND
  8
0
  0
LINE
  8
0
 62
     0
  6
CONTINUOUS
 10
2.668160
 20
1.707200
 11
2.668160
 21
1.989680
  0
LINE
  8
0
 62
     0
  6
CONTINUOUS
 10
2.725360
 20
1.958440
 11
2.728440
 21
1.954040
  0
LINE
  8
0
 62
     0
  6
CONTINUOUS
 10
2.728440
 20
1.954040
 11
2.728440
 21
1.948320
  0
LINE
  8
0
 62
     0
  6
CONTINUOUS
 10
2.725360
 20
1.958440
 11
2.724040
 21
1.962840
  0
LINE
  8
0
 62
     0
  6
CONTINUOUS
 10
2.724040
 20
1.962840
 11
2.718320
 21
1.966360
  0
LINE
  8
0
 62
     0
  6
CONTINUOUS
 10
2.718320
 20
1.966360
 11
2.713920
 21
1.968560
  0
LINE
  8
0
 62
     0
  6
CONTINUOUS
 10
2.713920
 20
1.968560
 11
2.708640
 21
1.969880
  0
LINE
  8
0
 62
     0
  6
CONTINUOUS
 10
2.708640
 20
1.969880
 11
2.703800
 21
1.968560
  0
LINE
  8
0
 62
     0
  6
CONTINUOUS
 10
2.703800
 20
1.968560
 11
2.698520
 21
1.966360
  0
LINE
  8
0
 62
     0
  6
CONTINUOUS
 10
2.698520
 20
1.966360
 11
2.692800
 21
1.962840
  0
LINE
  8
0
 62
     0
  6
CONTINUOUS
 10
2.692800
 20
1.962840
 11
2.691480
 21
1.958440
  0
LINE
  8
0
 62
     0
  6
CONTINUOUS
 10
2.691480
 20
1.958440
 11
2.689280
 21
1.954040
  0
LINE
  8
0
 62
     0
  6
CONTINUOUS
 10
2.689280
 20
1.954040
 11
2.687080
 21
1.948320
  0
LINE
  8
0
 62
     0
  6
CONTINUOUS
 10
2.687080
 20
1.948320
 11
2.689280
 21
1.943040
  0
LINE
  8
0
 62
     0
  6
CONTINUOUS
 10
2.689280
 20
1.943040
 11
2.691480
 21
1.938640
  0
LINE
  8
0
 62
     0
  6
CONTINUOUS
 10
2.691480
 20
1.938640
 11
2.692800
 21
1.932920
  0
LINE
  8
0
 62
     0
  6
CONTINUOUS
 10
2.692800
 20
1.932920
 11
2.698520
 21
1.929400
  0
LINE
  8
0
 62
     0
  6
CONTINUOUS
 10
2.698520
 20
1.929400
 11
2.703800
 21
1.928520
  0
LINE
  8
0
 62
     0
  6
CONTINUOUS
 10
2.703800
 20
1.928520
 11
2.708640
 21
1.928520
  0
LINE
  8
0
 62
     0
  6
CONTINUOUS
 10
2.708640
 20
1.928520
 11
2.713920
 21
1.928520
  0
LINE
  8
0
 62
     0
  6
CONTINUOUS
 10
2.713920
 20
1.928520
 11
2.718320
 21
1.929400
  0
LINE
  8
0
 62
     0
  6
CONTINUOUS
 10
2.718320
 20
1.929400
 11
2.724040
 21
1.932920
  0
LINE
  8
0
 62
     0
  6
CONTINUOUS
 10
2.724040
 20
1.932920
 11
2.725360
 21
1.938640
  0
LINE
  8
0
 62
     0
  6
CONTINUOUS
 10
2.725360
 20
1.938640
 11
2.728440
 21
1.943040
  0
LINE
  8
0
 62
     0
  6
CONTINUOUS
 10
2.728440
 20
1.943040
 11
2.728440
 21
1.948320
  0
LINE
  8
0
 62
     0
  6
CONTINUOUS
 10
2.735040
 20
1.914000
 11
2.732840
 21
1.910480
  0
LINE
  8
0
 62
     0
  6
CONTINUOUS
 10
2.732840
 20
1.910480
 11
2.729760
 21
1.904760
  0
LINE
  8
0
 62
     0
  6
CONTINUOUS
 10
2.729760
 20
1.904760
 11
2.728440
 21
1.900360
  0
LINE
  8
0
 62
     0
  6
CONTINUOUS
 10
2.728440
 20
1.900360
 11
2.729760
 21
1.895080
  0
LINE
  8
0
 62
     0
  6
CONTINUOUS
 10
2.729760
 20
1.895080
 11
2.732840
 21
1.889360
  0
LINE
  8
0
 62
     0
  6
CONTINUOUS
 10
2.732840
 20
1.889360
 11
2.735040
 21
1.884960
  0
LINE
  8
0
 62
     0
  6
CONTINUOUS
 10
2.735040
 20
1.884960
 11
2.739880
 21
1.882760
  0
LINE
  8
0
 62
     0
  6
CONTINUOUS
 10
2.739880
 20
1.882760
 11
2.745160
 21
1.880560
  0
LINE
  8
0
 62
     0
  6
CONTINUOUS
 10
2.745160
 20
1.880560
 11
2.749560
 21
1.879240
  0
LINE
  8
0
 62
     0
  6
CONTINUOUS
 10
2.749560
 20
1.879240
 11
2.756600
 21
1.880560
  0
LINE
  8
0
 62
     0
  6
CONTINUOUS
 10
2.756600
 20
1.880560
 11
2.761000
 21
1.882760
  0
LINE
  8
0
 62
     0
  6
CONTINUOUS
 10
2.761000
 20
1.882760
 11
2.765400
 21
1.884960
  0
LINE
  8
0
 62
     0
  6
CONTINUOUS
 10
2.765400
 20
1.884960
 11
2.766720
 21
1.889360
  0
LINE
  8
0
 62
     0
  6
CONTINUOUS
 10
2.766720
 20
1.889360
 11
2.769800
 21
1.895080
  0
LINE
  8
0
 62
     0
  6
CONTINUOUS
 10
2.769800
 20
1.895080
 11
2.771120
 21
1.900360
  0
LINE
  8
0
 62
     0
  6
CONTINUOUS
 10
2.771120
 20
1.900360
 11
2.769800
 21
1.904760
  0
LINE
  8
0
 62
     0
  6
CONTINUOUS
 10
2.769800
 20
1.904760
 11
2.766720
 21
1.910480
  0
LINE
  8
0
 62
     0
  6
CONTINUOUS
 10
2.766720
 20
1.910480
 11
2.765400
 21
1.914000
  0
LINE
  8
0
 62
     0
  6
CONTINUOUS
 10
2.765400
 20
1.914000
 11
2.761000
 21
1.917080
  0
LINE
  8
0
 62
     0
  6
CONTINUOUS
 10
2.761000
 20
1.917080
 11
2.756600
 21
1.920600
  0
LINE
  8
0
 62
     0
  6
CONTINUOUS
 10
2.756600
 20
1.920600
 11
2.749560
 21
1.920600
  0
LINE
  8
0
 62
     0
  6
CONTINUOUS
 10
2.749560
 20
1.920600
 11
2.745160
 21
1.920600
  0
LINE
  8
0
 62
     0
  6
CONTINUOUS
 10
2.745160
 20
1.920600
 11
2.739880
 21
1.917080
  0
LINE
  8
0
 62
     0
  6
CONTINUOUS
 10
2.739880
 20
1.917080
 11
2.735040
 21
1.914000
  0
LINE
  8
0
 62
     0
  6
CONTINUOUS
 10
2.735040
 20
1.976480
 11
2.739880
 21
1.972960
  0
LINE
  8
0
 62
     0
  6
CONTINUOUS
 10
2.739880
 20
1.972960
 11
2.745160
 21
1.969880
  0
LINE
  8
0
 62
     0
  6
CONTINUOUS
 10
2.745160
 20
1.969880
 11
2.749560
 21
1.969880
  0
LINE
  8
0
 62
     0
  6
CONTINUOUS
 10
2.749560
 20
1.969880
 11
2.756600
 21
1.969880
  0
LINE
  8
0
 62
     0
  6
CONTINUOUS
 10
2.756600
 20
1.969880
 11
2.761000
 21
1.972960
  0
LINE
  8
0
 62
     0
  6
CONTINUOUS
 10
2.761000
 20
1.972960
 11
2.765400
 21
1.976480
  0
LINE
  8
0
 62
     0
  6
CONTINUOUS
 10
2.765400
 20
1.976480
 11
2.766720
 21
1.980880
  0
LINE
  8
0
 62
     0
  6
CONTINUOUS
 10
2.766720
 20
1.980880
 11
2.769800
 21
1.985280
  0
LINE
  8
0
 62
     0
  6
CONTINUOUS
 10
2.769800
 20
1.985280
 11
2.771120
 21
1.991000
  0
LINE
  8
0
 62
     0
  6
CONTINUOUS
 10
2.771120
 20
1.991000
 11
2.769800
 21
1.995400
  0
LINE
  8
0
 62
     0
  6
CONTINUOUS
 10
2.769800
 20
1.995400
 11
2.766720
 21
2.001120
  0
LINE
  8
0
 62
     0
  6
CONTINUOUS
 10
2.766720
 20
2.001120
 11
2.765400
 21
2.005520
  0
LINE
  8
0
 62
     0
  6
CONTINUOUS
 10
2.765400
 20
2.005520
 11
2.761000
 21
2.008600
  0
LINE
  8
0
 62
     0
  6
CONTINUOUS
 10
2.761000
 20
2.008600
 11
2.756600
 21
2.009920
  0
LINE
  8
0
 62
     0
  6
CONTINUOUS
 10
2.756600
 20
2.009920
 11
2.749560
 21
2.011240
  0
LINE
  8
0
 62
     0
  6
CONTINUOUS
 10
2.749560
 20
2.011240
 11
2.745160
 21
2.009920
  0
LINE
  8
0
 62
     0
  6
CONTINUOUS
 10
2.745160
 20
2.009920
 11
2.739880
 21
2.008600
  0
LINE
  8
0
 62
     0
  6
CONTINUOUS
 10
2.739880
 20
2.008600
 11
2.735040
 21
2.005520
  0
LINE
  8
0
 62
     0
  6
CONTINUOUS
 10
2.735040
 20
2.005520
 11
2.732840
 21
2.001120
  0
LINE
  8
0
 62
     0
  6
CONTINUOUS
 10
2.732840
 20
2.001120
 11
2.729760
 21
1.995400
  0
LINE
  8
0
 62
     0
  6
CONTINUOUS
 10
2.729760
 20
1.995400
 11
2.728440
 21
1.991000
  0
LINE
  8
0
 62
     0
  6
CONTINUOUS
 10
2.728440
 20
1.991000
 11
2.729760
 21
1.985280
  0
LINE
  8
0
 62
     0
  6
CONTINUOUS
 10
2.729760
 20
1.985280
 11
2.732840
 21
1.980880
  0
LINE
  8
0
 62
     0
  6
CONTINUOUS
 10
2.732840
 20
1.980880
 11
2.735040
 21
1.976480
  0
LINE
  8
0
 62
     0
  6
CONTINUOUS
 10
2.776400
 20
1.989680
 11
2.776400
 21
1.707200
  0
LINE
  8
0
 62
     0
  6
CONTINUOUS
 10
2.724040
 20
1.734040
 11
2.725360
 21
1.738440
  0
LINE
  8
0
 62
     0
  6
CONTINUOUS
 10
2.725360
 20
1.738440
 11
2.728440
 21
1.742840
  0
LINE
  8
0
 62
     0
  6
CONTINUOUS
 10
2.728440
 20
1.742840
 11
2.728440
 21
1.748560
  0
LINE
  8
0
 62
     0
  6
CONTINUOUS
 10
2.728440
 20
1.748560
 11
2.728440
 21
1.754280
  0
LINE
  8
0
 62
     0
  6
CONTINUOUS
 10
2.728440
 20
1.754280
 11
2.725360
 21
1.759560
  0
LINE
  8
0
 62
     0
  6
CONTINUOUS
 10
2.725360
 20
1.759560
 11
2.724040
 21
1.763080
  0
LINE
  8
0
 62
     0
  6
CONTINUOUS
 10
2.724040
 20
1.763080
 11
2.718320
 21
1.766600
  0
LINE
  8
0
 62
     0
  6
CONTINUOUS
 10
2.718320
 20
1.766600
 11
2.713920
 21
1.768800
  0
LINE
  8
0
 62
     0
  6
CONTINUOUS
 10
2.713920
 20
1.768800
 11
2.708640
 21
1.768800
  0
LINE
  8
0
 62
     0
  6
CONTINUOUS
 10
2.708640
 20
1.768800
 11
2.703800
 21
1.768800
  0
LINE
  8
0
 62
     0
  6
CONTINUOUS
 10
2.703800
 20
1.768800
 11
2.698520
 21
1.766600
  0
LINE
  8
0
 62
     0
  6
CONTINUOUS
 10
2.698520
 20
1.766600
 11
2.692800
 21
1.763080
  0
LINE
  8
0
 62
     0
  6
CONTINUOUS
 10
2.692800
 20
1.763080
 11
2.691480
 21
1.759560
  0
LINE
  8
0
 62
     0
  6
CONTINUOUS
 10
2.691480
 20
1.759560
 11
2.689280
 21
1.754280
  0
LINE
  8
0
 62
     0
  6
CONTINUOUS
 10
2.689280
 20
1.754280
 11
2.687080
 21
1.748560
  0
LINE
  8
0
 62
     0
  6
CONTINUOUS
 10
2.687080
 20
1.748560
 11
2.689280
 21
1.742840
  0
LINE
  8
0
 62
     0
  6
CONTINUOUS
 10
2.689280
 20
1.742840
 11
2.691480
 21
1.738440
  0
LINE
  8
0
 62
     0
  6
CONTINUOUS
 10
2.691480
 20
1.738440
 11
2.692800
 21
1.734040
  0
LINE
  8
0
 62
     0
  6
CONTINUOUS
 10
2.692800
 20
1.734040
 11
2.698520
 21
1.730520
  0
LINE
  8
0
 62
     0
  6
CONTINUOUS
 10
2.698520
 20
1.730520
 11
2.703800
 21
1.728320
  0
LINE
  8
0
 62
     0
  6
CONTINUOUS
 10
2.703800
 20
1.728320
 11
2.708640
 21
1.728320
  0
LINE
  8
0
 62
     0
  6
CONTINUOUS
 10
2.708640
 20
1.728320
 11
2.713920
 21
1.728320
  0
LINE
  8
0
 62
     0
  6
CONTINUOUS
 10
2.713920
 20
1.728320
 11
2.718320
 21
1.730520
  0
LINE
  8
0
 62
     0
  6
CONTINUOUS
 10
2.718320
 20
1.730520
 11
2.724040
 21
1.734040
  0
LINE
  8
0
 62
     0
  6
CONTINUOUS
 10
2.735040
 20
1.788600
 11
2.739880
 21
1.785520
  0
LINE
  8
0
 62
     0
  6
CONTINUOUS
 10
2.739880
 20
1.785520
 11
2.745160
 21
1.783320
  0
LINE
  8
0
 62
     0
  6
CONTINUOUS
 10
2.745160
 20
1.783320
 11
2.749560
 21
1.783320
  0
LINE
  8
0
 62
     0
  6
CONTINUOUS
 10
2.749560
 20
1.783320
 11
2.756600
 21
1.783320
  0
LINE
  8
0
 62
     0
  6
CONTINUOUS
 10
2.756600
 20
1.783320
 11
2.761000
 21
1.785520
  0
LINE
  8
0
 62
     0
  6
CONTINUOUS
 10
2.761000
 20
1.785520
 11
2.765400
 21
1.788600
  0
LINE
  8
0
 62
     0
  6
CONTINUOUS
 10
2.765400
 20
1.788600
 11
2.766720
 21
1.793440
  0
LINE
  8
0
 62
     0
  6
CONTINUOUS
 10
2.766720
 20
1.793440
 11
2.769800
 21
1.798720
  0
LINE
  8
0
 62
     0
  6
CONTINUOUS
 10
2.769800
 20
1.798720
 11
2.771120
 21
1.803120
  0
LINE
  8
0
 62
     0
  6
CONTINUOUS
 10
2.771120
 20
1.803120
 11
2.769800
 21
1.808840
  0
LINE
  8
0
 62
     0
  6
CONTINUOUS
 10
2.769800
 20
1.808840
 11
2.766720
 21
1.814560
  0
LINE
  8
0
 62
     0
  6
CONTINUOUS
 10
2.766720
 20
1.814560
 11
2.765400
 21
1.817640
  0
LINE
  8
0
 62
     0
  6
CONTINUOUS
 10
2.765400
 20
1.817640
 11
2.761000
 21
1.821160
  0
LINE
  8
0
 62
     0
  6
CONTINUOUS
 10
2.761000
 20
1.821160
 11
2.756600
 21
1.823360
  0
LINE
  8
0
 62
     0
  6
CONTINUOUS
 10
2.756600
 20
1.823360
 11
2.749560
 21
1.824680
  0
LINE
  8
0
 62
     0
  6
CONTINUOUS
 10
2.749560
 20
1.824680
 11
2.745160
 21
1.823360
  0
LINE
  8
0
 62
     0
  6
CONTINUOUS
 10
2.745160
 20
1.823360
 11
2.739880
 21
1.821160
  0
LINE
  8
0
 62
     0
  6
CONTINUOUS
 10
2.739880
 20
1.821160
 11
2.735040
 21
1.817640
  0
LINE
  8
0
 62
     0
  6
CONTINUOUS
 10
2.735040
 20
1.817640
 11
2.732840
 21
1.814560
  0
LINE
  8
0
 62
     0
  6
CONTINUOUS
 10
2.732840
 20
1.814560
 11
2.729760
 21
1.808840
  0
LINE
  8
0
 62
     0
  6
CONTINUOUS
 10
2.729760
 20
1.808840
 11
2.728440
 21
1.803120
  0
LINE
  8
0
 62
     0
  6
CONTINUOUS
 10
2.728440
 20
1.803120
 11
2.729760
 21
1.798720
  0
LINE
  8
0
 62
     0
  6
CONTINUOUS
 10
2.729760
 20
1.798720
 11
2.732840
 21
1.793440
  0
LINE
  8
0
 62
     0
  6
CONTINUOUS
 10
2.732840
 20
1.793440
 11
2.735040
 21
1.788600
  0
LINE
  8
0
 62
     0
  6
CONTINUOUS
 10
2.724040
 20
1.829960
 11
2.725360
 21
1.834360
  0
LINE
  8
0
 62
     0
  6
CONTINUOUS
 10
2.725360
 20
1.834360
 11
2.728440
 21
1.840080
  0
LINE
  8
0
 62
     0
  6
CONTINUOUS
 10
2.728440
 20
1.840080
 11
2.728440
 21
1.844480
  0
LINE
  8
0
 62
     0
  6
CONTINUOUS
 10
2.728440
 20
1.844480
 11
2.728440
 21
1.850200
  0
LINE
  8
0
 62
     0
  6
CONTINUOUS
 10
2.728440
 20
1.850200
 11
2.725360
 21
1.855920
  0
LINE
  8
0
 62
     0
  6
CONTINUOUS
 10
2.725360
 20
1.855920
 11
2.724040
 21
1.860320
  0
LINE
  8
0
 62
     0
  6
CONTINUOUS
 10
2.724040
 20
1.860320
 11
2.718320
 21
1.862520
  0
LINE
  8
0
 62
     0
  6
CONTINUOUS
 10
2.718320
 20
1.862520
 11
2.713920
 21
1.864720
  0
LINE
  8
0
 62
     0
  6
CONTINUOUS
 10
2.713920
 20
1.864720
 11
2.708640
 21
1.864720
  0
LINE
  8
0
 62
     0
  6
CONTINUOUS
 10
2.708640
 20
1.864720
 11
2.703800
 21
1.864720
  0
LINE
  8
0
 62
     0
  6
CONTINUOUS
 10
2.703800
 20
1.864720
 11
2.698520
 21
1.862520
  0
LINE
  8
0
 62
     0
  6
CONTINUOUS
 10
2.698520
 20
1.862520
 11
2.692800
 21
1.860320
  0
LINE
  8
0
 62
     0
  6
CONTINUOUS
 10
2.692800
 20
1.860320
 11
2.691480
 21
1.855920
  0
LINE
  8
0
 62
     0
  6
CONTINUOUS
 10
2.691480
 20
1.855920
 11
2.689280
 21
1.850200
  0
LINE
  8
0
 62
     0
  6
CONTINUOUS
 10
2.689280
 20
1.850200
 11
2.687080
 21
1.844480
  0
LINE
  8
0
 62
     0
  6
CONTINUOUS
 10
2.687080
 20
1.844480
 11
2.689280
 21
1.840080
  0
LINE
  8
0
 62
     0
  6
CONTINUOUS
 10
2.689280
 20
1.840080
 11
2.691480
 21
1.834360
  0
LINE
  8
0
 62
     0
  6
CONTINUOUS
 10
2.691480
 20
1.834360
 11
2.692800
 21
1.829960
  0
LINE
  8
0
 62
     0
  6
CONTINUOUS
 10
2.692800
 20
1.829960
 11
2.698520
 21
1.826880
  0
LINE
  8
0
 62
     0
  6
CONTINUOUS
 10
2.698520
 20
1.826880
 11
2.703800
 21
1.824680
  0
LINE
  8
0
 62
     0
  6
CONTINUOUS
 10
2.703800
 20
1.824680
 11
2.708640
 21
1.824680
  0
LINE
  8
0
 62
     0
  6
CONTINUOUS
 10
2.708640
 20
1.824680
 11
2.713920
 21
1.824680
  0
LINE
  8
0
 62
     0
  6
CONTINUOUS
 10
2.713920
 20
1.824680
 11
2.718320
 21
1.826880
  0
LINE
  8
0
 62
     0
  6
CONTINUOUS
 10
2.718320
 20
1.826880
 11
2.724040
 21
1.829960
  0
LINE
  8
0
 62
     0
  6
CONTINUOUS
 10
2.776400
 20
1.707200
 11
2.668160
 21
1.707200
  0
LINE
  8
0
 62
     0
  6
CONTINUOUS
 10
2.668160
 20
1.989680
 11
2.668160
 21
2.117280
  0
LINE
  8
0
 62
     0
  6
CONTINUOUS
 10
2.668160
 20
2.117280
 11
2.776400
 21
2.117280
  0
LINE
  8
0
 62
     0
  6
CONTINUOUS
 10
2.776400
 20
2.117280
 11
2.776400
 21
1.989680
  0
LINE
  8
0
 62
     0
  6
CONTINUOUS
 10
2.724040
 20
2.016520
 11
2.725360
 21
2.020920
  0
LINE
  8
0
 62
     0
  6
CONTINUOUS
 10
2.725360
 20
2.020920
 11
2.728440
 21
2.026640
  0
LINE
  8
0
 62
     0
  6
CONTINUOUS
 10
2.728440
 20
2.026640
 11
2.728440
 21
2.031040
  0
LINE
  8
0
 62
     0
  6
CONTINUOUS
 10
2.728440
 20
2.031040
 11
2.728440
 21
2.036760
  0
LINE
  8
0
 62
     0
  6
CONTINUOUS
 10
2.728440
 20
2.036760
 11
2.725360
 21
2.042480
  0
LINE
  8
0
 62
     0
  6
CONTINUOUS
 10
2.725360
 20
2.042480
 11
2.724040
 21
2.046880
  0
LINE
  8
0
 62
     0
  6
CONTINUOUS
 10
2.724040
 20
2.046880
 11
2.718320
 21
2.049080
  0
LINE
  8
0
 62
     0
  6
CONTINUOUS
 10
2.718320
 20
2.049080
 11
2.713920
 21
2.051280
  0
LINE
  8
0
 62
     0
  6
CONTINUOUS
 10
2.713920
 20
2.051280
 11
2.708640
 21
2.052160
  0
LINE
  8
0
 62
     0
  6
CONTINUOUS
 10
2.708640
 20
2.052160
 11
2.703800
 21
2.051280
  0
LINE
  8
0
 62
     0
  6
CONTINUOUS
 10
2.703800
 20
2.051280
 11
2.698520
 21
2.049080
  0
LINE
  8
0
 62
     0
  6
CONTINUOUS
 10
2.698520
 20
2.049080
 11
2.692800
 21
2.046880
  0
LINE
  8
0
 62
     0
  6
CONTINUOUS
 10
2.692800
 20
2.046880
 11
2.691480
 21
2.042480
  0
LINE
  8
0
 62
     0
  6
CONTINUOUS
 10
2.691480
 20
2.042480
 11
2.689280
 21
2.036760
  0
LINE
  8
0
 62
     0
  6
CONTINUOUS
 10
2.689280
 20
2.036760
 11
2.687080
 21
2.031040
  0
LINE
  8
0
 62
     0
  6
CONTINUOUS
 10
2.687080
 20
2.031040
 11
2.689280
 21
2.026640
  0
LINE
  8
0
 62
     0
  6
CONTINUOUS
 10
2.689280
 20
2.026640
 11
2.691480
 21
2.020920
  0
LINE
  8
0
 62
     0
  6
CONTINUOUS
 10
2.691480
 20
2.020920
 11
2.692800
 21
2.016520
  0
LINE
  8
0
 62
     0
  6
CONTINUOUS
 10
2.692800
 20
2.016520
 11
2.698520
 21
2.014320
  0
LINE
  8
0
 62
     0
  6
CONTINUOUS
 10
2.698520
 20
2.014320
 11
2.703800
 21
2.011240
  0
LINE
  8
0
 62
     0
  6
CONTINUOUS
 10
2.703800
 20
2.011240
 11
2.708640
 21
2.009920
  0
LINE
  8
0
 62
     0
  6
CONTINUOUS
 10
2.708640
 20
2.009920
 11
2.713920
 21
2.011240
  0
LINE
  8
0
 62
     0
  6
CONTINUOUS
 10
2.713920
 20
2.011240
 11
2.718320
 21
2.014320
  0
LINE
  8
0
 62
     0
  6
CONTINUOUS
 10
2.718320
 20
2.014320
 11
2.724040
 21
2.016520
  0
LINE
  8
0
 62
     0
  6
CONTINUOUS
 10
2.735040
 20
2.066680
 11
2.739880
 21
2.063600
  0
LINE
  8
0
 62
     0
  6
CONTINUOUS
 10
2.739880
 20
2.063600
 11
2.745160
 21
2.061400
  0
LINE
  8
0
 62
     0
  6
CONTINUOUS
 10
2.745160
 20
2.061400
 11
2.749560
 21
2.060080
  0
LINE
  8
0
 62
     0
  6
CONTINUOUS
 10
2.749560
 20
2.060080
 11
2.756600
 21
2.061400
  0
LINE
  8
0
 62
     0
  6
CONTINUOUS
 10
2.756600
 20
2.061400
 11
2.761000
 21
2.063600
  0
LINE
  8
0
 62
     0
  6
CONTINUOUS
 10
2.761000
 20
2.063600
 11
2.765400
 21
2.066680
  0
LINE
  8
0
 62
     0
  6
CONTINUOUS
 10
2.765400
 20
2.066680
 11
2.766720
 21
2.071520
  0
LINE
  8
0
 62
     0
  6
CONTINUOUS
 10
2.766720
 20
2.071520
 11
2.769800
 21
2.075920
  0
LINE
  8
0
 62
     0
  6
CONTINUOUS
 10
2.769800
 20
2.075920
 11
2.771120
 21
2.081200
  0
LINE
  8
0
 62
     0
  6
CONTINUOUS
 10
2.771120
 20
2.081200
 11
2.769800
 21
2.086920
  0
LINE
  8
0
 62
     0
  6
CONTINUOUS
 10
2.769800
 20
2.086920
 11
2.766720
 21
2.091320
  0
LINE
  8
0
 62
     0
  6
CONTINUOUS
 10
2.766720
 20
2.091320
 11
2.765400
 21
2.095720
  0
LINE
  8
0
 62
     0
  6
CONTINUOUS
 10
2.765400
 20
2.095720
 11
2.761000
 21
2.100560
  0
LINE
  8
0
 62
     0
  6
CONTINUOUS
 10
2.761000
 20
2.100560
 11
2.756600
 21
2.101440
  0
LINE
  8
0
 62
     0
  6
CONTINUOUS
 10
2.756600
 20
2.101440
 11
2.749560
 21
2.101440
  0
LINE
  8
0
 62
     0
  6
CONTINUOUS
 10
2.749560
 20
2.101440
 11
2.745160
 21
2.101440
  0
LINE
  8
0
 62
     0
  6
CONTINUOUS
 10
2.745160
 20
2.101440
 11
2.739880
 21
2.100560
  0
LINE
  8
0
 62
     0
  6
CONTINUOUS
 10
2.739880
 20
2.100560
 11
2.735040
 21
2.095720
  0
LINE
  8
0
 62
     0
  6
CONTINUOUS
 10
2.735040
 20
2.095720
 11
2.732840
 21
2.091320
  0
LINE
  8
0
 62
     0
  6
CONTINUOUS
 10
2.732840
 20
2.091320
 11
2.729760
 21
2.086920
  0
LINE
  8
0
 62
     0
  6
CONTINUOUS
 10
2.729760
 20
2.086920
 11
2.728440
 21
2.081200
  0
LINE
  8
0
 62
     0
  6
CONTINUOUS
 10
2.728440
 20
2.081200
 11
2.729760
 21
2.075920
  0
LINE
  8
0
 62
     0
  6
CONTINUOUS
 10
2.729760
 20
2.075920
 11
2.732840
 21
2.071520
  0
LINE
  8
0
 62
     0
  6
CONTINUOUS
 10
2.732840
 20
2.071520
 11
2.735040
 21
2.066680
  0
LINE
  8
0
 62
     0
  6
CONTINUOUS
 10
2.682680
 20
1.707200
 11
2.692800
 21
1.707200
  0
LINE
  8
0
 62
     0
  6
CONTINUOUS
 10
2.684000
 20
1.707200
 11
2.690600
 21
1.707200
  0
LINE
  8
0
 62
     0
  6
CONTINUOUS
 10
2.759680
 20
1.707200
 11
2.756600
 21
1.707200
  0
LINE
  8
0
 62
     0
  6
CONTINUOUS
 10
2.756600
 20
1.707200
 11
2.766720
 21
1.707200
  0
SOLID
  8
0
 62
     0
 10
2.724040
 20
1.566400
 11
2.724040
 21
1.626680
 12
2.724040
 22
1.566400
 13
2.672560
 23
1.596760
  0
POLYLINE
  8
0
 62
     0
  6
CONTINUOUS
 66
     1
 40
0.000000
 41
0.000000
  0
VERTEX
  8
0
 62
     0
  6
CONTINUOUS
 10
2.724040
 20
1.566400
  0
VERTEX
  8
0
 62
     0
  6
CONTINUOUS
 10
2.724040
 20
1.626680
  0
VERTEX
  8
0
 62
     0
  6
CONTINUOUS
 10
2.672560
 20
1.596760
  0
VERTEX
  8
0
 62
     0
  6
CONTINUOUS
 10
2.724040
 20
1.566400
  0
SEQEND
  8
0
  0
POLYLINE
  8
0
 62
     0
  6
CONTINUOUS
 66
     1
 40
0.000000
 41
0.000000
  0
VERTEX
  8
0
 62
     0
  6
CONTINUOUS
 10
2.724040
 20
1.566400
  0
VERTEX
  8
0
 62
     0
  6
CONTINUOUS
 10
2.724040
 20
1.626680
  0
VERTEX
  8
0
 62
     0
  6
CONTINUOUS
 10
2.672560
 20
1.596760
  0
VERTEX
  8
0
 62
     0
  6
CONTINUOUS
 10
2.724040
 20
1.566400
  0
SEQEND
  8
0
  0
SOLID
  8
0
 62
     0
 10
2.641320
 20
1.542200
 11
2.701600
 21
1.542200
 12
2.641320
 22
1.542200
 13
2.671680
 23
1.593240
  0
POLYLINE
  8
0
 62
     0
  6
CONTINUOUS
 66
     1
 40
0.000000
 41
0.000000
  0
VERTEX
  8
0
 62
     0
  6
CONTINUOUS
 10
2.641320
 20
1.542200
  0
VERTEX
  8
0
 62
     0
  6
CONTINUOUS
 10
2.701600
 20
1.542200
  0
VERTEX
  8
0
 62
     0
  6
CONTINUOUS
 10
2.671680
 20
1.593240
  0
VERTEX
  8
0
 62
     0
  6
CONTINUOUS
 10
2.641320
 20
1.542200
  0
SEQEND
  8
0
  0
POLYLINE
  8
0
 62
     0
  6
CONTINUOUS
 66
     1
 40
0.000000
 41
0.000000
  0
VERTEX
  8
0
 62
     0
  6
CONTINUOUS
 10
2.641320
 20
1.542200
  0
VERTEX
  8
0
 62
     0
  6
CONTINUOUS
 10
2.701600
 20
1.542200
  0
VERTEX
  8
0
 62
     0
  6
CONTINUOUS
 10
2.671680
 20
1.593240
  0
VERTEX
  8
0
 62
     0
  6
CONTINUOUS
 10
2.641320
 20
1.542200
  0
SEQEND
  8
0
  0
SOLID
  8
0
 62
     0
 10
2.700720
 20
1.650440
 11
2.641320
 21
1.649120
 12
2.700720
 22
1.650440
 13
2.671680
 23
1.597640
  0
POLYLINE
  8
0
 62
     0
  6
CONTINUOUS
 66
     1
 40
0.000000
 41
0.000000
  0
VERTEX
  8
0
 62
     0
  6
CONTINUOUS
 10
2.700720
 20
1.650440
  0
VERTEX
  8
0
 62
     0
  6
CONTINUOUS
 10
2.641320
 20
1.649120
  0
VERTEX
  8
0
 62
     0
  6
CONTINUOUS
 10
2.671680
 20
1.597640
  0
VERTEX
  8
0
 62
     0
  6
CONTINUOUS
 10
2.700720
 20
1.650440
  0
SEQEND
  8
0
  0
POLYLINE
  8
0
 62
     0
  6
CONTINUOUS
 66
     1
 40
0.000000
 41
0.000000
  0
VERTEX
  8
0
 62
     0
  6
CONTINUOUS
 10
2.700720
 20
1.650440
  0
VERTEX
  8
0
 62
     0
  6
CONTINUOUS
 10
2.641320
 20
1.649120
  0
VERTEX
  8
0
 62
     0
  6
CONTINUOUS
 10
2.671680
 20
1.597640
  0
VERTEX
  8
0
 62
     0
  6
CONTINUOUS
 10
2.700720
 20
1.650440
  0
SEQEND
  8
0
  0
POLYLINE
  8
0
 62
     0
  6
CONTINUOUS
 66
     1
 40
0.000000
 41
0.000000
  0
VERTEX
  8
0
 62
     0
  6
CONTINUOUS
 10
2.769800
 20
1.034880
  0
VERTEX
  8
0
 62
     0
  6
CONTINUOUS
 10
2.769800
 20
1.485000
  0
VERTEX
  8
0
 62
     0
  6
CONTINUOUS
 10
2.691480
 20
1.485000
  0
VERTEX
  8
0
 62
     0
  6
CONTINUOUS
 10
2.691480
 20
1.548800
  0
SEQEND
  8
0
  0
TEXT
  8
0
 62
     0
 10
2.687520
 20
0.970640
 40
0.045578
  1
B/O
 41
1.000000
  7
SN0
 71
     0
 72
     5
 11
2.753080
 21
0.970640
  0
POLYLINE
  8
0
 62
     0
  6
CONTINUOUS
 66
     1
 40
0.014520
 41
0.014520
  0
VERTEX
  8
0
 62
     0
  6
CONTINUOUS
 10
2.682680
 20
1.028280
  0
VERTEX
  8
0
 62
     0
  6
CONTINUOUS
 10
2.830080
 20
1.028280
  0
VERTEX
  8
0
 62
     0
  6
CONTINUOUS
 10
2.830080
 20
0.920920
  0
VERTEX
  8
0
 62
     0
  6
CONTINUOUS
 10
2.682680
 20
0.920920
  0
VERTEX
  8
0
 62
     0
  6
CONTINUOUS
 10
2.682680
 20
1.028280
  0
SEQEND
  8
0
  0
POLYLINE
  8
0
 62
     0
  6
CONTINUOUS
 66
     1
 40
0.000000
 41
0.000000
  0
VERTEX
  8
0
 62
     0
  6
CONTINUOUS
 10
2.964280
 20
1.515360
  0
VERTEX
  8
0
 62
     0
  6
CONTINUOUS
 10
2.964280
 20
1.318680
  0
VERTEX
  8
0
 62
     0
  6
CONTINUOUS
 10
3.072520
 20
1.347720
  0
VERTEX
  8
0
 62
     0
  6
CONTINUOUS
 10
3.072520
 20
1.480600
  0
VERTEX
  8
0
 62
     0
  6
CONTINUOUS
 10
2.964280
 20
1.509640
  0
VERTEX
  8
0
 62
     0
  6
CONTINUOUS
 10
2.964280
 20
1.515360
  0
SEQEND
  8
0
  0
POLYLINE
  8
0
 62
     0
  6
CONTINUOUS
 66
     1
 40
0.000000
 41
0.000000
  0
VERTEX
  8
0
 62
     0
  6
CONTINUOUS
 10
2.824800
 20
1.515360
  0
VERTEX
  8
0
 62
     0
  6
CONTINUOUS
 10
2.824800
 20
1.318680
  0
VERTEX
  8
0
 62
     0
  6
CONTINUOUS
 10
2.933040
 20
1.347720
  0
VERTEX
  8
0
 62
     0
  6
CONTINUOUS
 10
2.933040
 20
1.480600
  0
VERTEX
  8
0
 62
     0
  6
CONTINUOUS
 10
2.824800
 20
1.509640
  0
VERTEX
  8
0
 62
     0
  6
CONTINUOUS
 10
2.824800
 20
1.515360
  0
SEQEND
  8
0
  0
TEXT
  8
0
 62
     0
 10
2.845040
 20
1.424720
 40
0.024604
  1
C1
 41
1.000000
  7
SN0
 71
     0
 72
     5
 11
2.865720
 21
1.424720
  0
TEXT
  8
0
 62
     0
 10
2.984520
 20
1.424720
 40
0.024604
  1
C2
 41
1.000000
  7
SN0
 71
     0
 72
     5
 11
3.009600
 21
1.424720
  0
ENDSEC
  0
EOF
