  0
SECTION
  2
HEADER
  9
$EXTMIN
 10
1.021680
 20
2.739000
  9
$EXTMAX
 10
5.038440
 20
3.980240
  9
$LTSCALE
 40
0.044000
  9
$PDMODE
 70
    35
  9
$PDSIZE
 40
0.035200
  0
ENDSEC
  0
SECTION
  2
TABLES
  0
TABLE
  2
LTYPE
 70
     9
  0
LTYPE
  2
CONTINUOUS
 70
    64
  3
Solid line
 72
    65
 73
     0
 40
0.000000
  0
LTYPE
  2
DASHED
 70
    64
  3
__ __ __ __ __ __ __ __ __ __ __ __ __ __ __
 72
    65
 73
     2
 40
0.000330
 49
0.000220
 49
-0.000110
  0
LTYPE
  2
HIDDEN
 70
    64
  3
 _ _ _ _ _ _ _ _ _ _ _ _ _ _ _ _ _ _ _ _ _ _
 72
    65
 73
     2
 40
0.000165
 49
0.000110
 49
-0.000055
  0
LTYPE
  2
CENTER
 70
    64
  3
____ _ ____ _ ____ _ ____ _ ____ _ ____ _ ____
 72
    65
 73
     4
 40
0.000880
 49
0.000550
 49
-0.000110
 49
0.000110
 49
-0.000110
  0
LTYPE
  2
PHANTOM
 70
    64
  3
_____ _ _ _____ _ _ _____ _ _ _____ _ _ ____
 72
    65
 73
     6
 40
0.001100
 49
0.000550
 49
-0.000110
 49
0.000110
 49
-0.000110
 49
0.000110
 49
-0.000110
  0
LTYPE
  2
DOT
 70
    64
  3
...............................................
 72
    65
 73
     2
 40
0.000110
 49
0.000000
 49
-0.000110
  0
LTYPE
  2
DASHDOT
 70
    64
  3
__ . __ . __ . __ . __ . __ . __ . __ . __ . __
 72
    65
 73
     4
 40
0.000440
 49
0.000220
 49
-0.000110
 49
0.000000
 49
-0.000110
  0
LTYPE
  2
BORDER
 70
    64
  3
__ __ . __ __ . __ __ . __ __ . __ __ . __ __
 72
    65
 73
     6
 40
0.000770
 49
0.000220
 49
-0.000110
 49
0.000220
 49
-0.000110
 49
0.000000
 49
-0.000110
  0
LTYPE
  2
DIVIDE
 70
    64
  3
__ . . __ . . __ . . __ . . __ . . __ . . __
 72
    65
 73
     6
 40
0.000550
 49
0.000220
 49
-0.000110
 49
0.000000
 49
-0.000110
 49
0.000000
 49
-0.000110
  0
LTYPE
  2
DOTDOT
 70
    64
  3
 . .  . .  . .  . .  . .  . . 
 72
    65
 73
     5
 40
0.000242
 49
-0.000110
 49
0.000000
 49
-0.000110
 49
0.000000
 49
-0.000110
  0
ENDTAB
  0
TABLE
  2
STYLE
 70
     2
  0
STYLE
 70
     0
  2
SN0
 40
0.000000
 41
0.000440
 50
0.000000
 71
     0
 42
0.000000
  3
ROMANS
  0
STYLE
 70
    68
  2
SV0
 40
0.000000
 41
0.000440
 50
0.000000
 71
     0
 42
0.000000
  3
ROMANS
  0
ENDTAB
  0
TABLE
  2
LAYER
 70
     3
  0
LAYER
  2
FOREGROUND
 70
    64
 62
     7
  6
CONTINUOUS
  0
LAYER
  2
BACKGROUND
 70
    65
 62
    -7
  6
CONTINUOUS
  0
LAYER
  2
0
 70
    64
 62
     7
  6
CONTINUOUS
  0
ENDTAB
  0
ENDSEC
  0
SECTION
  2
ENTITIES
  0
LINE
  8
0
 62
     0
  6
CONTINUOUS
 10
1.569480
 20
3.549480
 11
1.569480
 21
3.653320
  0
LINE
  8
0
 62
     0
  6
CONTINUOUS
 10
1.569480
 20
3.705680
 11
1.569480
 21
3.809520
  0
LINE
  8
0
 62
     0
  6
CONTINUOUS
 10
1.569480
 20
3.863200
 11
1.569480
 21
3.980240
  0
LINE
  8
0
 62
     0
  6
CONTINUOUS
 10
3.637920
 20
3.819640
 11
3.648920
 21
3.856600
  0
LINE
  8
0
 62
     0
  6
CONTINUOUS
 10
3.648920
 20
3.856600
 11
3.672680
 21
3.856600
  0
LINE
  8
0
 62
     0
  6
CONTINUOUS
 10
3.688080
 20
3.856600
 11
3.664760
 21
3.819640
  0
LINE
  8
0
 62
     0
  6
CONTINUOUS
 10
3.672680
 20
3.831960
 11
3.690280
 21
3.831960
  0
LINE
  8
0
 62
     0
  6
CONTINUOUS
 10
3.692480
 20
3.819640
 11
3.688080
 21
3.856600
  0
LINE
  8
0
 62
     0
  6
CONTINUOUS
 10
3.710520
 20
3.856600
 11
3.701720
 21
3.819640
  0
LINE
  8
0
 62
     0
  6
CONTINUOUS
 10
3.725040
 20
3.819640
 11
3.710520
 21
3.856600
  0
LINE
  8
0
 62
     0
  6
CONTINUOUS
 10
3.736040
 20
3.856600
 11
3.725040
 21
3.819640
  0
LINE
  8
0
 62
     0
  6
CONTINUOUS
 10
3.658160
 20
3.838560
 11
3.644520
 21
3.838560
  0
LINE
  8
0
 62
     0
  6
CONTINUOUS
 10
1.580480
 20
3.591720
 11
1.571680
 21
3.583800
  0
LINE
  8
0
 62
     0
  6
CONTINUOUS
 10
1.571680
 20
3.583800
 11
1.582680
 21
3.588640
  0
LINE
  8
0
 62
     0
  6
CONTINUOUS
 10
1.582680
 20
3.588640
 11
1.571680
 21
3.583800
  0
LINE
  8
0
 62
     0
  6
CONTINUOUS
 10
1.571680
 20
3.583800
 11
1.584000
 21
3.583800
  0
LINE
  8
0
 62
     0
  6
CONTINUOUS
 10
1.584000
 20
3.583800
 11
1.582680
 21
3.588640
  0
LINE
  8
0
 62
     0
  6
CONTINUOUS
 10
1.582680
 20
3.588640
 11
1.580480
 21
3.591720
  0
LINE
  8
0
 62
     0
  6
CONTINUOUS
 10
1.580480
 20
3.591720
 11
1.576080
 21
3.593920
  0
LINE
  8
0
 62
     0
  6
CONTINUOUS
 10
1.576080
 20
3.593920
 11
1.571680
 21
3.583800
  0
LINE
  8
0
 62
     0
  6
CONTINUOUS
 10
1.571680
 20
3.583800
 11
1.580480
 21
3.591720
  0
LINE
  8
0
 62
     0
  6
CONTINUOUS
 10
1.576080
 20
3.593920
 11
1.571680
 21
3.595240
  0
LINE
  8
0
 62
     0
  6
CONTINUOUS
 10
1.571680
 20
3.595240
 11
1.571680
 21
3.583800
  0
LINE
  8
0
 62
     0
  6
CONTINUOUS
 10
1.571680
 20
3.583800
 11
1.576080
 21
3.593920
  0
LINE
  8
0
 62
     0
  6
CONTINUOUS
 10
1.576080
 20
3.593920
 11
1.576080
 21
3.588640
  0
LINE
  8
0
 62
     0
  6
CONTINUOUS
 10
1.571680
 20
3.583800
 11
1.571680
 21
3.595240
  0
LINE
  8
0
 62
     0
  6
CONTINUOUS
 10
1.571680
 20
3.595240
 11
1.571680
 21
3.583800
  0
LINE
  8
0
 62
     0
  6
CONTINUOUS
 10
1.571680
 20
3.583800
 11
1.571680
 21
3.595240
  0
LINE
  8
0
 62
     0
  6
CONTINUOUS
 10
1.571680
 20
3.595240
 11
1.565960
 21
3.593920
  0
LINE
  8
0
 62
     0
  6
CONTINUOUS
 10
1.565960
 20
3.593920
 11
1.571680
 21
3.583800
  0
LINE
  8
0
 62
     0
  6
CONTINUOUS
 10
1.571680
 20
3.583800
 11
1.565960
 21
3.593920
  0
LINE
  8
0
 62
     0
  6
CONTINUOUS
 10
1.565960
 20
3.593920
 11
1.562440
 21
3.591720
  0
LINE
  8
0
 62
     0
  6
CONTINUOUS
 10
1.562440
 20
3.591720
 11
1.571680
 21
3.583800
  0
LINE
  8
0
 62
     0
  6
CONTINUOUS
 10
1.571680
 20
3.583800
 11
1.562440
 21
3.591720
  0
LINE
  8
0
 62
     0
  6
CONTINUOUS
 10
1.562440
 20
3.591720
 11
1.559360
 21
3.588640
  0
LINE
  8
0
 62
     0
  6
CONTINUOUS
 10
1.559360
 20
3.588640
 11
1.571680
 21
3.583800
  0
LINE
  8
0
 62
     0
  6
CONTINUOUS
 10
1.571680
 20
3.583800
 11
1.559360
 21
3.588640
  0
LINE
  8
0
 62
     0
  6
CONTINUOUS
 10
1.559360
 20
3.588640
 11
1.559360
 21
3.583800
  0
LINE
  8
0
 62
     0
  6
CONTINUOUS
 10
1.559360
 20
3.583800
 11
1.571680
 21
3.583800
  0
LINE
  8
0
 62
     0
  6
CONTINUOUS
 10
1.571680
 20
3.583800
 11
1.559360
 21
3.583800
  0
LINE
  8
0
 62
     0
  6
CONTINUOUS
 10
1.559360
 20
3.583800
 11
1.571680
 21
3.583800
  0
LINE
  8
0
 62
     0
  6
CONTINUOUS
 10
1.571680
 20
3.583800
 11
1.559360
 21
3.578520
  0
LINE
  8
0
 62
     0
  6
CONTINUOUS
 10
1.559360
 20
3.578520
 11
1.571680
 21
3.583800
  0
LINE
  8
0
 62
     0
  6
CONTINUOUS
 10
1.571680
 20
3.583800
 11
1.562440
 21
3.574120
  0
LINE
  8
0
 62
     0
  6
CONTINUOUS
 10
1.562440
 20
3.574120
 11
1.571680
 21
3.583800
  0
LINE
  8
0
 62
     0
  6
CONTINUOUS
 10
1.571680
 20
3.583800
 11
1.571680
 21
3.570600
  0
LINE
  8
0
 62
     0
  6
CONTINUOUS
 10
1.571680
 20
3.570600
 11
1.571680
 21
3.583800
  0
LINE
  8
0
 62
     0
  6
CONTINUOUS
 10
1.571680
 20
3.583800
 11
1.565960
 21
3.571480
  0
LINE
  8
0
 62
     0
  6
CONTINUOUS
 10
1.565960
 20
3.571480
 11
1.571680
 21
3.583800
  0
LINE
  8
0
 62
     0
  6
CONTINUOUS
 10
1.571680
 20
3.583800
 11
1.571680
 21
3.570600
  0
LINE
  8
0
 62
     0
  6
CONTINUOUS
 10
1.571680
 20
3.570600
 11
1.571680
 21
3.583800
  0
LINE
  8
0
 62
     0
  6
CONTINUOUS
 10
1.571680
 20
3.583800
 11
1.576080
 21
3.571480
  0
LINE
  8
0
 62
     0
  6
CONTINUOUS
 10
1.576080
 20
3.571480
 11
1.571680
 21
3.583800
  0
LINE
  8
0
 62
     0
  6
CONTINUOUS
 10
1.571680
 20
3.583800
 11
1.580480
 21
3.574120
  0
LINE
  8
0
 62
     0
  6
CONTINUOUS
 10
1.580480
 20
3.574120
 11
1.571680
 21
3.583800
  0
LINE
  8
0
 62
     0
  6
CONTINUOUS
 10
1.571680
 20
3.583800
 11
1.582680
 21
3.578520
  0
LINE
  8
0
 62
     0
  6
CONTINUOUS
 10
1.582680
 20
3.578520
 11
1.571680
 21
3.583800
  0
LINE
  8
0
 62
     0
  6
CONTINUOUS
 10
1.571680
 20
3.583800
 11
1.584000
 21
3.583800
  0
LINE
  8
0
 62
     0
  6
CONTINUOUS
 10
1.584000
 20
3.583800
 11
1.571680
 21
3.583800
  0
LINE
  8
0
 62
     0
  6
CONTINUOUS
 10
1.576080
 20
3.578520
 11
1.576080
 21
3.571480
  0
LINE
  8
0
 62
     0
  6
CONTINUOUS
 10
1.576080
 20
3.571480
 11
1.580480
 21
3.574120
  0
LINE
  8
0
 62
     0
  6
CONTINUOUS
 10
1.580480
 20
3.574120
 11
1.582680
 21
3.578520
  0
LINE
  8
0
 62
     0
  6
CONTINUOUS
 10
1.582680
 20
3.578520
 11
1.584000
 21
3.583800
  0
LINE
  8
0
 62
     0
  6
CONTINUOUS
 10
1.576080
 20
3.571480
 11
1.571680
 21
3.570600
  0
LINE
  8
0
 62
     0
  6
CONTINUOUS
 10
1.571680
 20
3.570600
 11
1.565960
 21
3.571480
  0
LINE
  8
0
 62
     0
  6
CONTINUOUS
 10
1.565960
 20
3.571480
 11
1.562440
 21
3.574120
  0
LINE
  8
0
 62
     0
  6
CONTINUOUS
 10
1.562440
 20
3.574120
 11
1.559360
 21
3.578520
  0
LINE
  8
0
 62
     0
  6
CONTINUOUS
 10
1.559360
 20
3.578520
 11
1.559360
 21
3.583800
  0
LINE
  8
0
 62
     0
  6
CONTINUOUS
 10
1.560240
 20
3.660800
 11
1.565960
 21
3.660800
  0
LINE
  8
0
 62
     0
  6
CONTINUOUS
 10
1.565960
 20
3.666520
 11
1.571680
 21
3.655520
  0
LINE
  8
0
 62
     0
  6
CONTINUOUS
 10
1.571680
 20
3.655520
 11
1.571680
 21
3.667840
  0
LINE
  8
0
 62
     0
  6
CONTINUOUS
 10
1.571680
 20
3.667840
 11
1.571680
 21
3.655520
  0
LINE
  8
0
 62
     0
  6
CONTINUOUS
 10
1.571680
 20
3.655520
 11
1.576080
 21
3.666520
  0
LINE
  8
0
 62
     0
  6
CONTINUOUS
 10
1.576080
 20
3.666520
 11
1.576080
 21
3.659920
  0
LINE
  8
0
 62
     0
  6
CONTINUOUS
 10
1.576080
 20
3.659920
 11
1.576080
 21
3.660800
  0
LINE
  8
0
 62
     0
  6
CONTINUOUS
 10
1.576080
 20
3.660800
 11
1.582680
 21
3.660800
  0
LINE
  8
0
 62
     0
  6
CONTINUOUS
 10
1.582680
 20
3.660800
 11
1.582680
 21
3.659920
  0
LINE
  8
0
 62
     0
  6
CONTINUOUS
 10
1.582680
 20
3.659920
 11
1.580480
 21
3.664320
  0
LINE
  8
0
 62
     0
  6
CONTINUOUS
 10
1.580480
 20
3.664320
 11
1.571680
 21
3.655520
  0
LINE
  8
0
 62
     0
  6
CONTINUOUS
 10
1.571680
 20
3.655520
 11
1.582680
 21
3.659920
  0
LINE
  8
0
 62
     0
  6
CONTINUOUS
 10
1.582680
 20
3.659920
 11
1.571680
 21
3.655520
  0
LINE
  8
0
 62
     0
  6
CONTINUOUS
 10
1.571680
 20
3.655520
 11
1.584000
 21
3.655520
  0
LINE
  8
0
 62
     0
  6
CONTINUOUS
 10
1.584000
 20
3.655520
 11
1.582680
 21
3.659920
  0
LINE
  8
0
 62
     0
  6
CONTINUOUS
 10
1.584000
 20
3.656400
 11
1.574760
 21
3.656400
  0
LINE
  8
0
 62
     0
  6
CONTINUOUS
 10
1.574760
 20
3.656400
 11
1.571680
 21
3.655520
  0
LINE
  8
0
 62
     0
  6
CONTINUOUS
 10
1.571680
 20
3.655520
 11
1.580480
 21
3.664320
  0
LINE
  8
0
 62
     0
  6
CONTINUOUS
 10
1.580480
 20
3.664320
 11
1.576080
 21
3.666520
  0
LINE
  8
0
 62
     0
  6
CONTINUOUS
 10
1.576080
 20
3.666520
 11
1.571680
 21
3.655520
  0
LINE
  8
0
 62
     0
  6
CONTINUOUS
 10
1.571680
 20
3.655520
 11
1.571680
 21
3.667840
  0
LINE
  8
0
 62
     0
  6
CONTINUOUS
 10
1.571680
 20
3.667840
 11
1.571680
 21
3.655520
  0
LINE
  8
0
 62
     0
  6
CONTINUOUS
 10
1.571680
 20
3.655520
 11
1.565960
 21
3.666520
  0
LINE
  8
0
 62
     0
  6
CONTINUOUS
 10
1.565960
 20
3.666520
 11
1.562440
 21
3.664320
  0
LINE
  8
0
 62
     0
  6
CONTINUOUS
 10
1.562440
 20
3.664320
 11
1.571680
 21
3.655520
  0
LINE
  8
0
 62
     0
  6
CONTINUOUS
 10
1.571680
 20
3.655520
 11
1.562440
 21
3.664320
  0
LINE
  8
0
 62
     0
  6
CONTINUOUS
 10
1.562440
 20
3.664320
 11
1.559360
 21
3.659920
  0
LINE
  8
0
 62
     0
  6
CONTINUOUS
 10
1.559360
 20
3.659920
 11
1.571680
 21
3.655520
  0
LINE
  8
0
 62
     0
  6
CONTINUOUS
 10
1.571680
 20
3.655520
 11
1.559360
 21
3.659920
  0
LINE
  8
0
 62
     0
  6
CONTINUOUS
 10
1.559360
 20
3.659920
 11
1.559360
 21
3.655520
  0
LINE
  8
0
 62
     0
  6
CONTINUOUS
 10
1.559360
 20
3.655520
 11
1.571680
 21
3.655520
  0
LINE
  8
0
 62
     0
  6
CONTINUOUS
 10
1.571680
 20
3.655520
 11
1.559360
 21
3.655520
  0
LINE
  8
0
 62
     0
  6
CONTINUOUS
 10
1.559360
 20
3.655520
 11
1.559360
 21
3.651120
  0
LINE
  8
0
 62
     0
  6
CONTINUOUS
 10
1.559360
 20
3.651120
 11
1.571680
 21
3.655520
  0
LINE
  8
0
 62
     0
  6
CONTINUOUS
 10
1.571680
 20
3.655520
 11
1.559360
 21
3.655520
  0
LINE
  8
0
 62
     0
  6
CONTINUOUS
 10
1.559360
 20
3.655520
 11
1.559360
 21
3.656400
  0
LINE
  8
0
 62
     0
  6
CONTINUOUS
 10
1.559360
 20
3.656400
 11
1.569480
 21
3.656400
  0
LINE
  8
0
 62
     0
  6
CONTINUOUS
 10
1.569480
 20
3.656400
 11
1.571680
 21
3.655520
  0
LINE
  8
0
 62
     0
  6
CONTINUOUS
 10
1.571680
 20
3.655520
 11
1.559360
 21
3.651120
  0
LINE
  8
0
 62
     0
  6
CONTINUOUS
 10
1.559360
 20
3.651120
 11
1.562440
 21
3.647600
  0
LINE
  8
0
 62
     0
  6
CONTINUOUS
 10
1.562440
 20
3.647600
 11
1.571680
 21
3.655520
  0
LINE
  8
0
 62
     0
  6
CONTINUOUS
 10
1.571680
 20
3.655520
 11
1.562440
 21
3.647600
  0
LINE
  8
0
 62
     0
  6
CONTINUOUS
 10
1.562440
 20
3.647600
 11
1.565960
 21
3.644080
  0
LINE
  8
0
 62
     0
  6
CONTINUOUS
 10
1.565960
 20
3.644080
 11
1.571680
 21
3.655520
  0
LINE
  8
0
 62
     0
  6
CONTINUOUS
 10
1.571680
 20
3.655520
 11
1.571680
 21
3.644080
  0
LINE
  8
0
 62
     0
  6
CONTINUOUS
 10
1.571680
 20
3.644080
 11
1.571680
 21
3.655520
  0
LINE
  8
0
 62
     0
  6
CONTINUOUS
 10
1.571680
 20
3.655520
 11
1.565960
 21
3.644080
  0
LINE
  8
0
 62
     0
  6
CONTINUOUS
 10
1.565960
 20
3.644080
 11
1.571680
 21
3.644080
  0
LINE
  8
0
 62
     0
  6
CONTINUOUS
 10
1.571680
 20
3.644080
 11
1.571680
 21
3.655520
  0
LINE
  8
0
 62
     0
  6
CONTINUOUS
 10
1.571680
 20
3.655520
 11
1.571680
 21
3.644080
  0
LINE
  8
0
 62
     0
  6
CONTINUOUS
 10
1.571680
 20
3.644080
 11
1.576080
 21
3.644080
  0
LINE
  8
0
 62
     0
  6
CONTINUOUS
 10
1.576080
 20
3.644080
 11
1.571680
 21
3.655520
  0
LINE
  8
0
 62
     0
  6
CONTINUOUS
 10
1.571680
 20
3.655520
 11
1.576080
 21
3.644080
  0
LINE
  8
0
 62
     0
  6
CONTINUOUS
 10
1.576080
 20
3.644080
 11
1.580480
 21
3.647600
  0
LINE
  8
0
 62
     0
  6
CONTINUOUS
 10
1.580480
 20
3.647600
 11
1.571680
 21
3.655520
  0
LINE
  8
0
 62
     0
  6
CONTINUOUS
 10
1.571680
 20
3.655520
 11
1.580480
 21
3.647600
  0
LINE
  8
0
 62
     0
  6
CONTINUOUS
 10
1.580480
 20
3.647600
 11
1.582680
 21
3.651120
  0
LINE
  8
0
 62
     0
  6
CONTINUOUS
 10
1.582680
 20
3.651120
 11
1.571680
 21
3.655520
  0
LINE
  8
0
 62
     0
  6
CONTINUOUS
 10
1.571680
 20
3.655520
 11
1.582680
 21
3.651120
  0
LINE
  8
0
 62
     0
  6
CONTINUOUS
 10
1.582680
 20
3.651120
 11
1.584000
 21
3.655520
  0
LINE
  8
0
 62
     0
  6
CONTINUOUS
 10
1.584000
 20
3.655520
 11
1.571680
 21
3.655520
  0
LINE
  8
0
 62
     0
  6
CONTINUOUS
 10
1.571680
 20
3.655520
 11
1.584000
 21
3.655520
  0
LINE
  8
0
 62
     0
  6
CONTINUOUS
 10
1.576080
 20
3.651120
 11
1.576080
 21
3.644080
  0
LINE
  8
0
 62
     0
  6
CONTINUOUS
 10
1.576080
 20
3.666520
 11
1.571680
 21
3.667840
  0
LINE
  8
0
 62
     0
  6
CONTINUOUS
 10
1.571680
 20
3.667840
 11
1.565960
 21
3.666520
  0
LINE
  8
0
 62
     0
  6
CONTINUOUS
 10
1.571680
 20
3.739120
 11
1.584000
 21
3.739120
  0
LINE
  8
0
 62
     0
  6
CONTINUOUS
 10
1.584000
 20
3.739120
 11
1.582680
 21
3.743520
  0
LINE
  8
0
 62
     0
  6
CONTINUOUS
 10
1.582680
 20
3.743520
 11
1.571680
 21
3.739120
  0
LINE
  8
0
 62
     0
  6
CONTINUOUS
 10
1.571680
 20
3.739120
 11
1.582680
 21
3.743520
  0
LINE
  8
0
 62
     0
  6
CONTINUOUS
 10
1.582680
 20
3.743520
 11
1.580480
 21
3.749240
  0
LINE
  8
0
 62
     0
  6
CONTINUOUS
 10
1.580480
 20
3.749240
 11
1.571680
 21
3.739120
  0
LINE
  8
0
 62
     0
  6
CONTINUOUS
 10
1.571680
 20
3.739120
 11
1.580480
 21
3.749240
  0
LINE
  8
0
 62
     0
  6
CONTINUOUS
 10
1.580480
 20
3.749240
 11
1.576080
 21
3.751440
  0
LINE
  8
0
 62
     0
  6
CONTINUOUS
 10
1.576080
 20
3.751440
 11
1.571680
 21
3.739120
  0
LINE
  8
0
 62
     0
  6
CONTINUOUS
 10
1.571680
 20
3.739120
 11
1.571680
 21
3.751440
  0
LINE
  8
0
 62
     0
  6
CONTINUOUS
 10
1.571680
 20
3.751440
 11
1.571680
 21
3.739120
  0
LINE
  8
0
 62
     0
  6
CONTINUOUS
 10
1.571680
 20
3.739120
 11
1.576080
 21
3.751440
  0
LINE
  8
0
 62
     0
  6
CONTINUOUS
 10
1.576080
 20
3.751440
 11
1.576080
 21
3.743520
  0
LINE
  8
0
 62
     0
  6
CONTINUOUS
 10
1.576080
 20
3.751440
 11
1.571680
 21
3.751440
  0
LINE
  8
0
 62
     0
  6
CONTINUOUS
 10
1.571680
 20
3.751440
 11
1.571680
 21
3.739120
  0
LINE
  8
0
 62
     0
  6
CONTINUOUS
 10
1.571680
 20
3.739120
 11
1.571680
 21
3.751440
  0
LINE
  8
0
 62
     0
  6
CONTINUOUS
 10
1.571680
 20
3.751440
 11
1.565960
 21
3.751440
  0
LINE
  8
0
 62
     0
  6
CONTINUOUS
 10
1.565960
 20
3.751440
 11
1.571680
 21
3.739120
  0
LINE
  8
0
 62
     0
  6
CONTINUOUS
 10
1.571680
 20
3.739120
 11
1.565960
 21
3.751440
  0
LINE
  8
0
 62
     0
  6
CONTINUOUS
 10
1.565960
 20
3.751440
 11
1.562440
 21
3.749240
  0
LINE
  8
0
 62
     0
  6
CONTINUOUS
 10
1.562440
 20
3.749240
 11
1.571680
 21
3.739120
  0
LINE
  8
0
 62
     0
  6
CONTINUOUS
 10
1.571680
 20
3.739120
 11
1.562440
 21
3.749240
  0
LINE
  8
0
 62
     0
  6
CONTINUOUS
 10
1.562440
 20
3.749240
 11
1.559360
 21
3.743520
  0
LINE
  8
0
 62
     0
  6
CONTINUOUS
 10
1.559360
 20
3.743520
 11
1.571680
 21
3.739120
  0
LINE
  8
0
 62
     0
  6
CONTINUOUS
 10
1.571680
 20
3.739120
 11
1.559360
 21
3.743520
  0
LINE
  8
0
 62
     0
  6
CONTINUOUS
 10
1.559360
 20
3.743520
 11
1.559360
 21
3.739120
  0
LINE
  8
0
 62
     0
  6
CONTINUOUS
 10
1.559360
 20
3.739120
 11
1.571680
 21
3.739120
  0
LINE
  8
0
 62
     0
  6
CONTINUOUS
 10
1.571680
 20
3.739120
 11
1.559360
 21
3.739120
  0
LINE
  8
0
 62
     0
  6
CONTINUOUS
 10
1.559360
 20
3.739120
 11
1.559360
 21
3.734720
  0
LINE
  8
0
 62
     0
  6
CONTINUOUS
 10
1.559360
 20
3.734720
 11
1.571680
 21
3.739120
  0
LINE
  8
0
 62
     0
  6
CONTINUOUS
 10
1.571680
 20
3.739120
 11
1.559360
 21
3.734720
  0
LINE
  8
0
 62
     0
  6
CONTINUOUS
 10
1.559360
 20
3.734720
 11
1.562440
 21
3.730320
  0
LINE
  8
0
 62
     0
  6
CONTINUOUS
 10
1.562440
 20
3.730320
 11
1.571680
 21
3.739120
  0
LINE
  8
0
 62
     0
  6
CONTINUOUS
 10
1.571680
 20
3.739120
 11
1.562440
 21
3.730320
  0
LINE
  8
0
 62
     0
  6
CONTINUOUS
 10
1.562440
 20
3.730320
 11
1.565960
 21
3.726800
  0
LINE
  8
0
 62
     0
  6
CONTINUOUS
 10
1.565960
 20
3.726800
 11
1.571680
 21
3.739120
  0
LINE
  8
0
 62
     0
  6
CONTINUOUS
 10
1.571680
 20
3.739120
 11
1.571680
 21
3.726800
  0
LINE
  8
0
 62
     0
  6
CONTINUOUS
 10
1.571680
 20
3.726800
 11
1.571680
 21
3.739120
  0
LINE
  8
0
 62
     0
  6
CONTINUOUS
 10
1.571680
 20
3.739120
 11
1.565960
 21
3.726800
  0
LINE
  8
0
 62
     0
  6
CONTINUOUS
 10
1.565960
 20
3.726800
 11
1.571680
 21
3.726800
  0
LINE
  8
0
 62
     0
  6
CONTINUOUS
 10
1.571680
 20
3.726800
 11
1.571680
 21
3.739120
  0
LINE
  8
0
 62
     0
  6
CONTINUOUS
 10
1.571680
 20
3.739120
 11
1.571680
 21
3.726800
  0
LINE
  8
0
 62
     0
  6
CONTINUOUS
 10
1.571680
 20
3.726800
 11
1.576080
 21
3.726800
  0
LINE
  8
0
 62
     0
  6
CONTINUOUS
 10
1.576080
 20
3.726800
 11
1.571680
 21
3.739120
  0
LINE
  8
0
 62
     0
  6
CONTINUOUS
 10
1.571680
 20
3.739120
 11
1.576080
 21
3.726800
  0
LINE
  8
0
 62
     0
  6
CONTINUOUS
 10
1.576080
 20
3.726800
 11
1.580480
 21
3.730320
  0
LINE
  8
0
 62
     0
  6
CONTINUOUS
 10
1.580480
 20
3.730320
 11
1.571680
 21
3.739120
  0
LINE
  8
0
 62
     0
  6
CONTINUOUS
 10
1.571680
 20
3.739120
 11
1.580480
 21
3.730320
  0
LINE
  8
0
 62
     0
  6
CONTINUOUS
 10
1.580480
 20
3.730320
 11
1.582680
 21
3.734720
  0
LINE
  8
0
 62
     0
  6
CONTINUOUS
 10
1.582680
 20
3.734720
 11
1.571680
 21
3.739120
  0
LINE
  8
0
 62
     0
  6
CONTINUOUS
 10
1.571680
 20
3.739120
 11
1.582680
 21
3.734720
  0
LINE
  8
0
 62
     0
  6
CONTINUOUS
 10
1.582680
 20
3.734720
 11
1.584000
 21
3.739120
  0
LINE
  8
0
 62
     0
  6
CONTINUOUS
 10
1.584000
 20
3.739120
 11
1.571680
 21
3.739120
  0
LINE
  8
0
 62
     0
  6
CONTINUOUS
 10
1.567280
 20
3.738240
 11
1.559360
 21
3.738240
  0
LINE
  8
0
 62
     0
  6
CONTINUOUS
 10
1.576080
 20
3.734720
 11
1.576080
 21
3.726800
  0
LINE
  8
0
 62
     0
  6
CONTINUOUS
 10
1.647360
 20
3.705680
 11
1.484560
 21
3.782680
  0
LINE
  8
0
 62
     0
  6
CONTINUOUS
 10
1.484560
 20
3.864080
 11
1.647360
 21
3.784880
  0
LINE
  8
0
 62
     0
  6
CONTINUOUS
 10
1.584000
 20
3.819640
 11
1.582680
 21
3.824040
  0
LINE
  8
0
 62
     0
  6
CONTINUOUS
 10
1.582680
 20
3.824040
 11
1.571680
 21
3.819640
  0
LINE
  8
0
 62
     0
  6
CONTINUOUS
 10
1.571680
 20
3.819640
 11
1.584000
 21
3.819640
  0
LINE
  8
0
 62
     0
  6
CONTINUOUS
 10
1.582680
 20
3.824040
 11
1.580480
 21
3.828440
  0
LINE
  8
0
 62
     0
  6
CONTINUOUS
 10
1.580480
 20
3.828440
 11
1.571680
 21
3.819640
  0
LINE
  8
0
 62
     0
  6
CONTINUOUS
 10
1.571680
 20
3.819640
 11
1.582680
 21
3.824040
  0
LINE
  8
0
 62
     0
  6
CONTINUOUS
 10
1.580480
 20
3.828440
 11
1.576080
 21
3.831960
  0
LINE
  8
0
 62
     0
  6
CONTINUOUS
 10
1.576080
 20
3.831960
 11
1.571680
 21
3.819640
  0
LINE
  8
0
 62
     0
  6
CONTINUOUS
 10
1.571680
 20
3.819640
 11
1.580480
 21
3.828440
  0
LINE
  8
0
 62
     0
  6
CONTINUOUS
 10
1.576080
 20
3.831960
 11
1.571680
 21
3.831960
  0
LINE
  8
0
 62
     0
  6
CONTINUOUS
 10
1.571680
 20
3.831960
 11
1.571680
 21
3.819640
  0
LINE
  8
0
 62
     0
  6
CONTINUOUS
 10
1.571680
 20
3.819640
 11
1.576080
 21
3.831960
  0
LINE
  8
0
 62
     0
  6
CONTINUOUS
 10
1.576080
 20
3.831960
 11
1.576080
 21
3.824040
  0
LINE
  8
0
 62
     0
  6
CONTINUOUS
 10
1.571680
 20
3.819640
 11
1.571680
 21
3.831960
  0
LINE
  8
0
 62
     0
  6
CONTINUOUS
 10
1.571680
 20
3.831960
 11
1.571680
 21
3.819640
  0
LINE
  8
0
 62
     0
  6
CONTINUOUS
 10
1.571680
 20
3.819640
 11
1.571680
 21
3.831960
  0
LINE
  8
0
 62
     0
  6
CONTINUOUS
 10
1.571680
 20
3.831960
 11
1.565960
 21
3.831960
  0
LINE
  8
0
 62
     0
  6
CONTINUOUS
 10
1.565960
 20
3.831960
 11
1.571680
 21
3.819640
  0
LINE
  8
0
 62
     0
  6
CONTINUOUS
 10
1.571680
 20
3.819640
 11
1.565960
 21
3.831960
  0
LINE
  8
0
 62
     0
  6
CONTINUOUS
 10
1.565960
 20
3.831960
 11
1.562440
 21
3.828440
  0
LINE
  8
0
 62
     0
  6
CONTINUOUS
 10
1.562440
 20
3.828440
 11
1.571680
 21
3.819640
  0
LINE
  8
0
 62
     0
  6
CONTINUOUS
 10
1.571680
 20
3.819640
 11
1.562440
 21
3.828440
  0
LINE
  8
0
 62
     0
  6
CONTINUOUS
 10
1.562440
 20
3.828440
 11
1.559360
 21
3.824040
  0
LINE
  8
0
 62
     0
  6
CONTINUOUS
 10
1.559360
 20
3.824040
 11
1.571680
 21
3.819640
  0
LINE
  8
0
 62
     0
  6
CONTINUOUS
 10
1.571680
 20
3.819640
 11
1.559360
 21
3.824040
  0
LINE
  8
0
 62
     0
  6
CONTINUOUS
 10
1.559360
 20
3.824040
 11
1.559360
 21
3.819640
  0
LINE
  8
0
 62
     0
  6
CONTINUOUS
 10
1.559360
 20
3.819640
 11
1.571680
 21
3.819640
  0
LINE
  8
0
 62
     0
  6
CONTINUOUS
 10
1.571680
 20
3.819640
 11
1.559360
 21
3.819640
  0
LINE
  8
0
 62
     0
  6
CONTINUOUS
 10
1.559360
 20
3.819640
 11
1.559360
 21
3.815240
  0
LINE
  8
0
 62
     0
  6
CONTINUOUS
 10
1.559360
 20
3.815240
 11
1.571680
 21
3.819640
  0
LINE
  8
0
 62
     0
  6
CONTINUOUS
 10
1.571680
 20
3.819640
 11
1.559360
 21
3.815240
  0
LINE
  8
0
 62
     0
  6
CONTINUOUS
 10
1.559360
 20
3.815240
 11
1.562440
 21
3.810840
  0
LINE
  8
0
 62
     0
  6
CONTINUOUS
 10
1.562440
 20
3.810840
 11
1.571680
 21
3.819640
  0
LINE
  8
0
 62
     0
  6
CONTINUOUS
 10
1.571680
 20
3.819640
 11
1.562440
 21
3.810840
  0
LINE
  8
0
 62
     0
  6
CONTINUOUS
 10
1.562440
 20
3.810840
 11
1.565960
 21
3.808200
  0
LINE
  8
0
 62
     0
  6
CONTINUOUS
 10
1.565960
 20
3.808200
 11
1.571680
 21
3.819640
  0
LINE
  8
0
 62
     0
  6
CONTINUOUS
 10
1.571680
 20
3.819640
 11
1.571680
 21
3.807320
  0
LINE
  8
0
 62
     0
  6
CONTINUOUS
 10
1.571680
 20
3.807320
 11
1.571680
 21
3.819640
  0
LINE
  8
0
 62
     0
  6
CONTINUOUS
 10
1.571680
 20
3.819640
 11
1.565960
 21
3.808200
  0
LINE
  8
0
 62
     0
  6
CONTINUOUS
 10
1.565960
 20
3.808200
 11
1.571680
 21
3.807320
  0
LINE
  8
0
 62
     0
  6
CONTINUOUS
 10
1.571680
 20
3.807320
 11
1.571680
 21
3.819640
  0
LINE
  8
0
 62
     0
  6
CONTINUOUS
 10
1.571680
 20
3.819640
 11
1.571680
 21
3.807320
  0
LINE
  8
0
 62
     0
  6
CONTINUOUS
 10
1.571680
 20
3.807320
 11
1.576080
 21
3.808200
  0
LINE
  8
0
 62
     0
  6
CONTINUOUS
 10
1.576080
 20
3.808200
 11
1.571680
 21
3.819640
  0
LINE
  8
0
 62
     0
  6
CONTINUOUS
 10
1.571680
 20
3.819640
 11
1.576080
 21
3.808200
  0
LINE
  8
0
 62
     0
  6
CONTINUOUS
 10
1.576080
 20
3.808200
 11
1.580480
 21
3.810840
  0
LINE
  8
0
 62
     0
  6
CONTINUOUS
 10
1.580480
 20
3.810840
 11
1.571680
 21
3.819640
  0
LINE
  8
0
 62
     0
  6
CONTINUOUS
 10
1.571680
 20
3.819640
 11
1.580480
 21
3.810840
  0
LINE
  8
0
 62
     0
  6
CONTINUOUS
 10
1.580480
 20
3.810840
 11
1.582680
 21
3.815240
  0
LINE
  8
0
 62
     0
  6
CONTINUOUS
 10
1.582680
 20
3.815240
 11
1.571680
 21
3.819640
  0
LINE
  8
0
 62
     0
  6
CONTINUOUS
 10
1.571680
 20
3.819640
 11
1.582680
 21
3.815240
  0
LINE
  8
0
 62
     0
  6
CONTINUOUS
 10
1.582680
 20
3.815240
 11
1.584000
 21
3.819640
  0
LINE
  8
0
 62
     0
  6
CONTINUOUS
 10
1.584000
 20
3.819640
 11
1.571680
 21
3.819640
  0
LINE
  8
0
 62
     0
  6
CONTINUOUS
 10
1.571680
 20
3.819640
 11
1.569480
 21
3.818320
  0
LINE
  8
0
 62
     0
  6
CONTINUOUS
 10
1.569480
 20
3.818320
 11
1.559360
 21
3.818320
  0
LINE
  8
0
 62
     0
  6
CONTINUOUS
 10
1.560240
 20
3.815240
 11
1.565960
 21
3.815240
  0
LINE
  8
0
 62
     0
  6
CONTINUOUS
 10
1.576080
 20
3.815240
 11
1.576080
 21
3.808200
  0
LINE
  8
0
 62
     0
  6
CONTINUOUS
 10
1.576080
 20
3.815240
 11
1.582680
 21
3.815240
  0
LINE
  8
0
 62
     0
  6
CONTINUOUS
 10
1.584000
 20
3.818320
 11
1.574760
 21
3.818320
  0
LINE
  8
0
 62
     0
  6
CONTINUOUS
 10
1.571680
 20
3.887840
 11
1.584000
 21
3.887840
  0
LINE
  8
0
 62
     0
  6
CONTINUOUS
 10
1.584000
 20
3.887840
 11
1.582680
 21
3.893120
  0
LINE
  8
0
 62
     0
  6
CONTINUOUS
 10
1.582680
 20
3.893120
 11
1.571680
 21
3.887840
  0
LINE
  8
0
 62
     0
  6
CONTINUOUS
 10
1.571680
 20
3.887840
 11
1.582680
 21
3.893120
  0
LINE
  8
0
 62
     0
  6
CONTINUOUS
 10
1.582680
 20
3.893120
 11
1.580480
 21
3.897520
  0
LINE
  8
0
 62
     0
  6
CONTINUOUS
 10
1.580480
 20
3.897520
 11
1.571680
 21
3.887840
  0
LINE
  8
0
 62
     0
  6
CONTINUOUS
 10
1.571680
 20
3.887840
 11
1.580480
 21
3.897520
  0
LINE
  8
0
 62
     0
  6
CONTINUOUS
 10
1.580480
 20
3.897520
 11
1.576080
 21
3.900160
  0
LINE
  8
0
 62
     0
  6
CONTINUOUS
 10
1.576080
 20
3.900160
 11
1.571680
 21
3.887840
  0
LINE
  8
0
 62
     0
  6
CONTINUOUS
 10
1.571680
 20
3.887840
 11
1.571680
 21
3.901040
  0
LINE
  8
0
 62
     0
  6
CONTINUOUS
 10
1.571680
 20
3.901040
 11
1.571680
 21
3.887840
  0
LINE
  8
0
 62
     0
  6
CONTINUOUS
 10
1.571680
 20
3.887840
 11
1.576080
 21
3.900160
  0
LINE
  8
0
 62
     0
  6
CONTINUOUS
 10
1.576080
 20
3.900160
 11
1.576080
 21
3.893120
  0
LINE
  8
0
 62
     0
  6
CONTINUOUS
 10
1.576080
 20
3.900160
 11
1.571680
 21
3.901040
  0
LINE
  8
0
 62
     0
  6
CONTINUOUS
 10
1.571680
 20
3.901040
 11
1.571680
 21
3.887840
  0
LINE
  8
0
 62
     0
  6
CONTINUOUS
 10
1.571680
 20
3.887840
 11
1.571680
 21
3.901040
  0
LINE
  8
0
 62
     0
  6
CONTINUOUS
 10
1.571680
 20
3.901040
 11
1.565960
 21
3.900160
  0
LINE
  8
0
 62
     0
  6
CONTINUOUS
 10
1.565960
 20
3.900160
 11
1.571680
 21
3.887840
  0
LINE
  8
0
 62
     0
  6
CONTINUOUS
 10
1.571680
 20
3.887840
 11
1.565960
 21
3.900160
  0
LINE
  8
0
 62
     0
  6
CONTINUOUS
 10
1.565960
 20
3.900160
 11
1.562440
 21
3.897520
  0
LINE
  8
0
 62
     0
  6
CONTINUOUS
 10
1.562440
 20
3.897520
 11
1.571680
 21
3.887840
  0
LINE
  8
0
 62
     0
  6
CONTINUOUS
 10
1.571680
 20
3.887840
 11
1.562440
 21
3.897520
  0
LINE
  8
0
 62
     0
  6
CONTINUOUS
 10
1.562440
 20
3.897520
 11
1.559360
 21
3.893120
  0
LINE
  8
0
 62
     0
  6
CONTINUOUS
 10
1.559360
 20
3.893120
 11
1.571680
 21
3.887840
  0
LINE
  8
0
 62
     0
  6
CONTINUOUS
 10
1.571680
 20
3.887840
 11
1.559360
 21
3.893120
  0
LINE
  8
0
 62
     0
  6
CONTINUOUS
 10
1.559360
 20
3.893120
 11
1.559360
 21
3.887840
  0
LINE
  8
0
 62
     0
  6
CONTINUOUS
 10
1.559360
 20
3.887840
 11
1.571680
 21
3.887840
  0
LINE
  8
0
 62
     0
  6
CONTINUOUS
 10
1.571680
 20
3.887840
 11
1.559360
 21
3.887840
  0
LINE
  8
0
 62
     0
  6
CONTINUOUS
 10
1.559360
 20
3.887840
 11
1.559360
 21
3.883000
  0
LINE
  8
0
 62
     0
  6
CONTINUOUS
 10
1.559360
 20
3.883000
 11
1.571680
 21
3.887840
  0
LINE
  8
0
 62
     0
  6
CONTINUOUS
 10
1.571680
 20
3.887840
 11
1.559360
 21
3.883000
  0
LINE
  8
0
 62
     0
  6
CONTINUOUS
 10
1.559360
 20
3.883000
 11
1.562440
 21
3.879920
  0
LINE
  8
0
 62
     0
  6
CONTINUOUS
 10
1.562440
 20
3.879920
 11
1.571680
 21
3.887840
  0
LINE
  8
0
 62
     0
  6
CONTINUOUS
 10
1.571680
 20
3.887840
 11
1.562440
 21
3.879920
  0
LINE
  8
0
 62
     0
  6
CONTINUOUS
 10
1.562440
 20
3.879920
 11
1.565960
 21
3.876400
  0
LINE
  8
0
 62
     0
  6
CONTINUOUS
 10
1.565960
 20
3.876400
 11
1.571680
 21
3.887840
  0
LINE
  8
0
 62
     0
  6
CONTINUOUS
 10
1.571680
 20
3.887840
 11
1.571680
 21
3.876400
  0
LINE
  8
0
 62
     0
  6
CONTINUOUS
 10
1.571680
 20
3.876400
 11
1.571680
 21
3.887840
  0
LINE
  8
0
 62
     0
  6
CONTINUOUS
 10
1.571680
 20
3.887840
 11
1.565960
 21
3.876400
  0
LINE
  8
0
 62
     0
  6
CONTINUOUS
 10
1.565960
 20
3.876400
 11
1.571680
 21
3.876400
  0
LINE
  8
0
 62
     0
  6
CONTINUOUS
 10
1.571680
 20
3.876400
 11
1.571680
 21
3.887840
  0
LINE
  8
0
 62
     0
  6
CONTINUOUS
 10
1.571680
 20
3.887840
 11
1.571680
 21
3.876400
  0
LINE
  8
0
 62
     0
  6
CONTINUOUS
 10
1.571680
 20
3.876400
 11
1.576080
 21
3.876400
  0
LINE
  8
0
 62
     0
  6
CONTINUOUS
 10
1.576080
 20
3.876400
 11
1.571680
 21
3.887840
  0
LINE
  8
0
 62
     0
  6
CONTINUOUS
 10
1.571680
 20
3.887840
 11
1.576080
 21
3.876400
  0
LINE
  8
0
 62
     0
  6
CONTINUOUS
 10
1.576080
 20
3.876400
 11
1.580480
 21
3.879920
  0
LINE
  8
0
 62
     0
  6
CONTINUOUS
 10
1.580480
 20
3.879920
 11
1.571680
 21
3.887840
  0
LINE
  8
0
 62
     0
  6
CONTINUOUS
 10
1.571680
 20
3.887840
 11
1.580480
 21
3.879920
  0
LINE
  8
0
 62
     0
  6
CONTINUOUS
 10
1.580480
 20
3.879920
 11
1.582680
 21
3.883000
  0
LINE
  8
0
 62
     0
  6
CONTINUOUS
 10
1.582680
 20
3.883000
 11
1.571680
 21
3.887840
  0
LINE
  8
0
 62
     0
  6
CONTINUOUS
 10
1.571680
 20
3.887840
 11
1.582680
 21
3.883000
  0
LINE
  8
0
 62
     0
  6
CONTINUOUS
 10
1.582680
 20
3.883000
 11
1.584000
 21
3.887840
  0
LINE
  8
0
 62
     0
  6
CONTINUOUS
 10
1.584000
 20
3.887840
 11
1.571680
 21
3.887840
  0
LINE
  8
0
 62
     0
  6
CONTINUOUS
 10
1.576080
 20
3.883000
 11
1.576080
 21
3.876400
  0
LINE
  8
0
 62
     0
  6
CONTINUOUS
 10
1.647360
 20
3.855280
 11
1.484560
 21
3.932280
  0
LINE
  8
0
 62
     0
  6
CONTINUOUS
 10
1.484560
 20
3.699080
 11
1.647360
 21
3.622080
  0
LINE
  8
0
 62
     0
  6
CONTINUOUS
 10
1.647360
 20
3.549480
 11
1.484560
 21
3.626480
  0
LINE
  8
0
 62
     0
  6
CONTINUOUS
 10
3.996520
 20
3.645400
 11
3.995200
 21
3.646280
  0
LINE
  8
0
 62
     0
  6
CONTINUOUS
 10
3.995200
 20
3.646280
 11
3.995200
 21
3.647600
  0
LINE
  8
0
 62
     0
  6
CONTINUOUS
 10
3.995200
 20
3.647600
 11
3.994320
 21
3.647600
  0
LINE
  8
0
 62
     0
  6
CONTINUOUS
 10
3.994320
 20
3.647600
 11
3.994320
 21
3.648920
  0
LINE
  8
0
 62
     0
  6
CONTINUOUS
 10
3.994320
 20
3.648920
 11
3.994320
 21
3.649800
  0
LINE
  8
0
 62
     0
  6
CONTINUOUS
 10
3.994320
 20
3.649800
 11
3.995200
 21
3.651120
  0
LINE
  8
0
 62
     0
  6
CONTINUOUS
 10
3.995200
 20
3.651120
 11
3.995200
 21
3.652000
  0
LINE
  8
0
 62
     0
  6
CONTINUOUS
 10
3.995200
 20
3.652000
 11
3.996520
 21
3.654200
  0
LINE
  8
0
 62
     0
  6
CONTINUOUS
 10
3.996520
 20
3.654200
 11
3.997400
 21
3.654200
  0
LINE
  8
0
 62
     0
  6
CONTINUOUS
 10
3.997400
 20
3.654200
 11
3.998720
 21
3.655520
  0
LINE
  8
0
 62
     0
  6
CONTINUOUS
 10
3.998720
 20
3.655520
 11
4.001800
 21
3.655520
  0
LINE
  8
0
 62
     0
  6
CONTINUOUS
 10
4.001800
 20
3.655520
 11
4.006640
 21
3.657720
  0
LINE
  8
0
 62
     0
  6
CONTINUOUS
 10
4.006640
 20
3.657720
 11
4.013240
 21
3.659920
  0
LINE
  8
0
 62
     0
  6
CONTINUOUS
 10
4.013240
 20
3.659920
 11
4.025560
 21
3.662120
  0
LINE
  8
0
 62
     0
  6
CONTINUOUS
 10
4.025560
 20
3.662120
 11
4.037880
 21
3.665640
  0
LINE
  8
0
 62
     0
  6
CONTINUOUS
 10
4.037880
 20
3.665640
 11
4.055480
 21
3.670920
  0
LINE
  8
0
 62
     0
  6
CONTINUOUS
 10
4.055480
 20
3.670920
 11
4.075720
 21
3.676640
  0
LINE
  8
0
 62
     0
  6
CONTINUOUS
 10
4.075720
 20
3.676640
 11
4.096840
 21
3.682360
  0
LINE
  8
0
 62
     0
  6
CONTINUOUS
 10
4.096840
 20
3.682360
 11
4.120160
 21
3.687640
  0
LINE
  8
0
 62
     0
  6
CONTINUOUS
 10
4.120160
 20
3.687640
 11
4.143920
 21
3.693360
  0
LINE
  8
0
 62
     0
  6
CONTINUOUS
 10
4.143920
 20
3.693360
 11
4.165040
 21
3.699080
  0
LINE
  8
0
 62
     0
  6
CONTINUOUS
 10
4.165040
 20
3.699080
 11
4.186160
 21
3.704360
  0
LINE
  8
0
 62
     0
  6
CONTINUOUS
 10
4.186160
 20
3.704360
 11
4.202880
 21
3.709200
  0
LINE
  8
0
 62
     0
  6
CONTINUOUS
 10
4.202880
 20
3.709200
 11
4.217400
 21
3.711400
  0
LINE
  8
0
 62
     0
  6
CONTINUOUS
 10
4.217400
 20
3.711400
 11
4.226200
 21
3.714480
  0
LINE
  8
0
 62
     0
  6
CONTINUOUS
 10
4.226200
 20
3.714480
 11
4.235440
 21
3.715800
  0
LINE
  8
0
 62
     0
  6
CONTINUOUS
 10
4.235440
 20
3.715800
 11
4.240720
 21
3.716680
  0
LINE
  8
0
 62
     0
  6
CONTINUOUS
 10
4.240720
 20
3.716680
 11
4.244240
 21
3.718000
  0
LINE
  8
0
 62
     0
  6
CONTINUOUS
 10
4.244240
 20
3.718000
 11
4.246440
 21
3.718880
  0
LINE
  8
0
 62
     0
  6
CONTINUOUS
 10
4.246440
 20
3.718880
 11
4.247760
 21
3.718880
  0
LINE
  8
0
 62
     0
  6
CONTINUOUS
 10
4.247760
 20
3.718880
 11
4.247760
 21
3.720200
  0
LINE
  8
0
 62
     0
  6
CONTINUOUS
 10
4.247760
 20
3.720200
 11
4.248640
 21
3.720200
  0
LINE
  8
0
 62
     0
  6
CONTINUOUS
 10
4.248640
 20
3.720200
 11
4.248640
 21
3.721520
  0
LINE
  8
0
 62
     0
  6
CONTINUOUS
 10
4.248640
 20
3.721520
 11
4.249960
 21
3.721520
  0
LINE
  8
0
 62
     0
  6
CONTINUOUS
 10
4.249960
 20
3.721520
 11
4.249960
 21
3.722400
  0
LINE
  8
0
 62
     0
  6
CONTINUOUS
 10
4.249960
 20
3.722400
 11
4.249960
 21
3.723720
  0
LINE
  8
0
 62
     0
  6
CONTINUOUS
 10
4.249960
 20
3.723720
 11
4.249960
 21
3.724600
  0
LINE
  8
0
 62
     0
  6
CONTINUOUS
 10
4.249960
 20
3.724600
 11
4.249960
 21
3.726800
  0
LINE
  8
0
 62
     0
  6
CONTINUOUS
 10
4.249960
 20
3.726800
 11
4.249960
 21
3.728120
  0
LINE
  8
0
 62
     0
  6
CONTINUOUS
 10
4.249960
 20
3.728120
 11
4.248640
 21
3.730320
  0
LINE
  8
0
 62
     0
  6
CONTINUOUS
 10
4.248640
 20
3.730320
 11
4.247760
 21
3.731200
  0
LINE
  8
0
 62
     0
  6
CONTINUOUS
 10
4.247760
 20
3.731200
 11
4.246440
 21
3.733400
  0
LINE
  8
0
 62
     0
  6
CONTINUOUS
 10
4.246440
 20
3.733400
 11
4.244240
 21
3.734720
  0
LINE
  8
0
 62
     0
  6
CONTINUOUS
 10
4.244240
 20
3.734720
 11
4.242040
 21
3.736920
  0
LINE
  8
0
 62
     0
  6
CONTINUOUS
 10
4.242040
 20
3.736920
 11
4.236320
 21
3.738240
  0
LINE
  8
0
 62
     0
  6
CONTINUOUS
 10
4.236320
 20
3.738240
 11
4.231920
 21
3.740440
  0
LINE
  8
0
 62
     0
  6
CONTINUOUS
 10
4.231920
 20
3.740440
 11
4.221800
 21
3.743520
  0
LINE
  8
0
 62
     0
  6
CONTINUOUS
 10
4.221800
 20
3.743520
 11
4.211680
 21
3.745720
  0
LINE
  8
0
 62
     0
  6
CONTINUOUS
 10
4.211680
 20
3.745720
 11
4.197600
 21
3.750120
  0
LINE
  8
0
 62
     0
  6
CONTINUOUS
 10
4.197600
 20
3.750120
 11
4.180440
 21
3.755840
  0
LINE
  8
0
 62
     0
  6
CONTINUOUS
 10
4.180440
 20
3.755840
 11
4.160640
 21
3.762440
  0
LINE
  8
0
 62
     0
  6
CONTINUOUS
 10
4.160640
 20
3.762440
 11
4.139520
 21
3.769480
  0
LINE
  8
0
 62
     0
  6
CONTINUOUS
 10
4.139520
 20
3.769480
 11
4.117080
 21
3.776080
  0
LINE
  8
0
 62
     0
  6
CONTINUOUS
 10
4.117080
 20
3.776080
 11
4.094640
 21
3.781800
  0
LINE
  8
0
 62
     0
  6
CONTINUOUS
 10
4.094640
 20
3.781800
 11
4.073520
 21
3.788400
  0
LINE
  8
0
 62
     0
  6
CONTINUOUS
 10
4.073520
 20
3.788400
 11
4.054600
 21
3.793680
  0
LINE
  8
0
 62
     0
  6
CONTINUOUS
 10
4.054600
 20
3.793680
 11
4.036560
 21
3.799400
  0
LINE
  8
0
 62
     0
  6
CONTINUOUS
 10
4.036560
 20
3.799400
 11
4.024240
 21
3.803800
  0
LINE
  8
0
 62
     0
  6
CONTINUOUS
 10
4.024240
 20
3.803800
 11
4.011920
 21
3.806000
  0
LINE
  8
0
 62
     0
  6
CONTINUOUS
 10
4.011920
 20
3.806000
 11
4.004000
 21
3.808200
  0
LINE
  8
0
 62
     0
  6
CONTINUOUS
 10
4.004000
 20
3.808200
 11
3.999600
 21
3.809520
  0
LINE
  8
0
 62
     0
  6
CONTINUOUS
 10
3.999600
 20
3.809520
 11
3.996520
 21
3.810840
  0
LINE
  8
0
 62
     0
  6
CONTINUOUS
 10
3.996520
 20
3.810840
 11
3.994320
 21
3.811720
  0
LINE
  8
0
 62
     0
  6
CONTINUOUS
 10
3.994320
 20
3.811720
 11
3.993000
 21
3.813040
  0
LINE
  8
0
 62
     0
  6
CONTINUOUS
 10
3.993000
 20
3.813040
 11
3.993000
 21
3.813920
  0
LINE
  8
0
 62
     0
  6
CONTINUOUS
 10
3.993000
 20
3.813920
 11
3.993000
 21
3.815240
  0
LINE
  8
0
 62
     0
  6
CONTINUOUS
 10
3.993000
 20
3.815240
 11
3.993000
 21
3.816120
  0
LINE
  8
0
 62
     0
  6
CONTINUOUS
 10
3.993000
 20
3.816120
 11
3.993000
 21
3.817440
  0
LINE
  8
0
 62
     0
  6
CONTINUOUS
 10
3.993000
 20
3.817440
 11
3.993000
 21
3.818320
  0
LINE
  8
0
 62
     0
  6
CONTINUOUS
 10
3.993000
 20
3.818320
 11
3.993000
 21
3.819640
  0
LINE
  8
0
 62
     0
  6
CONTINUOUS
 10
3.993000
 20
3.819640
 11
3.993000
 21
3.820520
  0
LINE
  8
0
 62
     0
  6
CONTINUOUS
 10
3.993000
 20
3.820520
 11
3.993000
 21
3.821840
  0
LINE
  8
0
 62
     0
  6
CONTINUOUS
 10
3.993000
 20
3.821840
 11
3.994320
 21
3.821840
  0
LINE
  8
0
 62
     0
  6
CONTINUOUS
 10
3.994320
 20
3.821840
 11
3.994320
 21
3.822720
  0
LINE
  8
0
 62
     0
  6
CONTINUOUS
 10
3.994320
 20
3.822720
 11
3.995200
 21
3.824040
  0
LINE
  8
0
 62
     0
  6
CONTINUOUS
 10
3.995200
 20
3.824040
 11
3.996520
 21
3.827560
  0
LINE
  8
0
 62
     0
  6
CONTINUOUS
 10
3.996520
 20
3.827560
 11
3.997400
 21
3.827560
  0
LINE
  8
0
 62
     0
  6
CONTINUOUS
 10
3.997400
 20
3.827560
 11
3.998720
 21
3.828440
  0
LINE
  8
0
 62
     0
  6
CONTINUOUS
 10
3.998720
 20
3.828440
 11
3.999600
 21
3.829760
  0
LINE
  8
0
 62
     0
  6
CONTINUOUS
 10
3.999600
 20
3.829760
 11
4.003120
 21
3.830640
  0
LINE
  8
0
 62
     0
  6
CONTINUOUS
 10
4.003120
 20
3.830640
 11
4.008840
 21
3.831960
  0
LINE
  8
0
 62
     0
  6
CONTINUOUS
 10
4.008840
 20
3.831960
 11
4.021160
 21
3.836360
  0
LINE
  8
0
 62
     0
  6
CONTINUOUS
 10
4.021160
 20
3.836360
 11
4.040960
 21
3.842960
  0
LINE
  8
0
 62
     0
  6
CONTINUOUS
 10
4.040960
 20
3.842960
 11
4.073520
 21
3.850880
  0
LINE
  8
0
 62
     0
  6
CONTINUOUS
 10
4.073520
 20
3.850880
 11
4.119280
 21
3.865400
  0
LINE
  8
0
 62
     0
  6
CONTINUOUS
 10
4.119280
 20
3.865400
 11
4.180440
 21
3.882120
  0
LINE
  8
0
 62
     0
  6
CONTINUOUS
 10
4.180440
 20
3.882120
 11
4.248640
 21
3.903240
  0
LINE
  8
0
 62
     0
  6
CONTINUOUS
 10
4.248640
 20
3.903240
 11
4.249960
 21
3.902360
  0
LINE
  8
0
 62
     0
  6
CONTINUOUS
 10
4.249960
 20
3.902360
 11
4.246440
 21
3.904560
  0
LINE
  8
0
 62
     0
  6
CONTINUOUS
 10
4.246440
 20
3.904560
 11
4.242040
 21
3.908960
  0
LINE
  8
0
 62
     0
  6
CONTINUOUS
 10
4.242040
 20
3.908960
 11
4.240720
 21
3.913360
  0
LINE
  8
0
 62
     0
  6
CONTINUOUS
 10
4.240720
 20
3.913360
 11
4.238520
 21
3.919960
  0
LINE
  8
0
 62
     0
  6
CONTINUOUS
 10
4.238520
 20
3.919960
 11
4.238520
 21
3.924360
  0
LINE
  8
0
 62
     0
  6
CONTINUOUS
 10
4.277680
 20
3.948120
 11
4.277680
 21
3.919960
  0
LINE
  8
0
 62
     0
  6
CONTINUOUS
 10
4.277680
 20
3.919960
 11
4.279880
 21
3.919960
  0
LINE
  8
0
 62
     0
  6
CONTINUOUS
 10
4.279880
 20
3.919960
 11
4.277680
 21
3.913360
  0
LINE
  8
0
 62
     0
  6
CONTINUOUS
 10
4.277680
 20
3.913360
 11
4.275480
 21
3.908960
  0
LINE
  8
0
 62
     0
  6
CONTINUOUS
 10
4.275480
 20
3.908960
 11
4.272400
 21
3.904560
  0
LINE
  8
0
 62
     0
  6
CONTINUOUS
 10
4.272400
 20
3.904560
 11
4.267560
 21
3.902360
  0
LINE
  8
0
 62
     0
  6
CONTINUOUS
 10
4.267560
 20
3.902360
 11
4.260960
 21
3.901040
  0
LINE
  8
0
 62
     0
  6
CONTINUOUS
 10
4.260960
 20
3.901040
 11
4.256560
 21
3.900160
  0
LINE
  8
0
 62
     0
  6
CONTINUOUS
 10
4.256560
 20
3.900160
 11
4.249960
 21
3.902360
  0
LINE
  8
0
 62
     0
  6
CONTINUOUS
 10
4.249960
 20
3.912040
 11
4.247760
 21
3.912040
  0
LINE
  8
0
 62
     0
  6
CONTINUOUS
 10
4.247760
 20
3.912040
 11
4.244240
 21
3.912040
  0
LINE
  8
0
 62
     0
  6
CONTINUOUS
 10
4.244240
 20
3.912040
 11
4.242040
 21
3.914680
  0
LINE
  8
0
 62
     0
  6
CONTINUOUS
 10
4.242040
 20
3.914680
 11
4.239840
 21
3.916880
  0
LINE
  8
0
 62
     0
  6
CONTINUOUS
 10
4.239840
 20
3.916880
 11
4.238520
 21
3.921280
  0
LINE
  8
0
 62
     0
  6
CONTINUOUS
 10
4.238520
 20
3.921280
 11
4.239840
 21
3.924360
  0
LINE
  8
0
 62
     0
  6
CONTINUOUS
 10
4.254360
 20
3.924360
 11
4.255240
 21
3.921280
  0
LINE
  8
0
 62
     0
  6
CONTINUOUS
 10
4.255240
 20
3.921280
 11
4.254360
 21
3.916880
  0
LINE
  8
0
 62
     0
  6
CONTINUOUS
 10
4.254360
 20
3.916880
 11
4.253040
 21
3.914680
  0
LINE
  8
0
 62
     0
  6
CONTINUOUS
 10
4.253040
 20
3.914680
 11
4.249960
 21
3.912040
  0
LINE
  8
0
 62
     0
  6
CONTINUOUS
 10
4.279880
 20
3.919960
 11
4.277680
 21
3.924360
  0
LINE
  8
0
 62
     0
  6
CONTINUOUS
 10
4.319040
 20
3.938880
 11
4.319040
 21
3.813040
  0
LINE
  8
0
 62
     0
  6
CONTINUOUS
 10
4.319040
 20
3.813040
 11
4.319040
 21
3.533640
  0
LINE
  8
0
 62
     0
  6
CONTINUOUS
 10
4.319040
 20
3.533640
 11
4.211680
 21
3.533640
  0
LINE
  8
0
 62
     0
  6
CONTINUOUS
 10
4.211680
 20
3.533640
 11
4.101240
 21
3.533640
  0
LINE
  8
0
 62
     0
  6
CONTINUOUS
 10
4.101240
 20
3.533640
 11
3.993000
 21
3.533640
  0
LINE
  8
0
 62
     0
  6
CONTINUOUS
 10
3.993000
 20
3.533640
 11
3.993000
 21
3.813040
  0
LINE
  8
0
 62
     0
  6
CONTINUOUS
 10
3.993000
 20
3.813040
 11
3.993000
 21
3.938880
  0
LINE
  8
0
 62
     0
  6
CONTINUOUS
 10
4.294400
 20
3.938880
 11
4.226200
 21
3.603160
  0
LINE
  8
0
 62
     0
  6
CONTINUOUS
 10
4.226200
 20
3.603160
 11
4.156240
 21
3.603160
  0
LINE
  8
0
 62
     0
  6
CONTINUOUS
 10
4.156240
 20
3.603160
 11
4.156240
 21
3.533640
  0
LINE
  8
0
 62
     0
  6
CONTINUOUS
 10
4.156240
 20
3.568400
 11
4.142600
 21
3.569280
  0
LINE
  8
0
 62
     0
  6
CONTINUOUS
 10
4.142600
 20
3.569280
 11
4.125000
 21
3.574120
  0
LINE
  8
0
 62
     0
  6
CONTINUOUS
 10
4.125000
 20
3.574120
 11
4.109160
 21
3.581600
  0
LINE
  8
0
 62
     0
  6
CONTINUOUS
 10
4.109160
 20
3.581600
 11
4.091120
 21
3.589520
  0
LINE
  8
0
 62
     0
  6
CONTINUOUS
 10
4.091120
 20
3.589520
 11
4.073520
 21
3.598320
  0
LINE
  8
0
 62
     0
  6
CONTINUOUS
 10
4.073520
 20
3.598320
 11
4.057680
 21
3.607560
  0
LINE
  8
0
 62
     0
  6
CONTINUOUS
 10
4.057680
 20
3.607560
 11
4.040960
 21
3.616360
  0
LINE
  8
0
 62
     0
  6
CONTINUOUS
 10
4.040960
 20
3.616360
 11
4.027760
 21
3.624280
  0
LINE
  8
0
 62
     0
  6
CONTINUOUS
 10
4.027760
 20
3.624280
 11
4.018520
 21
3.630880
  0
LINE
  8
0
 62
     0
  6
CONTINUOUS
 10
4.018520
 20
3.630880
 11
4.009720
 21
3.635280
  0
LINE
  8
0
 62
     0
  6
CONTINUOUS
 10
4.009720
 20
3.635280
 11
4.004000
 21
3.638800
  0
LINE
  8
0
 62
     0
  6
CONTINUOUS
 10
4.004000
 20
3.638800
 11
3.999600
 21
3.643200
  0
LINE
  8
0
 62
     0
  6
CONTINUOUS
 10
3.999600
 20
3.643200
 11
3.997400
 21
3.644080
  0
LINE
  8
0
 62
     0
  6
CONTINUOUS
 10
3.997400
 20
3.644080
 11
3.996520
 21
3.645400
  0
LINE
  8
0
 62
     0
  6
CONTINUOUS
 10
4.258760
 20
3.569280
 11
4.256560
 21
3.567080
  0
LINE
  8
0
 62
     0
  6
CONTINUOUS
 10
4.256560
 20
3.567080
 11
4.255240
 21
3.562680
  0
LINE
  8
0
 62
     0
  6
CONTINUOUS
 10
4.255240
 20
3.562680
 11
4.256560
 21
3.560480
  0
LINE
  8
0
 62
     0
  6
CONTINUOUS
 10
4.256560
 20
3.560480
 11
4.258760
 21
3.556960
  0
LINE
  8
0
 62
     0
  6
CONTINUOUS
 10
4.258760
 20
3.556960
 11
4.264480
 21
3.556080
  0
LINE
  8
0
 62
     0
  6
CONTINUOUS
 10
4.264480
 20
3.556080
 11
4.267560
 21
3.556960
  0
LINE
  8
0
 62
     0
  6
CONTINUOUS
 10
4.267560
 20
3.556960
 11
4.269760
 21
3.560480
  0
LINE
  8
0
 62
     0
  6
CONTINUOUS
 10
4.269760
 20
3.560480
 11
4.271080
 21
3.562680
  0
LINE
  8
0
 62
     0
  6
CONTINUOUS
 10
4.271080
 20
3.562680
 11
4.269760
 21
3.567080
  0
LINE
  8
0
 62
     0
  6
CONTINUOUS
 10
4.269760
 20
3.567080
 11
4.267560
 21
3.569280
  0
LINE
  8
0
 62
     0
  6
CONTINUOUS
 10
4.267560
 20
3.569280
 11
4.264480
 21
3.570600
  0
LINE
  8
0
 62
     0
  6
CONTINUOUS
 10
4.264480
 20
3.570600
 11
4.258760
 21
3.569280
  0
LINE
  8
0
 62
     0
  6
CONTINUOUS
 10
4.337960
 20
3.645400
 11
4.337960
 21
3.646280
  0
LINE
  8
0
 62
     0
  6
CONTINUOUS
 10
4.337960
 20
3.646280
 11
4.337960
 21
3.647600
  0
LINE
  8
0
 62
     0
  6
CONTINUOUS
 10
4.337960
 20
3.647600
 11
4.337080
 21
3.648920
  0
LINE
  8
0
 62
     0
  6
CONTINUOUS
 10
4.337080
 20
3.648920
 11
4.337080
 21
3.649800
  0
LINE
  8
0
 62
     0
  6
CONTINUOUS
 10
4.337080
 20
3.649800
 11
4.337960
 21
3.649800
  0
LINE
  8
0
 62
     0
  6
CONTINUOUS
 10
4.337960
 20
3.649800
 11
4.337960
 21
3.651120
  0
LINE
  8
0
 62
     0
  6
CONTINUOUS
 10
4.337960
 20
3.651120
 11
4.337960
 21
3.652000
  0
LINE
  8
0
 62
     0
  6
CONTINUOUS
 10
4.337960
 20
3.652000
 11
4.337960
 21
3.654200
  0
LINE
  8
0
 62
     0
  6
CONTINUOUS
 10
4.337960
 20
3.654200
 11
4.339280
 21
3.654200
  0
LINE
  8
0
 62
     0
  6
CONTINUOUS
 10
4.339280
 20
3.654200
 11
4.341480
 21
3.655520
  0
LINE
  8
0
 62
     0
  6
CONTINUOUS
 10
4.341480
 20
3.655520
 11
4.343680
 21
3.655520
  0
LINE
  8
0
 62
     0
  6
CONTINUOUS
 10
4.343680
 20
3.655520
 11
4.349400
 21
3.657720
  0
LINE
  8
0
 62
     0
  6
CONTINUOUS
 10
4.349400
 20
3.657720
 11
4.358200
 21
3.659920
  0
LINE
  8
0
 62
     0
  6
CONTINUOUS
 10
4.358200
 20
3.659920
 11
4.367000
 21
3.662120
  0
LINE
  8
0
 62
     0
  6
CONTINUOUS
 10
4.367000
 20
3.662120
 11
4.380640
 21
3.665640
  0
LINE
  8
0
 62
     0
  6
CONTINUOUS
 10
4.380640
 20
3.665640
 11
4.398240
 21
3.670920
  0
LINE
  8
0
 62
     0
  6
CONTINUOUS
 10
4.398240
 20
3.670920
 11
4.418480
 21
3.676640
  0
LINE
  8
0
 62
     0
  6
CONTINUOUS
 10
4.418480
 20
3.676640
 11
4.440920
 21
3.682360
  0
LINE
  8
0
 62
     0
  6
CONTINUOUS
 10
4.440920
 20
3.682360
 11
4.463360
 21
3.687640
  0
LINE
  8
0
 62
     0
  6
CONTINUOUS
 10
4.463360
 20
3.687640
 11
4.486680
 21
3.693360
  0
LINE
  8
0
 62
     0
  6
CONTINUOUS
 10
4.486680
 20
3.693360
 11
4.509120
 21
3.699080
  0
LINE
  8
0
 62
     0
  6
CONTINUOUS
 10
4.509120
 20
3.699080
 11
4.528040
 21
3.704360
  0
LINE
  8
0
 62
     0
  6
CONTINUOUS
 10
4.528040
 20
3.704360
 11
4.546960
 21
3.709200
  0
LINE
  8
0
 62
     0
  6
CONTINUOUS
 10
4.546960
 20
3.709200
 11
4.560160
 21
3.711400
  0
LINE
  8
0
 62
     0
  6
CONTINUOUS
 10
4.560160
 20
3.711400
 11
4.569400
 21
3.714480
  0
LINE
  8
0
 62
     0
  6
CONTINUOUS
 10
4.569400
 20
3.714480
 11
4.579080
 21
3.715800
  0
LINE
  8
0
 62
     0
  6
CONTINUOUS
 10
4.579080
 20
3.715800
 11
4.583920
 21
3.716680
  0
LINE
  8
0
 62
     0
  6
CONTINUOUS
 10
4.583920
 20
3.716680
 11
4.587000
 21
3.718000
  0
LINE
  8
0
 62
     0
  6
CONTINUOUS
 10
4.587000
 20
3.718000
 11
4.589200
 21
3.718880
  0
LINE
  8
0
 62
     0
  6
CONTINUOUS
 10
4.589200
 20
3.718880
 11
4.590520
 21
3.718880
  0
LINE
  8
0
 62
     0
  6
CONTINUOUS
 10
4.590520
 20
3.718880
 11
4.590520
 21
3.720200
  0
LINE
  8
0
 62
     0
  6
CONTINUOUS
 10
4.590520
 20
3.720200
 11
4.591400
 21
3.721520
  0
LINE
  8
0
 62
     0
  6
CONTINUOUS
 10
4.591400
 20
3.721520
 11
4.591400
 21
3.722400
  0
LINE
  8
0
 62
     0
  6
CONTINUOUS
 10
4.591400
 20
3.722400
 11
4.592720
 21
3.722400
  0
LINE
  8
0
 62
     0
  6
CONTINUOUS
 10
4.592720
 20
3.722400
 11
4.592720
 21
3.723720
  0
LINE
  8
0
 62
     0
  6
CONTINUOUS
 10
4.592720
 20
3.723720
 11
4.592720
 21
3.724600
  0
LINE
  8
0
 62
     0
  6
CONTINUOUS
 10
4.592720
 20
3.724600
 11
4.592720
 21
3.726800
  0
LINE
  8
0
 62
     0
  6
CONTINUOUS
 10
4.592720
 20
3.726800
 11
4.592720
 21
3.728120
  0
LINE
  8
0
 62
     0
  6
CONTINUOUS
 10
4.592720
 20
3.728120
 11
4.591400
 21
3.730320
  0
LINE
  8
0
 62
     0
  6
CONTINUOUS
 10
4.591400
 20
3.730320
 11
4.590520
 21
3.730320
  0
LINE
  8
0
 62
     0
  6
CONTINUOUS
 10
4.590520
 20
3.730320
 11
4.590520
 21
3.731200
  0
LINE
  8
0
 62
     0
  6
CONTINUOUS
 10
4.590520
 20
3.731200
 11
4.589200
 21
3.733400
  0
LINE
  8
0
 62
     0
  6
CONTINUOUS
 10
4.589200
 20
3.733400
 11
4.587000
 21
3.734720
  0
LINE
  8
0
 62
     0
  6
CONTINUOUS
 10
4.587000
 20
3.734720
 11
4.583920
 21
3.736920
  0
LINE
  8
0
 62
     0
  6
CONTINUOUS
 10
4.583920
 20
3.736920
 11
4.580400
 21
3.738240
  0
LINE
  8
0
 62
     0
  6
CONTINUOUS
 10
4.580400
 20
3.738240
 11
4.573800
 21
3.740440
  0
LINE
  8
0
 62
     0
  6
CONTINUOUS
 10
4.573800
 20
3.740440
 11
4.565880
 21
3.743520
  0
LINE
  8
0
 62
     0
  6
CONTINUOUS
 10
4.565880
 20
3.743520
 11
4.554880
 21
3.745720
  0
LINE
  8
0
 62
     0
  6
CONTINUOUS
 10
4.554880
 20
3.745720
 11
4.540360
 21
3.750120
  0
LINE
  8
0
 62
     0
  6
CONTINUOUS
 10
4.540360
 20
3.750120
 11
4.523640
 21
3.755840
  0
LINE
  8
0
 62
     0
  6
CONTINUOUS
 10
4.523640
 20
3.755840
 11
4.503400
 21
3.762440
  0
LINE
  8
0
 62
     0
  6
CONTINUOUS
 10
4.503400
 20
3.762440
 11
4.482280
 21
3.769480
  0
LINE
  8
0
 62
     0
  6
CONTINUOUS
 10
4.482280
 20
3.769480
 11
4.458520
 21
3.776080
  0
LINE
  8
0
 62
     0
  6
CONTINUOUS
 10
4.458520
 20
3.776080
 11
4.437400
 21
3.781800
  0
LINE
  8
0
 62
     0
  6
CONTINUOUS
 10
4.437400
 20
3.781800
 11
4.416280
 21
3.788400
  0
LINE
  8
0
 62
     0
  6
CONTINUOUS
 10
4.416280
 20
3.788400
 11
4.397360
 21
3.793680
  0
LINE
  8
0
 62
     0
  6
CONTINUOUS
 10
4.397360
 20
3.793680
 11
4.379320
 21
3.799400
  0
LINE
  8
0
 62
     0
  6
CONTINUOUS
 10
4.379320
 20
3.799400
 11
4.367000
 21
3.803800
  0
LINE
  8
0
 62
     0
  6
CONTINUOUS
 10
4.367000
 20
3.803800
 11
4.354680
 21
3.806000
  0
LINE
  8
0
 62
     0
  6
CONTINUOUS
 10
4.354680
 20
3.806000
 11
4.347200
 21
3.808200
  0
LINE
  8
0
 62
     0
  6
CONTINUOUS
 10
4.347200
 20
3.808200
 11
4.342360
 21
3.809520
  0
LINE
  8
0
 62
     0
  6
CONTINUOUS
 10
4.342360
 20
3.809520
 11
4.339280
 21
3.810840
  0
LINE
  8
0
 62
     0
  6
CONTINUOUS
 10
4.339280
 20
3.810840
 11
4.337080
 21
3.811720
  0
LINE
  8
0
 62
     0
  6
CONTINUOUS
 10
4.337080
 20
3.811720
 11
4.335760
 21
3.813040
  0
LINE
  8
0
 62
     0
  6
CONTINUOUS
 10
4.335760
 20
3.813040
 11
4.335760
 21
3.813920
  0
LINE
  8
0
 62
     0
  6
CONTINUOUS
 10
4.335760
 20
3.813920
 11
4.335760
 21
3.815240
  0
LINE
  8
0
 62
     0
  6
CONTINUOUS
 10
4.335760
 20
3.815240
 11
4.335760
 21
3.816120
  0
LINE
  8
0
 62
     0
  6
CONTINUOUS
 10
4.335760
 20
3.816120
 11
4.335760
 21
3.817440
  0
LINE
  8
0
 62
     0
  6
CONTINUOUS
 10
4.335760
 20
3.817440
 11
4.335760
 21
3.818320
  0
LINE
  8
0
 62
     0
  6
CONTINUOUS
 10
4.335760
 20
3.818320
 11
4.335760
 21
3.819640
  0
LINE
  8
0
 62
     0
  6
CONTINUOUS
 10
4.335760
 20
3.819640
 11
4.335760
 21
3.820520
  0
LINE
  8
0
 62
     0
  6
CONTINUOUS
 10
4.335760
 20
3.820520
 11
4.335760
 21
3.821840
  0
LINE
  8
0
 62
     0
  6
CONTINUOUS
 10
4.335760
 20
3.821840
 11
4.337080
 21
3.822720
  0
LINE
  8
0
 62
     0
  6
CONTINUOUS
 10
4.337080
 20
3.822720
 11
4.337960
 21
3.824040
  0
LINE
  8
0
 62
     0
  6
CONTINUOUS
 10
4.337960
 20
3.824040
 11
4.337960
 21
3.827560
  0
LINE
  8
0
 62
     0
  6
CONTINUOUS
 10
4.337960
 20
3.827560
 11
4.340160
 21
3.827560
  0
LINE
  8
0
 62
     0
  6
CONTINUOUS
 10
4.340160
 20
3.827560
 11
4.341480
 21
3.828440
  0
LINE
  8
0
 62
     0
  6
CONTINUOUS
 10
4.341480
 20
3.828440
 11
4.342360
 21
3.829760
  0
LINE
  8
0
 62
     0
  6
CONTINUOUS
 10
4.342360
 20
3.829760
 11
4.345880
 21
3.830640
  0
LINE
  8
0
 62
     0
  6
CONTINUOUS
 10
4.345880
 20
3.830640
 11
4.351600
 21
3.831960
  0
LINE
  8
0
 62
     0
  6
CONTINUOUS
 10
4.351600
 20
3.831960
 11
4.363920
 21
3.836360
  0
LINE
  8
0
 62
     0
  6
CONTINUOUS
 10
4.363920
 20
3.836360
 11
4.383720
 21
3.842960
  0
LINE
  8
0
 62
     0
  6
CONTINUOUS
 10
4.383720
 20
3.842960
 11
4.416280
 21
3.850880
  0
LINE
  8
0
 62
     0
  6
CONTINUOUS
 10
4.416280
 20
3.850880
 11
4.462040
 21
3.865400
  0
LINE
  8
0
 62
     0
  6
CONTINUOUS
 10
4.462040
 20
3.865400
 11
4.523640
 21
3.882120
  0
LINE
  8
0
 62
     0
  6
CONTINUOUS
 10
4.523640
 20
3.882120
 11
4.591400
 21
3.903240
  0
LINE
  8
0
 62
     0
  6
CONTINUOUS
 10
4.591400
 20
3.903240
 11
4.593600
 21
3.902360
  0
LINE
  8
0
 62
     0
  6
CONTINUOUS
 10
4.593600
 20
3.902360
 11
4.589200
 21
3.904560
  0
LINE
  8
0
 62
     0
  6
CONTINUOUS
 10
4.589200
 20
3.904560
 11
4.583920
 21
3.908960
  0
LINE
  8
0
 62
     0
  6
CONTINUOUS
 10
4.583920
 20
3.908960
 11
4.583920
 21
3.913360
  0
LINE
  8
0
 62
     0
  6
CONTINUOUS
 10
4.583920
 20
3.913360
 11
4.581720
 21
3.919960
  0
LINE
  8
0
 62
     0
  6
CONTINUOUS
 10
4.581720
 20
3.919960
 11
4.581720
 21
3.924360
  0
LINE
  8
0
 62
     0
  6
CONTINUOUS
 10
4.621760
 20
3.948120
 11
4.621760
 21
3.919960
  0
LINE
  8
0
 62
     0
  6
CONTINUOUS
 10
4.621760
 20
3.919960
 11
4.620440
 21
3.913360
  0
LINE
  8
0
 62
     0
  6
CONTINUOUS
 10
4.620440
 20
3.913360
 11
4.618240
 21
3.908960
  0
LINE
  8
0
 62
     0
  6
CONTINUOUS
 10
4.618240
 20
3.908960
 11
4.613840
 21
3.904560
  0
LINE
  8
0
 62
     0
  6
CONTINUOUS
 10
4.613840
 20
3.904560
 11
4.610760
 21
3.902360
  0
LINE
  8
0
 62
     0
  6
CONTINUOUS
 10
4.610760
 20
3.902360
 11
4.605040
 21
3.901040
  0
LINE
  8
0
 62
     0
  6
CONTINUOUS
 10
4.605040
 20
3.901040
 11
4.597120
 21
3.900160
  0
LINE
  8
0
 62
     0
  6
CONTINUOUS
 10
4.597120
 20
3.900160
 11
4.593600
 21
3.902360
  0
LINE
  8
0
 62
     0
  6
CONTINUOUS
 10
4.592720
 20
3.912040
 11
4.590520
 21
3.912040
  0
LINE
  8
0
 62
     0
  6
CONTINUOUS
 10
4.590520
 20
3.912040
 11
4.587000
 21
3.912040
  0
LINE
  8
0
 62
     0
  6
CONTINUOUS
 10
4.587000
 20
3.912040
 11
4.583920
 21
3.914680
  0
LINE
  8
0
 62
     0
  6
CONTINUOUS
 10
4.583920
 20
3.914680
 11
4.582600
 21
3.916880
  0
LINE
  8
0
 62
     0
  6
CONTINUOUS
 10
4.582600
 20
3.916880
 11
4.581720
 21
3.921280
  0
LINE
  8
0
 62
     0
  6
CONTINUOUS
 10
4.581720
 20
3.921280
 11
4.582600
 21
3.924360
  0
LINE
  8
0
 62
     0
  6
CONTINUOUS
 10
4.597120
 20
3.924360
 11
4.597120
 21
3.921280
  0
LINE
  8
0
 62
     0
  6
CONTINUOUS
 10
4.597120
 20
3.921280
 11
4.597120
 21
3.916880
  0
LINE
  8
0
 62
     0
  6
CONTINUOUS
 10
4.597120
 20
3.916880
 11
4.596240
 21
3.914680
  0
LINE
  8
0
 62
     0
  6
CONTINUOUS
 10
4.596240
 20
3.914680
 11
4.592720
 21
3.912040
  0
LINE
  8
0
 62
     0
  6
CONTINUOUS
 10
4.621760
 20
3.919960
 11
4.621760
 21
3.924360
  0
LINE
  8
0
 62
     0
  6
CONTINUOUS
 10
4.661360
 20
3.938880
 11
4.661360
 21
3.813040
  0
LINE
  8
0
 62
     0
  6
CONTINUOUS
 10
4.661360
 20
3.813040
 11
4.661360
 21
3.533640
  0
LINE
  8
0
 62
     0
  6
CONTINUOUS
 10
4.661360
 20
3.533640
 11
4.553560
 21
3.533640
  0
LINE
  8
0
 62
     0
  6
CONTINUOUS
 10
4.553560
 20
3.533640
 11
4.444000
 21
3.533640
  0
LINE
  8
0
 62
     0
  6
CONTINUOUS
 10
4.444000
 20
3.533640
 11
4.335760
 21
3.533640
  0
LINE
  8
0
 62
     0
  6
CONTINUOUS
 10
4.335760
 20
3.533640
 11
4.335760
 21
3.813040
  0
LINE
  8
0
 62
     0
  6
CONTINUOUS
 10
4.335760
 20
3.813040
 11
4.335760
 21
3.938880
  0
LINE
  8
0
 62
     0
  6
CONTINUOUS
 10
4.636720
 20
3.938880
 11
4.569400
 21
3.603160
  0
LINE
  8
0
 62
     0
  6
CONTINUOUS
 10
4.569400
 20
3.603160
 11
4.499000
 21
3.603160
  0
LINE
  8
0
 62
     0
  6
CONTINUOUS
 10
4.499000
 20
3.603160
 11
4.499000
 21
3.533640
  0
LINE
  8
0
 62
     0
  6
CONTINUOUS
 10
4.499000
 20
3.568400
 11
4.485360
 21
3.569280
  0
LINE
  8
0
 62
     0
  6
CONTINUOUS
 10
4.485360
 20
3.569280
 11
4.468640
 21
3.574120
  0
LINE
  8
0
 62
     0
  6
CONTINUOUS
 10
4.468640
 20
3.574120
 11
4.451920
 21
3.581600
  0
LINE
  8
0
 62
     0
  6
CONTINUOUS
 10
4.451920
 20
3.581600
 11
4.434320
 21
3.589520
  0
LINE
  8
0
 62
     0
  6
CONTINUOUS
 10
4.434320
 20
3.589520
 11
4.417160
 21
3.598320
  0
LINE
  8
0
 62
     0
  6
CONTINUOUS
 10
4.417160
 20
3.598320
 11
4.400440
 21
3.607560
  0
LINE
  8
0
 62
     0
  6
CONTINUOUS
 10
4.400440
 20
3.607560
 11
4.385040
 21
3.616360
  0
LINE
  8
0
 62
     0
  6
CONTINUOUS
 10
4.385040
 20
3.616360
 11
4.371400
 21
3.624280
  0
LINE
  8
0
 62
     0
  6
CONTINUOUS
 10
4.371400
 20
3.624280
 11
4.361720
 21
3.630880
  0
LINE
  8
0
 62
     0
  6
CONTINUOUS
 10
4.361720
 20
3.630880
 11
4.352480
 21
3.635280
  0
LINE
  8
0
 62
     0
  6
CONTINUOUS
 10
4.352480
 20
3.635280
 11
4.347200
 21
3.638800
  0
LINE
  8
0
 62
     0
  6
CONTINUOUS
 10
4.347200
 20
3.638800
 11
4.342360
 21
3.643200
  0
LINE
  8
0
 62
     0
  6
CONTINUOUS
 10
4.342360
 20
3.643200
 11
4.340160
 21
3.644080
  0
LINE
  8
0
 62
     0
  6
CONTINUOUS
 10
4.340160
 20
3.644080
 11
4.337960
 21
3.645400
  0
LINE
  8
0
 62
     0
  6
CONTINUOUS
 10
4.597120
 20
3.567080
 11
4.597120
 21
3.562680
  0
LINE
  8
0
 62
     0
  6
CONTINUOUS
 10
4.597120
 20
3.562680
 11
4.597120
 21
3.560480
  0
LINE
  8
0
 62
     0
  6
CONTINUOUS
 10
4.597120
 20
3.560480
 11
4.602840
 21
3.556960
  0
LINE
  8
0
 62
     0
  6
CONTINUOUS
 10
4.602840
 20
3.556960
 11
4.607240
 21
3.556080
  0
LINE
  8
0
 62
     0
  6
CONTINUOUS
 10
4.607240
 20
3.556080
 11
4.610760
 21
3.556960
  0
LINE
  8
0
 62
     0
  6
CONTINUOUS
 10
4.610760
 20
3.556960
 11
4.611640
 21
3.560480
  0
LINE
  8
0
 62
     0
  6
CONTINUOUS
 10
4.611640
 20
3.560480
 11
4.613840
 21
3.562680
  0
LINE
  8
0
 62
     0
  6
CONTINUOUS
 10
4.613840
 20
3.562680
 11
4.611640
 21
3.567080
  0
LINE
  8
0
 62
     0
  6
CONTINUOUS
 10
4.611640
 20
3.567080
 11
4.610760
 21
3.569280
  0
LINE
  8
0
 62
     0
  6
CONTINUOUS
 10
4.610760
 20
3.569280
 11
4.607240
 21
3.570600
  0
LINE
  8
0
 62
     0
  6
CONTINUOUS
 10
4.607240
 20
3.570600
 11
4.602840
 21
3.569280
  0
LINE
  8
0
 62
     0
  6
CONTINUOUS
 10
4.602840
 20
3.569280
 11
4.597120
 21
3.567080
  0
LINE
  8
0
 62
     0
  6
CONTINUOUS
 10
4.361720
 20
3.527920
 11
4.361720
 21
2.850320
  0
LINE
  8
0
 62
     0
  6
CONTINUOUS
 10
4.291320
 20
2.850320
 11
4.291320
 21
3.527920
  0
LINE
  8
0
 62
     0
  6
CONTINUOUS
 10
2.782560
 20
2.850320
 11
2.782560
 21
3.527920
  0
LINE
  8
0
 62
     0
  6
CONTINUOUS
 10
3.499320
 20
3.167560
 11
3.841200
 21
3.167560
  0
LINE
  8
0
 62
     0
  6
CONTINUOUS
 10
3.841200
 20
3.167560
 11
3.841200
 21
3.448720
  0
LINE
  8
0
 62
     0
  6
CONTINUOUS
 10
3.841200
 20
3.448720
 11
3.499320
 21
3.448720
  0
LINE
  8
0
 62
     0
  6
CONTINUOUS
 10
3.499320
 20
3.448720
 11
3.499320
 21
3.167560
  0
LINE
  8
0
 62
     0
  6
CONTINUOUS
 10
3.555200
 20
3.178560
 11
3.562240
 21
3.187360
  0
LINE
  8
0
 62
     0
  6
CONTINUOUS
 10
3.562240
 20
3.187360
 11
3.560920
 21
3.177680
  0
LINE
  8
0
 62
     0
  6
CONTINUOUS
 10
3.560920
 20
3.177680
 11
3.564440
 21
3.177680
  0
LINE
  8
0
 62
     0
  6
CONTINUOUS
 10
3.564440
 20
3.177680
 11
3.562240
 21
3.187360
  0
LINE
  8
0
 62
     0
  6
CONTINUOUS
 10
3.562240
 20
3.187360
 11
3.567520
 21
3.178560
  0
LINE
  8
0
 62
     0
  6
CONTINUOUS
 10
3.571040
 20
3.182080
 11
3.562240
 21
3.187360
  0
LINE
  8
0
 62
     0
  6
CONTINUOUS
 10
3.562240
 20
3.187360
 11
3.571920
 21
3.189560
  0
LINE
  8
0
 62
     0
  6
CONTINUOUS
 10
3.571920
 20
3.189560
 11
3.571920
 21
3.185160
  0
LINE
  8
0
 62
     0
  6
CONTINUOUS
 10
3.571920
 20
3.185160
 11
3.562240
 21
3.187360
  0
LINE
  8
0
 62
     0
  6
CONTINUOUS
 10
3.562240
 20
3.187360
 11
3.571040
 21
3.193080
  0
LINE
  8
0
 62
     0
  6
CONTINUOUS
 10
3.567520
 20
3.195280
 11
3.562240
 21
3.187360
  0
LINE
  8
0
 62
     0
  6
CONTINUOUS
 10
3.562240
 20
3.187360
 11
3.564440
 21
3.197480
  0
LINE
  8
0
 62
     0
  6
CONTINUOUS
 10
3.564440
 20
3.197480
 11
3.560920
 21
3.197480
  0
LINE
  8
0
 62
     0
  6
CONTINUOUS
 10
3.560920
 20
3.197480
 11
3.562240
 21
3.187360
  0
LINE
  8
0
 62
     0
  6
CONTINUOUS
 10
3.562240
 20
3.187360
 11
3.555200
 21
3.195280
  0
LINE
  8
0
 62
     0
  6
CONTINUOUS
 10
3.554320
 20
3.193080
 11
3.562240
 21
3.187360
  0
LINE
  8
0
 62
     0
  6
CONTINUOUS
 10
3.562240
 20
3.187360
 11
3.553000
 21
3.185160
  0
LINE
  8
0
 62
     0
  6
CONTINUOUS
 10
3.553000
 20
3.185160
 11
3.553000
 21
3.189560
  0
LINE
  8
0
 62
     0
  6
CONTINUOUS
 10
3.553000
 20
3.189560
 11
3.562240
 21
3.187360
  0
LINE
  8
0
 62
     0
  6
CONTINUOUS
 10
3.562240
 20
3.187360
 11
3.554320
 21
3.182080
  0
LINE
  8
0
 62
     0
  6
CONTINUOUS
 10
3.663440
 20
3.182080
 11
3.672680
 21
3.187360
  0
LINE
  8
0
 62
     0
  6
CONTINUOUS
 10
3.672680
 20
3.187360
 11
3.669160
 21
3.177680
  0
LINE
  8
0
 62
     0
  6
CONTINUOUS
 10
3.669160
 20
3.177680
 11
3.674880
 21
3.177680
  0
LINE
  8
0
 62
     0
  6
CONTINUOUS
 10
3.674880
 20
3.177680
 11
3.672680
 21
3.187360
  0
LINE
  8
0
 62
     0
  6
CONTINUOUS
 10
3.672680
 20
3.187360
 11
3.677960
 21
3.178560
  0
LINE
  8
0
 62
     0
  6
CONTINUOUS
 10
3.680600
 20
3.182080
 11
3.672680
 21
3.187360
  0
LINE
  8
0
 62
     0
  6
CONTINUOUS
 10
3.672680
 20
3.187360
 11
3.682800
 21
3.189560
  0
LINE
  8
0
 62
     0
  6
CONTINUOUS
 10
3.682800
 20
3.189560
 11
3.682800
 21
3.185160
  0
LINE
  8
0
 62
     0
  6
CONTINUOUS
 10
3.682800
 20
3.185160
 11
3.672680
 21
3.187360
  0
LINE
  8
0
 62
     0
  6
CONTINUOUS
 10
3.672680
 20
3.187360
 11
3.680600
 21
3.193080
  0
LINE
  8
0
 62
     0
  6
CONTINUOUS
 10
3.677960
 20
3.195280
 11
3.672680
 21
3.187360
  0
LINE
  8
0
 62
     0
  6
CONTINUOUS
 10
3.672680
 20
3.187360
 11
3.674880
 21
3.197480
  0
LINE
  8
0
 62
     0
  6
CONTINUOUS
 10
3.674880
 20
3.197480
 11
3.669160
 21
3.197480
  0
LINE
  8
0
 62
     0
  6
CONTINUOUS
 10
3.669160
 20
3.197480
 11
3.672680
 21
3.187360
  0
LINE
  8
0
 62
     0
  6
CONTINUOUS
 10
3.672680
 20
3.187360
 11
3.666080
 21
3.195280
  0
LINE
  8
0
 62
     0
  6
CONTINUOUS
 10
3.663440
 20
3.193080
 11
3.672680
 21
3.187360
  0
LINE
  8
0
 62
     0
  6
CONTINUOUS
 10
3.672680
 20
3.187360
 11
3.661240
 21
3.185160
  0
LINE
  8
0
 62
     0
  6
CONTINUOUS
 10
3.661240
 20
3.185160
 11
3.661240
 21
3.189560
  0
LINE
  8
0
 62
     0
  6
CONTINUOUS
 10
3.661240
 20
3.189560
 11
3.672680
 21
3.187360
  0
LINE
  8
0
 62
     0
  6
CONTINUOUS
 10
3.672680
 20
3.187360
 11
3.666080
 21
3.178560
  0
LINE
  8
0
 62
     0
  6
CONTINUOUS
 10
3.672680
 20
3.233120
 11
3.683680
 21
3.234440
  0
LINE
  8
0
 62
     0
  6
CONTINUOUS
 10
3.683680
 20
3.234440
 11
3.693800
 21
3.236640
  0
LINE
  8
0
 62
     0
  6
CONTINUOUS
 10
3.693800
 20
3.236640
 11
3.706120
 21
3.241040
  0
LINE
  8
0
 62
     0
  6
CONTINUOUS
 10
3.706120
 20
3.241040
 11
3.716240
 21
3.247640
  0
LINE
  8
0
 62
     0
  6
CONTINUOUS
 10
3.716240
 20
3.247640
 11
3.724160
 21
3.255560
  0
LINE
  8
0
 62
     0
  6
CONTINUOUS
 10
3.724160
 20
3.255560
 11
3.730760
 21
3.263480
  0
LINE
  8
0
 62
     0
  6
CONTINUOUS
 10
3.730760
 20
3.263480
 11
3.738680
 21
3.272280
  0
LINE
  8
0
 62
     0
  6
CONTINUOUS
 10
3.738680
 20
3.272280
 11
3.741760
 21
3.284600
  0
LINE
  8
0
 62
     0
  6
CONTINUOUS
 10
3.741760
 20
3.284600
 11
3.743960
 21
3.294720
  0
LINE
  8
0
 62
     0
  6
CONTINUOUS
 10
3.743960
 20
3.294720
 11
3.745280
 21
3.307040
  0
LINE
  8
0
 62
     0
  6
CONTINUOUS
 10
3.745280
 20
3.307040
 11
3.743960
 21
3.318040
  0
LINE
  8
0
 62
     0
  6
CONTINUOUS
 10
3.743960
 20
3.318040
 11
3.741760
 21
3.329480
  0
LINE
  8
0
 62
     0
  6
CONTINUOUS
 10
3.741760
 20
3.329480
 11
3.738680
 21
3.340480
  0
LINE
  8
0
 62
     0
  6
CONTINUOUS
 10
3.738680
 20
3.340480
 11
3.730760
 21
3.350600
  0
LINE
  8
0
 62
     0
  6
CONTINUOUS
 10
3.730760
 20
3.350600
 11
3.724160
 21
3.358520
  0
LINE
  8
0
 62
     0
  6
CONTINUOUS
 10
3.724160
 20
3.358520
 11
3.716240
 21
3.367320
  0
LINE
  8
0
 62
     0
  6
CONTINUOUS
 10
3.716240
 20
3.367320
 11
3.706120
 21
3.373040
  0
LINE
  8
0
 62
     0
  6
CONTINUOUS
 10
3.706120
 20
3.373040
 11
3.693800
 21
3.377440
  0
LINE
  8
0
 62
     0
  6
CONTINUOUS
 10
3.693800
 20
3.377440
 11
3.683680
 21
3.379640
  0
LINE
  8
0
 62
     0
  6
CONTINUOUS
 10
3.683680
 20
3.379640
 11
3.672680
 21
3.380520
  0
LINE
  8
0
 62
     0
  6
CONTINUOUS
 10
3.672680
 20
3.380520
 11
3.660360
 21
3.379640
  0
LINE
  8
0
 62
     0
  6
CONTINUOUS
 10
3.660360
 20
3.379640
 11
3.650240
 21
3.377440
  0
LINE
  8
0
 62
     0
  6
CONTINUOUS
 10
3.650240
 20
3.377440
 11
3.637920
 21
3.373040
  0
LINE
  8
0
 62
     0
  6
CONTINUOUS
 10
3.637920
 20
3.373040
 11
3.629120
 21
3.367320
  0
LINE
  8
0
 62
     0
  6
CONTINUOUS
 10
3.629120
 20
3.367320
 11
3.620320
 21
3.358520
  0
LINE
  8
0
 62
     0
  6
CONTINUOUS
 10
3.620320
 20
3.358520
 11
3.613280
 21
3.350600
  0
LINE
  8
0
 62
     0
  6
CONTINUOUS
 10
3.613280
 20
3.350600
 11
3.605800
 21
3.340480
  0
LINE
  8
0
 62
     0
  6
CONTINUOUS
 10
3.605800
 20
3.340480
 11
3.602280
 21
3.329480
  0
LINE
  8
0
 62
     0
  6
CONTINUOUS
 10
3.602280
 20
3.329480
 11
3.598760
 21
3.318040
  0
LINE
  8
0
 62
     0
  6
CONTINUOUS
 10
3.598760
 20
3.318040
 11
3.598760
 21
3.307040
  0
LINE
  8
0
 62
     0
  6
CONTINUOUS
 10
3.598760
 20
3.307040
 11
3.598760
 21
3.294720
  0
LINE
  8
0
 62
     0
  6
CONTINUOUS
 10
3.598760
 20
3.294720
 11
3.602280
 21
3.284600
  0
LINE
  8
0
 62
     0
  6
CONTINUOUS
 10
3.602280
 20
3.284600
 11
3.605800
 21
3.272280
  0
LINE
  8
0
 62
     0
  6
CONTINUOUS
 10
3.605800
 20
3.272280
 11
3.613280
 21
3.263480
  0
LINE
  8
0
 62
     0
  6
CONTINUOUS
 10
3.613280
 20
3.263480
 11
3.620320
 21
3.255560
  0
LINE
  8
0
 62
     0
  6
CONTINUOUS
 10
3.620320
 20
3.255560
 11
3.629120
 21
3.247640
  0
LINE
  8
0
 62
     0
  6
CONTINUOUS
 10
3.629120
 20
3.247640
 11
3.637920
 21
3.241040
  0
LINE
  8
0
 62
     0
  6
CONTINUOUS
 10
3.637920
 20
3.241040
 11
3.650240
 21
3.236640
  0
LINE
  8
0
 62
     0
  6
CONTINUOUS
 10
3.650240
 20
3.236640
 11
3.660360
 21
3.234440
  0
LINE
  8
0
 62
     0
  6
CONTINUOUS
 10
3.660360
 20
3.234440
 11
3.672680
 21
3.233120
  0
LINE
  8
0
 62
     0
  6
CONTINUOUS
 10
3.776520
 20
3.195280
 11
3.781800
 21
3.187360
  0
LINE
  8
0
 62
     0
  6
CONTINUOUS
 10
3.781800
 20
3.187360
 11
3.772120
 21
3.185160
  0
LINE
  8
0
 62
     0
  6
CONTINUOUS
 10
3.772120
 20
3.185160
 11
3.772120
 21
3.189560
  0
LINE
  8
0
 62
     0
  6
CONTINUOUS
 10
3.772120
 20
3.189560
 11
3.781800
 21
3.187360
  0
LINE
  8
0
 62
     0
  6
CONTINUOUS
 10
3.781800
 20
3.187360
 11
3.773000
 21
3.182080
  0
LINE
  8
0
 62
     0
  6
CONTINUOUS
 10
3.776520
 20
3.178560
 11
3.781800
 21
3.187360
  0
LINE
  8
0
 62
     0
  6
CONTINUOUS
 10
3.781800
 20
3.187360
 11
3.779600
 21
3.177680
  0
LINE
  8
0
 62
     0
  6
CONTINUOUS
 10
3.779600
 20
3.177680
 11
3.783120
 21
3.177680
  0
LINE
  8
0
 62
     0
  6
CONTINUOUS
 10
3.783120
 20
3.177680
 11
3.781800
 21
3.187360
  0
LINE
  8
0
 62
     0
  6
CONTINUOUS
 10
3.781800
 20
3.187360
 11
3.787520
 21
3.178560
  0
LINE
  8
0
 62
     0
  6
CONTINUOUS
 10
3.789720
 20
3.182080
 11
3.781800
 21
3.187360
  0
LINE
  8
0
 62
     0
  6
CONTINUOUS
 10
3.781800
 20
3.187360
 11
3.791040
 21
3.189560
  0
LINE
  8
0
 62
     0
  6
CONTINUOUS
 10
3.791040
 20
3.189560
 11
3.791040
 21
3.185160
  0
LINE
  8
0
 62
     0
  6
CONTINUOUS
 10
3.791040
 20
3.185160
 11
3.781800
 21
3.187360
  0
LINE
  8
0
 62
     0
  6
CONTINUOUS
 10
3.781800
 20
3.187360
 11
3.789720
 21
3.193080
  0
LINE
  8
0
 62
     0
  6
CONTINUOUS
 10
3.787520
 20
3.195280
 11
3.781800
 21
3.187360
  0
LINE
  8
0
 62
     0
  6
CONTINUOUS
 10
3.781800
 20
3.187360
 11
3.783120
 21
3.197480
  0
LINE
  8
0
 62
     0
  6
CONTINUOUS
 10
3.783120
 20
3.197480
 11
3.779600
 21
3.197480
  0
LINE
  8
0
 62
     0
  6
CONTINUOUS
 10
3.779600
 20
3.197480
 11
3.781800
 21
3.187360
  0
LINE
  8
0
 62
     0
  6
CONTINUOUS
 10
3.781800
 20
3.187360
 11
3.773000
 21
3.193080
  0
LINE
  8
0
 62
     0
  6
CONTINUOUS
 10
3.754080
 20
3.344000
 11
3.755400
 21
3.347080
  0
LINE
  8
0
 62
     0
  6
CONTINUOUS
 10
3.755400
 20
3.347080
 11
3.757600
 21
3.351480
  0
LINE
  8
0
 62
     0
  6
CONTINUOUS
 10
3.757600
 20
3.351480
 11
3.755400
 21
3.356320
  0
LINE
  8
0
 62
     0
  6
CONTINUOUS
 10
3.755400
 20
3.356320
 11
3.754080
 21
3.360720
  0
LINE
  8
0
 62
     0
  6
CONTINUOUS
 10
3.754080
 20
3.360720
 11
3.749680
 21
3.362920
  0
LINE
  8
0
 62
     0
  6
CONTINUOUS
 10
3.749680
 20
3.362920
 11
3.743960
 21
3.363800
  0
LINE
  8
0
 62
     0
  6
CONTINUOUS
 10
3.743960
 20
3.363800
 11
3.740880
 21
3.362920
  0
LINE
  8
0
 62
     0
  6
CONTINUOUS
 10
3.740880
 20
3.362920
 11
3.736040
 21
3.360720
  0
LINE
  8
0
 62
     0
  6
CONTINUOUS
 10
3.736040
 20
3.360720
 11
3.733840
 21
3.356320
  0
LINE
  8
0
 62
     0
  6
CONTINUOUS
 10
3.733840
 20
3.356320
 11
3.733840
 21
3.351480
  0
LINE
  8
0
 62
     0
  6
CONTINUOUS
 10
3.733840
 20
3.351480
 11
3.733840
 21
3.347080
  0
LINE
  8
0
 62
     0
  6
CONTINUOUS
 10
3.733840
 20
3.347080
 11
3.736040
 21
3.344000
  0
LINE
  8
0
 62
     0
  6
CONTINUOUS
 10
3.736040
 20
3.344000
 11
3.740880
 21
3.340480
  0
LINE
  8
0
 62
     0
  6
CONTINUOUS
 10
3.740880
 20
3.340480
 11
3.743960
 21
3.339600
  0
LINE
  8
0
 62
     0
  6
CONTINUOUS
 10
3.743960
 20
3.339600
 11
3.749680
 21
3.340480
  0
LINE
  8
0
 62
     0
  6
CONTINUOUS
 10
3.749680
 20
3.340480
 11
3.754080
 21
3.344000
  0
LINE
  8
0
 62
     0
  6
CONTINUOUS
 10
3.743960
 20
3.351480
 11
3.718440
 21
3.400760
  0
LINE
  8
0
 62
     0
  6
CONTINUOUS
 10
3.718440
 20
3.400760
 11
3.499320
 21
3.400760
  0
LINE
  8
0
 62
     0
  6
CONTINUOUS
 10
3.499320
 20
3.400760
 11
3.502840
 21
3.389760
  0
LINE
  8
0
 62
     0
  6
CONTINUOUS
 10
3.502840
 20
3.389760
 11
3.502840
 21
3.385360
  0
LINE
  8
0
 62
     0
  6
CONTINUOUS
 10
3.502840
 20
3.385360
 11
3.499320
 21
3.376120
  0
LINE
  8
0
 62
     0
  6
CONTINUOUS
 10
3.499320
 20
3.376120
 11
3.502840
 21
3.365120
  0
LINE
  8
0
 62
     0
  6
CONTINUOUS
 10
3.506360
 20
3.367320
 11
3.499320
 21
3.376120
  0
LINE
  8
0
 62
     0
  6
CONTINUOUS
 10
3.499320
 20
3.376120
 11
3.508560
 21
3.370840
  0
LINE
  8
0
 62
     0
  6
CONTINUOUS
 10
3.510760
 20
3.373920
 11
3.499320
 21
3.376120
  0
LINE
  8
0
 62
     0
  6
CONTINUOUS
 10
3.499320
 20
3.376120
 11
3.508560
 21
3.381840
  0
LINE
  8
0
 62
     0
  6
CONTINUOUS
 10
3.506360
 20
3.384040
 11
3.499320
 21
3.376120
  0
LINE
  8
0
 62
     0
  6
CONTINUOUS
 10
3.499320
 20
3.376120
 11
3.578960
 21
3.376120
  0
LINE
  8
0
 62
     0
  6
CONTINUOUS
 10
3.578960
 20
3.376120
 11
3.598760
 21
3.351480
  0
LINE
  8
0
 62
     0
  6
CONTINUOUS
 10
3.598760
 20
3.363800
 11
3.594360
 21
3.362920
  0
LINE
  8
0
 62
     0
  6
CONTINUOUS
 10
3.594360
 20
3.362920
 11
3.589960
 21
3.360720
  0
LINE
  8
0
 62
     0
  6
CONTINUOUS
 10
3.589960
 20
3.360720
 11
3.587760
 21
3.356320
  0
LINE
  8
0
 62
     0
  6
CONTINUOUS
 10
3.587760
 20
3.356320
 11
3.587760
 21
3.351480
  0
LINE
  8
0
 62
     0
  6
CONTINUOUS
 10
3.587760
 20
3.351480
 11
3.587760
 21
3.347080
  0
LINE
  8
0
 62
     0
  6
CONTINUOUS
 10
3.587760
 20
3.347080
 11
3.589960
 21
3.344000
  0
LINE
  8
0
 62
     0
  6
CONTINUOUS
 10
3.589960
 20
3.344000
 11
3.594360
 21
3.340480
  0
LINE
  8
0
 62
     0
  6
CONTINUOUS
 10
3.594360
 20
3.340480
 11
3.598760
 21
3.339600
  0
LINE
  8
0
 62
     0
  6
CONTINUOUS
 10
3.598760
 20
3.339600
 11
3.603160
 21
3.340480
  0
LINE
  8
0
 62
     0
  6
CONTINUOUS
 10
3.603160
 20
3.340480
 11
3.608000
 21
3.344000
  0
LINE
  8
0
 62
     0
  6
CONTINUOUS
 10
3.608000
 20
3.344000
 11
3.610200
 21
3.347080
  0
LINE
  8
0
 62
     0
  6
CONTINUOUS
 10
3.610200
 20
3.347080
 11
3.610200
 21
3.351480
  0
LINE
  8
0
 62
     0
  6
CONTINUOUS
 10
3.610200
 20
3.351480
 11
3.610200
 21
3.356320
  0
LINE
  8
0
 62
     0
  6
CONTINUOUS
 10
3.610200
 20
3.356320
 11
3.608000
 21
3.360720
  0
LINE
  8
0
 62
     0
  6
CONTINUOUS
 10
3.608000
 20
3.360720
 11
3.603160
 21
3.362920
  0
LINE
  8
0
 62
     0
  6
CONTINUOUS
 10
3.603160
 20
3.362920
 11
3.598760
 21
3.363800
  0
LINE
  8
0
 62
     0
  6
CONTINUOUS
 10
3.571040
 20
3.429800
 11
3.562240
 21
3.435520
  0
LINE
  8
0
 62
     0
  6
CONTINUOUS
 10
3.562240
 20
3.435520
 11
3.571920
 21
3.437720
  0
LINE
  8
0
 62
     0
  6
CONTINUOUS
 10
3.571920
 20
3.437720
 11
3.571920
 21
3.433320
  0
LINE
  8
0
 62
     0
  6
CONTINUOUS
 10
3.571920
 20
3.433320
 11
3.562240
 21
3.435520
  0
LINE
  8
0
 62
     0
  6
CONTINUOUS
 10
3.562240
 20
3.435520
 11
3.571040
 21
3.439920
  0
LINE
  8
0
 62
     0
  6
CONTINUOUS
 10
3.567520
 20
3.444320
 11
3.562240
 21
3.435520
  0
LINE
  8
0
 62
     0
  6
CONTINUOUS
 10
3.562240
 20
3.435520
 11
3.564440
 21
3.444320
  0
LINE
  8
0
 62
     0
  6
CONTINUOUS
 10
3.564440
 20
3.444320
 11
3.560920
 21
3.444320
  0
LINE
  8
0
 62
     0
  6
CONTINUOUS
 10
3.560920
 20
3.444320
 11
3.562240
 21
3.435520
  0
LINE
  8
0
 62
     0
  6
CONTINUOUS
 10
3.562240
 20
3.435520
 11
3.555200
 21
3.444320
  0
LINE
  8
0
 62
     0
  6
CONTINUOUS
 10
3.554320
 20
3.439920
 11
3.562240
 21
3.435520
  0
LINE
  8
0
 62
     0
  6
CONTINUOUS
 10
3.562240
 20
3.435520
 11
3.553000
 21
3.433320
  0
LINE
  8
0
 62
     0
  6
CONTINUOUS
 10
3.553000
 20
3.433320
 11
3.553000
 21
3.437720
  0
LINE
  8
0
 62
     0
  6
CONTINUOUS
 10
3.553000
 20
3.437720
 11
3.562240
 21
3.435520
  0
LINE
  8
0
 62
     0
  6
CONTINUOUS
 10
3.562240
 20
3.435520
 11
3.554320
 21
3.429800
  0
LINE
  8
0
 62
     0
  6
CONTINUOUS
 10
3.555200
 20
3.427600
 11
3.562240
 21
3.435520
  0
LINE
  8
0
 62
     0
  6
CONTINUOUS
 10
3.562240
 20
3.435520
 11
3.560920
 21
3.424080
  0
LINE
  8
0
 62
     0
  6
CONTINUOUS
 10
3.560920
 20
3.424080
 11
3.564440
 21
3.424080
  0
LINE
  8
0
 62
     0
  6
CONTINUOUS
 10
3.564440
 20
3.424080
 11
3.562240
 21
3.435520
  0
LINE
  8
0
 62
     0
  6
CONTINUOUS
 10
3.562240
 20
3.435520
 11
3.567520
 21
3.427600
  0
LINE
  8
0
 62
     0
  6
CONTINUOUS
 10
3.506360
 20
3.408680
 11
3.499320
 21
3.400760
  0
LINE
  8
0
 62
     0
  6
CONTINUOUS
 10
3.499320
 20
3.400760
 11
3.508560
 21
3.394160
  0
LINE
  8
0
 62
     0
  6
CONTINUOUS
 10
3.510760
 20
3.398560
 11
3.499320
 21
3.400760
  0
LINE
  8
0
 62
     0
  6
CONTINUOUS
 10
3.499320
 20
3.400760
 11
3.508560
 21
3.406480
  0
LINE
  8
0
 62
     0
  6
CONTINUOUS
 10
3.510760
 20
3.402080
 11
3.499320
 21
3.400760
  0
LINE
  8
0
 62
     0
  6
CONTINUOUS
 10
3.499320
 20
3.400760
 11
3.502840
 21
3.410880
  0
LINE
  8
0
 62
     0
  6
CONTINUOUS
 10
3.499320
 20
3.400760
 11
3.506360
 21
3.390640
  0
LINE
  8
0
 62
     0
  6
CONTINUOUS
 10
3.510760
 20
3.378320
 11
3.499320
 21
3.376120
  0
LINE
  8
0
 62
     0
  6
CONTINUOUS
 10
3.663440
 20
3.429800
 11
3.672680
 21
3.435520
  0
LINE
  8
0
 62
     0
  6
CONTINUOUS
 10
3.672680
 20
3.435520
 11
3.669160
 21
3.424080
  0
LINE
  8
0
 62
     0
  6
CONTINUOUS
 10
3.669160
 20
3.424080
 11
3.674880
 21
3.424080
  0
LINE
  8
0
 62
     0
  6
CONTINUOUS
 10
3.674880
 20
3.424080
 11
3.672680
 21
3.435520
  0
LINE
  8
0
 62
     0
  6
CONTINUOUS
 10
3.672680
 20
3.435520
 11
3.677960
 21
3.427600
  0
LINE
  8
0
 62
     0
  6
CONTINUOUS
 10
3.680600
 20
3.429800
 11
3.672680
 21
3.435520
  0
LINE
  8
0
 62
     0
  6
CONTINUOUS
 10
3.672680
 20
3.435520
 11
3.682800
 21
3.437720
  0
LINE
  8
0
 62
     0
  6
CONTINUOUS
 10
3.682800
 20
3.437720
 11
3.682800
 21
3.433320
  0
LINE
  8
0
 62
     0
  6
CONTINUOUS
 10
3.682800
 20
3.433320
 11
3.672680
 21
3.435520
  0
LINE
  8
0
 62
     0
  6
CONTINUOUS
 10
3.672680
 20
3.435520
 11
3.680600
 21
3.439920
  0
LINE
  8
0
 62
     0
  6
CONTINUOUS
 10
3.677960
 20
3.444320
 11
3.672680
 21
3.435520
  0
LINE
  8
0
 62
     0
  6
CONTINUOUS
 10
3.672680
 20
3.435520
 11
3.674880
 21
3.444320
  0
LINE
  8
0
 62
     0
  6
CONTINUOUS
 10
3.674880
 20
3.444320
 11
3.669160
 21
3.444320
  0
LINE
  8
0
 62
     0
  6
CONTINUOUS
 10
3.669160
 20
3.444320
 11
3.672680
 21
3.435520
  0
LINE
  8
0
 62
     0
  6
CONTINUOUS
 10
3.672680
 20
3.435520
 11
3.666080
 21
3.444320
  0
LINE
  8
0
 62
     0
  6
CONTINUOUS
 10
3.663440
 20
3.439920
 11
3.672680
 21
3.435520
  0
LINE
  8
0
 62
     0
  6
CONTINUOUS
 10
3.672680
 20
3.435520
 11
3.661240
 21
3.433320
  0
LINE
  8
0
 62
     0
  6
CONTINUOUS
 10
3.661240
 20
3.433320
 11
3.661240
 21
3.437720
  0
LINE
  8
0
 62
     0
  6
CONTINUOUS
 10
3.661240
 20
3.437720
 11
3.672680
 21
3.435520
  0
LINE
  8
0
 62
     0
  6
CONTINUOUS
 10
3.672680
 20
3.435520
 11
3.666080
 21
3.427600
  0
LINE
  8
0
 62
     0
  6
CONTINUOUS
 10
3.666080
 20
3.319360
 11
3.663440
 21
3.317160
  0
LINE
  8
0
 62
     0
  6
CONTINUOUS
 10
3.663440
 20
3.317160
 11
3.662560
 21
3.312760
  0
LINE
  8
0
 62
     0
  6
CONTINUOUS
 10
3.662560
 20
3.312760
 11
3.663440
 21
3.309240
  0
LINE
  8
0
 62
     0
  6
CONTINUOUS
 10
3.663440
 20
3.309240
 11
3.664760
 21
3.307040
  0
LINE
  8
0
 62
     0
  6
CONTINUOUS
 10
3.664760
 20
3.307040
 11
3.666080
 21
3.307040
  0
LINE
  8
0
 62
     0
  6
CONTINUOUS
 10
3.666080
 20
3.307040
 11
3.677960
 21
3.301320
  0
LINE
  8
0
 62
     0
  6
CONTINUOUS
 10
3.677960
 20
3.301320
 11
3.680600
 21
3.300440
  0
LINE
  8
0
 62
     0
  6
CONTINUOUS
 10
3.680600
 20
3.300440
 11
3.680600
 21
3.298240
  0
LINE
  8
0
 62
     0
  6
CONTINUOUS
 10
3.680600
 20
3.298240
 11
3.682800
 21
3.294720
  0
LINE
  8
0
 62
     0
  6
CONTINUOUS
 10
3.682800
 20
3.294720
 11
3.680600
 21
3.289000
  0
LINE
  8
0
 62
     0
  6
CONTINUOUS
 10
3.680600
 20
3.289000
 11
3.677080
 21
3.286800
  0
LINE
  8
0
 62
     0
  6
CONTINUOUS
 10
3.677080
 20
3.286800
 11
3.672680
 21
3.284600
  0
LINE
  8
0
 62
     0
  6
CONTINUOUS
 10
3.672680
 20
3.284600
 11
3.663440
 21
3.284600
  0
LINE
  8
0
 62
     0
  6
CONTINUOUS
 10
3.663440
 20
3.284600
 11
3.659040
 21
3.286800
  0
LINE
  8
0
 62
     0
  6
CONTINUOUS
 10
3.659040
 20
3.286800
 11
3.655960
 21
3.289000
  0
LINE
  8
0
 62
     0
  6
CONTINUOUS
 10
3.666080
 20
3.319360
 11
3.672680
 21
3.321560
  0
LINE
  8
0
 62
     0
  6
CONTINUOUS
 10
3.672680
 20
3.321560
 11
3.680600
 21
3.321560
  0
LINE
  8
0
 62
     0
  6
CONTINUOUS
 10
3.680600
 20
3.321560
 11
3.685000
 21
3.319360
  0
LINE
  8
0
 62
     0
  6
CONTINUOUS
 10
3.685000
 20
3.319360
 11
3.688080
 21
3.317160
  0
LINE
  8
0
 62
     0
  6
CONTINUOUS
 10
3.672680
 20
3.187360
 11
3.672680
 21
3.118280
  0
LINE
  8
0
 62
     0
  6
CONTINUOUS
 10
3.672680
 20
3.100240
 11
3.664760
 21
3.100240
  0
LINE
  8
0
 62
     0
  6
CONTINUOUS
 10
3.664760
 20
3.100240
 11
3.659040
 21
3.099360
  0
LINE
  8
0
 62
     0
  6
CONTINUOUS
 10
3.659040
 20
3.099360
 11
3.654640
 21
3.095840
  0
LINE
  8
0
 62
     0
  6
CONTINUOUS
 10
3.654640
 20
3.095840
 11
3.654640
 21
3.092760
  0
LINE
  8
0
 62
     0
  6
CONTINUOUS
 10
3.654640
 20
3.092760
 11
3.654640
 21
3.089240
  0
LINE
  8
0
 62
     0
  6
CONTINUOUS
 10
3.654640
 20
3.089240
 11
3.655960
 21
3.085720
  0
LINE
  8
0
 62
     0
  6
CONTINUOUS
 10
3.655960
 20
3.085720
 11
3.659040
 21
3.084840
  0
LINE
  8
0
 62
     0
  6
CONTINUOUS
 10
3.659040
 20
3.084840
 11
3.666080
 21
3.081320
  0
LINE
  8
0
 62
     0
  6
CONTINUOUS
 10
3.666080
 20
3.081320
 11
3.672680
 21
3.079120
  0
LINE
  8
0
 62
     0
  6
CONTINUOUS
 10
3.672680
 20
3.079120
 11
3.672680
 21
3.074720
  0
LINE
  8
0
 62
     0
  6
CONTINUOUS
 10
3.672680
 20
3.074720
 11
3.672680
 21
3.069000
  0
LINE
  8
0
 62
     0
  6
CONTINUOUS
 10
3.672680
 20
3.069000
 11
3.666080
 21
3.066800
  0
LINE
  8
0
 62
     0
  6
CONTINUOUS
 10
3.666080
 20
3.066800
 11
3.661240
 21
3.064600
  0
LINE
  8
0
 62
     0
  6
CONTINUOUS
 10
3.661240
 20
3.064600
 11
3.655960
 21
3.064600
  0
LINE
  8
0
 62
     0
  6
CONTINUOUS
 10
3.655960
 20
3.064600
 11
3.650240
 21
3.066800
  0
LINE
  8
0
 62
     0
  6
CONTINUOUS
 10
3.650240
 20
3.066800
 11
3.648920
 21
3.069000
  0
LINE
  8
0
 62
     0
  6
CONTINUOUS
 10
3.685880
 20
3.069000
 11
3.688080
 21
3.066800
  0
LINE
  8
0
 62
     0
  6
CONTINUOUS
 10
3.688080
 20
3.066800
 11
3.692480
 21
3.064600
  0
LINE
  8
0
 62
     0
  6
CONTINUOUS
 10
3.692480
 20
3.064600
 11
3.696000
 21
3.064600
  0
LINE
  8
0
 62
     0
  6
CONTINUOUS
 10
3.696000
 20
3.064600
 11
3.701720
 21
3.066800
  0
LINE
  8
0
 62
     0
  6
CONTINUOUS
 10
3.701720
 20
3.066800
 11
3.706120
 21
3.069000
  0
LINE
  8
0
 62
     0
  6
CONTINUOUS
 10
3.706120
 20
3.069000
 11
3.710520
 21
3.074720
  0
LINE
  8
0
 62
     0
  6
CONTINUOUS
 10
3.710520
 20
3.074720
 11
3.717120
 21
3.100240
  0
LINE
  8
0
 62
     0
  6
CONTINUOUS
 10
3.730760
 20
3.100240
 11
3.721520
 21
3.064600
  0
LINE
  8
0
 62
     0
  6
CONTINUOUS
 10
3.725040
 20
3.081320
 11
3.741760
 21
3.081320
  0
LINE
  8
0
 62
     0
  6
CONTINUOUS
 10
3.741760
 20
3.081320
 11
3.746160
 21
3.083520
  0
LINE
  8
0
 62
     0
  6
CONTINUOUS
 10
3.746160
 20
3.083520
 11
3.749680
 21
3.084840
  0
LINE
  8
0
 62
     0
  6
CONTINUOUS
 10
3.749680
 20
3.084840
 11
3.751880
 21
3.089240
  0
LINE
  8
0
 62
     0
  6
CONTINUOUS
 10
3.751880
 20
3.089240
 11
3.752760
 21
3.094960
  0
LINE
  8
0
 62
     0
  6
CONTINUOUS
 10
3.752760
 20
3.094960
 11
3.751880
 21
3.097160
  0
LINE
  8
0
 62
     0
  6
CONTINUOUS
 10
3.751880
 20
3.097160
 11
3.749680
 21
3.099360
  0
LINE
  8
0
 62
     0
  6
CONTINUOUS
 10
3.749680
 20
3.099360
 11
3.746160
 21
3.100240
  0
LINE
  8
0
 62
     0
  6
CONTINUOUS
 10
3.746160
 20
3.100240
 11
3.730760
 21
3.100240
  0
LINE
  8
0
 62
     0
  6
CONTINUOUS
 10
3.767280
 20
3.100240
 11
3.756280
 21
3.064600
  0
LINE
  8
0
 62
     0
  6
CONTINUOUS
 10
3.760680
 20
3.081320
 11
3.777400
 21
3.081320
  0
LINE
  8
0
 62
     0
  6
CONTINUOUS
 10
3.777400
 20
3.081320
 11
3.783120
 21
3.083520
  0
LINE
  8
0
 62
     0
  6
CONTINUOUS
 10
3.783120
 20
3.083520
 11
3.785320
 21
3.084840
  0
LINE
  8
0
 62
     0
  6
CONTINUOUS
 10
3.785320
 20
3.084840
 11
3.787520
 21
3.089240
  0
LINE
  8
0
 62
     0
  6
CONTINUOUS
 10
3.787520
 20
3.089240
 11
3.788840
 21
3.094960
  0
LINE
  8
0
 62
     0
  6
CONTINUOUS
 10
3.788840
 20
3.094960
 11
3.787520
 21
3.097160
  0
LINE
  8
0
 62
     0
  6
CONTINUOUS
 10
3.787520
 20
3.097160
 11
3.787520
 21
3.099360
  0
LINE
  8
0
 62
     0
  6
CONTINUOUS
 10
3.787520
 20
3.099360
 11
3.783120
 21
3.100240
  0
LINE
  8
0
 62
     0
  6
CONTINUOUS
 10
3.783120
 20
3.100240
 11
3.767280
 21
3.100240
  0
LINE
  8
0
 62
     0
  6
CONTINUOUS
 10
3.783120
 20
3.118280
 11
3.783120
 21
3.187360
  0
LINE
  8
0
 62
     0
  6
CONTINUOUS
 10
3.804240
 20
3.100240
 11
3.793240
 21
3.064600
  0
LINE
  8
0
 62
     0
  6
CONTINUOUS
 10
3.793240
 20
3.064600
 11
3.814360
 21
3.064600
  0
LINE
  8
0
 62
     0
  6
CONTINUOUS
 10
3.832400
 20
3.064600
 11
3.836800
 21
3.083520
  0
LINE
  8
0
 62
     0
  6
CONTINUOUS
 10
3.836800
 20
3.083520
 11
3.854400
 21
3.100240
  0
LINE
  8
0
 62
     0
  6
CONTINUOUS
 10
3.828000
 20
3.100240
 11
3.836800
 21
3.083520
  0
LINE
  8
0
 62
     0
  6
CONTINUOUS
 10
3.685880
 20
3.074720
 11
3.685880
 21
3.069000
  0
LINE
  8
0
 62
     0
  6
CONTINUOUS
 10
3.685880
 20
3.074720
 11
3.692480
 21
3.100240
  0
LINE
  8
0
 62
     0
  6
CONTINUOUS
 10
3.677080
 20
3.099360
 11
3.672680
 21
3.100240
  0
LINE
  8
0
 62
     0
  6
CONTINUOUS
 10
3.677080
 20
3.099360
 11
3.679280
 21
3.095840
  0
LINE
  8
0
 62
     0
  6
CONTINUOUS
 10
3.610200
 20
3.100240
 11
3.588640
 21
3.100240
  0
LINE
  8
0
 62
     0
  6
CONTINUOUS
 10
3.588640
 20
3.100240
 11
3.578960
 21
3.064600
  0
LINE
  8
0
 62
     0
  6
CONTINUOUS
 10
3.578960
 20
3.064600
 11
3.600960
 21
3.064600
  0
LINE
  8
0
 62
     0
  6
CONTINUOUS
 10
3.596560
 20
3.083520
 11
3.583360
 21
3.083520
  0
LINE
  8
0
 62
     0
  6
CONTINUOUS
 10
3.574120
 20
3.100240
 11
3.565320
 21
3.064600
  0
LINE
  8
0
 62
     0
  6
CONTINUOUS
 10
3.565320
 20
3.064600
 11
3.550800
 21
3.100240
  0
LINE
  8
0
 62
     0
  6
CONTINUOUS
 10
3.550800
 20
3.100240
 11
3.540680
 21
3.064600
  0
LINE
  8
0
 62
     0
  6
CONTINUOUS
 10
3.527480
 20
3.064600
 11
3.537600
 21
3.100240
  0
LINE
  8
0
 62
     0
  6
CONTINUOUS
 10
3.506360
 20
3.100240
 11
3.498440
 21
3.064600
  0
LINE
  8
0
 62
     0
  6
CONTINUOUS
 10
3.498440
 20
3.064600
 11
3.517360
 21
3.064600
  0
LINE
  8
0
 62
     0
  6
CONTINUOUS
 10
3.562240
 20
3.118280
 11
3.562240
 21
3.187360
  0
LINE
  8
0
 62
     0
  6
CONTINUOUS
 10
3.501520
 20
3.375240
 11
3.421440
 21
3.375240
  0
LINE
  8
0
 62
     0
  6
CONTINUOUS
 10
3.421440
 20
3.375240
 11
3.421440
 21
2.850320
  0
LINE
  8
0
 62
     0
  6
CONTINUOUS
 10
3.562240
 20
3.503720
 11
3.624720
 21
3.566200
  0
LINE
  8
0
 62
     0
  6
CONTINUOUS
 10
3.655960
 20
3.618560
 11
3.660360
 21
3.616360
  0
LINE
  8
0
 62
     0
  6
CONTINUOUS
 10
3.660360
 20
3.616360
 11
3.666080
 21
3.612840
  0
LINE
  8
0
 62
     0
  6
CONTINUOUS
 10
3.666080
 20
3.612840
 11
3.672680
 21
3.612840
  0
LINE
  8
0
 62
     0
  6
CONTINUOUS
 10
3.672680
 20
3.612840
 11
3.677960
 21
3.612840
  0
LINE
  8
0
 62
     0
  6
CONTINUOUS
 10
3.677960
 20
3.612840
 11
3.682800
 21
3.616360
  0
LINE
  8
0
 62
     0
  6
CONTINUOUS
 10
3.682800
 20
3.616360
 11
3.687200
 21
3.618560
  0
LINE
  8
0
 62
     0
  6
CONTINUOUS
 10
3.687200
 20
3.618560
 11
3.690280
 21
3.622960
  0
LINE
  8
0
 62
     0
  6
CONTINUOUS
 10
3.690280
 20
3.622960
 11
3.692480
 21
3.627360
  0
LINE
  8
0
 62
     0
  6
CONTINUOUS
 10
3.692480
 20
3.627360
 11
3.692480
 21
3.633080
  0
LINE
  8
0
 62
     0
  6
CONTINUOUS
 10
3.692480
 20
3.633080
 11
3.692480
 21
3.638800
  0
LINE
  8
0
 62
     0
  6
CONTINUOUS
 10
3.692480
 20
3.638800
 11
3.690280
 21
3.644080
  0
LINE
  8
0
 62
     0
  6
CONTINUOUS
 10
3.690280
 20
3.644080
 11
3.687200
 21
3.649800
  0
LINE
  8
0
 62
     0
  6
CONTINUOUS
 10
3.687200
 20
3.649800
 11
3.682800
 21
3.653320
  0
LINE
  8
0
 62
     0
  6
CONTINUOUS
 10
3.682800
 20
3.653320
 11
3.677960
 21
3.655520
  0
LINE
  8
0
 62
     0
  6
CONTINUOUS
 10
3.677960
 20
3.655520
 11
3.672680
 21
3.655520
  0
LINE
  8
0
 62
     0
  6
CONTINUOUS
 10
3.672680
 20
3.655520
 11
3.666080
 21
3.655520
  0
LINE
  8
0
 62
     0
  6
CONTINUOUS
 10
3.666080
 20
3.655520
 11
3.660360
 21
3.653320
  0
LINE
  8
0
 62
     0
  6
CONTINUOUS
 10
3.660360
 20
3.653320
 11
3.655960
 21
3.649800
  0
LINE
  8
0
 62
     0
  6
CONTINUOUS
 10
3.655960
 20
3.649800
 11
3.652440
 21
3.644080
  0
LINE
  8
0
 62
     0
  6
CONTINUOUS
 10
3.652440
 20
3.644080
 11
3.650240
 21
3.638800
  0
LINE
  8
0
 62
     0
  6
CONTINUOUS
 10
3.650240
 20
3.638800
 11
3.650240
 21
3.633080
  0
LINE
  8
0
 62
     0
  6
CONTINUOUS
 10
3.650240
 20
3.633080
 11
3.650240
 21
3.627360
  0
LINE
  8
0
 62
     0
  6
CONTINUOUS
 10
3.650240
 20
3.627360
 11
3.652440
 21
3.622960
  0
LINE
  8
0
 62
     0
  6
CONTINUOUS
 10
3.652440
 20
3.622960
 11
3.655960
 21
3.618560
  0
LINE
  8
0
 62
     0
  6
CONTINUOUS
 10
3.672680
 20
3.612840
 11
3.383160
 21
3.614160
  0
LINE
  8
0
 62
     0
  6
CONTINUOUS
 10
3.384480
 20
3.620760
 11
3.384480
 21
3.641000
  0
LINE
  8
0
 62
     0
  6
CONTINUOUS
 10
3.384480
 20
3.633080
 11
3.397680
 21
3.634400
  0
LINE
  8
0
 62
     0
  6
CONTINUOUS
 10
3.397680
 20
3.634400
 11
3.411320
 21
3.637480
  0
LINE
  8
0
 62
     0
  6
CONTINUOUS
 10
3.411320
 20
3.637480
 11
3.422320
 21
3.643200
  0
LINE
  8
0
 62
     0
  6
CONTINUOUS
 10
3.422320
 20
3.643200
 11
3.434640
 21
3.648920
  0
LINE
  8
0
 62
     0
  6
CONTINUOUS
 10
3.434640
 20
3.648920
 11
3.443880
 21
3.655520
  0
LINE
  8
0
 62
     0
  6
CONTINUOUS
 10
3.443880
 20
3.655520
 11
3.457080
 21
3.664320
  0
LINE
  8
0
 62
     0
  6
CONTINUOUS
 10
3.457080
 20
3.664320
 11
3.465000
 21
3.674440
  0
LINE
  8
0
 62
     0
  6
CONTINUOUS
 10
3.465000
 20
3.674440
 11
3.471600
 21
3.685440
  0
LINE
  8
0
 62
     0
  6
CONTINUOUS
 10
3.471600
 20
3.685440
 11
3.478200
 21
3.697760
  0
LINE
  8
0
 62
     0
  6
CONTINUOUS
 10
3.478200
 20
3.697760
 11
3.482600
 21
3.710080
  0
LINE
  8
0
 62
     0
  6
CONTINUOUS
 10
3.482600
 20
3.710080
 11
3.486120
 21
3.722400
  0
LINE
  8
0
 62
     0
  6
CONTINUOUS
 10
3.486120
 20
3.722400
 11
3.486120
 21
3.736920
  0
LINE
  8
0
 62
     0
  6
CONTINUOUS
 10
3.486120
 20
3.736920
 11
3.486120
 21
3.749240
  0
LINE
  8
0
 62
     0
  6
CONTINUOUS
 10
3.486120
 20
3.749240
 11
3.482600
 21
3.763760
  0
LINE
  8
0
 62
     0
  6
CONTINUOUS
 10
3.482600
 20
3.763760
 11
3.478200
 21
3.776960
  0
LINE
  8
0
 62
     0
  6
CONTINUOUS
 10
3.478200
 20
3.776960
 11
3.471600
 21
3.787080
  0
LINE
  8
0
 62
     0
  6
CONTINUOUS
 10
3.471600
 20
3.787080
 11
3.465000
 21
3.799400
  0
LINE
  8
0
 62
     0
  6
CONTINUOUS
 10
3.465000
 20
3.799400
 11
3.457080
 21
3.809520
  0
LINE
  8
0
 62
     0
  6
CONTINUOUS
 10
3.457080
 20
3.809520
 11
3.443880
 21
3.817440
  0
LINE
  8
0
 62
     0
  6
CONTINUOUS
 10
3.443880
 20
3.817440
 11
3.434640
 21
3.826240
  0
LINE
  8
0
 62
     0
  6
CONTINUOUS
 10
3.434640
 20
3.826240
 11
3.422320
 21
3.831960
  0
LINE
  8
0
 62
     0
  6
CONTINUOUS
 10
3.422320
 20
3.831960
 11
3.411320
 21
3.836360
  0
LINE
  8
0
 62
     0
  6
CONTINUOUS
 10
3.411320
 20
3.836360
 11
3.397680
 21
3.837240
  0
LINE
  8
0
 62
     0
  6
CONTINUOUS
 10
3.397680
 20
3.837240
 11
3.384480
 21
3.838560
  0
LINE
  8
0
 62
     0
  6
CONTINUOUS
 10
3.384480
 20
3.838560
 11
3.371280
 21
3.837240
  0
LINE
  8
0
 62
     0
  6
CONTINUOUS
 10
3.371280
 20
3.837240
 11
3.356760
 21
3.836360
  0
LINE
  8
0
 62
     0
  6
CONTINUOUS
 10
3.356760
 20
3.836360
 11
3.345320
 21
3.831960
  0
LINE
  8
0
 62
     0
  6
CONTINUOUS
 10
3.345320
 20
3.831960
 11
3.332120
 21
3.826240
  0
LINE
  8
0
 62
     0
  6
CONTINUOUS
 10
3.332120
 20
3.826240
 11
3.320680
 21
3.817440
  0
LINE
  8
0
 62
     0
  6
CONTINUOUS
 10
3.320680
 20
3.817440
 11
3.311880
 21
3.809520
  0
LINE
  8
0
 62
     0
  6
CONTINUOUS
 10
3.311880
 20
3.809520
 11
3.300880
 21
3.799400
  0
LINE
  8
0
 62
     0
  6
CONTINUOUS
 10
3.300880
 20
3.799400
 11
3.295160
 21
3.787080
  0
LINE
  8
0
 62
     0
  6
CONTINUOUS
 10
3.295160
 20
3.787080
 11
3.289440
 21
3.776960
  0
LINE
  8
0
 62
     0
  6
CONTINUOUS
 10
3.289440
 20
3.776960
 11
3.285040
 21
3.763760
  0
LINE
  8
0
 62
     0
  6
CONTINUOUS
 10
3.285040
 20
3.763760
 11
3.281960
 21
3.749240
  0
LINE
  8
0
 62
     0
  6
CONTINUOUS
 10
3.281960
 20
3.749240
 11
3.280640
 21
3.736920
  0
LINE
  8
0
 62
     0
  6
CONTINUOUS
 10
3.280640
 20
3.736920
 11
3.281960
 21
3.722400
  0
LINE
  8
0
 62
     0
  6
CONTINUOUS
 10
3.281960
 20
3.722400
 11
3.285040
 21
3.710080
  0
LINE
  8
0
 62
     0
  6
CONTINUOUS
 10
3.285040
 20
3.710080
 11
3.289440
 21
3.697760
  0
LINE
  8
0
 62
     0
  6
CONTINUOUS
 10
3.289440
 20
3.697760
 11
3.295160
 21
3.685440
  0
LINE
  8
0
 62
     0
  6
CONTINUOUS
 10
3.295160
 20
3.685440
 11
3.300880
 21
3.674440
  0
LINE
  8
0
 62
     0
  6
CONTINUOUS
 10
3.300880
 20
3.674440
 11
3.311880
 21
3.664320
  0
LINE
  8
0
 62
     0
  6
CONTINUOUS
 10
3.311880
 20
3.664320
 11
3.320680
 21
3.655520
  0
LINE
  8
0
 62
     0
  6
CONTINUOUS
 10
3.320680
 20
3.655520
 11
3.332120
 21
3.648920
  0
LINE
  8
0
 62
     0
  6
CONTINUOUS
 10
3.332120
 20
3.648920
 11
3.345320
 21
3.643200
  0
LINE
  8
0
 62
     0
  6
CONTINUOUS
 10
3.345320
 20
3.643200
 11
3.356760
 21
3.637480
  0
LINE
  8
0
 62
     0
  6
CONTINUOUS
 10
3.356760
 20
3.637480
 11
3.371280
 21
3.634400
  0
LINE
  8
0
 62
     0
  6
CONTINUOUS
 10
3.371280
 20
3.634400
 11
3.384480
 21
3.633080
  0
LINE
  8
0
 62
     0
  6
CONTINUOUS
 10
3.417920
 20
3.647600
 11
3.426720
 21
3.627360
  0
LINE
  8
0
 62
     0
  6
CONTINUOUS
 10
3.470280
 20
3.656400
 11
3.457080
 21
3.670920
  0
LINE
  8
0
 62
     0
  6
CONTINUOUS
 10
3.477320
 20
3.699960
 11
3.496240
 21
3.693360
  0
LINE
  8
0
 62
     0
  6
CONTINUOUS
 10
3.506360
 20
3.736920
 11
3.506360
 21
3.751440
  0
LINE
  8
0
 62
     0
  6
CONTINUOUS
 10
3.506360
 20
3.751440
 11
3.502840
 21
3.764640
  0
LINE
  8
0
 62
     0
  6
CONTINUOUS
 10
3.502840
 20
3.764640
 11
3.499320
 21
3.780480
  0
LINE
  8
0
 62
     0
  6
CONTINUOUS
 10
3.499320
 20
3.780480
 11
3.494040
 21
3.792800
  0
LINE
  8
0
 62
     0
  6
CONTINUOUS
 10
3.494040
 20
3.792800
 11
3.483920
 21
3.807320
  0
LINE
  8
0
 62
     0
  6
CONTINUOUS
 10
3.483920
 20
3.807320
 11
3.476000
 21
3.818320
  0
LINE
  8
0
 62
     0
  6
CONTINUOUS
 10
3.476000
 20
3.818320
 11
3.465880
 21
3.828440
  0
LINE
  8
0
 62
     0
  6
CONTINUOUS
 10
3.465880
 20
3.828440
 11
3.452680
 21
3.837240
  0
LINE
  8
0
 62
     0
  6
CONTINUOUS
 10
3.452680
 20
3.837240
 11
3.441240
 21
3.845160
  0
LINE
  8
0
 62
     0
  6
CONTINUOUS
 10
3.441240
 20
3.845160
 11
3.428040
 21
3.850880
  0
LINE
  8
0
 62
     0
  6
CONTINUOUS
 10
3.428040
 20
3.850880
 11
3.412200
 21
3.856600
  0
LINE
  8
0
 62
     0
  6
CONTINUOUS
 10
3.412200
 20
3.856600
 11
3.399000
 21
3.859680
  0
LINE
  8
0
 62
     0
  6
CONTINUOUS
 10
3.399000
 20
3.859680
 11
3.384480
 21
3.859680
  0
LINE
  8
0
 62
     0
  6
CONTINUOUS
 10
3.384480
 20
3.859680
 11
3.368640
 21
3.859680
  0
LINE
  8
0
 62
     0
  6
CONTINUOUS
 10
3.368640
 20
3.859680
 11
3.354120
 21
3.856600
  0
LINE
  8
0
 62
     0
  6
CONTINUOUS
 10
3.354120
 20
3.856600
 11
3.340040
 21
3.850880
  0
LINE
  8
0
 62
     0
  6
CONTINUOUS
 10
3.340040
 20
3.850880
 11
3.326400
 21
3.845160
  0
LINE
  8
0
 62
     0
  6
CONTINUOUS
 10
3.326400
 20
3.845160
 11
3.314080
 21
3.837240
  0
LINE
  8
0
 62
     0
  6
CONTINUOUS
 10
3.314080
 20
3.837240
 11
3.300880
 21
3.828440
  0
LINE
  8
0
 62
     0
  6
CONTINUOUS
 10
3.300880
 20
3.828440
 11
3.290760
 21
3.818320
  0
LINE
  8
0
 62
     0
  6
CONTINUOUS
 10
3.290760
 20
3.818320
 11
3.282840
 21
3.807320
  0
LINE
  8
0
 62
     0
  6
CONTINUOUS
 10
3.282840
 20
3.807320
 11
3.274920
 21
3.792800
  0
LINE
  8
0
 62
     0
  6
CONTINUOUS
 10
3.274920
 20
3.792800
 11
3.268320
 21
3.780480
  0
LINE
  8
0
 62
     0
  6
CONTINUOUS
 10
3.268320
 20
3.780480
 11
3.262600
 21
3.764640
  0
LINE
  8
0
 62
     0
  6
CONTINUOUS
 10
3.262600
 20
3.764640
 11
3.261720
 21
3.751440
  0
LINE
  8
0
 62
     0
  6
CONTINUOUS
 10
3.261720
 20
3.751440
 11
3.260400
 21
3.736920
  0
LINE
  8
0
 62
     0
  6
CONTINUOUS
 10
3.260400
 20
3.736920
 11
3.261720
 21
3.721520
  0
LINE
  8
0
 62
     0
  6
CONTINUOUS
 10
3.261720
 20
3.721520
 11
3.262600
 21
3.707880
  0
LINE
  8
0
 62
     0
  6
CONTINUOUS
 10
3.262600
 20
3.707880
 11
3.268320
 21
3.693360
  0
LINE
  8
0
 62
     0
  6
CONTINUOUS
 10
3.268320
 20
3.693360
 11
3.274920
 21
3.680160
  0
LINE
  8
0
 62
     0
  6
CONTINUOUS
 10
3.274920
 20
3.680160
 11
3.282840
 21
3.666520
  0
LINE
  8
0
 62
     0
  6
CONTINUOUS
 10
3.282840
 20
3.666520
 11
3.290760
 21
3.655520
  0
LINE
  8
0
 62
     0
  6
CONTINUOUS
 10
3.290760
 20
3.655520
 11
3.300880
 21
3.644080
  0
LINE
  8
0
 62
     0
  6
CONTINUOUS
 10
3.300880
 20
3.644080
 11
3.314080
 21
3.635280
  0
LINE
  8
0
 62
     0
  6
CONTINUOUS
 10
3.314080
 20
3.635280
 11
3.326400
 21
3.627360
  0
LINE
  8
0
 62
     0
  6
CONTINUOUS
 10
3.326400
 20
3.627360
 11
3.340040
 21
3.622080
  0
LINE
  8
0
 62
     0
  6
CONTINUOUS
 10
3.340040
 20
3.622080
 11
3.354120
 21
3.617240
  0
LINE
  8
0
 62
     0
  6
CONTINUOUS
 10
3.354120
 20
3.617240
 11
3.368640
 21
3.615040
  0
LINE
  8
0
 62
     0
  6
CONTINUOUS
 10
3.368640
 20
3.615040
 11
3.384480
 21
3.614160
  0
LINE
  8
0
 62
     0
  6
CONTINUOUS
 10
3.384480
 20
3.614160
 11
3.399000
 21
3.615040
  0
LINE
  8
0
 62
     0
  6
CONTINUOUS
 10
3.399000
 20
3.615040
 11
3.412200
 21
3.617240
  0
LINE
  8
0
 62
     0
  6
CONTINUOUS
 10
3.412200
 20
3.617240
 11
3.428040
 21
3.622080
  0
LINE
  8
0
 62
     0
  6
CONTINUOUS
 10
3.428040
 20
3.622080
 11
3.441240
 21
3.627360
  0
LINE
  8
0
 62
     0
  6
CONTINUOUS
 10
3.441240
 20
3.627360
 11
3.452680
 21
3.635280
  0
LINE
  8
0
 62
     0
  6
CONTINUOUS
 10
3.452680
 20
3.635280
 11
3.465880
 21
3.644080
  0
LINE
  8
0
 62
     0
  6
CONTINUOUS
 10
3.465880
 20
3.644080
 11
3.476000
 21
3.655520
  0
LINE
  8
0
 62
     0
  6
CONTINUOUS
 10
3.476000
 20
3.655520
 11
3.483920
 21
3.666520
  0
LINE
  8
0
 62
     0
  6
CONTINUOUS
 10
3.483920
 20
3.666520
 11
3.494040
 21
3.680160
  0
LINE
  8
0
 62
     0
  6
CONTINUOUS
 10
3.494040
 20
3.680160
 11
3.499320
 21
3.693360
  0
LINE
  8
0
 62
     0
  6
CONTINUOUS
 10
3.499320
 20
3.693360
 11
3.502840
 21
3.707880
  0
LINE
  8
0
 62
     0
  6
CONTINUOUS
 10
3.502840
 20
3.707880
 11
3.506360
 21
3.721520
  0
LINE
  8
0
 62
     0
  6
CONTINUOUS
 10
3.506360
 20
3.721520
 11
3.506360
 21
3.736920
  0
LINE
  8
0
 62
     0
  6
CONTINUOUS
 10
3.506360
 20
3.743520
 11
3.486120
 21
3.743520
  0
LINE
  8
0
 62
     0
  6
CONTINUOUS
 10
3.477320
 20
3.786200
 11
3.496240
 21
3.792800
  0
LINE
  8
0
 62
     0
  6
CONTINUOUS
 10
3.476000
 20
3.826240
 11
3.460600
 21
3.811720
  0
LINE
  8
0
 62
     0
  6
CONTINUOUS
 10
3.461480
 20
3.831960
 11
3.685000
 21
3.651120
  0
LINE
  8
0
 62
     0
  6
CONTINUOUS
 10
3.683680
 20
3.715800
 11
3.672680
 21
3.715800
  0
LINE
  8
0
 62
     0
  6
CONTINUOUS
 10
3.672680
 20
3.715800
 11
3.659040
 21
3.715800
  0
LINE
  8
0
 62
     0
  6
CONTINUOUS
 10
3.659040
 20
3.715800
 11
3.648920
 21
3.713600
  0
LINE
  8
0
 62
     0
  6
CONTINUOUS
 10
3.648920
 20
3.713600
 11
3.637040
 21
3.709200
  0
LINE
  8
0
 62
     0
  6
CONTINUOUS
 10
3.637040
 20
3.709200
 11
3.626920
 21
3.702160
  0
LINE
  8
0
 62
     0
  6
CONTINUOUS
 10
3.626920
 20
3.702160
 11
3.617680
 21
3.695560
  0
LINE
  8
0
 62
     0
  6
CONTINUOUS
 10
3.617680
 20
3.695560
 11
3.608000
 21
3.687640
  0
LINE
  8
0
 62
     0
  6
CONTINUOUS
 10
3.608000
 20
3.687640
 11
3.602280
 21
3.678840
  0
LINE
  8
0
 62
     0
  6
CONTINUOUS
 10
3.602280
 20
3.678840
 11
3.595680
 21
3.667840
  0
LINE
  8
0
 62
     0
  6
CONTINUOUS
 10
3.595680
 20
3.667840
 11
3.592160
 21
3.657720
  0
LINE
  8
0
 62
     0
  6
CONTINUOUS
 10
3.592160
 20
3.657720
 11
3.589960
 21
3.646280
  0
LINE
  8
0
 62
     0
  6
CONTINUOUS
 10
3.589960
 20
3.646280
 11
3.588640
 21
3.633080
  0
LINE
  8
0
 62
     0
  6
CONTINUOUS
 10
3.588640
 20
3.633080
 11
3.589960
 21
3.622080
  0
LINE
  8
0
 62
     0
  6
CONTINUOUS
 10
3.589960
 20
3.622080
 11
3.592160
 21
3.609760
  0
LINE
  8
0
 62
     0
  6
CONTINUOUS
 10
3.592160
 20
3.609760
 11
3.595680
 21
3.599640
  0
LINE
  8
0
 62
     0
  6
CONTINUOUS
 10
3.595680
 20
3.599640
 11
3.602280
 21
3.589520
  0
LINE
  8
0
 62
     0
  6
CONTINUOUS
 10
3.602280
 20
3.589520
 11
3.608000
 21
3.579400
  0
LINE
  8
0
 62
     0
  6
CONTINUOUS
 10
3.608000
 20
3.579400
 11
3.617680
 21
3.571480
  0
LINE
  8
0
 62
     0
  6
CONTINUOUS
 10
3.617680
 20
3.571480
 11
3.626920
 21
3.564880
  0
LINE
  8
0
 62
     0
  6
CONTINUOUS
 10
3.626920
 20
3.564880
 11
3.637040
 21
3.560480
  0
LINE
  8
0
 62
     0
  6
CONTINUOUS
 10
3.637040
 20
3.560480
 11
3.648920
 21
3.556080
  0
LINE
  8
0
 62
     0
  6
CONTINUOUS
 10
3.648920
 20
3.556080
 11
3.659040
 21
3.552560
  0
LINE
  8
0
 62
     0
  6
CONTINUOUS
 10
3.659040
 20
3.552560
 11
3.672680
 21
3.552560
  0
LINE
  8
0
 62
     0
  6
CONTINUOUS
 10
3.672680
 20
3.552560
 11
3.683680
 21
3.552560
  0
LINE
  8
0
 62
     0
  6
CONTINUOUS
 10
3.683680
 20
3.552560
 11
3.693800
 21
3.556080
  0
LINE
  8
0
 62
     0
  6
CONTINUOUS
 10
3.693800
 20
3.556080
 11
3.706120
 21
3.560480
  0
LINE
  8
0
 62
     0
  6
CONTINUOUS
 10
3.706120
 20
3.560480
 11
3.716240
 21
3.564880
  0
LINE
  8
0
 62
     0
  6
CONTINUOUS
 10
3.716240
 20
3.564880
 11
3.725040
 21
3.571480
  0
LINE
  8
0
 62
     0
  6
CONTINUOUS
 10
3.725040
 20
3.571480
 11
3.733840
 21
3.579400
  0
LINE
  8
0
 62
     0
  6
CONTINUOUS
 10
3.733840
 20
3.579400
 11
3.740880
 21
3.589520
  0
LINE
  8
0
 62
     0
  6
CONTINUOUS
 10
3.740880
 20
3.589520
 11
3.745280
 21
3.599640
  0
LINE
  8
0
 62
     0
  6
CONTINUOUS
 10
3.745280
 20
3.599640
 11
3.749680
 21
3.609760
  0
LINE
  8
0
 62
     0
  6
CONTINUOUS
 10
3.749680
 20
3.609760
 11
3.751880
 21
3.622080
  0
LINE
  8
0
 62
     0
  6
CONTINUOUS
 10
3.751880
 20
3.622080
 11
3.752760
 21
3.633080
  0
LINE
  8
0
 62
     0
  6
CONTINUOUS
 10
3.752760
 20
3.633080
 11
3.751880
 21
3.646280
  0
LINE
  8
0
 62
     0
  6
CONTINUOUS
 10
3.751880
 20
3.646280
 11
3.749680
 21
3.657720
  0
LINE
  8
0
 62
     0
  6
CONTINUOUS
 10
3.749680
 20
3.657720
 11
3.745280
 21
3.667840
  0
LINE
  8
0
 62
     0
  6
CONTINUOUS
 10
3.745280
 20
3.667840
 11
3.740880
 21
3.678840
  0
LINE
  8
0
 62
     0
  6
CONTINUOUS
 10
3.740880
 20
3.678840
 11
3.733840
 21
3.687640
  0
LINE
  8
0
 62
     0
  6
CONTINUOUS
 10
3.733840
 20
3.687640
 11
3.725040
 21
3.695560
  0
LINE
  8
0
 62
     0
  6
CONTINUOUS
 10
3.725040
 20
3.695560
 11
3.716240
 21
3.702160
  0
LINE
  8
0
 62
     0
  6
CONTINUOUS
 10
3.716240
 20
3.702160
 11
3.706120
 21
3.709200
  0
LINE
  8
0
 62
     0
  6
CONTINUOUS
 10
3.706120
 20
3.709200
 11
3.693800
 21
3.713600
  0
LINE
  8
0
 62
     0
  6
CONTINUOUS
 10
3.693800
 20
3.713600
 11
3.683680
 21
3.715800
  0
LINE
  8
0
 62
     0
  6
CONTINUOUS
 10
3.587760
 20
3.712280
 11
3.588640
 21
3.730320
  0
LINE
  8
0
 62
     0
  6
CONTINUOUS
 10
3.588640
 20
3.730320
 11
3.588640
 21
3.749240
  0
LINE
  8
0
 62
     0
  6
CONTINUOUS
 10
3.588640
 20
3.749240
 11
3.788840
 21
3.749240
  0
LINE
  8
0
 62
     0
  6
CONTINUOUS
 10
3.788840
 20
3.749240
 11
3.788840
 21
3.942400
  0
LINE
  8
0
 62
     0
  6
CONTINUOUS
 10
3.788840
 20
3.942400
 11
3.386680
 21
3.942400
  0
LINE
  8
0
 62
     0
  6
CONTINUOUS
 10
3.386680
 20
3.942400
 11
3.384480
 21
3.942400
  0
LINE
  8
0
 62
     0
  6
CONTINUOUS
 10
3.384480
 20
3.942400
 11
3.364240
 21
3.941080
  0
LINE
  8
0
 62
     0
  6
CONTINUOUS
 10
3.364240
 20
3.941080
 11
3.345320
 21
3.938000
  0
LINE
  8
0
 62
     0
  6
CONTINUOUS
 10
3.345320
 20
3.938000
 11
3.327720
 21
3.934480
  0
LINE
  8
0
 62
     0
  6
CONTINUOUS
 10
3.327720
 20
3.934480
 11
3.309680
 21
3.927880
  0
LINE
  8
0
 62
     0
  6
CONTINUOUS
 10
3.309680
 20
3.927880
 11
3.290760
 21
3.921280
  0
LINE
  8
0
 62
     0
  6
CONTINUOUS
 10
3.290760
 20
3.921280
 11
3.277120
 21
3.911160
  0
LINE
  8
0
 62
     0
  6
CONTINUOUS
 10
3.277120
 20
3.911160
 11
3.260400
 21
3.901040
  0
LINE
  8
0
 62
     0
  6
CONTINUOUS
 10
3.260400
 20
3.901040
 11
3.245880
 21
3.887840
  0
LINE
  8
0
 62
     0
  6
CONTINUOUS
 10
3.245880
 20
3.887840
 11
3.232680
 21
3.876400
  0
LINE
  8
0
 62
     0
  6
CONTINUOUS
 10
3.232680
 20
3.876400
 11
3.220360
 21
3.861000
  0
LINE
  8
0
 62
     0
  6
CONTINUOUS
 10
3.220360
 20
3.861000
 11
3.209360
 21
3.845160
  0
LINE
  8
0
 62
     0
  6
CONTINUOUS
 10
3.209360
 20
3.845160
 11
3.200120
 21
3.829760
  0
LINE
  8
0
 62
     0
  6
CONTINUOUS
 10
3.200120
 20
3.829760
 11
3.192640
 21
3.811720
  0
LINE
  8
0
 62
     0
  6
CONTINUOUS
 10
3.192640
 20
3.811720
 11
3.186920
 21
3.793680
  0
LINE
  8
0
 62
     0
  6
CONTINUOUS
 10
3.186920
 20
3.793680
 11
3.182520
 21
3.776960
  0
LINE
  8
0
 62
     0
  6
CONTINUOUS
 10
3.182520
 20
3.776960
 11
3.179000
 21
3.757160
  0
LINE
  8
0
 62
     0
  6
CONTINUOUS
 10
3.179000
 20
3.757160
 11
3.179000
 21
3.738240
  0
LINE
  8
0
 62
     0
  6
CONTINUOUS
 10
3.179000
 20
3.738240
 11
3.179000
 21
3.720200
  0
LINE
  8
0
 62
     0
  6
CONTINUOUS
 10
3.179000
 20
3.720200
 11
3.182520
 21
3.699960
  0
LINE
  8
0
 62
     0
  6
CONTINUOUS
 10
3.182520
 20
3.699960
 11
3.185600
 21
3.682360
  0
LINE
  8
0
 62
     0
  6
CONTINUOUS
 10
3.185600
 20
3.682360
 11
3.191320
 21
3.664320
  0
LINE
  8
0
 62
     0
  6
CONTINUOUS
 10
3.191320
 20
3.664320
 11
3.199240
 21
3.647600
  0
LINE
  8
0
 62
     0
  6
CONTINUOUS
 10
3.199240
 20
3.647600
 11
3.206720
 21
3.630880
  0
LINE
  8
0
 62
     0
  6
CONTINUOUS
 10
3.206720
 20
3.630880
 11
3.218160
 21
3.616360
  0
LINE
  8
0
 62
     0
  6
CONTINUOUS
 10
3.218160
 20
3.616360
 11
3.230480
 21
3.599640
  0
LINE
  8
0
 62
     0
  6
CONTINUOUS
 10
3.230480
 20
3.599640
 11
3.243680
 21
3.587320
  0
LINE
  8
0
 62
     0
  6
CONTINUOUS
 10
3.243680
 20
3.587320
 11
3.257320
 21
3.575000
  0
LINE
  8
0
 62
     0
  6
CONTINUOUS
 10
3.257320
 20
3.575000
 11
3.272720
 21
3.564000
  0
LINE
  8
0
 62
     0
  6
CONTINUOUS
 10
3.272720
 20
3.564000
 11
3.289440
 21
3.554760
  0
LINE
  8
0
 62
     0
  6
CONTINUOUS
 10
3.289440
 20
3.554760
 11
3.307480
 21
3.545960
  0
LINE
  8
0
 62
     0
  6
CONTINUOUS
 10
3.307480
 20
3.545960
 11
3.324200
 21
3.539360
  0
LINE
  8
0
 62
     0
  6
CONTINUOUS
 10
3.324200
 20
3.539360
 11
3.343120
 21
3.535840
  0
LINE
  8
0
 62
     0
  6
CONTINUOUS
 10
3.343120
 20
3.535840
 11
3.359840
 21
3.533640
  0
LINE
  8
0
 62
     0
  6
CONTINUOUS
 10
3.359840
 20
3.533640
 11
3.380080
 21
3.531440
  0
LINE
  8
0
 62
     0
  6
CONTINUOUS
 10
3.380080
 20
3.531440
 11
3.399000
 21
3.532760
  0
LINE
  8
0
 62
     0
  6
CONTINUOUS
 10
3.399000
 20
3.532760
 11
3.415720
 21
3.533640
  0
LINE
  8
0
 62
     0
  6
CONTINUOUS
 10
3.415720
 20
3.533640
 11
3.435960
 21
3.538040
  0
LINE
  8
0
 62
     0
  6
CONTINUOUS
 10
3.435960
 20
3.538040
 11
3.453560
 21
3.543760
  0
LINE
  8
0
 62
     0
  6
CONTINUOUS
 10
3.453560
 20
3.543760
 11
3.471600
 21
3.551680
  0
LINE
  8
0
 62
     0
  6
CONTINUOUS
 10
3.471600
 20
3.551680
 11
3.487440
 21
3.560480
  0
LINE
  8
0
 62
     0
  6
CONTINUOUS
 10
3.487440
 20
3.560480
 11
3.504160
 21
3.570600
  0
LINE
  8
0
 62
     0
  6
CONTINUOUS
 10
3.504160
 20
3.570600
 11
3.517360
 21
3.582920
  0
LINE
  8
0
 62
     0
  6
CONTINUOUS
 10
3.517360
 20
3.582920
 11
3.531880
 21
3.595240
  0
LINE
  8
0
 62
     0
  6
CONTINUOUS
 10
3.531880
 20
3.595240
 11
3.544200
 21
3.608440
  0
LINE
  8
0
 62
     0
  6
CONTINUOUS
 10
3.544200
 20
3.608440
 11
3.555200
 21
3.624280
  0
LINE
  8
0
 62
     0
  6
CONTINUOUS
 10
3.555200
 20
3.624280
 11
3.565320
 21
3.641000
  0
LINE
  8
0
 62
     0
  6
CONTINUOUS
 10
3.565320
 20
3.641000
 11
3.571920
 21
3.657720
  0
LINE
  8
0
 62
     0
  6
CONTINUOUS
 10
3.571920
 20
3.657720
 11
3.578960
 21
3.675320
  0
LINE
  8
0
 62
     0
  6
CONTINUOUS
 10
3.578960
 20
3.675320
 11
3.583360
 21
3.693360
  0
LINE
  8
0
 62
     0
  6
CONTINUOUS
 10
3.583360
 20
3.693360
 11
3.587760
 21
3.712280
  0
LINE
  8
0
 62
     0
  6
CONTINUOUS
 10
3.588640
 20
3.633080
 11
3.588640
 21
3.551680
  0
LINE
  8
0
 62
     0
  6
CONTINUOUS
 10
3.562240
 20
3.503720
 11
3.562240
 21
3.435520
  0
LINE
  8
0
 62
     0
  6
CONTINUOUS
 10
3.672680
 20
3.435520
 11
3.672680
 21
3.550360
  0
LINE
  8
0
 62
     0
  6
CONTINUOUS
 10
3.720640
 20
3.566200
 11
3.781800
 21
3.503720
  0
LINE
  8
0
 62
     0
  6
CONTINUOUS
 10
3.781800
 20
3.503720
 11
3.781800
 21
3.435520
  0
LINE
  8
0
 62
     0
  6
CONTINUOUS
 10
3.781800
 20
3.435520
 11
3.791040
 21
3.437720
  0
LINE
  8
0
 62
     0
  6
CONTINUOUS
 10
3.791040
 20
3.437720
 11
3.791040
 21
3.433320
  0
LINE
  8
0
 62
     0
  6
CONTINUOUS
 10
3.791040
 20
3.433320
 11
3.781800
 21
3.435520
  0
LINE
  8
0
 62
     0
  6
CONTINUOUS
 10
3.781800
 20
3.435520
 11
3.789720
 21
3.439920
  0
LINE
  8
0
 62
     0
  6
CONTINUOUS
 10
3.787520
 20
3.444320
 11
3.781800
 21
3.435520
  0
LINE
  8
0
 62
     0
  6
CONTINUOUS
 10
3.781800
 20
3.435520
 11
3.783120
 21
3.444320
  0
LINE
  8
0
 62
     0
  6
CONTINUOUS
 10
3.783120
 20
3.444320
 11
3.779600
 21
3.444320
  0
LINE
  8
0
 62
     0
  6
CONTINUOUS
 10
3.779600
 20
3.444320
 11
3.781800
 21
3.435520
  0
LINE
  8
0
 62
     0
  6
CONTINUOUS
 10
3.781800
 20
3.435520
 11
3.776520
 21
3.444320
  0
LINE
  8
0
 62
     0
  6
CONTINUOUS
 10
3.773000
 20
3.439920
 11
3.781800
 21
3.435520
  0
LINE
  8
0
 62
     0
  6
CONTINUOUS
 10
3.781800
 20
3.435520
 11
3.772120
 21
3.433320
  0
LINE
  8
0
 62
     0
  6
CONTINUOUS
 10
3.772120
 20
3.433320
 11
3.772120
 21
3.437720
  0
LINE
  8
0
 62
     0
  6
CONTINUOUS
 10
3.772120
 20
3.437720
 11
3.781800
 21
3.435520
  0
LINE
  8
0
 62
     0
  6
CONTINUOUS
 10
3.781800
 20
3.435520
 11
3.773000
 21
3.429800
  0
LINE
  8
0
 62
     0
  6
CONTINUOUS
 10
3.776520
 20
3.427600
 11
3.781800
 21
3.435520
  0
LINE
  8
0
 62
     0
  6
CONTINUOUS
 10
3.781800
 20
3.435520
 11
3.779600
 21
3.424080
  0
LINE
  8
0
 62
     0
  6
CONTINUOUS
 10
3.779600
 20
3.424080
 11
3.783120
 21
3.424080
  0
LINE
  8
0
 62
     0
  6
CONTINUOUS
 10
3.783120
 20
3.424080
 11
3.781800
 21
3.435520
  0
LINE
  8
0
 62
     0
  6
CONTINUOUS
 10
3.781800
 20
3.435520
 11
3.787520
 21
3.427600
  0
LINE
  8
0
 62
     0
  6
CONTINUOUS
 10
3.789720
 20
3.429800
 11
3.781800
 21
3.435520
  0
LINE
  8
0
 62
     0
  6
CONTINUOUS
 10
3.751880
 20
3.531440
 11
3.751880
 21
3.633080
  0
LINE
  8
0
 62
     0
  6
CONTINUOUS
 10
3.751880
 20
3.551680
 11
3.473800
 21
3.551680
  0
LINE
  8
0
 62
     0
  6
CONTINUOUS
 10
3.335200
 20
3.630880
 11
3.343120
 21
3.649800
  0
LINE
  8
0
 62
     0
  6
CONTINUOUS
 10
3.305280
 20
3.678840
 11
3.288560
 21
3.665640
  0
LINE
  8
0
 62
     0
  6
CONTINUOUS
 10
3.289440
 20
3.704360
 11
3.271840
 21
3.694680
  0
LINE
  8
0
 62
     0
  6
CONTINUOUS
 10
3.260400
 20
3.743520
 11
3.280640
 21
3.743520
  0
LINE
  8
0
 62
     0
  6
CONTINUOUS
 10
3.289440
 20
3.784000
 11
3.271840
 21
3.791480
  0
LINE
  8
0
 62
     0
  6
CONTINUOUS
 10
3.311880
 20
3.809520
 11
3.296480
 21
3.822720
  0
LINE
  8
0
 62
     0
  6
CONTINUOUS
 10
3.342240
 20
3.830640
 11
3.335200
 21
3.848680
  0
LINE
  8
0
 62
     0
  6
CONTINUOUS
 10
3.384480
 20
3.845160
 11
3.384480
 21
3.866280
  0
LINE
  8
0
 62
     0
  6
CONTINUOUS
 10
3.432440
 20
3.857480
 11
3.423640
 21
3.837240
  0
LINE
  8
0
 62
     0
  6
CONTINUOUS
 10
2.991560
 20
3.813920
 11
2.991560
 21
3.941080
  0
LINE
  8
0
 62
     0
  6
CONTINUOUS
 10
2.662000
 20
3.941080
 11
2.662000
 21
3.813920
  0
LINE
  8
0
 62
     0
  6
CONTINUOUS
 10
2.662000
 20
3.813920
 11
2.662000
 21
3.532760
  0
LINE
  8
0
 62
     0
  6
CONTINUOUS
 10
2.662000
 20
3.532760
 11
2.770240
 21
3.532760
  0
LINE
  8
0
 62
     0
  6
CONTINUOUS
 10
2.770240
 20
3.532760
 11
2.882000
 21
3.532760
  0
LINE
  8
0
 62
     0
  6
CONTINUOUS
 10
2.882000
 20
3.532760
 11
2.991560
 21
3.532760
  0
LINE
  8
0
 62
     0
  6
CONTINUOUS
 10
2.991560
 20
3.532760
 11
2.991560
 21
3.813920
  0
LINE
  8
0
 62
     0
  6
CONTINUOUS
 10
2.984520
 20
3.858800
 11
2.666400
 21
3.538040
  0
LINE
  8
0
 62
     0
  6
CONTINUOUS
 10
2.666400
 20
3.617240
 11
2.984520
 21
3.936680
  0
LINE
  8
0
 62
     0
  6
CONTINUOUS
 10
2.826120
 20
3.941080
 11
2.826120
 21
3.778280
  0
LINE
  8
0
 62
     0
  6
CONTINUOUS
 10
2.808520
 20
3.718880
 11
2.802800
 21
3.718880
  0
LINE
  8
0
 62
     0
  6
CONTINUOUS
 10
2.802800
 20
3.718880
 11
2.800600
 21
3.716680
  0
LINE
  8
0
 62
     0
  6
CONTINUOUS
 10
2.800600
 20
3.716680
 11
2.800600
 21
3.712280
  0
LINE
  8
0
 62
     0
  6
CONTINUOUS
 10
2.800600
 20
3.712280
 11
2.803680
 21
3.707880
  0
LINE
  8
0
 62
     0
  6
CONTINUOUS
 10
2.803680
 20
3.707880
 11
2.809400
 21
3.707880
  0
LINE
  8
0
 62
     0
  6
CONTINUOUS
 10
2.809400
 20
3.707880
 11
2.813800
 21
3.710080
  0
LINE
  8
0
 62
     0
  6
CONTINUOUS
 10
2.813800
 20
3.710080
 11
2.813800
 21
3.714480
  0
LINE
  8
0
 62
     0
  6
CONTINUOUS
 10
2.813800
 20
3.714480
 11
2.817320
 21
3.714480
  0
LINE
  8
0
 62
     0
  6
CONTINUOUS
 10
2.813800
 20
3.714480
 11
2.808520
 21
3.718880
  0
LINE
  8
0
 62
     0
  6
CONTINUOUS
 10
2.825240
 20
3.716680
 11
2.829640
 21
3.716680
  0
LINE
  8
0
 62
     0
  6
CONTINUOUS
 10
2.829640
 20
3.716680
 11
2.834040
 21
3.721520
  0
LINE
  8
0
 62
     0
  6
CONTINUOUS
 10
2.834040
 20
3.721520
 11
2.834040
 21
3.726800
  0
LINE
  8
0
 62
     0
  6
CONTINUOUS
 10
2.834040
 20
3.726800
 11
2.825240
 21
3.736920
  0
LINE
  8
0
 62
     0
  6
CONTINUOUS
 10
2.825240
 20
3.736920
 11
2.820400
 21
3.736920
  0
LINE
  8
0
 62
     0
  6
CONTINUOUS
 10
2.820400
 20
3.736920
 11
2.815120
 21
3.731200
  0
LINE
  8
0
 62
     0
  6
CONTINUOUS
 10
2.815120
 20
3.731200
 11
2.815120
 21
3.726800
  0
LINE
  8
0
 62
     0
  6
CONTINUOUS
 10
2.815120
 20
3.726800
 11
2.820400
 21
3.721520
  0
LINE
  8
0
 62
     0
  6
CONTINUOUS
 10
2.820400
 20
3.721520
 11
2.825240
 21
3.721520
  0
LINE
  8
0
 62
     0
  6
CONTINUOUS
 10
2.825240
 20
3.721520
 11
2.831840
 21
3.728120
  0
LINE
  8
0
 62
     0
  6
CONTINUOUS
 10
2.831840
 20
3.738240
 11
2.838440
 21
3.745720
  0
LINE
  8
0
 62
     0
  6
CONTINUOUS
 10
2.838440
 20
3.745720
 11
2.838440
 21
3.750120
  0
LINE
  8
0
 62
     0
  6
CONTINUOUS
 10
2.838440
 20
3.750120
 11
2.834040
 21
3.750120
  0
LINE
  8
0
 62
     0
  6
CONTINUOUS
 10
2.834040
 20
3.750120
 11
2.829640
 21
3.745720
  0
LINE
  8
0
 62
     0
  6
CONTINUOUS
 10
2.829640
 20
3.745720
 11
2.829640
 21
3.741320
  0
LINE
  8
0
 62
     0
  6
CONTINUOUS
 10
2.829640
 20
3.741320
 11
2.834040
 21
3.736920
  0
LINE
  8
0
 62
     0
  6
CONTINUOUS
 10
2.834040
 20
3.736920
 11
2.838440
 21
3.736920
  0
LINE
  8
0
 62
     0
  6
CONTINUOUS
 10
2.838440
 20
3.736920
 11
2.844160
 21
3.741320
  0
LINE
  8
0
 62
     0
  6
CONTINUOUS
 10
2.851640
 20
3.776960
 11
2.863080
 21
3.764640
  0
LINE
  8
0
 62
     0
  6
CONTINUOUS
 10
2.863080
 20
3.764640
 11
2.868800
 21
3.764640
  0
LINE
  8
0
 62
     0
  6
CONTINUOUS
 10
2.868800
 20
3.764640
 11
2.873200
 21
3.770360
  0
LINE
  8
0
 62
     0
  6
CONTINUOUS
 10
2.873200
 20
3.770360
 11
2.873200
 21
3.774760
  0
LINE
  8
0
 62
     0
  6
CONTINUOUS
 10
2.873200
 20
3.774760
 11
2.859560
 21
3.787080
  0
LINE
  8
0
 62
     0
  6
CONTINUOUS
 10
2.871000
 20
3.787080
 11
2.880680
 21
3.776960
  0
LINE
  8
0
 62
     0
  6
CONTINUOUS
 10
2.873200
 20
3.784000
 11
2.873200
 21
3.789280
  0
LINE
  8
0
 62
     0
  6
CONTINUOUS
 10
2.873200
 20
3.789280
 11
2.873200
 21
3.791480
  0
LINE
  8
0
 62
     0
  6
CONTINUOUS
 10
2.873200
 20
3.791480
 11
2.880680
 21
3.791480
  0
LINE
  8
0
 62
     0
  6
CONTINUOUS
 10
2.880680
 20
3.791480
 11
2.887720
 21
3.784000
  0
LINE
  8
0
 62
     0
  6
CONTINUOUS
 10
2.889920
 20
3.806000
 11
2.887720
 21
3.809520
  0
LINE
  8
0
 62
     0
  6
CONTINUOUS
 10
2.892120
 20
3.805120
 11
2.900040
 21
3.797200
  0
LINE
  8
0
 62
     0
  6
CONTINUOUS
 10
2.900040
 20
3.815240
 11
2.908840
 21
3.826240
  0
LINE
  8
0
 62
     0
  6
CONTINUOUS
 10
2.900040
 20
3.826240
 11
2.913240
 21
3.813040
  0
LINE
  8
0
 62
     0
  6
CONTINUOUS
 10
2.913240
 20
3.813040
 11
2.915440
 21
3.813040
  0
LINE
  8
0
 62
     0
  6
CONTINUOUS
 10
2.915440
 20
3.813040
 11
2.915440
 21
3.818320
  0
LINE
  8
0
 62
     0
  6
CONTINUOUS
 10
2.914560
 20
3.722400
 11
2.921160
 21
3.722400
  0
LINE
  8
0
 62
     0
  6
CONTINUOUS
 10
2.921160
 20
3.722400
 11
2.924240
 21
3.718880
  0
LINE
  8
0
 62
     0
  6
CONTINUOUS
 10
2.924240
 20
3.718880
 11
2.924240
 21
3.715800
  0
LINE
  8
0
 62
     0
  6
CONTINUOUS
 10
2.924240
 20
3.715800
 11
2.921160
 21
3.711400
  0
LINE
  8
0
 62
     0
  6
CONTINUOUS
 10
2.921160
 20
3.711400
 11
2.914560
 21
3.711400
  0
LINE
  8
0
 62
     0
  6
CONTINUOUS
 10
2.914560
 20
3.711400
 11
2.911040
 21
3.707880
  0
LINE
  8
0
 62
     0
  6
CONTINUOUS
 10
2.911040
 20
3.707880
 11
2.911040
 21
3.699080
  0
LINE
  8
0
 62
     0
  6
CONTINUOUS
 10
2.911040
 20
3.699080
 11
2.924240
 21
3.699080
  0
LINE
  8
0
 62
     0
  6
CONTINUOUS
 10
2.936560
 20
3.699080
 11
2.943600
 21
3.707880
  0
LINE
  8
0
 62
     0
  6
CONTINUOUS
 10
2.943600
 20
3.707880
 11
2.943600
 21
3.715800
  0
LINE
  8
0
 62
     0
  6
CONTINUOUS
 10
2.943600
 20
3.715800
 11
2.936560
 21
3.722400
  0
LINE
  8
0
 62
     0
  6
CONTINUOUS
 10
2.914560
 20
3.722400
 11
2.911040
 21
3.718880
  0
LINE
  8
0
 62
     0
  6
CONTINUOUS
 10
2.898720
 20
3.722400
 11
2.892120
 21
3.715800
  0
LINE
  8
0
 62
     0
  6
CONTINUOUS
 10
2.892120
 20
3.715800
 11
2.892120
 21
3.707880
  0
LINE
  8
0
 62
     0
  6
CONTINUOUS
 10
2.892120
 20
3.707880
 11
2.898720
 21
3.699080
  0
LINE
  8
0
 62
     0
  6
CONTINUOUS
 10
2.826120
 20
3.699080
 11
2.826120
 21
3.532760
  0
LINE
  8
0
 62
     0
  6
CONTINUOUS
 10
2.887720
 20
3.540240
 11
2.913240
 21
3.540240
  0
LINE
  8
0
 62
     0
  6
CONTINUOUS
 10
2.913240
 20
3.540240
 11
2.908840
 21
3.540240
  0
LINE
  8
0
 62
     0
  6
CONTINUOUS
 10
2.908840
 20
3.540240
 11
2.900040
 21
3.543760
  0
LINE
  8
0
 62
     0
  6
CONTINUOUS
 10
2.900040
 20
3.543760
 11
2.892120
 21
3.540240
  0
LINE
  8
0
 62
     0
  6
CONTINUOUS
 10
2.900040
 20
3.543760
 11
2.975720
 21
3.625160
  0
LINE
  8
0
 62
     0
  6
CONTINUOUS
 10
2.975720
 20
3.625160
 11
2.967800
 21
3.628680
  0
LINE
  8
0
 62
     0
  6
CONTINUOUS
 10
2.967800
 20
3.628680
 11
2.963400
 21
3.628680
  0
LINE
  8
0
 62
     0
  6
CONTINUOUS
 10
2.963400
 20
3.628680
 11
2.988040
 21
3.628680
  0
LINE
  8
0
 62
     0
  6
CONTINUOUS
 10
2.988040
 20
3.628680
 11
2.984520
 21
3.628680
  0
LINE
  8
0
 62
     0
  6
CONTINUOUS
 10
2.984520
 20
3.628680
 11
2.975720
 21
3.625160
  0
LINE
  8
0
 62
     0
  6
CONTINUOUS
 10
2.942280
 20
3.628680
 11
2.913240
 21
3.628680
  0
LINE
  8
0
 62
     0
  6
CONTINUOUS
 10
2.913240
 20
3.628680
 11
2.915440
 21
3.628680
  0
LINE
  8
0
 62
     0
  6
CONTINUOUS
 10
2.915440
 20
3.628680
 11
2.924240
 21
3.622080
  0
LINE
  8
0
 62
     0
  6
CONTINUOUS
 10
2.924240
 20
3.622080
 11
2.929080
 21
3.622080
  0
LINE
  8
0
 62
     0
  6
CONTINUOUS
 10
2.929080
 20
3.622080
 11
2.934360
 21
3.628680
  0
LINE
  8
0
 62
     0
  6
CONTINUOUS
 10
2.934360
 20
3.628680
 11
2.937880
 21
3.628680
  0
LINE
  8
0
 62
     0
  6
CONTINUOUS
 10
2.937880
 20
3.628680
 11
2.929080
 21
3.625160
  0
LINE
  8
0
 62
     0
  6
CONTINUOUS
 10
2.929080
 20
3.625160
 11
2.929080
 21
3.628680
  0
LINE
  8
0
 62
     0
  6
CONTINUOUS
 10
2.929080
 20
3.628680
 11
2.954600
 21
3.540240
  0
LINE
  8
0
 62
     0
  6
CONTINUOUS
 10
2.954600
 20
3.540240
 11
2.956800
 21
3.540240
  0
LINE
  8
0
 62
     0
  6
CONTINUOUS
 10
2.956800
 20
3.540240
 11
2.951080
 21
3.550360
  0
LINE
  8
0
 62
     0
  6
CONTINUOUS
 10
2.951080
 20
3.550360
 11
2.946680
 21
3.550360
  0
LINE
  8
0
 62
     0
  6
CONTINUOUS
 10
2.946680
 20
3.550360
 11
2.942280
 21
3.540240
  0
LINE
  8
0
 62
     0
  6
CONTINUOUS
 10
2.942280
 20
3.540240
 11
2.946680
 21
3.540240
  0
LINE
  8
0
 62
     0
  6
CONTINUOUS
 10
2.946680
 20
3.540240
 11
2.921160
 21
3.628680
  0
LINE
  8
0
 62
     0
  6
CONTINUOUS
 10
2.921160
 20
3.628680
 11
2.924240
 21
3.628680
  0
LINE
  8
0
 62
     0
  6
CONTINUOUS
 10
2.924240
 20
3.628680
 11
2.951080
 21
3.540240
  0
LINE
  8
0
 62
     0
  6
CONTINUOUS
 10
2.946680
 20
3.543760
 11
2.937880
 21
3.540240
  0
LINE
  8
0
 62
     0
  6
CONTINUOUS
 10
2.937880
 20
3.540240
 11
2.934360
 21
3.540240
  0
LINE
  8
0
 62
     0
  6
CONTINUOUS
 10
2.934360
 20
3.540240
 11
2.963400
 21
3.540240
  0
LINE
  8
0
 62
     0
  6
CONTINUOUS
 10
2.666400
 20
3.538040
 11
2.666400
 21
3.617240
  0
LINE
  8
0
 62
     0
  6
CONTINUOUS
 10
2.666400
 20
3.612840
 11
2.984520
 21
3.932280
  0
LINE
  8
0
 62
     0
  6
CONTINUOUS
 10
2.984520
 20
3.936680
 11
2.984520
 21
3.858800
  0
LINE
  8
0
 62
     0
  6
CONTINUOUS
 10
2.740320
 20
3.861000
 11
2.732400
 21
3.850880
  0
LINE
  8
0
 62
     0
  6
CONTINUOUS
 10
2.732400
 20
3.850880
 11
2.724480
 21
3.847360
  0
LINE
  8
0
 62
     0
  6
CONTINUOUS
 10
2.724480
 20
3.847360
 11
2.706880
 21
3.842960
  0
LINE
  8
0
 62
     0
  6
CONTINUOUS
 10
2.706880
 20
3.842960
 11
2.669920
 21
3.842960
  0
LINE
  8
0
 62
     0
  6
CONTINUOUS
 10
2.669920
 20
3.842960
 11
2.673000
 21
3.842960
  0
LINE
  8
0
 62
     0
  6
CONTINUOUS
 10
2.673000
 20
3.842960
 11
2.685320
 21
3.847360
  0
LINE
  8
0
 62
     0
  6
CONTINUOUS
 10
2.685320
 20
3.847360
 11
2.697640
 21
3.842960
  0
LINE
  8
0
 62
     0
  6
CONTINUOUS
 10
2.697640
 20
3.842960
 11
2.694560
 21
3.842960
  0
LINE
  8
0
 62
     0
  6
CONTINUOUS
 10
2.694560
 20
3.842960
 11
2.691040
 21
3.850880
  0
LINE
  8
0
 62
     0
  6
CONTINUOUS
 10
2.691040
 20
3.850880
 11
2.685320
 21
3.850880
  0
LINE
  8
0
 62
     0
  6
CONTINUOUS
 10
2.685320
 20
3.850880
 11
2.676520
 21
3.842960
  0
LINE
  8
0
 62
     0
  6
CONTINUOUS
 10
2.676520
 20
3.842960
 11
2.680920
 21
3.842960
  0
LINE
  8
0
 62
     0
  6
CONTINUOUS
 10
2.680920
 20
3.842960
 11
2.706880
 21
3.931400
  0
LINE
  8
0
 62
     0
  6
CONTINUOUS
 10
2.706880
 20
3.931400
 11
2.711280
 21
3.931400
  0
LINE
  8
0
 62
     0
  6
CONTINUOUS
 10
2.711280
 20
3.931400
 11
2.685320
 21
3.842960
  0
LINE
  8
0
 62
     0
  6
CONTINUOUS
 10
2.685320
 20
3.842960
 11
2.691040
 21
3.842960
  0
LINE
  8
0
 62
     0
  6
CONTINUOUS
 10
2.691040
 20
3.842960
 11
2.714360
 21
3.931400
  0
LINE
  8
0
 62
     0
  6
CONTINUOUS
 10
2.714360
 20
3.931400
 11
2.720080
 21
3.931400
  0
LINE
  8
0
 62
     0
  6
CONTINUOUS
 10
2.720080
 20
3.931400
 11
2.711280
 21
3.923480
  0
LINE
  8
0
 62
     0
  6
CONTINUOUS
 10
2.711280
 20
3.923480
 11
2.711280
 21
3.927880
  0
LINE
  8
0
 62
     0
  6
CONTINUOUS
 10
2.711280
 20
3.927880
 11
2.724480
 21
3.931400
  0
LINE
  8
0
 62
     0
  6
CONTINUOUS
 10
2.732400
 20
3.931400
 11
2.744720
 21
3.927880
  0
LINE
  8
0
 62
     0
  6
CONTINUOUS
 10
2.744720
 20
3.927880
 11
2.749120
 21
3.923480
  0
LINE
  8
0
 62
     0
  6
CONTINUOUS
 10
2.749120
 20
3.923480
 11
2.753520
 21
3.909840
  0
LINE
  8
0
 62
     0
  6
CONTINUOUS
 10
2.753520
 20
3.909840
 11
2.753520
 21
3.894440
  0
LINE
  8
0
 62
     0
  6
CONTINUOUS
 10
2.753520
 20
3.894440
 11
2.749120
 21
3.876400
  0
LINE
  8
0
 62
     0
  6
CONTINUOUS
 10
2.749120
 20
3.876400
 11
2.740320
 21
3.861000
  0
LINE
  8
0
 62
     0
  6
CONTINUOUS
 10
2.740320
 20
3.861000
 11
2.736800
 21
3.861000
  0
LINE
  8
0
 62
     0
  6
CONTINUOUS
 10
2.736800
 20
3.861000
 11
2.728000
 21
3.850880
  0
LINE
  8
0
 62
     0
  6
CONTINUOUS
 10
2.720080
 20
3.847360
 11
2.706880
 21
3.842960
  0
LINE
  8
0
 62
     0
  6
CONTINUOUS
 10
2.720080
 20
3.847360
 11
2.732400
 21
3.861000
  0
LINE
  8
0
 62
     0
  6
CONTINUOUS
 10
2.732400
 20
3.861000
 11
2.740320
 21
3.876400
  0
LINE
  8
0
 62
     0
  6
CONTINUOUS
 10
2.740320
 20
3.876400
 11
2.744720
 21
3.894440
  0
LINE
  8
0
 62
     0
  6
CONTINUOUS
 10
2.744720
 20
3.894440
 11
2.744720
 21
3.909840
  0
LINE
  8
0
 62
     0
  6
CONTINUOUS
 10
2.744720
 20
3.909840
 11
2.740320
 21
3.923480
  0
LINE
  8
0
 62
     0
  6
CONTINUOUS
 10
2.740320
 20
3.923480
 11
2.732400
 21
3.931400
  0
LINE
  8
0
 62
     0
  6
CONTINUOUS
 10
2.732400
 20
3.931400
 11
2.694560
 21
3.931400
  0
LINE
  8
0
 62
     0
  6
CONTINUOUS
 10
2.694560
 20
3.931400
 11
2.697640
 21
3.931400
  0
LINE
  8
0
 62
     0
  6
CONTINUOUS
 10
2.697640
 20
3.931400
 11
2.711280
 21
3.927880
  0
LINE
  8
0
 62
     0
  6
CONTINUOUS
 10
2.706880
 20
3.923480
 11
2.702040
 21
3.931400
  0
LINE
  8
0
 62
     0
  6
CONTINUOUS
 10
2.744720
 20
3.923480
 11
2.749120
 21
3.909840
  0
LINE
  8
0
 62
     0
  6
CONTINUOUS
 10
2.749120
 20
3.909840
 11
2.749120
 21
3.894440
  0
LINE
  8
0
 62
     0
  6
CONTINUOUS
 10
2.749120
 20
3.894440
 11
2.744720
 21
3.876400
  0
LINE
  8
0
 62
     0
  6
CONTINUOUS
 10
2.744720
 20
3.876400
 11
2.736800
 21
3.861000
  0
LINE
  8
0
 62
     0
  6
CONTINUOUS
 10
2.740320
 20
3.927880
 11
2.744720
 21
3.923480
  0
LINE
  8
0
 62
     0
  6
CONTINUOUS
 10
2.744720
 20
3.760240
 11
2.751320
 21
3.754960
  0
LINE
  8
0
 62
     0
  6
CONTINUOUS
 10
2.751320
 20
3.754960
 11
2.751320
 21
3.747040
  0
LINE
  8
0
 62
     0
  6
CONTINUOUS
 10
2.751320
 20
3.747040
 11
2.744720
 21
3.739120
  0
LINE
  8
0
 62
     0
  6
CONTINUOUS
 10
2.730200
 20
3.739120
 11
2.723600
 21
3.739120
  0
LINE
  8
0
 62
     0
  6
CONTINUOUS
 10
2.723600
 20
3.739120
 11
2.726680
 21
3.739120
  0
LINE
  8
0
 62
     0
  6
CONTINUOUS
 10
2.726680
 20
3.739120
 11
2.726680
 21
3.760240
  0
LINE
  8
0
 62
     0
  6
CONTINUOUS
 10
2.726680
 20
3.760240
 11
2.723600
 21
3.758040
  0
LINE
  8
0
 62
     0
  6
CONTINUOUS
 10
2.707760
 20
3.760240
 11
2.701160
 21
3.754960
  0
LINE
  8
0
 62
     0
  6
CONTINUOUS
 10
2.701160
 20
3.754960
 11
2.701160
 21
3.747040
  0
LINE
  8
0
 62
     0
  6
CONTINUOUS
 10
2.701160
 20
3.747040
 11
2.707760
 21
3.739120
  0
LINE
  8
0
 62
     0
  6
CONTINUOUS
 10
2.711280
 20
3.636600
 11
2.725800
 21
3.622080
  0
LINE
  8
0
 62
     0
  6
CONTINUOUS
 10
2.725800
 20
3.641880
 11
2.736800
 21
3.634400
  0
LINE
  8
0
 62
     0
  6
CONTINUOUS
 10
2.736800
 20
3.634400
 11
2.731080
 21
3.646280
  0
LINE
  8
0
 62
     0
  6
CONTINUOUS
 10
2.731080
 20
3.646280
 11
2.742520
 21
3.638800
  0
LINE
  8
0
 62
     0
  6
CONTINUOUS
 10
2.742520
 20
3.638800
 11
2.734600
 21
3.652000
  0
LINE
  8
0
 62
     0
  6
CONTINUOUS
 10
2.742520
 20
3.654200
 11
2.742520
 21
3.658600
  0
LINE
  8
0
 62
     0
  6
CONTINUOUS
 10
2.742520
 20
3.658600
 11
2.746920
 21
3.663440
  0
LINE
  8
0
 62
     0
  6
CONTINUOUS
 10
2.746920
 20
3.663440
 11
2.751320
 21
3.663440
  0
LINE
  8
0
 62
     0
  6
CONTINUOUS
 10
2.751320
 20
3.663440
 11
2.757920
 21
3.658600
  0
LINE
  8
0
 62
     0
  6
CONTINUOUS
 10
2.757920
 20
3.658600
 11
2.757920
 21
3.654200
  0
LINE
  8
0
 62
     0
  6
CONTINUOUS
 10
2.757920
 20
3.654200
 11
2.751320
 21
3.649800
  0
LINE
  8
0
 62
     0
  6
CONTINUOUS
 10
2.751320
 20
3.649800
 11
2.746920
 21
3.649800
  0
LINE
  8
0
 62
     0
  6
CONTINUOUS
 10
2.746920
 20
3.649800
 11
2.742520
 21
3.654200
  0
LINE
  8
0
 62
     0
  6
CONTINUOUS
 10
2.715680
 20
3.641880
 11
2.705560
 21
3.631760
  0
LINE
  8
0
 62
     0
  6
CONTINUOUS
 10
2.767160
 20
3.687640
 11
2.767160
 21
3.692480
  0
LINE
  8
0
 62
     0
  6
CONTINUOUS
 10
2.767160
 20
3.692480
 11
2.770240
 21
3.697760
  0
LINE
  8
0
 62
     0
  6
CONTINUOUS
 10
2.770240
 20
3.697760
 11
2.775960
 21
3.697760
  0
LINE
  8
0
 62
     0
  6
CONTINUOUS
 10
2.783880
 20
3.699080
 11
2.792680
 21
3.710080
  0
LINE
  8
0
 62
     0
  6
CONTINUOUS
 10
2.783880
 20
3.710080
 11
2.796200
 21
3.697760
  0
LINE
  8
0
 62
     0
  6
CONTINUOUS
 10
2.796200
 20
3.697760
 11
2.800600
 21
3.697760
  0
LINE
  8
0
 62
     0
  6
CONTINUOUS
 10
2.800600
 20
3.697760
 11
2.800600
 21
3.701280
  0
LINE
  8
0
 62
     0
  6
CONTINUOUS
 10
2.786960
 20
3.687640
 11
2.767160
 21
3.687640
  0
LINE
  8
0
 62
     0
  6
CONTINUOUS
 10
2.775960
 20
3.677960
 11
2.780360
 21
3.677960
  0
LINE
  8
0
 62
     0
  6
CONTINUOUS
 10
2.780360
 20
3.677960
 11
2.786960
 21
3.682360
  0
LINE
  8
0
 62
     0
  6
CONTINUOUS
 10
2.786960
 20
3.682360
 11
2.786960
 21
3.687640
  0
LINE
  8
0
 62
     0
  6
CONTINUOUS
 10
2.447720
 20
3.687640
 11
2.385240
 21
3.715800
  0
LINE
  8
0
 62
     0
  6
CONTINUOUS
 10
2.385240
 20
3.724600
 11
2.447720
 21
3.751440
  0
LINE
  8
0
 62
     0
  6
CONTINUOUS
 10
2.447720
 20
3.743520
 11
2.385240
 21
3.771680
  0
LINE
  8
0
 62
     0
  6
CONTINUOUS
 10
2.385240
 20
3.771680
 11
2.447720
 21
3.798520
  0
LINE
  8
0
 62
     0
  6
CONTINUOUS
 10
2.447720
 20
3.784000
 11
2.385240
 21
3.810840
  0
LINE
  8
0
 62
     0
  6
CONTINUOUS
 10
2.385240
 20
3.817440
 11
2.447720
 21
3.844280
  0
LINE
  8
0
 62
     0
  6
CONTINUOUS
 10
2.447720
 20
3.837240
 11
2.385240
 21
3.864080
  0
LINE
  8
0
 62
     0
  6
CONTINUOUS
 10
2.385240
 20
3.855280
 11
2.447720
 21
3.880800
  0
LINE
  8
0
 62
     0
  6
CONTINUOUS
 10
2.447720
 20
3.886520
 11
2.385240
 21
3.913360
  0
LINE
  8
0
 62
     0
  6
CONTINUOUS
 10
2.385240
 20
3.906760
 11
2.447720
 21
3.933600
  0
LINE
  8
0
 62
     0
  6
CONTINUOUS
 10
2.447720
 20
3.950320
 11
2.447720
 21
3.527920
  0
LINE
  8
0
 62
     0
  6
CONTINUOUS
 10
2.447720
 20
3.537160
 11
2.385240
 21
3.564000
  0
LINE
  8
0
 62
     0
  6
CONTINUOUS
 10
2.385240
 20
3.556080
 11
2.447720
 21
3.583800
  0
LINE
  8
0
 62
     0
  6
CONTINUOUS
 10
2.447720
 20
3.589520
 11
2.385240
 21
3.616360
  0
LINE
  8
0
 62
     0
  6
CONTINUOUS
 10
2.385240
 20
3.626480
 11
2.447720
 21
3.653320
  0
LINE
  8
0
 62
     0
  6
CONTINUOUS
 10
2.447720
 20
3.653320
 11
2.447720
 21
3.655520
  0
LINE
  8
0
 62
     0
  6
CONTINUOUS
 10
2.447720
 20
3.655520
 11
2.385240
 21
3.682360
  0
LINE
  8
0
 62
     0
  6
CONTINUOUS
 10
2.385240
 20
3.682360
 11
2.447720
 21
3.710080
  0
LINE
  8
0
 62
     0
  6
CONTINUOUS
 10
2.447720
 20
3.718000
 11
2.385240
 21
3.745720
  0
LINE
  8
0
 62
     0
  6
CONTINUOUS
 10
2.385240
 20
3.754960
 11
2.447720
 21
3.781800
  0
LINE
  8
0
 62
     0
  6
CONTINUOUS
 10
2.447720
 20
3.760240
 11
2.385240
 21
3.787080
  0
LINE
  8
0
 62
     0
  6
CONTINUOUS
 10
2.385240
 20
3.787080
 11
2.447720
 21
3.815240
  0
LINE
  8
0
 62
     0
  6
CONTINUOUS
 10
2.447720
 20
3.815240
 11
2.447720
 21
3.816120
  0
LINE
  8
0
 62
     0
  6
CONTINUOUS
 10
2.447720
 20
3.816120
 11
2.385240
 21
3.842960
  0
LINE
  8
0
 62
     0
  6
CONTINUOUS
 10
2.385240
 20
3.831960
 11
2.447720
 21
3.858800
  0
LINE
  8
0
 62
     0
  6
CONTINUOUS
 10
2.447720
 20
3.858800
 11
2.447720
 21
3.861000
  0
LINE
  8
0
 62
     0
  6
CONTINUOUS
 10
2.447720
 20
3.861000
 11
2.385240
 21
3.886520
  0
LINE
  8
0
 62
     0
  6
CONTINUOUS
 10
2.385240
 20
3.879920
 11
2.447720
 21
3.906760
  0
LINE
  8
0
 62
     0
  6
CONTINUOUS
 10
2.447720
 20
3.906760
 11
2.447720
 21
3.908960
  0
LINE
  8
0
 62
     0
  6
CONTINUOUS
 10
2.447720
 20
3.908960
 11
2.385240
 21
3.936680
  0
LINE
  8
0
 62
     0
  6
CONTINUOUS
 10
2.385240
 20
3.950320
 11
2.385240
 21
3.527920
  0
LINE
  8
0
 62
     0
  6
CONTINUOUS
 10
2.385240
 20
3.533640
 11
2.447720
 21
3.560480
  0
LINE
  8
0
 62
     0
  6
CONTINUOUS
 10
2.447720
 20
3.560480
 11
2.447720
 21
3.562680
  0
LINE
  8
0
 62
     0
  6
CONTINUOUS
 10
2.447720
 20
3.562680
 11
2.385240
 21
3.589520
  0
LINE
  8
0
 62
     0
  6
CONTINUOUS
 10
2.385240
 20
3.596120
 11
2.447720
 21
3.569280
  0
LINE
  8
0
 62
     0
  6
CONTINUOUS
 10
2.447720
 20
3.609760
 11
2.385240
 21
3.583800
  0
LINE
  8
0
 62
     0
  6
CONTINUOUS
 10
2.385240
 20
3.605360
 11
2.447720
 21
3.633080
  0
LINE
  8
0
 62
     0
  6
CONTINUOUS
 10
2.447720
 20
3.625160
 11
2.385240
 21
3.652000
  0
LINE
  8
0
 62
     0
  6
CONTINUOUS
 10
2.385240
 20
3.659920
 11
2.447720
 21
3.685440
  0
LINE
  8
0
 62
     0
  6
CONTINUOUS
 10
2.447720
 20
3.670920
 11
2.385240
 21
3.699080
  0
LINE
  8
0
 62
     0
  6
CONTINUOUS
 10
2.385240
 20
3.699080
 11
2.385240
 21
3.697760
  0
LINE
  8
0
 62
     0
  6
CONTINUOUS
 10
2.385240
 20
3.697760
 11
2.447720
 21
3.725920
  0
LINE
  8
0
 62
     0
  6
CONTINUOUS
 10
2.447720
 20
3.612840
 11
2.385240
 21
3.638800
  0
LINE
  8
0
 62
     0
  6
CONTINUOUS
 10
2.301200
 20
3.527920
 11
4.818880
 21
3.527920
  0
LINE
  8
0
 62
     0
  6
CONTINUOUS
 10
4.818880
 20
3.527920
 11
4.818000
 21
3.527920
  0
LINE
  8
0
 62
     0
  6
CONTINUOUS
 10
4.818000
 20
3.527920
 11
5.036680
 21
3.731200
  0
LINE
  8
0
 62
     0
  6
CONTINUOUS
 10
5.036680
 20
3.731200
 11
4.818880
 21
3.950320
  0
LINE
  8
0
 62
     0
  6
CONTINUOUS
 10
2.447720
 20
3.901040
 11
2.385240
 21
3.874200
  0
LINE
  8
0
 62
     0
  6
CONTINUOUS
 10
2.284480
 20
3.450040
 11
2.207920
 21
3.288120
  0
LINE
  8
0
 62
     0
  6
CONTINUOUS
 10
2.134440
 20
3.288120
 11
2.211440
 21
3.450040
  0
LINE
  8
0
 62
     0
  6
CONTINUOUS
 10
2.242240
 20
3.385360
 11
2.250160
 21
3.376120
  0
LINE
  8
0
 62
     0
  6
CONTINUOUS
 10
2.250160
 20
3.376120
 11
2.245320
 21
3.387560
  0
LINE
  8
0
 62
     0
  6
CONTINUOUS
 10
2.245320
 20
3.387560
 11
2.250160
 21
3.376120
  0
LINE
  8
0
 62
     0
  6
CONTINUOUS
 10
2.250160
 20
3.376120
 11
2.250160
 21
3.388440
  0
LINE
  8
0
 62
     0
  6
CONTINUOUS
 10
2.250160
 20
3.388440
 11
2.250160
 21
3.376120
  0
LINE
  8
0
 62
     0
  6
CONTINUOUS
 10
2.250160
 20
3.376120
 11
2.254560
 21
3.387560
  0
LINE
  8
0
 62
     0
  6
CONTINUOUS
 10
2.254560
 20
3.387560
 11
2.250160
 21
3.376120
  0
LINE
  8
0
 62
     0
  6
CONTINUOUS
 10
2.250160
 20
3.376120
 11
2.259840
 21
3.385360
  0
LINE
  8
0
 62
     0
  6
CONTINUOUS
 10
2.259840
 20
3.385360
 11
2.250160
 21
3.376120
  0
LINE
  8
0
 62
     0
  6
CONTINUOUS
 10
2.250160
 20
3.376120
 11
2.262480
 21
3.380520
  0
LINE
  8
0
 62
     0
  6
CONTINUOUS
 10
2.262480
 20
3.380520
 11
2.250160
 21
3.376120
  0
LINE
  8
0
 62
     0
  6
CONTINUOUS
 10
2.250160
 20
3.376120
 11
2.263360
 21
3.376120
  0
LINE
  8
0
 62
     0
  6
CONTINUOUS
 10
2.263360
 20
3.376120
 11
2.250160
 21
3.376120
  0
LINE
  8
0
 62
     0
  6
CONTINUOUS
 10
2.250160
 20
3.376120
 11
2.262480
 21
3.371720
  0
LINE
  8
0
 62
     0
  6
CONTINUOUS
 10
2.262480
 20
3.371720
 11
2.250160
 21
3.376120
  0
LINE
  8
0
 62
     0
  6
CONTINUOUS
 10
2.250160
 20
3.376120
 11
2.259840
 21
3.367320
  0
LINE
  8
0
 62
     0
  6
CONTINUOUS
 10
2.259840
 20
3.367320
 11
2.250160
 21
3.376120
  0
LINE
  8
0
 62
     0
  6
CONTINUOUS
 10
2.250160
 20
3.376120
 11
2.254560
 21
3.363800
  0
LINE
  8
0
 62
     0
  6
CONTINUOUS
 10
2.254560
 20
3.363800
 11
2.250160
 21
3.376120
  0
LINE
  8
0
 62
     0
  6
CONTINUOUS
 10
2.250160
 20
3.376120
 11
2.250160
 21
3.363800
  0
LINE
  8
0
 62
     0
  6
CONTINUOUS
 10
2.250160
 20
3.363800
 11
2.250160
 21
3.376120
  0
LINE
  8
0
 62
     0
  6
CONTINUOUS
 10
2.250160
 20
3.376120
 11
2.245320
 21
3.363800
  0
LINE
  8
0
 62
     0
  6
CONTINUOUS
 10
2.245320
 20
3.363800
 11
2.250160
 21
3.376120
  0
LINE
  8
0
 62
     0
  6
CONTINUOUS
 10
2.250160
 20
3.376120
 11
2.242240
 21
3.367320
  0
LINE
  8
0
 62
     0
  6
CONTINUOUS
 10
2.242240
 20
3.367320
 11
2.250160
 21
3.376120
  0
LINE
  8
0
 62
     0
  6
CONTINUOUS
 10
2.250160
 20
3.376120
 11
2.238720
 21
3.371720
  0
LINE
  8
0
 62
     0
  6
CONTINUOUS
 10
2.238720
 20
3.371720
 11
2.250160
 21
3.376120
  0
LINE
  8
0
 62
     0
  6
CONTINUOUS
 10
2.250160
 20
3.376120
 11
2.238720
 21
3.376120
  0
LINE
  8
0
 62
     0
  6
CONTINUOUS
 10
2.238720
 20
3.376120
 11
2.250160
 21
3.376120
  0
LINE
  8
0
 62
     0
  6
CONTINUOUS
 10
2.250160
 20
3.376120
 11
2.238720
 21
3.380520
  0
LINE
  8
0
 62
     0
  6
CONTINUOUS
 10
2.238720
 20
3.380520
 11
2.250160
 21
3.376120
  0
LINE
  8
0
 62
     0
  6
CONTINUOUS
 10
2.250160
 20
3.376120
 11
2.242240
 21
3.385360
  0
LINE
  8
0
 62
     0
  6
CONTINUOUS
 10
2.242240
 20
3.385360
 11
2.238720
 21
3.380520
  0
LINE
  8
0
 62
     0
  6
CONTINUOUS
 10
2.238720
 20
3.380520
 11
2.238720
 21
3.376120
  0
LINE
  8
0
 62
     0
  6
CONTINUOUS
 10
2.238720
 20
3.376120
 11
2.238720
 21
3.371720
  0
LINE
  8
0
 62
     0
  6
CONTINUOUS
 10
2.238720
 20
3.371720
 11
2.242240
 21
3.367320
  0
LINE
  8
0
 62
     0
  6
CONTINUOUS
 10
2.242240
 20
3.367320
 11
2.245320
 21
3.363800
  0
LINE
  8
0
 62
     0
  6
CONTINUOUS
 10
2.245320
 20
3.363800
 11
2.250160
 21
3.363800
  0
LINE
  8
0
 62
     0
  6
CONTINUOUS
 10
2.250160
 20
3.363800
 11
2.250160
 21
3.376120
  0
LINE
  8
0
 62
     0
  6
CONTINUOUS
 10
2.250160
 20
3.376120
 11
2.250160
 21
3.388440
  0
LINE
  8
0
 62
     0
  6
CONTINUOUS
 10
2.250160
 20
3.388440
 11
2.245320
 21
3.387560
  0
LINE
  8
0
 62
     0
  6
CONTINUOUS
 10
2.245320
 20
3.387560
 11
2.242240
 21
3.385360
  0
LINE
  8
0
 62
     0
  6
CONTINUOUS
 10
2.238720
 20
3.381840
 11
2.245320
 21
3.381840
  0
LINE
  8
0
 62
     0
  6
CONTINUOUS
 10
2.248840
 20
3.377440
 11
2.238720
 21
3.377440
  0
LINE
  8
0
 62
     0
  6
CONTINUOUS
 10
2.253240
 20
3.377440
 11
2.263360
 21
3.377440
  0
LINE
  8
0
 62
     0
  6
CONTINUOUS
 10
2.263360
 20
3.377440
 11
2.263360
 21
3.376120
  0
LINE
  8
0
 62
     0
  6
CONTINUOUS
 10
2.263360
 20
3.376120
 11
2.262480
 21
3.380520
  0
LINE
  8
0
 62
     0
  6
CONTINUOUS
 10
2.262480
 20
3.380520
 11
2.259840
 21
3.385360
  0
LINE
  8
0
 62
     0
  6
CONTINUOUS
 10
2.259840
 20
3.385360
 11
2.254560
 21
3.387560
  0
LINE
  8
0
 62
     0
  6
CONTINUOUS
 10
2.254560
 20
3.387560
 11
2.250160
 21
3.388440
  0
LINE
  8
0
 62
     0
  6
CONTINUOUS
 10
2.256760
 20
3.387560
 11
2.256760
 21
3.381840
  0
LINE
  8
0
 62
     0
  6
CONTINUOUS
 10
2.256760
 20
3.381840
 11
2.254560
 21
3.381840
  0
LINE
  8
0
 62
     0
  6
CONTINUOUS
 10
2.254560
 20
3.381840
 11
2.261160
 21
3.381840
  0
LINE
  8
0
 62
     0
  6
CONTINUOUS
 10
2.263360
 20
3.376120
 11
2.262480
 21
3.371720
  0
LINE
  8
0
 62
     0
  6
CONTINUOUS
 10
2.262480
 20
3.371720
 11
2.259840
 21
3.367320
  0
LINE
  8
0
 62
     0
  6
CONTINUOUS
 10
2.259840
 20
3.367320
 11
2.254560
 21
3.363800
  0
LINE
  8
0
 62
     0
  6
CONTINUOUS
 10
2.254560
 20
3.363800
 11
2.250160
 21
3.363800
  0
LINE
  8
0
 62
     0
  6
CONTINUOUS
 10
2.256760
 20
3.363800
 11
2.256760
 21
3.370840
  0
LINE
  8
0
 62
     0
  6
CONTINUOUS
 10
2.189000
 20
3.371720
 11
2.178880
 21
3.376120
  0
LINE
  8
0
 62
     0
  6
CONTINUOUS
 10
2.178880
 20
3.376120
 11
2.186800
 21
3.367320
  0
LINE
  8
0
 62
     0
  6
CONTINUOUS
 10
2.186800
 20
3.367320
 11
2.178880
 21
3.376120
  0
LINE
  8
0
 62
     0
  6
CONTINUOUS
 10
2.178880
 20
3.376120
 11
2.183280
 21
3.363800
  0
LINE
  8
0
 62
     0
  6
CONTINUOUS
 10
2.183280
 20
3.363800
 11
2.178880
 21
3.376120
  0
LINE
  8
0
 62
     0
  6
CONTINUOUS
 10
2.178880
 20
3.376120
 11
2.178880
 21
3.363800
  0
LINE
  8
0
 62
     0
  6
CONTINUOUS
 10
2.178880
 20
3.363800
 11
2.178880
 21
3.376120
  0
LINE
  8
0
 62
     0
  6
CONTINUOUS
 10
2.178880
 20
3.376120
 11
2.173600
 21
3.363800
  0
LINE
  8
0
 62
     0
  6
CONTINUOUS
 10
2.173600
 20
3.363800
 11
2.178880
 21
3.376120
  0
LINE
  8
0
 62
     0
  6
CONTINUOUS
 10
2.178880
 20
3.376120
 11
2.170080
 21
3.367320
  0
LINE
  8
0
 62
     0
  6
CONTINUOUS
 10
2.170080
 20
3.367320
 11
2.178880
 21
3.376120
  0
LINE
  8
0
 62
     0
  6
CONTINUOUS
 10
2.178880
 20
3.376120
 11
2.165680
 21
3.371720
  0
LINE
  8
0
 62
     0
  6
CONTINUOUS
 10
2.165680
 20
3.371720
 11
2.178880
 21
3.376120
  0
LINE
  8
0
 62
     0
  6
CONTINUOUS
 10
2.178880
 20
3.376120
 11
2.165680
 21
3.376120
  0
LINE
  8
0
 62
     0
  6
CONTINUOUS
 10
2.165680
 20
3.376120
 11
2.178880
 21
3.376120
  0
LINE
  8
0
 62
     0
  6
CONTINUOUS
 10
2.178880
 20
3.376120
 11
2.165680
 21
3.380520
  0
LINE
  8
0
 62
     0
  6
CONTINUOUS
 10
2.165680
 20
3.380520
 11
2.178880
 21
3.376120
  0
LINE
  8
0
 62
     0
  6
CONTINUOUS
 10
2.178880
 20
3.376120
 11
2.170080
 21
3.385360
  0
LINE
  8
0
 62
     0
  6
CONTINUOUS
 10
2.170080
 20
3.385360
 11
2.178880
 21
3.376120
  0
LINE
  8
0
 62
     0
  6
CONTINUOUS
 10
2.178880
 20
3.376120
 11
2.173600
 21
3.387560
  0
LINE
  8
0
 62
     0
  6
CONTINUOUS
 10
2.173600
 20
3.387560
 11
2.178880
 21
3.376120
  0
LINE
  8
0
 62
     0
  6
CONTINUOUS
 10
2.178880
 20
3.376120
 11
2.178880
 21
3.388440
  0
LINE
  8
0
 62
     0
  6
CONTINUOUS
 10
2.178880
 20
3.388440
 11
2.178880
 21
3.376120
  0
LINE
  8
0
 62
     0
  6
CONTINUOUS
 10
2.178880
 20
3.376120
 11
2.183280
 21
3.387560
  0
LINE
  8
0
 62
     0
  6
CONTINUOUS
 10
2.183280
 20
3.387560
 11
2.178880
 21
3.376120
  0
LINE
  8
0
 62
     0
  6
CONTINUOUS
 10
2.178880
 20
3.376120
 11
2.186800
 21
3.385360
  0
LINE
  8
0
 62
     0
  6
CONTINUOUS
 10
2.186800
 20
3.385360
 11
2.178880
 21
3.376120
  0
LINE
  8
0
 62
     0
  6
CONTINUOUS
 10
2.178880
 20
3.376120
 11
2.189000
 21
3.380520
  0
LINE
  8
0
 62
     0
  6
CONTINUOUS
 10
2.189000
 20
3.380520
 11
2.178880
 21
3.376120
  0
LINE
  8
0
 62
     0
  6
CONTINUOUS
 10
2.178880
 20
3.376120
 11
2.190320
 21
3.376120
  0
LINE
  8
0
 62
     0
  6
CONTINUOUS
 10
2.190320
 20
3.376120
 11
2.178880
 21
3.376120
  0
LINE
  8
0
 62
     0
  6
CONTINUOUS
 10
2.178880
 20
3.376120
 11
2.189000
 21
3.371720
  0
LINE
  8
0
 62
     0
  6
CONTINUOUS
 10
2.189000
 20
3.371720
 11
2.190320
 21
3.376120
  0
LINE
  8
0
 62
     0
  6
CONTINUOUS
 10
2.190320
 20
3.376120
 11
2.189000
 21
3.380520
  0
LINE
  8
0
 62
     0
  6
CONTINUOUS
 10
2.189000
 20
3.380520
 11
2.186800
 21
3.385360
  0
LINE
  8
0
 62
     0
  6
CONTINUOUS
 10
2.186800
 20
3.385360
 11
2.183280
 21
3.387560
  0
LINE
  8
0
 62
     0
  6
CONTINUOUS
 10
2.183280
 20
3.387560
 11
2.178880
 21
3.388440
  0
LINE
  8
0
 62
     0
  6
CONTINUOUS
 10
2.178880
 20
3.388440
 11
2.173600
 21
3.387560
  0
LINE
  8
0
 62
     0
  6
CONTINUOUS
 10
2.173600
 20
3.387560
 11
2.170080
 21
3.385360
  0
LINE
  8
0
 62
     0
  6
CONTINUOUS
 10
2.170080
 20
3.385360
 11
2.165680
 21
3.380520
  0
LINE
  8
0
 62
     0
  6
CONTINUOUS
 10
2.165680
 20
3.380520
 11
2.165680
 21
3.376120
  0
LINE
  8
0
 62
     0
  6
CONTINUOUS
 10
2.165680
 20
3.376120
 11
2.165680
 21
3.371720
  0
LINE
  8
0
 62
     0
  6
CONTINUOUS
 10
2.165680
 20
3.371720
 11
2.170080
 21
3.367320
  0
LINE
  8
0
 62
     0
  6
CONTINUOUS
 10
2.170080
 20
3.367320
 11
2.173600
 21
3.363800
  0
LINE
  8
0
 62
     0
  6
CONTINUOUS
 10
2.173600
 20
3.363800
 11
2.178880
 21
3.363800
  0
LINE
  8
0
 62
     0
  6
CONTINUOUS
 10
2.178880
 20
3.363800
 11
2.183280
 21
3.363800
  0
LINE
  8
0
 62
     0
  6
CONTINUOUS
 10
2.183280
 20
3.363800
 11
2.186800
 21
3.367320
  0
LINE
  8
0
 62
     0
  6
CONTINUOUS
 10
2.186800
 20
3.367320
 11
2.189000
 21
3.371720
  0
LINE
  8
0
 62
     0
  6
CONTINUOUS
 10
2.190320
 20
3.377440
 11
2.180200
 21
3.377440
  0
LINE
  8
0
 62
     0
  6
CONTINUOUS
 10
2.180200
 20
3.377440
 11
2.180200
 21
3.379640
  0
LINE
  8
0
 62
     0
  6
CONTINUOUS
 10
2.180200
 20
3.379640
 11
2.180200
 21
3.388440
  0
LINE
  8
0
 62
     0
  6
CONTINUOUS
 10
2.183280
 20
3.381840
 11
2.189000
 21
3.381840
  0
LINE
  8
0
 62
     0
  6
CONTINUOUS
 10
2.173600
 20
3.381840
 11
2.167880
 21
3.381840
  0
LINE
  8
0
 62
     0
  6
CONTINUOUS
 10
2.165680
 20
3.377440
 11
2.175800
 21
3.377440
  0
LINE
  8
0
 62
     0
  6
CONTINUOUS
 10
2.180200
 20
3.373040
 11
2.180200
 21
3.363800
  0
LINE
  8
0
 62
     0
  6
CONTINUOUS
 10
2.103200
 20
3.367320
 11
2.093960
 21
3.376120
  0
LINE
  8
0
 62
     0
  6
CONTINUOUS
 10
2.093960
 20
3.376120
 11
2.098360
 21
3.363800
  0
LINE
  8
0
 62
     0
  6
CONTINUOUS
 10
2.098360
 20
3.363800
 11
2.093960
 21
3.376120
  0
LINE
  8
0
 62
     0
  6
CONTINUOUS
 10
2.093960
 20
3.376120
 11
2.093960
 21
3.363800
  0
LINE
  8
0
 62
     0
  6
CONTINUOUS
 10
2.093960
 20
3.363800
 11
2.093960
 21
3.376120
  0
LINE
  8
0
 62
     0
  6
CONTINUOUS
 10
2.093960
 20
3.376120
 11
2.089560
 21
3.363800
  0
LINE
  8
0
 62
     0
  6
CONTINUOUS
 10
2.089560
 20
3.363800
 11
2.093960
 21
3.376120
  0
LINE
  8
0
 62
     0
  6
CONTINUOUS
 10
2.093960
 20
3.376120
 11
2.085160
 21
3.367320
  0
LINE
  8
0
 62
     0
  6
CONTINUOUS
 10
2.085160
 20
3.367320
 11
2.093960
 21
3.376120
  0
LINE
  8
0
 62
     0
  6
CONTINUOUS
 10
2.093960
 20
3.376120
 11
2.083840
 21
3.371720
  0
LINE
  8
0
 62
     0
  6
CONTINUOUS
 10
2.083840
 20
3.371720
 11
2.093960
 21
3.376120
  0
LINE
  8
0
 62
     0
  6
CONTINUOUS
 10
2.093960
 20
3.376120
 11
2.081640
 21
3.376120
  0
LINE
  8
0
 62
     0
  6
CONTINUOUS
 10
2.081640
 20
3.376120
 11
2.093960
 21
3.376120
  0
LINE
  8
0
 62
     0
  6
CONTINUOUS
 10
2.093960
 20
3.376120
 11
2.083840
 21
3.380520
  0
LINE
  8
0
 62
     0
  6
CONTINUOUS
 10
2.083840
 20
3.380520
 11
2.093960
 21
3.376120
  0
LINE
  8
0
 62
     0
  6
CONTINUOUS
 10
2.093960
 20
3.376120
 11
2.085160
 21
3.385360
  0
LINE
  8
0
 62
     0
  6
CONTINUOUS
 10
2.085160
 20
3.385360
 11
2.093960
 21
3.376120
  0
LINE
  8
0
 62
     0
  6
CONTINUOUS
 10
2.093960
 20
3.376120
 11
2.089560
 21
3.387560
  0
LINE
  8
0
 62
     0
  6
CONTINUOUS
 10
2.089560
 20
3.387560
 11
2.093960
 21
3.376120
  0
LINE
  8
0
 62
     0
  6
CONTINUOUS
 10
2.093960
 20
3.376120
 11
2.093960
 21
3.388440
  0
LINE
  8
0
 62
     0
  6
CONTINUOUS
 10
2.093960
 20
3.388440
 11
2.093960
 21
3.376120
  0
LINE
  8
0
 62
     0
  6
CONTINUOUS
 10
2.093960
 20
3.376120
 11
2.098360
 21
3.387560
  0
LINE
  8
0
 62
     0
  6
CONTINUOUS
 10
2.098360
 20
3.387560
 11
2.093960
 21
3.376120
  0
LINE
  8
0
 62
     0
  6
CONTINUOUS
 10
2.093960
 20
3.376120
 11
2.103200
 21
3.385360
  0
LINE
  8
0
 62
     0
  6
CONTINUOUS
 10
2.103200
 20
3.385360
 11
2.093960
 21
3.376120
  0
LINE
  8
0
 62
     0
  6
CONTINUOUS
 10
2.093960
 20
3.376120
 11
2.107600
 21
3.380520
  0
LINE
  8
0
 62
     0
  6
CONTINUOUS
 10
2.107600
 20
3.380520
 11
2.093960
 21
3.376120
  0
LINE
  8
0
 62
     0
  6
CONTINUOUS
 10
2.093960
 20
3.376120
 11
2.107600
 21
3.376120
  0
LINE
  8
0
 62
     0
  6
CONTINUOUS
 10
2.107600
 20
3.376120
 11
2.093960
 21
3.376120
  0
LINE
  8
0
 62
     0
  6
CONTINUOUS
 10
2.093960
 20
3.376120
 11
2.107600
 21
3.371720
  0
LINE
  8
0
 62
     0
  6
CONTINUOUS
 10
2.107600
 20
3.371720
 11
2.093960
 21
3.376120
  0
LINE
  8
0
 62
     0
  6
CONTINUOUS
 10
2.093960
 20
3.376120
 11
2.103200
 21
3.367320
  0
LINE
  8
0
 62
     0
  6
CONTINUOUS
 10
2.103200
 20
3.367320
 11
2.107600
 21
3.371720
  0
LINE
  8
0
 62
     0
  6
CONTINUOUS
 10
2.107600
 20
3.371720
 11
2.107600
 21
3.376120
  0
LINE
  8
0
 62
     0
  6
CONTINUOUS
 10
2.107600
 20
3.376120
 11
2.107600
 21
3.380520
  0
LINE
  8
0
 62
     0
  6
CONTINUOUS
 10
2.107600
 20
3.380520
 11
2.103200
 21
3.385360
  0
LINE
  8
0
 62
     0
  6
CONTINUOUS
 10
2.103200
 20
3.385360
 11
2.098360
 21
3.387560
  0
LINE
  8
0
 62
     0
  6
CONTINUOUS
 10
2.098360
 20
3.387560
 11
2.093960
 21
3.388440
  0
LINE
  8
0
 62
     0
  6
CONTINUOUS
 10
2.093960
 20
3.388440
 11
2.093960
 21
3.376120
  0
LINE
  8
0
 62
     0
  6
CONTINUOUS
 10
2.093960
 20
3.376120
 11
2.093960
 21
3.363800
  0
LINE
  8
0
 62
     0
  6
CONTINUOUS
 10
2.093960
 20
3.363800
 11
2.093960
 21
3.376120
  0
LINE
  8
0
 62
     0
  6
CONTINUOUS
 10
2.093960
 20
3.376120
 11
2.093960
 21
3.388440
  0
LINE
  8
0
 62
     0
  6
CONTINUOUS
 10
2.093960
 20
3.388440
 11
2.089560
 21
3.387560
  0
LINE
  8
0
 62
     0
  6
CONTINUOUS
 10
2.089560
 20
3.387560
 11
2.085160
 21
3.385360
  0
LINE
  8
0
 62
     0
  6
CONTINUOUS
 10
2.085160
 20
3.385360
 11
2.083840
 21
3.380520
  0
LINE
  8
0
 62
     0
  6
CONTINUOUS
 10
2.083840
 20
3.380520
 11
2.081640
 21
3.376120
  0
LINE
  8
0
 62
     0
  6
CONTINUOUS
 10
2.081640
 20
3.376120
 11
2.083840
 21
3.371720
  0
LINE
  8
0
 62
     0
  6
CONTINUOUS
 10
2.083840
 20
3.371720
 11
2.085160
 21
3.367320
  0
LINE
  8
0
 62
     0
  6
CONTINUOUS
 10
2.085160
 20
3.367320
 11
2.089560
 21
3.363800
  0
LINE
  8
0
 62
     0
  6
CONTINUOUS
 10
2.089560
 20
3.363800
 11
2.093960
 21
3.363800
  0
LINE
  8
0
 62
     0
  6
CONTINUOUS
 10
2.093960
 20
3.363800
 11
2.098360
 21
3.363800
  0
LINE
  8
0
 62
     0
  6
CONTINUOUS
 10
2.098360
 20
3.363800
 11
2.103200
 21
3.367320
  0
LINE
  8
0
 62
     0
  6
CONTINUOUS
 10
2.107600
 20
3.377440
 11
2.096160
 21
3.377440
  0
LINE
  8
0
 62
     0
  6
CONTINUOUS
 10
2.096160
 20
3.377440
 11
2.091760
 21
3.377440
  0
LINE
  8
0
 62
     0
  6
CONTINUOUS
 10
2.091760
 20
3.377440
 11
2.081640
 21
3.377440
  0
LINE
  8
0
 62
     0
  6
CONTINUOUS
 10
2.083840
 20
3.381840
 11
2.089560
 21
3.381840
  0
LINE
  8
0
 62
     0
  6
CONTINUOUS
 10
2.099680
 20
3.381840
 11
2.106280
 21
3.381840
  0
LINE
  8
0
 62
     0
  6
CONTINUOUS
 10
2.026200
 20
3.380520
 11
2.014760
 21
3.376120
  0
LINE
  8
0
 62
     0
  6
CONTINUOUS
 10
2.014760
 20
3.376120
 11
2.027080
 21
3.376120
  0
LINE
  8
0
 62
     0
  6
CONTINUOUS
 10
2.027080
 20
3.376120
 11
2.014760
 21
3.376120
  0
LINE
  8
0
 62
     0
  6
CONTINUOUS
 10
2.014760
 20
3.376120
 11
2.026200
 21
3.371720
  0
LINE
  8
0
 62
     0
  6
CONTINUOUS
 10
2.026200
 20
3.371720
 11
2.014760
 21
3.376120
  0
LINE
  8
0
 62
     0
  6
CONTINUOUS
 10
2.014760
 20
3.376120
 11
2.023560
 21
3.367320
  0
LINE
  8
0
 62
     0
  6
CONTINUOUS
 10
2.023560
 20
3.367320
 11
2.014760
 21
3.376120
  0
LINE
  8
0
 62
     0
  6
CONTINUOUS
 10
2.014760
 20
3.376120
 11
2.019160
 21
3.363800
  0
LINE
  8
0
 62
     0
  6
CONTINUOUS
 10
2.019160
 20
3.363800
 11
2.014760
 21
3.376120
  0
LINE
  8
0
 62
     0
  6
CONTINUOUS
 10
2.014760
 20
3.376120
 11
2.014760
 21
3.363800
  0
LINE
  8
0
 62
     0
  6
CONTINUOUS
 10
2.014760
 20
3.363800
 11
2.014760
 21
3.376120
  0
LINE
  8
0
 62
     0
  6
CONTINUOUS
 10
2.014760
 20
3.376120
 11
2.009040
 21
3.363800
  0
LINE
  8
0
 62
     0
  6
CONTINUOUS
 10
2.009040
 20
3.363800
 11
2.014760
 21
3.376120
  0
LINE
  8
0
 62
     0
  6
CONTINUOUS
 10
2.014760
 20
3.376120
 11
2.004640
 21
3.367320
  0
LINE
  8
0
 62
     0
  6
CONTINUOUS
 10
2.004640
 20
3.367320
 11
2.014760
 21
3.376120
  0
LINE
  8
0
 62
     0
  6
CONTINUOUS
 10
2.014760
 20
3.376120
 11
2.002440
 21
3.371720
  0
LINE
  8
0
 62
     0
  6
CONTINUOUS
 10
2.002440
 20
3.371720
 11
2.014760
 21
3.376120
  0
LINE
  8
0
 62
     0
  6
CONTINUOUS
 10
2.014760
 20
3.376120
 11
2.001560
 21
3.376120
  0
LINE
  8
0
 62
     0
  6
CONTINUOUS
 10
2.001560
 20
3.376120
 11
2.014760
 21
3.376120
  0
LINE
  8
0
 62
     0
  6
CONTINUOUS
 10
2.014760
 20
3.376120
 11
2.002440
 21
3.380520
  0
LINE
  8
0
 62
     0
  6
CONTINUOUS
 10
2.002440
 20
3.380520
 11
2.014760
 21
3.376120
  0
LINE
  8
0
 62
     0
  6
CONTINUOUS
 10
2.014760
 20
3.376120
 11
2.004640
 21
3.385360
  0
LINE
  8
0
 62
     0
  6
CONTINUOUS
 10
2.004640
 20
3.385360
 11
2.014760
 21
3.376120
  0
LINE
  8
0
 62
     0
  6
CONTINUOUS
 10
2.014760
 20
3.376120
 11
2.009040
 21
3.387560
  0
LINE
  8
0
 62
     0
  6
CONTINUOUS
 10
2.009040
 20
3.387560
 11
2.014760
 21
3.376120
  0
LINE
  8
0
 62
     0
  6
CONTINUOUS
 10
2.014760
 20
3.376120
 11
2.014760
 21
3.388440
  0
LINE
  8
0
 62
     0
  6
CONTINUOUS
 10
2.014760
 20
3.388440
 11
2.014760
 21
3.376120
  0
LINE
  8
0
 62
     0
  6
CONTINUOUS
 10
2.014760
 20
3.376120
 11
2.019160
 21
3.387560
  0
LINE
  8
0
 62
     0
  6
CONTINUOUS
 10
2.019160
 20
3.387560
 11
2.014760
 21
3.376120
  0
LINE
  8
0
 62
     0
  6
CONTINUOUS
 10
2.014760
 20
3.376120
 11
2.023560
 21
3.385360
  0
LINE
  8
0
 62
     0
  6
CONTINUOUS
 10
2.023560
 20
3.385360
 11
2.014760
 21
3.376120
  0
LINE
  8
0
 62
     0
  6
CONTINUOUS
 10
2.014760
 20
3.376120
 11
2.026200
 21
3.380520
  0
LINE
  8
0
 62
     0
  6
CONTINUOUS
 10
2.026200
 20
3.380520
 11
2.023560
 21
3.385360
  0
LINE
  8
0
 62
     0
  6
CONTINUOUS
 10
2.023560
 20
3.385360
 11
2.019160
 21
3.387560
  0
LINE
  8
0
 62
     0
  6
CONTINUOUS
 10
2.019160
 20
3.387560
 11
2.014760
 21
3.388440
  0
LINE
  8
0
 62
     0
  6
CONTINUOUS
 10
2.014760
 20
3.388440
 11
2.014760
 21
3.376120
  0
LINE
  8
0
 62
     0
  6
CONTINUOUS
 10
2.014760
 20
3.376120
 11
2.014760
 21
3.363800
  0
LINE
  8
0
 62
     0
  6
CONTINUOUS
 10
2.014760
 20
3.363800
 11
2.019160
 21
3.363800
  0
LINE
  8
0
 62
     0
  6
CONTINUOUS
 10
2.019160
 20
3.363800
 11
2.023560
 21
3.367320
  0
LINE
  8
0
 62
     0
  6
CONTINUOUS
 10
2.023560
 20
3.367320
 11
2.026200
 21
3.371720
  0
LINE
  8
0
 62
     0
  6
CONTINUOUS
 10
2.026200
 20
3.371720
 11
2.027080
 21
3.376120
  0
LINE
  8
0
 62
     0
  6
CONTINUOUS
 10
2.027080
 20
3.376120
 11
2.026200
 21
3.380520
  0
LINE
  8
0
 62
     0
  6
CONTINUOUS
 10
2.026200
 20
3.380520
 11
2.024880
 21
3.381840
  0
LINE
  8
0
 62
     0
  6
CONTINUOUS
 10
2.024880
 20
3.381840
 11
2.019160
 21
3.381840
  0
LINE
  8
0
 62
     0
  6
CONTINUOUS
 10
2.016960
 20
3.377440
 11
2.027080
 21
3.377440
  0
LINE
  8
0
 62
     0
  6
CONTINUOUS
 10
2.012560
 20
3.377440
 11
2.001560
 21
3.377440
  0
LINE
  8
0
 62
     0
  6
CONTINUOUS
 10
2.001560
 20
3.377440
 11
2.001560
 21
3.376120
  0
LINE
  8
0
 62
     0
  6
CONTINUOUS
 10
2.001560
 20
3.376120
 11
2.002440
 21
3.371720
  0
LINE
  8
0
 62
     0
  6
CONTINUOUS
 10
2.002440
 20
3.371720
 11
2.004640
 21
3.367320
  0
LINE
  8
0
 62
     0
  6
CONTINUOUS
 10
2.004640
 20
3.367320
 11
2.009040
 21
3.363800
  0
LINE
  8
0
 62
     0
  6
CONTINUOUS
 10
2.009040
 20
3.363800
 11
2.014760
 21
3.363800
  0
LINE
  8
0
 62
     0
  6
CONTINUOUS
 10
2.008160
 20
3.363800
 11
2.008160
 21
3.370840
  0
LINE
  8
0
 62
     0
  6
CONTINUOUS
 10
2.008160
 20
3.381840
 11
2.008160
 21
3.387560
  0
LINE
  8
0
 62
     0
  6
CONTINUOUS
 10
2.008160
 20
3.387560
 11
2.009040
 21
3.387560
  0
LINE
  8
0
 62
     0
  6
CONTINUOUS
 10
2.009040
 20
3.387560
 11
2.004640
 21
3.385360
  0
LINE
  8
0
 62
     0
  6
CONTINUOUS
 10
2.004640
 20
3.385360
 11
2.002440
 21
3.380520
  0
LINE
  8
0
 62
     0
  6
CONTINUOUS
 10
2.002440
 20
3.380520
 11
2.001560
 21
3.376120
  0
LINE
  8
0
 62
     0
  6
CONTINUOUS
 10
2.002440
 20
3.381840
 11
2.008160
 21
3.381840
  0
LINE
  8
0
 62
     0
  6
CONTINUOUS
 10
2.009040
 20
3.387560
 11
2.014760
 21
3.388440
  0
LINE
  8
0
 62
     0
  6
CONTINUOUS
 10
1.954480
 20
3.385360
 11
1.946560
 21
3.376120
  0
LINE
  8
0
 62
     0
  6
CONTINUOUS
 10
1.946560
 20
3.376120
 11
1.958000
 21
3.380520
  0
LINE
  8
0
 62
     0
  6
CONTINUOUS
 10
1.958000
 20
3.380520
 11
1.946560
 21
3.376120
  0
LINE
  8
0
 62
     0
  6
CONTINUOUS
 10
1.946560
 20
3.376120
 11
1.958000
 21
3.376120
  0
LINE
  8
0
 62
     0
  6
CONTINUOUS
 10
1.958000
 20
3.376120
 11
1.946560
 21
3.376120
  0
LINE
  8
0
 62
     0
  6
CONTINUOUS
 10
1.946560
 20
3.376120
 11
1.958000
 21
3.371720
  0
LINE
  8
0
 62
     0
  6
CONTINUOUS
 10
1.958000
 20
3.371720
 11
1.946560
 21
3.376120
  0
LINE
  8
0
 62
     0
  6
CONTINUOUS
 10
1.946560
 20
3.376120
 11
1.954480
 21
3.367320
  0
LINE
  8
0
 62
     0
  6
CONTINUOUS
 10
1.954480
 20
3.367320
 11
1.946560
 21
3.376120
  0
LINE
  8
0
 62
     0
  6
CONTINUOUS
 10
1.946560
 20
3.376120
 11
1.950960
 21
3.363800
  0
LINE
  8
0
 62
     0
  6
CONTINUOUS
 10
1.950960
 20
3.363800
 11
1.946560
 21
3.376120
  0
LINE
  8
0
 62
     0
  6
CONTINUOUS
 10
1.946560
 20
3.376120
 11
1.946560
 21
3.363800
  0
LINE
  8
0
 62
     0
  6
CONTINUOUS
 10
1.946560
 20
3.363800
 11
1.946560
 21
3.376120
  0
LINE
  8
0
 62
     0
  6
CONTINUOUS
 10
1.946560
 20
3.376120
 11
1.939960
 21
3.363800
  0
LINE
  8
0
 62
     0
  6
CONTINUOUS
 10
1.939960
 20
3.363800
 11
1.946560
 21
3.376120
  0
LINE
  8
0
 62
     0
  6
CONTINUOUS
 10
1.946560
 20
3.376120
 11
1.935560
 21
3.367320
  0
LINE
  8
0
 62
     0
  6
CONTINUOUS
 10
1.935560
 20
3.367320
 11
1.946560
 21
3.376120
  0
LINE
  8
0
 62
     0
  6
CONTINUOUS
 10
1.946560
 20
3.376120
 11
1.933360
 21
3.371720
  0
LINE
  8
0
 62
     0
  6
CONTINUOUS
 10
1.933360
 20
3.371720
 11
1.946560
 21
3.376120
  0
LINE
  8
0
 62
     0
  6
CONTINUOUS
 10
1.946560
 20
3.376120
 11
1.932040
 21
3.376120
  0
LINE
  8
0
 62
     0
  6
CONTINUOUS
 10
1.932040
 20
3.376120
 11
1.946560
 21
3.376120
  0
LINE
  8
0
 62
     0
  6
CONTINUOUS
 10
1.946560
 20
3.376120
 11
1.933360
 21
3.380520
  0
LINE
  8
0
 62
     0
  6
CONTINUOUS
 10
1.933360
 20
3.380520
 11
1.946560
 21
3.376120
  0
LINE
  8
0
 62
     0
  6
CONTINUOUS
 10
1.946560
 20
3.376120
 11
1.935560
 21
3.385360
  0
LINE
  8
0
 62
     0
  6
CONTINUOUS
 10
1.935560
 20
3.385360
 11
1.946560
 21
3.376120
  0
LINE
  8
0
 62
     0
  6
CONTINUOUS
 10
1.946560
 20
3.376120
 11
1.939960
 21
3.387560
  0
LINE
  8
0
 62
     0
  6
CONTINUOUS
 10
1.939960
 20
3.387560
 11
1.946560
 21
3.376120
  0
LINE
  8
0
 62
     0
  6
CONTINUOUS
 10
1.946560
 20
3.376120
 11
1.946560
 21
3.388440
  0
LINE
  8
0
 62
     0
  6
CONTINUOUS
 10
1.946560
 20
3.388440
 11
1.946560
 21
3.376120
  0
LINE
  8
0
 62
     0
  6
CONTINUOUS
 10
1.946560
 20
3.376120
 11
1.950960
 21
3.387560
  0
LINE
  8
0
 62
     0
  6
CONTINUOUS
 10
1.950960
 20
3.387560
 11
1.950960
 21
3.380520
  0
LINE
  8
0
 62
     0
  6
CONTINUOUS
 10
1.950960
 20
3.380520
 11
1.950960
 21
3.381840
  0
LINE
  8
0
 62
     0
  6
CONTINUOUS
 10
1.950960
 20
3.381840
 11
1.956680
 21
3.381840
  0
LINE
  8
0
 62
     0
  6
CONTINUOUS
 10
1.956680
 20
3.381840
 11
1.958000
 21
3.380520
  0
LINE
  8
0
 62
     0
  6
CONTINUOUS
 10
1.958000
 20
3.380520
 11
1.954480
 21
3.385360
  0
LINE
  8
0
 62
     0
  6
CONTINUOUS
 10
1.954480
 20
3.385360
 11
1.950960
 21
3.387560
  0
LINE
  8
0
 62
     0
  6
CONTINUOUS
 10
1.950960
 20
3.387560
 11
1.946560
 21
3.376120
  0
LINE
  8
0
 62
     0
  6
CONTINUOUS
 10
1.946560
 20
3.376120
 11
1.954480
 21
3.385360
  0
LINE
  8
0
 62
     0
  6
CONTINUOUS
 10
1.950960
 20
3.387560
 11
1.946560
 21
3.388440
  0
LINE
  8
0
 62
     0
  6
CONTINUOUS
 10
1.946560
 20
3.388440
 11
1.946560
 21
3.376120
  0
LINE
  8
0
 62
     0
  6
CONTINUOUS
 10
1.946560
 20
3.376120
 11
1.946560
 21
3.363800
  0
LINE
  8
0
 62
     0
  6
CONTINUOUS
 10
1.946560
 20
3.363800
 11
1.950960
 21
3.363800
  0
LINE
  8
0
 62
     0
  6
CONTINUOUS
 10
1.950960
 20
3.363800
 11
1.954480
 21
3.367320
  0
LINE
  8
0
 62
     0
  6
CONTINUOUS
 10
1.954480
 20
3.367320
 11
1.958000
 21
3.371720
  0
LINE
  8
0
 62
     0
  6
CONTINUOUS
 10
1.958000
 20
3.371720
 11
1.958000
 21
3.376120
  0
LINE
  8
0
 62
     0
  6
CONTINUOUS
 10
1.958000
 20
3.376120
 11
1.958000
 21
3.380520
  0
LINE
  8
0
 62
     0
  6
CONTINUOUS
 10
1.958000
 20
3.377440
 11
1.947880
 21
3.377440
  0
LINE
  8
0
 62
     0
  6
CONTINUOUS
 10
1.947880
 20
3.377440
 11
1.946560
 21
3.377440
  0
LINE
  8
0
 62
     0
  6
CONTINUOUS
 10
1.946560
 20
3.377440
 11
1.946560
 21
3.388440
  0
LINE
  8
0
 62
     0
  6
CONTINUOUS
 10
1.946560
 20
3.388440
 11
1.939960
 21
3.387560
  0
LINE
  8
0
 62
     0
  6
CONTINUOUS
 10
1.939960
 20
3.387560
 11
1.935560
 21
3.385360
  0
LINE
  8
0
 62
     0
  6
CONTINUOUS
 10
1.935560
 20
3.385360
 11
1.933360
 21
3.380520
  0
LINE
  8
0
 62
     0
  6
CONTINUOUS
 10
1.933360
 20
3.380520
 11
1.932040
 21
3.376120
  0
LINE
  8
0
 62
     0
  6
CONTINUOUS
 10
1.932040
 20
3.376120
 11
1.933360
 21
3.371720
  0
LINE
  8
0
 62
     0
  6
CONTINUOUS
 10
1.933360
 20
3.371720
 11
1.935560
 21
3.367320
  0
LINE
  8
0
 62
     0
  6
CONTINUOUS
 10
1.935560
 20
3.367320
 11
1.939960
 21
3.363800
  0
LINE
  8
0
 62
     0
  6
CONTINUOUS
 10
1.939960
 20
3.363800
 11
1.946560
 21
3.363800
  0
LINE
  8
0
 62
     0
  6
CONTINUOUS
 10
1.946560
 20
3.363800
 11
1.946560
 21
3.375240
  0
LINE
  8
0
 62
     0
  6
CONTINUOUS
 10
1.946560
 20
3.375240
 11
1.942160
 21
3.377440
  0
LINE
  8
0
 62
     0
  6
CONTINUOUS
 10
1.942160
 20
3.377440
 11
1.932040
 21
3.377440
  0
LINE
  8
0
 62
     0
  6
CONTINUOUS
 10
1.934240
 20
3.381840
 11
1.939960
 21
3.381840
  0
LINE
  8
0
 62
     0
  6
CONTINUOUS
 10
1.950960
 20
3.371720
 11
1.950960
 21
3.363800
  0
LINE
  8
0
 62
     0
  6
CONTINUOUS
 10
1.970320
 20
3.288120
 11
2.048200
 21
3.450040
  0
LINE
  8
0
 62
     0
  6
CONTINUOUS
 10
1.980000
 20
3.450040
 11
1.902120
 21
3.288120
  0
LINE
  8
0
 62
     0
  6
CONTINUOUS
 10
2.051720
 20
3.288120
 11
2.128720
 21
3.450040
  0
LINE
  8
0
 62
     0
  6
CONTINUOUS
 10
1.879680
 20
3.527920
 11
1.879680
 21
2.908400
  0
LINE
  8
0
 62
     0
  6
CONTINUOUS
 10
1.879680
 20
2.908400
 11
2.097480
 21
3.126200
  0
LINE
  8
0
 62
     0
  6
CONTINUOUS
 10
2.097480
 20
3.126200
 11
2.301200
 21
2.908400
  0
LINE
  8
0
 62
     0
  6
CONTINUOUS
 10
2.301200
 20
2.908400
 11
2.301200
 21
3.527920
  0
LINE
  8
0
 62
     0
  6
CONTINUOUS
 10
1.240800
 20
3.731200
 11
1.022120
 21
3.527920
  0
LINE
  8
0
 62
     0
  6
CONTINUOUS
 10
1.022120
 20
3.527920
 11
1.879680
 21
3.527920
  0
LINE
  8
0
 62
     0
  6
CONTINUOUS
 10
1.894200
 20
3.376120
 11
1.997160
 21
3.376120
  0
LINE
  8
0
 62
     0
  6
CONTINUOUS
 10
2.051720
 20
3.376120
 11
2.155560
 21
3.376120
  0
LINE
  8
0
 62
     0
  6
CONTINUOUS
 10
2.207920
 20
3.376120
 11
2.322760
 21
3.376120
  0
LINE
  8
0
 62
     0
  6
CONTINUOUS
 10
1.240800
 20
3.731200
 11
1.022120
 21
3.950320
  0
LINE
  8
0
 62
     0
  6
CONTINUOUS
 10
1.022120
 20
3.950320
 11
4.818880
 21
3.950320
  0
LINE
  8
0
 62
     0
  6
CONTINUOUS
 10
2.352680
 20
3.234440
 11
2.352680
 21
3.198800
  0
LINE
  8
0
 62
     0
  6
CONTINUOUS
 10
2.352680
 20
3.217720
 11
2.376000
 21
3.217720
  0
LINE
  8
0
 62
     0
  6
CONTINUOUS
 10
2.376000
 20
3.234440
 11
2.376000
 21
3.198800
  0
LINE
  8
0
 62
     0
  6
CONTINUOUS
 10
2.398440
 20
3.230920
 11
2.460040
 21
3.230920
  0
LINE
  8
0
 62
     0
  6
CONTINUOUS
 10
2.460040
 20
3.214200
 11
2.484680
 21
3.214200
  0
LINE
  8
0
 62
     0
  6
CONTINUOUS
 10
2.484680
 20
3.194400
 11
2.484680
 21
3.296920
  0
LINE
  8
0
 62
     0
  6
CONTINUOUS
 10
2.484680
 20
3.296920
 11
2.548040
 21
3.296920
  0
LINE
  8
0
 62
     0
  6
CONTINUOUS
 10
2.548040
 20
3.296920
 11
2.548040
 21
3.194400
  0
LINE
  8
0
 62
     0
  6
CONTINUOUS
 10
2.548040
 20
3.194400
 11
2.484680
 21
3.194400
  0
LINE
  8
0
 62
     0
  6
CONTINUOUS
 10
2.460040
 20
3.214200
 11
2.460040
 21
3.276680
  0
LINE
  8
0
 62
     0
  6
CONTINUOUS
 10
2.460040
 20
3.276680
 11
2.484680
 21
3.276680
  0
LINE
  8
0
 62
     0
  6
CONTINUOUS
 10
2.460040
 20
3.259960
 11
2.398440
 21
3.259960
  0
LINE
  8
0
 62
     0
  6
CONTINUOUS
 10
2.376000
 20
3.256880
 11
2.352680
 21
3.292520
  0
LINE
  8
0
 62
     0
  6
CONTINUOUS
 10
2.352680
 20
3.292520
 11
2.352680
 21
3.256880
  0
LINE
  8
0
 62
     0
  6
CONTINUOUS
 10
2.376000
 20
3.256880
 11
2.376000
 21
3.292520
  0
LINE
  8
0
 62
     0
  6
CONTINUOUS
 10
2.548040
 20
3.276680
 11
2.571800
 21
3.276680
  0
LINE
  8
0
 62
     0
  6
CONTINUOUS
 10
2.571800
 20
3.276680
 11
2.571800
 21
3.214200
  0
LINE
  8
0
 62
     0
  6
CONTINUOUS
 10
2.571800
 20
3.214200
 11
2.548040
 21
3.214200
  0
LINE
  8
0
 62
     0
  6
CONTINUOUS
 10
2.571800
 20
3.230920
 11
2.664200
 21
3.230920
  0
LINE
  8
0
 62
     0
  6
CONTINUOUS
 10
2.664200
 20
3.230920
 11
2.664200
 21
2.850320
  0
LINE
  8
0
 62
     0
  6
CONTINUOUS
 10
2.868800
 20
2.850320
 11
2.868800
 21
3.527920
  0
LINE
  8
0
 62
     0
  6
CONTINUOUS
 10
2.698960
 20
3.527920
 11
2.698960
 21
3.373920
  0
LINE
  8
0
 62
     0
  6
CONTINUOUS
 10
2.698960
 20
3.373920
 11
2.698960
 21
3.259960
  0
LINE
  8
0
 62
     0
  6
CONTINUOUS
 10
2.742520
 20
3.259960
 11
2.571800
 21
3.259960
  0
LINE
  8
0
 62
     0
  6
CONTINUOUS
 10
2.908840
 20
3.256880
 11
3.363360
 21
3.256880
  0
LINE
  8
0
 62
     0
  6
CONTINUOUS
 10
3.305280
 20
3.256880
 11
3.305280
 21
3.406480
  0
LINE
  8
0
 62
     0
  6
CONTINUOUS
 10
3.305280
 20
3.406480
 11
3.499320
 21
3.406480
  0
LINE
  8
0
 62
     0
  6
CONTINUOUS
 10
3.885640
 20
3.256880
 11
4.147000
 21
3.256880
  0
LINE
  8
0
 62
     0
  6
CONTINUOUS
 10
4.147000
 20
3.256880
 11
4.147000
 21
3.527920
  0
TEXT
  8
0
 62
     0
 10
2.631640
 20
2.797080
 40
0.045578
  1
R
 41
1.000000
  7
SN0
 71
     0
 72
     5
 11
2.656280
 21
2.797080
  0
TEXT
  8
0
 62
     0
 10
2.713920
 20
2.797080
 40
0.045578
  1
Y1
 41
1.000000
  7
SN0
 71
     0
 72
     5
 11
2.754400
 21
2.797080
  0
TEXT
  8
0
 62
     0
 10
2.863520
 20
2.797080
 40
0.045578
  1
Y2
 41
1.000000
  7
SN0
 71
     0
 72
     5
 11
2.911920
 21
2.797080
  0
TEXT
  8
0
 62
     0
 10
3.401640
 20
2.797080
 40
0.045578
  1
G
 41
1.000000
  7
SN0
 71
     0
 72
     5
 11
3.424080
 21
2.797080
  0
TEXT
  8
0
 62
     0
 10
4.171640
 20
2.797080
 40
0.045578
  1
W1
 41
1.000000
  7
SN0
 71
     0
 72
     5
 11
4.224000
 21
2.797080
  0
TEXT
  8
0
 62
     0
 10
4.336200
 20
2.797080
 40
0.045578
  1
W2
 41
1.000000
  7
SN0
 71
     0
 72
     5
 11
4.396040
 21
2.797080
  0
POLYLINE
  8
0
 62
     0
  6
CONTINUOUS
 66
     1
 40
0.014520
 41
0.014520
  0
VERTEX
  8
0
 62
     0
  6
CONTINUOUS
 10
2.626360
 20
2.854720
  0
VERTEX
  8
0
 62
     0
  6
CONTINUOUS
 10
2.693240
 20
2.854720
  0
VERTEX
  8
0
 62
     0
  6
CONTINUOUS
 10
2.693240
 20
2.747360
  0
VERTEX
  8
0
 62
     0
  6
CONTINUOUS
 10
2.626360
 20
2.747360
  0
VERTEX
  8
0
 62
     0
  6
CONTINUOUS
 10
2.626360
 20
2.854720
  0
SEQEND
  8
0
  0
POLYLINE
  8
0
 62
     0
  6
CONTINUOUS
 66
     1
 40
0.014520
 41
0.014520
  0
VERTEX
  8
0
 62
     0
  6
CONTINUOUS
 10
2.716560
 20
2.854720
  0
VERTEX
  8
0
 62
     0
  6
CONTINUOUS
 10
2.815120
 20
2.854720
  0
VERTEX
  8
0
 62
     0
  6
CONTINUOUS
 10
2.815120
 20
2.747360
  0
VERTEX
  8
0
 62
     0
  6
CONTINUOUS
 10
2.716560
 20
2.747360
  0
VERTEX
  8
0
 62
     0
  6
CONTINUOUS
 10
2.716560
 20
2.854720
  0
SEQEND
  8
0
  0
POLYLINE
  8
0
 62
     0
  6
CONTINUOUS
 66
     1
 40
0.014520
 41
0.014520
  0
VERTEX
  8
0
 62
     0
  6
CONTINUOUS
 10
2.861760
 20
2.854720
  0
VERTEX
  8
0
 62
     0
  6
CONTINUOUS
 10
2.959000
 20
2.854720
  0
VERTEX
  8
0
 62
     0
  6
CONTINUOUS
 10
2.959000
 20
2.747360
  0
VERTEX
  8
0
 62
     0
  6
CONTINUOUS
 10
2.861760
 20
2.747360
  0
VERTEX
  8
0
 62
     0
  6
CONTINUOUS
 10
2.861760
 20
2.854720
  0
SEQEND
  8
0
  0
POLYLINE
  8
0
 62
     0
  6
CONTINUOUS
 66
     1
 40
0.014520
 41
0.014520
  0
VERTEX
  8
0
 62
     0
  6
CONTINUOUS
 10
3.391080
 20
2.854720
  0
VERTEX
  8
0
 62
     0
  6
CONTINUOUS
 10
3.468080
 20
2.854720
  0
VERTEX
  8
0
 62
     0
  6
CONTINUOUS
 10
3.468080
 20
2.747360
  0
VERTEX
  8
0
 62
     0
  6
CONTINUOUS
 10
3.391080
 20
2.747360
  0
VERTEX
  8
0
 62
     0
  6
CONTINUOUS
 10
3.391080
 20
2.854720
  0
SEQEND
  8
0
  0
POLYLINE
  8
0
 62
     0
  6
CONTINUOUS
 66
     1
 40
0.014520
 41
0.014520
  0
VERTEX
  8
0
 62
     0
  6
CONTINUOUS
 10
4.170760
 20
2.854720
  0
VERTEX
  8
0
 62
     0
  6
CONTINUOUS
 10
4.296600
 20
2.854720
  0
VERTEX
  8
0
 62
     0
  6
CONTINUOUS
 10
4.296600
 20
2.747360
  0
VERTEX
  8
0
 62
     0
  6
CONTINUOUS
 10
4.170760
 20
2.747360
  0
VERTEX
  8
0
 62
     0
  6
CONTINUOUS
 10
4.170760
 20
2.854720
  0
SEQEND
  8
0
  0
POLYLINE
  8
0
 62
     0
  6
CONTINUOUS
 66
     1
 40
0.014520
 41
0.014520
  0
VERTEX
  8
0
 62
     0
  6
CONTINUOUS
 10
4.330480
 20
2.854720
  0
VERTEX
  8
0
 62
     0
  6
CONTINUOUS
 10
4.455440
 20
2.854720
  0
VERTEX
  8
0
 62
     0
  6
CONTINUOUS
 10
4.455440
 20
2.747360
  0
VERTEX
  8
0
 62
     0
  6
CONTINUOUS
 10
4.330480
 20
2.747360
  0
VERTEX
  8
0
 62
     0
  6
CONTINUOUS
 10
4.330480
 20
2.854720
  0
SEQEND
  8
0
  0
POLYLINE
  8
0
 62
     0
  6
CONTINUOUS
 66
     1
 40
0.000000
 41
0.000000
  0
VERTEX
  8
0
 62
     0
  6
CONTINUOUS
 10
1.570360
 20
3.523520
  0
VERTEX
  8
0
 62
     0
  6
CONTINUOUS
 10
1.570360
 20
3.380520
  0
VERTEX
  8
0
 62
     0
  6
CONTINUOUS
 10
1.877480
 20
3.380520
  0
SEQEND
  8
0
  0
SOLID
  8
0
 62
     0
 10
1.511400
 20
3.456640
 11
1.750320
 21
3.456640
 12
1.511400
 22
3.261280
 13
1.750320
 23
3.261280
  0
POLYLINE
  8
0
 62
     0
  6
CONTINUOUS
 66
     1
 40
0.000000
 41
0.000000
  0
VERTEX
  8
0
 62
     0
  6
CONTINUOUS
 10
1.511400
 20
3.456640
  0
VERTEX
  8
0
 62
     0
  6
CONTINUOUS
 10
1.750320
 20
3.456640
  0
VERTEX
  8
0
 62
     0
  6
CONTINUOUS
 10
1.750320
 20
3.261280
  0
VERTEX
  8
0
 62
     0
  6
CONTINUOUS
 10
1.511400
 20
3.261280
  0
VERTEX
  8
0
 62
     0
  6
CONTINUOUS
 10
1.511400
 20
3.456640
  0
SEQEND
  8
0
  0
POLYLINE
  8
0
 62
     0
  6
CONTINUOUS
 66
     1
 40
0.000000
 41
0.000000
  0
VERTEX
  8
0
 62
     0
  6
CONTINUOUS
 10
1.511400
 20
3.456640
  0
VERTEX
  8
0
 62
     0
  6
CONTINUOUS
 10
1.750320
 20
3.456640
  0
VERTEX
  8
0
 62
     0
  6
CONTINUOUS
 10
1.750320
 20
3.261280
  0
VERTEX
  8
0
 62
     0
  6
CONTINUOUS
 10
1.511400
 20
3.261280
  0
VERTEX
  8
0
 62
     0
  6
CONTINUOUS
 10
1.511400
 20
3.456640
  0
SEQEND
  8
0
  0
TEXT
  8
0
 62
     0
 10
1.518440
 20
3.402960
 40
0.037108
  1
   OA
 41
1.000000
  7
SN0
 71
     0
 72
     5
 11
1.585320
 21
3.402960
  0
TEXT
  8
0
 62
     0
 10
1.518440
 20
3.326840
 40
0.037108
  1
Damper
 41
1.000000
  7
SN0
 71
     0
 72
     5
 11
1.635920
 21
3.326840
  0
LINE
  8
0
 62
     0
  6
CONTINUOUS
 10
1.562440
 20
3.261280
 11
1.562440
 21
2.856040
  0
LINE
  8
0
 62
     0
  6
CONTINUOUS
 10
1.690040
 20
3.261280
 11
1.690040
 21
2.863520
  0
TEXT
  8
0
 62
     0
 10
1.504800
 20
2.797080
 40
0.045578
  1
A1
 41
1.000000
  7
SN0
 71
     0
 72
     5
 11
1.545280
 21
2.797080
  0
TEXT
  8
0
 62
     0
 10
1.652640
 20
2.797080
 40
0.045578
  1
A2
 41
1.000000
  7
SN0
 71
     0
 72
     5
 11
1.701040
 21
2.797080
  0
POLYLINE
  8
0
 62
     0
  6
CONTINUOUS
 66
     1
 40
0.014520
 41
0.014520
  0
VERTEX
  8
0
 62
     0
  6
CONTINUOUS
 10
1.501280
 20
2.854720
  0
VERTEX
  8
0
 62
     0
  6
CONTINUOUS
 10
1.603800
 20
2.854720
  0
VERTEX
  8
0
 62
     0
  6
CONTINUOUS
 10
1.603800
 20
2.747360
  0
VERTEX
  8
0
 62
     0
  6
CONTINUOUS
 10
1.501280
 20
2.747360
  0
VERTEX
  8
0
 62
     0
  6
CONTINUOUS
 10
1.501280
 20
2.854720
  0
SEQEND
  8
0
  0
POLYLINE
  8
0
 62
     0
  6
CONTINUOUS
 66
     1
 40
0.014520
 41
0.014520
  0
VERTEX
  8
0
 62
     0
  6
CONTINUOUS
 10
1.651760
 20
2.854720
  0
VERTEX
  8
0
 62
     0
  6
CONTINUOUS
 10
1.756920
 20
2.854720
  0
VERTEX
  8
0
 62
     0
  6
CONTINUOUS
 10
1.756920
 20
2.747360
  0
VERTEX
  8
0
 62
     0
  6
CONTINUOUS
 10
1.651760
 20
2.747360
  0
VERTEX
  8
0
 62
     0
  6
CONTINUOUS
 10
1.651760
 20
2.854720
  0
SEQEND
  8
0
  0
ENDSEC
  0
EOF
