  0
SECTION
  2
HEADER
  9
$EXTMIN
 10
0.490160
 20
4.444440
  9
$EXTMAX
 10
7.985560
 20
6.752240
  9
$LTSCALE
 40
0.044000
  9
$PDMODE
 70
    35
  9
$PDSIZE
 40
0.035200
  0
ENDSEC
  0
SECTION
  2
TABLES
  0
TABLE
  2
LTYPE
 70
     9
  0
LTYPE
  2
CONTINUOUS
 70
    64
  3
Solid line
 72
    65
 73
     0
 40
0.000000
  0
LTYPE
  2
DASHED
 70
    64
  3
__ __ __ __ __ __ __ __ __ __ __ __ __ __ __
 72
    65
 73
     2
 40
0.000330
 49
0.000220
 49
-0.000110
  0
LTYPE
  2
HIDDEN
 70
    64
  3
 _ _ _ _ _ _ _ _ _ _ _ _ _ _ _ _ _ _ _ _ _ _
 72
    65
 73
     2
 40
0.000165
 49
0.000110
 49
-0.000055
  0
LTYPE
  2
CENTER
 70
    64
  3
____ _ ____ _ ____ _ ____ _ ____ _ ____ _ ____
 72
    65
 73
     4
 40
0.000880
 49
0.000550
 49
-0.000110
 49
0.000110
 49
-0.000110
  0
LTYPE
  2
PHANTOM
 70
    64
  3
_____ _ _ _____ _ _ _____ _ _ _____ _ _ ____
 72
    65
 73
     6
 40
0.001100
 49
0.000550
 49
-0.000110
 49
0.000110
 49
-0.000110
 49
0.000110
 49
-0.000110
  0
LTYPE
  2
DOT
 70
    64
  3
...............................................
 72
    65
 73
     2
 40
0.000110
 49
0.000000
 49
-0.000110
  0
LTYPE
  2
DASHDOT
 70
    64
  3
__ . __ . __ . __ . __ . __ . __ . __ . __ . __
 72
    65
 73
     4
 40
0.000440
 49
0.000220
 49
-0.000110
 49
0.000000
 49
-0.000110
  0
LTYPE
  2
BORDER
 70
    64
  3
__ __ . __ __ . __ __ . __ __ . __ __ . __ __
 72
    65
 73
     6
 40
0.000770
 49
0.000220
 49
-0.000110
 49
0.000220
 49
-0.000110
 49
0.000000
 49
-0.000110
  0
LTYPE
  2
DIVIDE
 70
    64
  3
__ . . __ . . __ . . __ . . __ . . __ . . __
 72
    65
 73
     6
 40
0.000550
 49
0.000220
 49
-0.000110
 49
0.000000
 49
-0.000110
 49
0.000000
 49
-0.000110
  0
LTYPE
  2
DOTDOT
 70
    64
  3
 . .  . .  . .  . .  . .  . . 
 72
    65
 73
     5
 40
0.000242
 49
-0.000110
 49
0.000000
 49
-0.000110
 49
0.000000
 49
-0.000110
  0
ENDTAB
  0
TABLE
  2
STYLE
 70
     4
  0
STYLE
 70
     0
  2
SN0
 40
0.000000
 41
0.000440
 50
0.000000
 71
     0
 42
0.000000
  3
ROMANS
  0
STYLE
 70
    68
  2
SV0
 40
0.000000
 41
0.000440
 50
0.000000
 71
     0
 42
0.000000
  3
ROMANS
  0
STYLE
 70
     0
  2
SN1
 40
0.000000
 41
0.000440
 50
0.000000
 71
     0
 42
0.000000
  3
ITALICC
  0
STYLE
 70
    68
  2
SV1
 40
0.000000
 41
0.000440
 50
0.000000
 71
     0
 42
0.000000
  3
ITALICC
  0
ENDTAB
  0
TABLE
  2
LAYER
 70
     3
  0
LAYER
  2
FOREGROUND
 70
    64
 62
     7
  6
CONTINUOUS
  0
LAYER
  2
BACKGROUND
 70
    65
 62
    -7
  6
CONTINUOUS
  0
LAYER
  2
0
 70
    64
 62
     7
  6
CONTINUOUS
  0
ENDTAB
  0
ENDSEC
  0
SECTION
  2
ENTITIES
  0
LINE
  8
0
 62
     0
  6
CONTINUOUS
 10
1.513160
 20
5.946600
 11
1.513160
 21
6.141080
  0
LINE
  8
0
 62
     0
  6
CONTINUOUS
 10
1.513160
 20
6.238320
 11
1.513160
 21
6.432800
  0
LINE
  8
0
 62
     0
  6
CONTINUOUS
 10
1.513160
 20
6.532240
 11
1.513160
 21
6.752680
  0
LINE
  8
0
 62
     0
  6
CONTINUOUS
 10
5.373720
 20
6.452160
 11
5.393080
 21
6.519480
  0
LINE
  8
0
 62
     0
  6
CONTINUOUS
 10
5.393080
 20
6.519480
 11
5.436640
 21
6.519480
  0
LINE
  8
0
 62
     0
  6
CONTINUOUS
 10
5.466560
 20
6.519480
 11
5.423440
 21
6.452160
  0
LINE
  8
0
 62
     0
  6
CONTINUOUS
 10
5.438400
 20
6.474160
 11
5.470960
 21
6.474160
  0
LINE
  8
0
 62
     0
  6
CONTINUOUS
 10
5.475360
 20
6.452160
 11
5.466560
 21
6.519480
  0
LINE
  8
0
 62
     0
  6
CONTINUOUS
 10
5.507920
 20
6.519480
 11
5.492520
 21
6.452160
  0
LINE
  8
0
 62
     0
  6
CONTINUOUS
 10
5.535640
 20
6.452160
 11
5.507920
 21
6.519480
  0
LINE
  8
0
 62
     0
  6
CONTINUOUS
 10
5.555440
 20
6.519480
 11
5.535640
 21
6.452160
  0
LINE
  8
0
 62
     0
  6
CONTINUOUS
 10
5.410680
 20
6.486920
 11
5.384720
 21
6.486920
  0
LINE
  8
0
 62
     0
  6
CONTINUOUS
 10
1.532520
 20
6.026680
 11
1.517560
 21
6.011280
  0
LINE
  8
0
 62
     0
  6
CONTINUOUS
 10
1.517560
 20
6.011280
 11
1.536920
 21
6.020080
  0
LINE
  8
0
 62
     0
  6
CONTINUOUS
 10
1.536920
 20
6.020080
 11
1.517560
 21
6.011280
  0
LINE
  8
0
 62
     0
  6
CONTINUOUS
 10
1.517560
 20
6.011280
 11
1.539120
 21
6.011280
  0
LINE
  8
0
 62
     0
  6
CONTINUOUS
 10
1.539120
 20
6.011280
 11
1.536920
 21
6.020080
  0
LINE
  8
0
 62
     0
  6
CONTINUOUS
 10
1.536920
 20
6.020080
 11
1.532520
 21
6.026680
  0
LINE
  8
0
 62
     0
  6
CONTINUOUS
 10
1.532520
 20
6.026680
 11
1.524160
 21
6.030640
  0
LINE
  8
0
 62
     0
  6
CONTINUOUS
 10
1.524160
 20
6.030640
 11
1.517560
 21
6.011280
  0
LINE
  8
0
 62
     0
  6
CONTINUOUS
 10
1.517560
 20
6.011280
 11
1.532520
 21
6.026680
  0
LINE
  8
0
 62
     0
  6
CONTINUOUS
 10
1.524160
 20
6.030640
 11
1.517560
 21
6.032840
  0
LINE
  8
0
 62
     0
  6
CONTINUOUS
 10
1.517560
 20
6.032840
 11
1.517560
 21
6.011280
  0
LINE
  8
0
 62
     0
  6
CONTINUOUS
 10
1.517560
 20
6.011280
 11
1.524160
 21
6.030640
  0
LINE
  8
0
 62
     0
  6
CONTINUOUS
 10
1.524160
 20
6.030640
 11
1.524160
 21
6.020080
  0
LINE
  8
0
 62
     0
  6
CONTINUOUS
 10
1.517560
 20
6.011280
 11
1.517560
 21
6.032840
  0
LINE
  8
0
 62
     0
  6
CONTINUOUS
 10
1.517560
 20
6.032840
 11
1.517560
 21
6.011280
  0
LINE
  8
0
 62
     0
  6
CONTINUOUS
 10
1.517560
 20
6.011280
 11
1.517560
 21
6.032840
  0
LINE
  8
0
 62
     0
  6
CONTINUOUS
 10
1.517560
 20
6.032840
 11
1.506560
 21
6.030640
  0
LINE
  8
0
 62
     0
  6
CONTINUOUS
 10
1.506560
 20
6.030640
 11
1.517560
 21
6.011280
  0
LINE
  8
0
 62
     0
  6
CONTINUOUS
 10
1.517560
 20
6.011280
 11
1.506560
 21
6.030640
  0
LINE
  8
0
 62
     0
  6
CONTINUOUS
 10
1.506560
 20
6.030640
 11
1.500400
 21
6.026680
  0
LINE
  8
0
 62
     0
  6
CONTINUOUS
 10
1.500400
 20
6.026680
 11
1.517560
 21
6.011280
  0
LINE
  8
0
 62
     0
  6
CONTINUOUS
 10
1.517560
 20
6.011280
 11
1.500400
 21
6.026680
  0
LINE
  8
0
 62
     0
  6
CONTINUOUS
 10
1.500400
 20
6.026680
 11
1.493800
 21
6.020080
  0
LINE
  8
0
 62
     0
  6
CONTINUOUS
 10
1.493800
 20
6.020080
 11
1.517560
 21
6.011280
  0
LINE
  8
0
 62
     0
  6
CONTINUOUS
 10
1.517560
 20
6.011280
 11
1.493800
 21
6.020080
  0
LINE
  8
0
 62
     0
  6
CONTINUOUS
 10
1.493800
 20
6.020080
 11
1.493800
 21
6.011280
  0
LINE
  8
0
 62
     0
  6
CONTINUOUS
 10
1.493800
 20
6.011280
 11
1.517560
 21
6.011280
  0
LINE
  8
0
 62
     0
  6
CONTINUOUS
 10
1.517560
 20
6.011280
 11
1.493800
 21
6.011280
  0
LINE
  8
0
 62
     0
  6
CONTINUOUS
 10
1.493800
 20
6.011280
 11
1.517560
 21
6.011280
  0
LINE
  8
0
 62
     0
  6
CONTINUOUS
 10
1.517560
 20
6.011280
 11
1.493800
 21
6.000720
  0
LINE
  8
0
 62
     0
  6
CONTINUOUS
 10
1.493800
 20
6.000720
 11
1.517560
 21
6.011280
  0
LINE
  8
0
 62
     0
  6
CONTINUOUS
 10
1.517560
 20
6.011280
 11
1.500400
 21
5.994120
  0
LINE
  8
0
 62
     0
  6
CONTINUOUS
 10
1.500400
 20
5.994120
 11
1.517560
 21
6.011280
  0
LINE
  8
0
 62
     0
  6
CONTINUOUS
 10
1.517560
 20
6.011280
 11
1.517560
 21
5.987520
  0
LINE
  8
0
 62
     0
  6
CONTINUOUS
 10
1.517560
 20
5.987520
 11
1.517560
 21
6.011280
  0
LINE
  8
0
 62
     0
  6
CONTINUOUS
 10
1.517560
 20
6.011280
 11
1.506560
 21
5.989720
  0
LINE
  8
0
 62
     0
  6
CONTINUOUS
 10
1.506560
 20
5.989720
 11
1.517560
 21
6.011280
  0
LINE
  8
0
 62
     0
  6
CONTINUOUS
 10
1.517560
 20
6.011280
 11
1.517560
 21
5.987520
  0
LINE
  8
0
 62
     0
  6
CONTINUOUS
 10
1.517560
 20
5.987520
 11
1.517560
 21
6.011280
  0
LINE
  8
0
 62
     0
  6
CONTINUOUS
 10
1.517560
 20
6.011280
 11
1.524160
 21
5.989720
  0
LINE
  8
0
 62
     0
  6
CONTINUOUS
 10
1.524160
 20
5.989720
 11
1.517560
 21
6.011280
  0
LINE
  8
0
 62
     0
  6
CONTINUOUS
 10
1.517560
 20
6.011280
 11
1.532520
 21
5.994120
  0
LINE
  8
0
 62
     0
  6
CONTINUOUS
 10
1.532520
 20
5.994120
 11
1.517560
 21
6.011280
  0
LINE
  8
0
 62
     0
  6
CONTINUOUS
 10
1.517560
 20
6.011280
 11
1.536920
 21
6.000720
  0
LINE
  8
0
 62
     0
  6
CONTINUOUS
 10
1.536920
 20
6.000720
 11
1.517560
 21
6.011280
  0
LINE
  8
0
 62
     0
  6
CONTINUOUS
 10
1.517560
 20
6.011280
 11
1.539120
 21
6.011280
  0
LINE
  8
0
 62
     0
  6
CONTINUOUS
 10
1.539120
 20
6.011280
 11
1.517560
 21
6.011280
  0
LINE
  8
0
 62
     0
  6
CONTINUOUS
 10
1.524160
 20
6.000720
 11
1.524160
 21
5.989720
  0
LINE
  8
0
 62
     0
  6
CONTINUOUS
 10
1.524160
 20
5.989720
 11
1.532520
 21
5.994120
  0
LINE
  8
0
 62
     0
  6
CONTINUOUS
 10
1.532520
 20
5.994120
 11
1.536920
 21
6.000720
  0
LINE
  8
0
 62
     0
  6
CONTINUOUS
 10
1.536920
 20
6.000720
 11
1.539120
 21
6.011280
  0
LINE
  8
0
 62
     0
  6
CONTINUOUS
 10
1.524160
 20
5.989720
 11
1.517560
 21
5.987520
  0
LINE
  8
0
 62
     0
  6
CONTINUOUS
 10
1.517560
 20
5.987520
 11
1.506560
 21
5.989720
  0
LINE
  8
0
 62
     0
  6
CONTINUOUS
 10
1.506560
 20
5.989720
 11
1.500400
 21
5.994120
  0
LINE
  8
0
 62
     0
  6
CONTINUOUS
 10
1.500400
 20
5.994120
 11
1.493800
 21
6.000720
  0
LINE
  8
0
 62
     0
  6
CONTINUOUS
 10
1.493800
 20
6.000720
 11
1.493800
 21
6.011280
  0
LINE
  8
0
 62
     0
  6
CONTINUOUS
 10
1.496000
 20
6.156040
 11
1.506560
 21
6.156040
  0
LINE
  8
0
 62
     0
  6
CONTINUOUS
 10
1.506560
 20
6.167040
 11
1.517560
 21
6.145480
  0
LINE
  8
0
 62
     0
  6
CONTINUOUS
 10
1.517560
 20
6.145480
 11
1.517560
 21
6.169240
  0
LINE
  8
0
 62
     0
  6
CONTINUOUS
 10
1.517560
 20
6.169240
 11
1.517560
 21
6.145480
  0
LINE
  8
0
 62
     0
  6
CONTINUOUS
 10
1.517560
 20
6.145480
 11
1.524160
 21
6.167040
  0
LINE
  8
0
 62
     0
  6
CONTINUOUS
 10
1.524160
 20
6.167040
 11
1.524160
 21
6.153840
  0
LINE
  8
0
 62
     0
  6
CONTINUOUS
 10
1.524160
 20
6.153840
 11
1.524160
 21
6.156040
  0
LINE
  8
0
 62
     0
  6
CONTINUOUS
 10
1.524160
 20
6.156040
 11
1.536920
 21
6.156040
  0
LINE
  8
0
 62
     0
  6
CONTINUOUS
 10
1.536920
 20
6.156040
 11
1.536920
 21
6.153840
  0
LINE
  8
0
 62
     0
  6
CONTINUOUS
 10
1.536920
 20
6.153840
 11
1.532520
 21
6.162640
  0
LINE
  8
0
 62
     0
  6
CONTINUOUS
 10
1.532520
 20
6.162640
 11
1.517560
 21
6.145480
  0
LINE
  8
0
 62
     0
  6
CONTINUOUS
 10
1.517560
 20
6.145480
 11
1.536920
 21
6.153840
  0
LINE
  8
0
 62
     0
  6
CONTINUOUS
 10
1.536920
 20
6.153840
 11
1.517560
 21
6.145480
  0
LINE
  8
0
 62
     0
  6
CONTINUOUS
 10
1.517560
 20
6.145480
 11
1.539120
 21
6.145480
  0
LINE
  8
0
 62
     0
  6
CONTINUOUS
 10
1.539120
 20
6.145480
 11
1.536920
 21
6.153840
  0
LINE
  8
0
 62
     0
  6
CONTINUOUS
 10
1.539120
 20
6.147680
 11
1.521960
 21
6.147680
  0
LINE
  8
0
 62
     0
  6
CONTINUOUS
 10
1.521960
 20
6.147680
 11
1.517560
 21
6.145480
  0
LINE
  8
0
 62
     0
  6
CONTINUOUS
 10
1.517560
 20
6.145480
 11
1.532520
 21
6.162640
  0
LINE
  8
0
 62
     0
  6
CONTINUOUS
 10
1.532520
 20
6.162640
 11
1.524160
 21
6.167040
  0
LINE
  8
0
 62
     0
  6
CONTINUOUS
 10
1.524160
 20
6.167040
 11
1.517560
 21
6.145480
  0
LINE
  8
0
 62
     0
  6
CONTINUOUS
 10
1.517560
 20
6.145480
 11
1.517560
 21
6.169240
  0
LINE
  8
0
 62
     0
  6
CONTINUOUS
 10
1.517560
 20
6.169240
 11
1.517560
 21
6.145480
  0
LINE
  8
0
 62
     0
  6
CONTINUOUS
 10
1.517560
 20
6.145480
 11
1.506560
 21
6.167040
  0
LINE
  8
0
 62
     0
  6
CONTINUOUS
 10
1.506560
 20
6.167040
 11
1.500400
 21
6.162640
  0
LINE
  8
0
 62
     0
  6
CONTINUOUS
 10
1.500400
 20
6.162640
 11
1.517560
 21
6.145480
  0
LINE
  8
0
 62
     0
  6
CONTINUOUS
 10
1.517560
 20
6.145480
 11
1.500400
 21
6.162640
  0
LINE
  8
0
 62
     0
  6
CONTINUOUS
 10
1.500400
 20
6.162640
 11
1.493800
 21
6.153840
  0
LINE
  8
0
 62
     0
  6
CONTINUOUS
 10
1.493800
 20
6.153840
 11
1.517560
 21
6.145480
  0
LINE
  8
0
 62
     0
  6
CONTINUOUS
 10
1.517560
 20
6.145480
 11
1.493800
 21
6.153840
  0
LINE
  8
0
 62
     0
  6
CONTINUOUS
 10
1.493800
 20
6.153840
 11
1.493800
 21
6.145480
  0
LINE
  8
0
 62
     0
  6
CONTINUOUS
 10
1.493800
 20
6.145480
 11
1.517560
 21
6.145480
  0
LINE
  8
0
 62
     0
  6
CONTINUOUS
 10
1.517560
 20
6.145480
 11
1.493800
 21
6.145480
  0
LINE
  8
0
 62
     0
  6
CONTINUOUS
 10
1.493800
 20
6.145480
 11
1.493800
 21
6.136680
  0
LINE
  8
0
 62
     0
  6
CONTINUOUS
 10
1.493800
 20
6.136680
 11
1.517560
 21
6.145480
  0
LINE
  8
0
 62
     0
  6
CONTINUOUS
 10
1.517560
 20
6.145480
 11
1.493800
 21
6.145480
  0
LINE
  8
0
 62
     0
  6
CONTINUOUS
 10
1.493800
 20
6.145480
 11
1.493800
 21
6.147680
  0
LINE
  8
0
 62
     0
  6
CONTINUOUS
 10
1.493800
 20
6.147680
 11
1.513160
 21
6.147680
  0
LINE
  8
0
 62
     0
  6
CONTINUOUS
 10
1.513160
 20
6.147680
 11
1.517560
 21
6.145480
  0
LINE
  8
0
 62
     0
  6
CONTINUOUS
 10
1.517560
 20
6.145480
 11
1.493800
 21
6.136680
  0
LINE
  8
0
 62
     0
  6
CONTINUOUS
 10
1.493800
 20
6.136680
 11
1.500400
 21
6.130080
  0
LINE
  8
0
 62
     0
  6
CONTINUOUS
 10
1.500400
 20
6.130080
 11
1.517560
 21
6.145480
  0
LINE
  8
0
 62
     0
  6
CONTINUOUS
 10
1.517560
 20
6.145480
 11
1.500400
 21
6.130080
  0
LINE
  8
0
 62
     0
  6
CONTINUOUS
 10
1.500400
 20
6.130080
 11
1.506560
 21
6.123920
  0
LINE
  8
0
 62
     0
  6
CONTINUOUS
 10
1.506560
 20
6.123920
 11
1.517560
 21
6.145480
  0
LINE
  8
0
 62
     0
  6
CONTINUOUS
 10
1.517560
 20
6.145480
 11
1.517560
 21
6.123920
  0
LINE
  8
0
 62
     0
  6
CONTINUOUS
 10
1.517560
 20
6.123920
 11
1.517560
 21
6.145480
  0
LINE
  8
0
 62
     0
  6
CONTINUOUS
 10
1.517560
 20
6.145480
 11
1.506560
 21
6.123920
  0
LINE
  8
0
 62
     0
  6
CONTINUOUS
 10
1.506560
 20
6.123920
 11
1.517560
 21
6.123920
  0
LINE
  8
0
 62
     0
  6
CONTINUOUS
 10
1.517560
 20
6.123920
 11
1.517560
 21
6.145480
  0
LINE
  8
0
 62
     0
  6
CONTINUOUS
 10
1.517560
 20
6.145480
 11
1.517560
 21
6.123920
  0
LINE
  8
0
 62
     0
  6
CONTINUOUS
 10
1.517560
 20
6.123920
 11
1.524160
 21
6.123920
  0
LINE
  8
0
 62
     0
  6
CONTINUOUS
 10
1.524160
 20
6.123920
 11
1.517560
 21
6.145480
  0
LINE
  8
0
 62
     0
  6
CONTINUOUS
 10
1.517560
 20
6.145480
 11
1.524160
 21
6.123920
  0
LINE
  8
0
 62
     0
  6
CONTINUOUS
 10
1.524160
 20
6.123920
 11
1.532520
 21
6.130080
  0
LINE
  8
0
 62
     0
  6
CONTINUOUS
 10
1.532520
 20
6.130080
 11
1.517560
 21
6.145480
  0
LINE
  8
0
 62
     0
  6
CONTINUOUS
 10
1.517560
 20
6.145480
 11
1.532520
 21
6.130080
  0
LINE
  8
0
 62
     0
  6
CONTINUOUS
 10
1.532520
 20
6.130080
 11
1.536920
 21
6.136680
  0
LINE
  8
0
 62
     0
  6
CONTINUOUS
 10
1.536920
 20
6.136680
 11
1.517560
 21
6.145480
  0
LINE
  8
0
 62
     0
  6
CONTINUOUS
 10
1.517560
 20
6.145480
 11
1.536920
 21
6.136680
  0
LINE
  8
0
 62
     0
  6
CONTINUOUS
 10
1.536920
 20
6.136680
 11
1.539120
 21
6.145480
  0
LINE
  8
0
 62
     0
  6
CONTINUOUS
 10
1.539120
 20
6.145480
 11
1.517560
 21
6.145480
  0
LINE
  8
0
 62
     0
  6
CONTINUOUS
 10
1.517560
 20
6.145480
 11
1.539120
 21
6.145480
  0
LINE
  8
0
 62
     0
  6
CONTINUOUS
 10
1.524160
 20
6.136680
 11
1.524160
 21
6.123920
  0
LINE
  8
0
 62
     0
  6
CONTINUOUS
 10
1.524160
 20
6.167040
 11
1.517560
 21
6.169240
  0
LINE
  8
0
 62
     0
  6
CONTINUOUS
 10
1.517560
 20
6.169240
 11
1.506560
 21
6.167040
  0
LINE
  8
0
 62
     0
  6
CONTINUOUS
 10
1.517560
 20
6.300800
 11
1.539120
 21
6.300800
  0
LINE
  8
0
 62
     0
  6
CONTINUOUS
 10
1.539120
 20
6.300800
 11
1.536920
 21
6.309600
  0
LINE
  8
0
 62
     0
  6
CONTINUOUS
 10
1.536920
 20
6.309600
 11
1.517560
 21
6.300800
  0
LINE
  8
0
 62
     0
  6
CONTINUOUS
 10
1.517560
 20
6.300800
 11
1.536920
 21
6.309600
  0
LINE
  8
0
 62
     0
  6
CONTINUOUS
 10
1.536920
 20
6.309600
 11
1.532520
 21
6.320600
  0
LINE
  8
0
 62
     0
  6
CONTINUOUS
 10
1.532520
 20
6.320600
 11
1.517560
 21
6.300800
  0
LINE
  8
0
 62
     0
  6
CONTINUOUS
 10
1.517560
 20
6.300800
 11
1.532520
 21
6.320600
  0
LINE
  8
0
 62
     0
  6
CONTINUOUS
 10
1.532520
 20
6.320600
 11
1.524160
 21
6.324560
  0
LINE
  8
0
 62
     0
  6
CONTINUOUS
 10
1.524160
 20
6.324560
 11
1.517560
 21
6.300800
  0
LINE
  8
0
 62
     0
  6
CONTINUOUS
 10
1.517560
 20
6.300800
 11
1.517560
 21
6.324560
  0
LINE
  8
0
 62
     0
  6
CONTINUOUS
 10
1.517560
 20
6.324560
 11
1.517560
 21
6.300800
  0
LINE
  8
0
 62
     0
  6
CONTINUOUS
 10
1.517560
 20
6.300800
 11
1.524160
 21
6.324560
  0
LINE
  8
0
 62
     0
  6
CONTINUOUS
 10
1.524160
 20
6.324560
 11
1.524160
 21
6.309600
  0
LINE
  8
0
 62
     0
  6
CONTINUOUS
 10
1.524160
 20
6.324560
 11
1.517560
 21
6.324560
  0
LINE
  8
0
 62
     0
  6
CONTINUOUS
 10
1.517560
 20
6.324560
 11
1.517560
 21
6.300800
  0
LINE
  8
0
 62
     0
  6
CONTINUOUS
 10
1.517560
 20
6.300800
 11
1.517560
 21
6.324560
  0
LINE
  8
0
 62
     0
  6
CONTINUOUS
 10
1.517560
 20
6.324560
 11
1.506560
 21
6.324560
  0
LINE
  8
0
 62
     0
  6
CONTINUOUS
 10
1.506560
 20
6.324560
 11
1.517560
 21
6.300800
  0
LINE
  8
0
 62
     0
  6
CONTINUOUS
 10
1.517560
 20
6.300800
 11
1.506560
 21
6.324560
  0
LINE
  8
0
 62
     0
  6
CONTINUOUS
 10
1.506560
 20
6.324560
 11
1.500400
 21
6.320600
  0
LINE
  8
0
 62
     0
  6
CONTINUOUS
 10
1.500400
 20
6.320600
 11
1.517560
 21
6.300800
  0
LINE
  8
0
 62
     0
  6
CONTINUOUS
 10
1.517560
 20
6.300800
 11
1.500400
 21
6.320600
  0
LINE
  8
0
 62
     0
  6
CONTINUOUS
 10
1.500400
 20
6.320600
 11
1.493800
 21
6.309600
  0
LINE
  8
0
 62
     0
  6
CONTINUOUS
 10
1.493800
 20
6.309600
 11
1.517560
 21
6.300800
  0
LINE
  8
0
 62
     0
  6
CONTINUOUS
 10
1.517560
 20
6.300800
 11
1.493800
 21
6.309600
  0
LINE
  8
0
 62
     0
  6
CONTINUOUS
 10
1.493800
 20
6.309600
 11
1.493800
 21
6.300800
  0
LINE
  8
0
 62
     0
  6
CONTINUOUS
 10
1.493800
 20
6.300800
 11
1.517560
 21
6.300800
  0
LINE
  8
0
 62
     0
  6
CONTINUOUS
 10
1.517560
 20
6.300800
 11
1.493800
 21
6.300800
  0
LINE
  8
0
 62
     0
  6
CONTINUOUS
 10
1.493800
 20
6.300800
 11
1.493800
 21
6.292440
  0
LINE
  8
0
 62
     0
  6
CONTINUOUS
 10
1.493800
 20
6.292440
 11
1.517560
 21
6.300800
  0
LINE
  8
0
 62
     0
  6
CONTINUOUS
 10
1.517560
 20
6.300800
 11
1.493800
 21
6.292440
  0
LINE
  8
0
 62
     0
  6
CONTINUOUS
 10
1.493800
 20
6.292440
 11
1.500400
 21
6.285840
  0
LINE
  8
0
 62
     0
  6
CONTINUOUS
 10
1.500400
 20
6.285840
 11
1.517560
 21
6.300800
  0
LINE
  8
0
 62
     0
  6
CONTINUOUS
 10
1.517560
 20
6.300800
 11
1.500400
 21
6.285840
  0
LINE
  8
0
 62
     0
  6
CONTINUOUS
 10
1.500400
 20
6.285840
 11
1.506560
 21
6.279240
  0
LINE
  8
0
 62
     0
  6
CONTINUOUS
 10
1.506560
 20
6.279240
 11
1.517560
 21
6.300800
  0
LINE
  8
0
 62
     0
  6
CONTINUOUS
 10
1.517560
 20
6.300800
 11
1.517560
 21
6.279240
  0
LINE
  8
0
 62
     0
  6
CONTINUOUS
 10
1.517560
 20
6.279240
 11
1.517560
 21
6.300800
  0
LINE
  8
0
 62
     0
  6
CONTINUOUS
 10
1.517560
 20
6.300800
 11
1.506560
 21
6.279240
  0
LINE
  8
0
 62
     0
  6
CONTINUOUS
 10
1.506560
 20
6.279240
 11
1.517560
 21
6.279240
  0
LINE
  8
0
 62
     0
  6
CONTINUOUS
 10
1.517560
 20
6.279240
 11
1.517560
 21
6.300800
  0
LINE
  8
0
 62
     0
  6
CONTINUOUS
 10
1.517560
 20
6.300800
 11
1.517560
 21
6.279240
  0
LINE
  8
0
 62
     0
  6
CONTINUOUS
 10
1.517560
 20
6.279240
 11
1.524160
 21
6.279240
  0
LINE
  8
0
 62
     0
  6
CONTINUOUS
 10
1.524160
 20
6.279240
 11
1.517560
 21
6.300800
  0
LINE
  8
0
 62
     0
  6
CONTINUOUS
 10
1.517560
 20
6.300800
 11
1.524160
 21
6.279240
  0
LINE
  8
0
 62
     0
  6
CONTINUOUS
 10
1.524160
 20
6.279240
 11
1.532520
 21
6.285840
  0
LINE
  8
0
 62
     0
  6
CONTINUOUS
 10
1.532520
 20
6.285840
 11
1.517560
 21
6.300800
  0
LINE
  8
0
 62
     0
  6
CONTINUOUS
 10
1.517560
 20
6.300800
 11
1.532520
 21
6.285840
  0
LINE
  8
0
 62
     0
  6
CONTINUOUS
 10
1.532520
 20
6.285840
 11
1.536920
 21
6.292440
  0
LINE
  8
0
 62
     0
  6
CONTINUOUS
 10
1.536920
 20
6.292440
 11
1.517560
 21
6.300800
  0
LINE
  8
0
 62
     0
  6
CONTINUOUS
 10
1.517560
 20
6.300800
 11
1.536920
 21
6.292440
  0
LINE
  8
0
 62
     0
  6
CONTINUOUS
 10
1.536920
 20
6.292440
 11
1.539120
 21
6.300800
  0
LINE
  8
0
 62
     0
  6
CONTINUOUS
 10
1.539120
 20
6.300800
 11
1.517560
 21
6.300800
  0
LINE
  8
0
 62
     0
  6
CONTINUOUS
 10
1.508760
 20
6.299040
 11
1.493800
 21
6.299040
  0
LINE
  8
0
 62
     0
  6
CONTINUOUS
 10
1.524160
 20
6.292440
 11
1.524160
 21
6.279240
  0
LINE
  8
0
 62
     0
  6
CONTINUOUS
 10
1.657920
 20
6.238320
 11
1.353440
 21
6.383080
  0
LINE
  8
0
 62
     0
  6
CONTINUOUS
 10
1.353440
 20
6.534440
 11
1.657920
 21
6.387480
  0
LINE
  8
0
 62
     0
  6
CONTINUOUS
 10
1.539120
 20
6.452160
 11
1.536920
 21
6.460960
  0
LINE
  8
0
 62
     0
  6
CONTINUOUS
 10
1.536920
 20
6.460960
 11
1.517560
 21
6.452160
  0
LINE
  8
0
 62
     0
  6
CONTINUOUS
 10
1.517560
 20
6.452160
 11
1.539120
 21
6.452160
  0
LINE
  8
0
 62
     0
  6
CONTINUOUS
 10
1.536920
 20
6.460960
 11
1.532520
 21
6.467560
  0
LINE
  8
0
 62
     0
  6
CONTINUOUS
 10
1.532520
 20
6.467560
 11
1.517560
 21
6.452160
  0
LINE
  8
0
 62
     0
  6
CONTINUOUS
 10
1.517560
 20
6.452160
 11
1.536920
 21
6.460960
  0
LINE
  8
0
 62
     0
  6
CONTINUOUS
 10
1.532520
 20
6.467560
 11
1.524160
 21
6.474160
  0
LINE
  8
0
 62
     0
  6
CONTINUOUS
 10
1.524160
 20
6.474160
 11
1.517560
 21
6.452160
  0
LINE
  8
0
 62
     0
  6
CONTINUOUS
 10
1.517560
 20
6.452160
 11
1.532520
 21
6.467560
  0
LINE
  8
0
 62
     0
  6
CONTINUOUS
 10
1.524160
 20
6.474160
 11
1.517560
 21
6.474160
  0
LINE
  8
0
 62
     0
  6
CONTINUOUS
 10
1.517560
 20
6.474160
 11
1.517560
 21
6.452160
  0
LINE
  8
0
 62
     0
  6
CONTINUOUS
 10
1.517560
 20
6.452160
 11
1.524160
 21
6.474160
  0
LINE
  8
0
 62
     0
  6
CONTINUOUS
 10
1.524160
 20
6.474160
 11
1.524160
 21
6.460960
  0
LINE
  8
0
 62
     0
  6
CONTINUOUS
 10
1.517560
 20
6.452160
 11
1.517560
 21
6.474160
  0
LINE
  8
0
 62
     0
  6
CONTINUOUS
 10
1.517560
 20
6.474160
 11
1.517560
 21
6.452160
  0
LINE
  8
0
 62
     0
  6
CONTINUOUS
 10
1.517560
 20
6.452160
 11
1.517560
 21
6.474160
  0
LINE
  8
0
 62
     0
  6
CONTINUOUS
 10
1.517560
 20
6.474160
 11
1.506560
 21
6.474160
  0
LINE
  8
0
 62
     0
  6
CONTINUOUS
 10
1.506560
 20
6.474160
 11
1.517560
 21
6.452160
  0
LINE
  8
0
 62
     0
  6
CONTINUOUS
 10
1.517560
 20
6.452160
 11
1.506560
 21
6.474160
  0
LINE
  8
0
 62
     0
  6
CONTINUOUS
 10
1.506560
 20
6.474160
 11
1.500400
 21
6.467560
  0
LINE
  8
0
 62
     0
  6
CONTINUOUS
 10
1.500400
 20
6.467560
 11
1.517560
 21
6.452160
  0
LINE
  8
0
 62
     0
  6
CONTINUOUS
 10
1.517560
 20
6.452160
 11
1.500400
 21
6.467560
  0
LINE
  8
0
 62
     0
  6
CONTINUOUS
 10
1.500400
 20
6.467560
 11
1.493800
 21
6.460960
  0
LINE
  8
0
 62
     0
  6
CONTINUOUS
 10
1.493800
 20
6.460960
 11
1.517560
 21
6.452160
  0
LINE
  8
0
 62
     0
  6
CONTINUOUS
 10
1.517560
 20
6.452160
 11
1.493800
 21
6.460960
  0
LINE
  8
0
 62
     0
  6
CONTINUOUS
 10
1.493800
 20
6.460960
 11
1.493800
 21
6.452160
  0
LINE
  8
0
 62
     0
  6
CONTINUOUS
 10
1.493800
 20
6.452160
 11
1.517560
 21
6.452160
  0
LINE
  8
0
 62
     0
  6
CONTINUOUS
 10
1.517560
 20
6.452160
 11
1.493800
 21
6.452160
  0
LINE
  8
0
 62
     0
  6
CONTINUOUS
 10
1.493800
 20
6.452160
 11
1.493800
 21
6.443800
  0
LINE
  8
0
 62
     0
  6
CONTINUOUS
 10
1.493800
 20
6.443800
 11
1.517560
 21
6.452160
  0
LINE
  8
0
 62
     0
  6
CONTINUOUS
 10
1.517560
 20
6.452160
 11
1.493800
 21
6.443800
  0
LINE
  8
0
 62
     0
  6
CONTINUOUS
 10
1.493800
 20
6.443800
 11
1.500400
 21
6.435000
  0
LINE
  8
0
 62
     0
  6
CONTINUOUS
 10
1.500400
 20
6.435000
 11
1.517560
 21
6.452160
  0
LINE
  8
0
 62
     0
  6
CONTINUOUS
 10
1.517560
 20
6.452160
 11
1.500400
 21
6.435000
  0
LINE
  8
0
 62
     0
  6
CONTINUOUS
 10
1.500400
 20
6.435000
 11
1.506560
 21
6.430600
  0
LINE
  8
0
 62
     0
  6
CONTINUOUS
 10
1.506560
 20
6.430600
 11
1.517560
 21
6.452160
  0
LINE
  8
0
 62
     0
  6
CONTINUOUS
 10
1.517560
 20
6.452160
 11
1.517560
 21
6.428400
  0
LINE
  8
0
 62
     0
  6
CONTINUOUS
 10
1.517560
 20
6.428400
 11
1.517560
 21
6.452160
  0
LINE
  8
0
 62
     0
  6
CONTINUOUS
 10
1.517560
 20
6.452160
 11
1.506560
 21
6.430600
  0
LINE
  8
0
 62
     0
  6
CONTINUOUS
 10
1.506560
 20
6.430600
 11
1.517560
 21
6.428400
  0
LINE
  8
0
 62
     0
  6
CONTINUOUS
 10
1.517560
 20
6.428400
 11
1.517560
 21
6.452160
  0
LINE
  8
0
 62
     0
  6
CONTINUOUS
 10
1.517560
 20
6.452160
 11
1.517560
 21
6.428400
  0
LINE
  8
0
 62
     0
  6
CONTINUOUS
 10
1.517560
 20
6.428400
 11
1.524160
 21
6.430600
  0
LINE
  8
0
 62
     0
  6
CONTINUOUS
 10
1.524160
 20
6.430600
 11
1.517560
 21
6.452160
  0
LINE
  8
0
 62
     0
  6
CONTINUOUS
 10
1.517560
 20
6.452160
 11
1.524160
 21
6.430600
  0
LINE
  8
0
 62
     0
  6
CONTINUOUS
 10
1.524160
 20
6.430600
 11
1.532520
 21
6.435000
  0
LINE
  8
0
 62
     0
  6
CONTINUOUS
 10
1.532520
 20
6.435000
 11
1.517560
 21
6.452160
  0
LINE
  8
0
 62
     0
  6
CONTINUOUS
 10
1.517560
 20
6.452160
 11
1.532520
 21
6.435000
  0
LINE
  8
0
 62
     0
  6
CONTINUOUS
 10
1.532520
 20
6.435000
 11
1.536920
 21
6.443800
  0
LINE
  8
0
 62
     0
  6
CONTINUOUS
 10
1.536920
 20
6.443800
 11
1.517560
 21
6.452160
  0
LINE
  8
0
 62
     0
  6
CONTINUOUS
 10
1.517560
 20
6.452160
 11
1.536920
 21
6.443800
  0
LINE
  8
0
 62
     0
  6
CONTINUOUS
 10
1.536920
 20
6.443800
 11
1.539120
 21
6.452160
  0
LINE
  8
0
 62
     0
  6
CONTINUOUS
 10
1.539120
 20
6.452160
 11
1.517560
 21
6.452160
  0
LINE
  8
0
 62
     0
  6
CONTINUOUS
 10
1.517560
 20
6.452160
 11
1.513160
 21
6.449960
  0
LINE
  8
0
 62
     0
  6
CONTINUOUS
 10
1.513160
 20
6.449960
 11
1.493800
 21
6.449960
  0
LINE
  8
0
 62
     0
  6
CONTINUOUS
 10
1.496000
 20
6.443800
 11
1.506560
 21
6.443800
  0
LINE
  8
0
 62
     0
  6
CONTINUOUS
 10
1.524160
 20
6.443800
 11
1.524160
 21
6.430600
  0
LINE
  8
0
 62
     0
  6
CONTINUOUS
 10
1.524160
 20
6.443800
 11
1.536920
 21
6.443800
  0
LINE
  8
0
 62
     0
  6
CONTINUOUS
 10
1.539120
 20
6.449960
 11
1.521960
 21
6.449960
  0
LINE
  8
0
 62
     0
  6
CONTINUOUS
 10
1.517560
 20
6.579760
 11
1.539120
 21
6.579760
  0
LINE
  8
0
 62
     0
  6
CONTINUOUS
 10
1.539120
 20
6.579760
 11
1.536920
 21
6.588560
  0
LINE
  8
0
 62
     0
  6
CONTINUOUS
 10
1.536920
 20
6.588560
 11
1.517560
 21
6.579760
  0
LINE
  8
0
 62
     0
  6
CONTINUOUS
 10
1.517560
 20
6.579760
 11
1.536920
 21
6.588560
  0
LINE
  8
0
 62
     0
  6
CONTINUOUS
 10
1.536920
 20
6.588560
 11
1.532520
 21
6.597360
  0
LINE
  8
0
 62
     0
  6
CONTINUOUS
 10
1.532520
 20
6.597360
 11
1.517560
 21
6.579760
  0
LINE
  8
0
 62
     0
  6
CONTINUOUS
 10
1.517560
 20
6.579760
 11
1.532520
 21
6.597360
  0
LINE
  8
0
 62
     0
  6
CONTINUOUS
 10
1.532520
 20
6.597360
 11
1.524160
 21
6.601320
  0
LINE
  8
0
 62
     0
  6
CONTINUOUS
 10
1.524160
 20
6.601320
 11
1.517560
 21
6.579760
  0
LINE
  8
0
 62
     0
  6
CONTINUOUS
 10
1.517560
 20
6.579760
 11
1.517560
 21
6.603520
  0
LINE
  8
0
 62
     0
  6
CONTINUOUS
 10
1.517560
 20
6.603520
 11
1.517560
 21
6.579760
  0
LINE
  8
0
 62
     0
  6
CONTINUOUS
 10
1.517560
 20
6.579760
 11
1.524160
 21
6.601320
  0
LINE
  8
0
 62
     0
  6
CONTINUOUS
 10
1.524160
 20
6.601320
 11
1.524160
 21
6.588560
  0
LINE
  8
0
 62
     0
  6
CONTINUOUS
 10
1.524160
 20
6.601320
 11
1.517560
 21
6.603520
  0
LINE
  8
0
 62
     0
  6
CONTINUOUS
 10
1.517560
 20
6.603520
 11
1.517560
 21
6.579760
  0
LINE
  8
0
 62
     0
  6
CONTINUOUS
 10
1.517560
 20
6.579760
 11
1.517560
 21
6.603520
  0
LINE
  8
0
 62
     0
  6
CONTINUOUS
 10
1.517560
 20
6.603520
 11
1.506560
 21
6.601320
  0
LINE
  8
0
 62
     0
  6
CONTINUOUS
 10
1.506560
 20
6.601320
 11
1.517560
 21
6.579760
  0
LINE
  8
0
 62
     0
  6
CONTINUOUS
 10
1.517560
 20
6.579760
 11
1.506560
 21
6.601320
  0
LINE
  8
0
 62
     0
  6
CONTINUOUS
 10
1.506560
 20
6.601320
 11
1.500400
 21
6.597360
  0
LINE
  8
0
 62
     0
  6
CONTINUOUS
 10
1.500400
 20
6.597360
 11
1.517560
 21
6.579760
  0
LINE
  8
0
 62
     0
  6
CONTINUOUS
 10
1.517560
 20
6.579760
 11
1.500400
 21
6.597360
  0
LINE
  8
0
 62
     0
  6
CONTINUOUS
 10
1.500400
 20
6.597360
 11
1.493800
 21
6.588560
  0
LINE
  8
0
 62
     0
  6
CONTINUOUS
 10
1.493800
 20
6.588560
 11
1.517560
 21
6.579760
  0
LINE
  8
0
 62
     0
  6
CONTINUOUS
 10
1.517560
 20
6.579760
 11
1.493800
 21
6.588560
  0
LINE
  8
0
 62
     0
  6
CONTINUOUS
 10
1.493800
 20
6.588560
 11
1.493800
 21
6.579760
  0
LINE
  8
0
 62
     0
  6
CONTINUOUS
 10
1.493800
 20
6.579760
 11
1.517560
 21
6.579760
  0
LINE
  8
0
 62
     0
  6
CONTINUOUS
 10
1.517560
 20
6.579760
 11
1.493800
 21
6.579760
  0
LINE
  8
0
 62
     0
  6
CONTINUOUS
 10
1.493800
 20
6.579760
 11
1.493800
 21
6.571400
  0
LINE
  8
0
 62
     0
  6
CONTINUOUS
 10
1.493800
 20
6.571400
 11
1.517560
 21
6.579760
  0
LINE
  8
0
 62
     0
  6
CONTINUOUS
 10
1.517560
 20
6.579760
 11
1.493800
 21
6.571400
  0
LINE
  8
0
 62
     0
  6
CONTINUOUS
 10
1.493800
 20
6.571400
 11
1.500400
 21
6.564800
  0
LINE
  8
0
 62
     0
  6
CONTINUOUS
 10
1.500400
 20
6.564800
 11
1.517560
 21
6.579760
  0
LINE
  8
0
 62
     0
  6
CONTINUOUS
 10
1.517560
 20
6.579760
 11
1.500400
 21
6.564800
  0
LINE
  8
0
 62
     0
  6
CONTINUOUS
 10
1.500400
 20
6.564800
 11
1.506560
 21
6.558200
  0
LINE
  8
0
 62
     0
  6
CONTINUOUS
 10
1.506560
 20
6.558200
 11
1.517560
 21
6.579760
  0
LINE
  8
0
 62
     0
  6
CONTINUOUS
 10
1.517560
 20
6.579760
 11
1.517560
 21
6.558200
  0
LINE
  8
0
 62
     0
  6
CONTINUOUS
 10
1.517560
 20
6.558200
 11
1.517560
 21
6.579760
  0
LINE
  8
0
 62
     0
  6
CONTINUOUS
 10
1.517560
 20
6.579760
 11
1.506560
 21
6.558200
  0
LINE
  8
0
 62
     0
  6
CONTINUOUS
 10
1.506560
 20
6.558200
 11
1.517560
 21
6.558200
  0
LINE
  8
0
 62
     0
  6
CONTINUOUS
 10
1.517560
 20
6.558200
 11
1.517560
 21
6.579760
  0
LINE
  8
0
 62
     0
  6
CONTINUOUS
 10
1.517560
 20
6.579760
 11
1.517560
 21
6.558200
  0
LINE
  8
0
 62
     0
  6
CONTINUOUS
 10
1.517560
 20
6.558200
 11
1.524160
 21
6.558200
  0
LINE
  8
0
 62
     0
  6
CONTINUOUS
 10
1.524160
 20
6.558200
 11
1.517560
 21
6.579760
  0
LINE
  8
0
 62
     0
  6
CONTINUOUS
 10
1.517560
 20
6.579760
 11
1.524160
 21
6.558200
  0
LINE
  8
0
 62
     0
  6
CONTINUOUS
 10
1.524160
 20
6.558200
 11
1.532520
 21
6.564800
  0
LINE
  8
0
 62
     0
  6
CONTINUOUS
 10
1.532520
 20
6.564800
 11
1.517560
 21
6.579760
  0
LINE
  8
0
 62
     0
  6
CONTINUOUS
 10
1.517560
 20
6.579760
 11
1.532520
 21
6.564800
  0
LINE
  8
0
 62
     0
  6
CONTINUOUS
 10
1.532520
 20
6.564800
 11
1.536920
 21
6.571400
  0
LINE
  8
0
 62
     0
  6
CONTINUOUS
 10
1.536920
 20
6.571400
 11
1.517560
 21
6.579760
  0
LINE
  8
0
 62
     0
  6
CONTINUOUS
 10
1.517560
 20
6.579760
 11
1.536920
 21
6.571400
  0
LINE
  8
0
 62
     0
  6
CONTINUOUS
 10
1.536920
 20
6.571400
 11
1.539120
 21
6.579760
  0
LINE
  8
0
 62
     0
  6
CONTINUOUS
 10
1.539120
 20
6.579760
 11
1.517560
 21
6.579760
  0
LINE
  8
0
 62
     0
  6
CONTINUOUS
 10
1.524160
 20
6.571400
 11
1.524160
 21
6.558200
  0
LINE
  8
0
 62
     0
  6
CONTINUOUS
 10
1.657920
 20
6.517280
 11
1.353440
 21
6.662040
  0
LINE
  8
0
 62
     0
  6
CONTINUOUS
 10
1.353440
 20
6.227320
 11
1.657920
 21
6.082560
  0
LINE
  8
0
 62
     0
  6
CONTINUOUS
 10
1.657920
 20
5.946600
 11
1.353440
 21
6.091360
  0
LINE
  8
0
 62
     0
  6
CONTINUOUS
 10
6.041200
 20
6.125680
 11
6.039000
 21
6.127880
  0
LINE
  8
0
 62
     0
  6
CONTINUOUS
 10
6.039000
 20
6.127880
 11
6.039000
 21
6.130080
  0
LINE
  8
0
 62
     0
  6
CONTINUOUS
 10
6.039000
 20
6.130080
 11
6.036800
 21
6.130080
  0
LINE
  8
0
 62
     0
  6
CONTINUOUS
 10
6.036800
 20
6.130080
 11
6.036800
 21
6.132280
  0
LINE
  8
0
 62
     0
  6
CONTINUOUS
 10
6.036800
 20
6.132280
 11
6.036800
 21
6.134480
  0
LINE
  8
0
 62
     0
  6
CONTINUOUS
 10
6.036800
 20
6.134480
 11
6.039000
 21
6.136680
  0
LINE
  8
0
 62
     0
  6
CONTINUOUS
 10
6.039000
 20
6.136680
 11
6.039000
 21
6.138880
  0
LINE
  8
0
 62
     0
  6
CONTINUOUS
 10
6.039000
 20
6.138880
 11
6.041200
 21
6.143280
  0
LINE
  8
0
 62
     0
  6
CONTINUOUS
 10
6.041200
 20
6.143280
 11
6.043400
 21
6.143280
  0
LINE
  8
0
 62
     0
  6
CONTINUOUS
 10
6.043400
 20
6.143280
 11
6.045600
 21
6.145480
  0
LINE
  8
0
 62
     0
  6
CONTINUOUS
 10
6.045600
 20
6.145480
 11
6.052200
 21
6.145480
  0
LINE
  8
0
 62
     0
  6
CONTINUOUS
 10
6.052200
 20
6.145480
 11
6.060560
 21
6.149880
  0
LINE
  8
0
 62
     0
  6
CONTINUOUS
 10
6.060560
 20
6.149880
 11
6.073760
 21
6.153840
  0
LINE
  8
0
 62
     0
  6
CONTINUOUS
 10
6.073760
 20
6.153840
 11
6.095320
 21
6.158240
  0
LINE
  8
0
 62
     0
  6
CONTINUOUS
 10
6.095320
 20
6.158240
 11
6.119080
 21
6.164840
  0
LINE
  8
0
 62
     0
  6
CONTINUOUS
 10
6.119080
 20
6.164840
 11
6.151640
 21
6.175400
  0
LINE
  8
0
 62
     0
  6
CONTINUOUS
 10
6.151640
 20
6.175400
 11
6.190360
 21
6.184200
  0
LINE
  8
0
 62
     0
  6
CONTINUOUS
 10
6.190360
 20
6.184200
 11
6.229520
 21
6.195200
  0
LINE
  8
0
 62
     0
  6
CONTINUOUS
 10
6.229520
 20
6.195200
 11
6.272640
 21
6.205760
  0
LINE
  8
0
 62
     0
  6
CONTINUOUS
 10
6.272640
 20
6.205760
 11
6.315760
 21
6.216760
  0
LINE
  8
0
 62
     0
  6
CONTINUOUS
 10
6.315760
 20
6.216760
 11
6.357120
 21
6.227320
  0
LINE
  8
0
 62
     0
  6
CONTINUOUS
 10
6.357120
 20
6.227320
 11
6.395840
 21
6.236120
  0
LINE
  8
0
 62
     0
  6
CONTINUOUS
 10
6.395840
 20
6.236120
 11
6.426200
 21
6.244920
  0
LINE
  8
0
 62
     0
  6
CONTINUOUS
 10
6.426200
 20
6.244920
 11
6.454360
 21
6.249320
  0
LINE
  8
0
 62
     0
  6
CONTINUOUS
 10
6.454360
 20
6.249320
 11
6.471520
 21
6.255480
  0
LINE
  8
0
 62
     0
  6
CONTINUOUS
 10
6.471520
 20
6.255480
 11
6.486480
 21
6.257680
  0
LINE
  8
0
 62
     0
  6
CONTINUOUS
 10
6.486480
 20
6.257680
 11
6.497480
 21
6.259880
  0
LINE
  8
0
 62
     0
  6
CONTINUOUS
 10
6.497480
 20
6.259880
 11
6.504080
 21
6.262080
  0
LINE
  8
0
 62
     0
  6
CONTINUOUS
 10
6.504080
 20
6.262080
 11
6.508040
 21
6.264280
  0
LINE
  8
0
 62
     0
  6
CONTINUOUS
 10
6.508040
 20
6.264280
 11
6.510240
 21
6.264280
  0
LINE
  8
0
 62
     0
  6
CONTINUOUS
 10
6.510240
 20
6.264280
 11
6.510240
 21
6.266480
  0
LINE
  8
0
 62
     0
  6
CONTINUOUS
 10
6.510240
 20
6.266480
 11
6.512440
 21
6.266480
  0
LINE
  8
0
 62
     0
  6
CONTINUOUS
 10
6.512440
 20
6.266480
 11
6.512440
 21
6.268680
  0
LINE
  8
0
 62
     0
  6
CONTINUOUS
 10
6.512440
 20
6.268680
 11
6.514640
 21
6.268680
  0
LINE
  8
0
 62
     0
  6
CONTINUOUS
 10
6.514640
 20
6.268680
 11
6.514640
 21
6.270880
  0
LINE
  8
0
 62
     0
  6
CONTINUOUS
 10
6.514640
 20
6.270880
 11
6.514640
 21
6.273080
  0
LINE
  8
0
 62
     0
  6
CONTINUOUS
 10
6.514640
 20
6.273080
 11
6.514640
 21
6.274840
  0
LINE
  8
0
 62
     0
  6
CONTINUOUS
 10
6.514640
 20
6.274840
 11
6.514640
 21
6.279240
  0
LINE
  8
0
 62
     0
  6
CONTINUOUS
 10
6.514640
 20
6.279240
 11
6.514640
 21
6.281440
  0
LINE
  8
0
 62
     0
  6
CONTINUOUS
 10
6.514640
 20
6.281440
 11
6.512440
 21
6.285840
  0
LINE
  8
0
 62
     0
  6
CONTINUOUS
 10
6.512440
 20
6.285840
 11
6.510240
 21
6.288040
  0
LINE
  8
0
 62
     0
  6
CONTINUOUS
 10
6.510240
 20
6.288040
 11
6.508040
 21
6.290240
  0
LINE
  8
0
 62
     0
  6
CONTINUOUS
 10
6.508040
 20
6.290240
 11
6.504080
 21
6.292440
  0
LINE
  8
0
 62
     0
  6
CONTINUOUS
 10
6.504080
 20
6.292440
 11
6.499680
 21
6.296840
  0
LINE
  8
0
 62
     0
  6
CONTINUOUS
 10
6.499680
 20
6.296840
 11
6.488680
 21
6.299040
  0
LINE
  8
0
 62
     0
  6
CONTINUOUS
 10
6.488680
 20
6.299040
 11
6.480320
 21
6.303000
  0
LINE
  8
0
 62
     0
  6
CONTINUOUS
 10
6.480320
 20
6.303000
 11
6.462720
 21
6.309600
  0
LINE
  8
0
 62
     0
  6
CONTINUOUS
 10
6.462720
 20
6.309600
 11
6.443360
 21
6.314000
  0
LINE
  8
0
 62
     0
  6
CONTINUOUS
 10
6.443360
 20
6.314000
 11
6.417400
 21
6.322800
  0
LINE
  8
0
 62
     0
  6
CONTINUOUS
 10
6.417400
 20
6.322800
 11
6.384840
 21
6.333360
  0
LINE
  8
0
 62
     0
  6
CONTINUOUS
 10
6.384840
 20
6.333360
 11
6.348320
 21
6.344360
  0
LINE
  8
0
 62
     0
  6
CONTINUOUS
 10
6.348320
 20
6.344360
 11
6.307400
 21
6.357120
  0
LINE
  8
0
 62
     0
  6
CONTINUOUS
 10
6.307400
 20
6.357120
 11
6.266040
 21
6.370320
  0
LINE
  8
0
 62
     0
  6
CONTINUOUS
 10
6.266040
 20
6.370320
 11
6.225120
 21
6.380880
  0
LINE
  8
0
 62
     0
  6
CONTINUOUS
 10
6.225120
 20
6.380880
 11
6.185960
 21
6.394080
  0
LINE
  8
0
 62
     0
  6
CONTINUOUS
 10
6.185960
 20
6.394080
 11
6.149440
 21
6.404640
  0
LINE
  8
0
 62
     0
  6
CONTINUOUS
 10
6.149440
 20
6.404640
 11
6.116880
 21
6.413440
  0
LINE
  8
0
 62
     0
  6
CONTINUOUS
 10
6.116880
 20
6.413440
 11
6.093120
 21
6.422240
  0
LINE
  8
0
 62
     0
  6
CONTINUOUS
 10
6.093120
 20
6.422240
 11
6.071560
 21
6.426200
  0
LINE
  8
0
 62
     0
  6
CONTINUOUS
 10
6.071560
 20
6.426200
 11
6.056600
 21
6.430600
  0
LINE
  8
0
 62
     0
  6
CONTINUOUS
 10
6.056600
 20
6.430600
 11
6.047800
 21
6.432800
  0
LINE
  8
0
 62
     0
  6
CONTINUOUS
 10
6.047800
 20
6.432800
 11
6.041200
 21
6.435000
  0
LINE
  8
0
 62
     0
  6
CONTINUOUS
 10
6.041200
 20
6.435000
 11
6.036800
 21
6.437200
  0
LINE
  8
0
 62
     0
  6
CONTINUOUS
 10
6.036800
 20
6.437200
 11
6.034600
 21
6.439400
  0
LINE
  8
0
 62
     0
  6
CONTINUOUS
 10
6.034600
 20
6.439400
 11
6.034600
 21
6.441600
  0
LINE
  8
0
 62
     0
  6
CONTINUOUS
 10
6.034600
 20
6.441600
 11
6.034600
 21
6.443800
  0
LINE
  8
0
 62
     0
  6
CONTINUOUS
 10
6.034600
 20
6.443800
 11
6.034600
 21
6.446000
  0
LINE
  8
0
 62
     0
  6
CONTINUOUS
 10
6.034600
 20
6.446000
 11
6.034600
 21
6.448200
  0
LINE
  8
0
 62
     0
  6
CONTINUOUS
 10
6.034600
 20
6.448200
 11
6.034600
 21
6.449960
  0
LINE
  8
0
 62
     0
  6
CONTINUOUS
 10
6.034600
 20
6.449960
 11
6.034600
 21
6.452160
  0
LINE
  8
0
 62
     0
  6
CONTINUOUS
 10
6.034600
 20
6.452160
 11
6.034600
 21
6.454360
  0
LINE
  8
0
 62
     0
  6
CONTINUOUS
 10
6.034600
 20
6.454360
 11
6.034600
 21
6.456560
  0
LINE
  8
0
 62
     0
  6
CONTINUOUS
 10
6.034600
 20
6.456560
 11
6.036800
 21
6.456560
  0
LINE
  8
0
 62
     0
  6
CONTINUOUS
 10
6.036800
 20
6.456560
 11
6.036800
 21
6.458760
  0
LINE
  8
0
 62
     0
  6
CONTINUOUS
 10
6.036800
 20
6.458760
 11
6.039000
 21
6.460960
  0
LINE
  8
0
 62
     0
  6
CONTINUOUS
 10
6.039000
 20
6.460960
 11
6.041200
 21
6.465360
  0
LINE
  8
0
 62
     0
  6
CONTINUOUS
 10
6.041200
 20
6.465360
 11
6.043400
 21
6.465360
  0
LINE
  8
0
 62
     0
  6
CONTINUOUS
 10
6.043400
 20
6.465360
 11
6.045600
 21
6.467560
  0
LINE
  8
0
 62
     0
  6
CONTINUOUS
 10
6.045600
 20
6.467560
 11
6.047800
 21
6.469760
  0
LINE
  8
0
 62
     0
  6
CONTINUOUS
 10
6.047800
 20
6.469760
 11
6.054400
 21
6.471960
  0
LINE
  8
0
 62
     0
  6
CONTINUOUS
 10
6.054400
 20
6.471960
 11
6.064960
 21
6.474160
  0
LINE
  8
0
 62
     0
  6
CONTINUOUS
 10
6.064960
 20
6.474160
 11
6.086520
 21
6.482520
  0
LINE
  8
0
 62
     0
  6
CONTINUOUS
 10
6.086520
 20
6.482520
 11
6.125680
 21
6.495720
  0
LINE
  8
0
 62
     0
  6
CONTINUOUS
 10
6.125680
 20
6.495720
 11
6.185960
 21
6.510680
  0
LINE
  8
0
 62
     0
  6
CONTINUOUS
 10
6.185960
 20
6.510680
 11
6.270440
 21
6.536640
  0
LINE
  8
0
 62
     0
  6
CONTINUOUS
 10
6.270440
 20
6.536640
 11
6.384840
 21
6.569200
  0
LINE
  8
0
 62
     0
  6
CONTINUOUS
 10
6.384840
 20
6.569200
 11
6.512440
 21
6.607920
  0
LINE
  8
0
 62
     0
  6
CONTINUOUS
 10
6.512440
 20
6.607920
 11
6.514640
 21
6.605720
  0
LINE
  8
0
 62
     0
  6
CONTINUOUS
 10
6.514640
 20
6.605720
 11
6.508040
 21
6.610120
  0
LINE
  8
0
 62
     0
  6
CONTINUOUS
 10
6.508040
 20
6.610120
 11
6.499680
 21
6.618920
  0
LINE
  8
0
 62
     0
  6
CONTINUOUS
 10
6.499680
 20
6.618920
 11
6.497480
 21
6.627280
  0
LINE
  8
0
 62
     0
  6
CONTINUOUS
 10
6.497480
 20
6.627280
 11
6.493080
 21
6.638280
  0
LINE
  8
0
 62
     0
  6
CONTINUOUS
 10
6.493080
 20
6.638280
 11
6.493080
 21
6.647080
  0
LINE
  8
0
 62
     0
  6
CONTINUOUS
 10
6.566560
 20
6.690200
 11
6.566560
 21
6.638280
  0
LINE
  8
0
 62
     0
  6
CONTINUOUS
 10
6.566560
 20
6.638280
 11
6.570960
 21
6.638280
  0
LINE
  8
0
 62
     0
  6
CONTINUOUS
 10
6.570960
 20
6.638280
 11
6.566560
 21
6.627280
  0
LINE
  8
0
 62
     0
  6
CONTINUOUS
 10
6.566560
 20
6.627280
 11
6.562160
 21
6.618920
  0
LINE
  8
0
 62
     0
  6
CONTINUOUS
 10
6.562160
 20
6.618920
 11
6.556000
 21
6.610120
  0
LINE
  8
0
 62
     0
  6
CONTINUOUS
 10
6.556000
 20
6.610120
 11
6.547200
 21
6.605720
  0
LINE
  8
0
 62
     0
  6
CONTINUOUS
 10
6.547200
 20
6.605720
 11
6.536200
 21
6.603520
  0
LINE
  8
0
 62
     0
  6
CONTINUOUS
 10
6.536200
 20
6.603520
 11
6.527840
 21
6.601320
  0
LINE
  8
0
 62
     0
  6
CONTINUOUS
 10
6.527840
 20
6.601320
 11
6.514640
 21
6.605720
  0
LINE
  8
0
 62
     0
  6
CONTINUOUS
 10
6.514640
 20
6.625080
 11
6.510240
 21
6.625080
  0
LINE
  8
0
 62
     0
  6
CONTINUOUS
 10
6.510240
 20
6.625080
 11
6.504080
 21
6.625080
  0
LINE
  8
0
 62
     0
  6
CONTINUOUS
 10
6.504080
 20
6.625080
 11
6.499680
 21
6.629480
  0
LINE
  8
0
 62
     0
  6
CONTINUOUS
 10
6.499680
 20
6.629480
 11
6.495280
 21
6.633880
  0
LINE
  8
0
 62
     0
  6
CONTINUOUS
 10
6.495280
 20
6.633880
 11
6.493080
 21
6.640480
  0
LINE
  8
0
 62
     0
  6
CONTINUOUS
 10
6.493080
 20
6.640480
 11
6.495280
 21
6.647080
  0
LINE
  8
0
 62
     0
  6
CONTINUOUS
 10
6.523440
 20
6.647080
 11
6.525640
 21
6.640480
  0
LINE
  8
0
 62
     0
  6
CONTINUOUS
 10
6.525640
 20
6.640480
 11
6.523440
 21
6.633880
  0
LINE
  8
0
 62
     0
  6
CONTINUOUS
 10
6.523440
 20
6.633880
 11
6.521240
 21
6.629480
  0
LINE
  8
0
 62
     0
  6
CONTINUOUS
 10
6.521240
 20
6.629480
 11
6.514640
 21
6.625080
  0
LINE
  8
0
 62
     0
  6
CONTINUOUS
 10
6.570960
 20
6.638280
 11
6.566560
 21
6.647080
  0
LINE
  8
0
 62
     0
  6
CONTINUOUS
 10
6.644440
 20
6.674800
 11
6.644440
 21
6.439400
  0
LINE
  8
0
 62
     0
  6
CONTINUOUS
 10
6.644440
 20
6.439400
 11
6.644440
 21
5.918440
  0
LINE
  8
0
 62
     0
  6
CONTINUOUS
 10
6.644440
 20
5.918440
 11
6.443360
 21
5.918440
  0
LINE
  8
0
 62
     0
  6
CONTINUOUS
 10
6.443360
 20
5.918440
 11
6.237880
 21
5.918440
  0
LINE
  8
0
 62
     0
  6
CONTINUOUS
 10
6.237880
 20
5.918440
 11
6.034600
 21
5.918440
  0
LINE
  8
0
 62
     0
  6
CONTINUOUS
 10
6.034600
 20
5.918440
 11
6.034600
 21
6.439400
  0
LINE
  8
0
 62
     0
  6
CONTINUOUS
 10
6.034600
 20
6.439400
 11
6.034600
 21
6.674800
  0
LINE
  8
0
 62
     0
  6
CONTINUOUS
 10
6.596920
 20
6.674800
 11
6.471520
 21
6.048240
  0
LINE
  8
0
 62
     0
  6
CONTINUOUS
 10
6.471520
 20
6.048240
 11
6.339520
 21
6.048240
  0
LINE
  8
0
 62
     0
  6
CONTINUOUS
 10
6.339520
 20
6.048240
 11
6.339520
 21
5.918440
  0
LINE
  8
0
 62
     0
  6
CONTINUOUS
 10
6.339520
 20
5.983120
 11
6.313560
 21
5.985320
  0
LINE
  8
0
 62
     0
  6
CONTINUOUS
 10
6.313560
 20
5.985320
 11
6.281440
 21
5.994120
  0
LINE
  8
0
 62
     0
  6
CONTINUOUS
 10
6.281440
 20
5.994120
 11
6.251080
 21
6.006880
  0
LINE
  8
0
 62
     0
  6
CONTINUOUS
 10
6.251080
 20
6.006880
 11
6.218520
 21
6.022280
  0
LINE
  8
0
 62
     0
  6
CONTINUOUS
 10
6.218520
 20
6.022280
 11
6.185960
 21
6.039440
  0
LINE
  8
0
 62
     0
  6
CONTINUOUS
 10
6.185960
 20
6.039440
 11
6.156040
 21
6.056600
  0
LINE
  8
0
 62
     0
  6
CONTINUOUS
 10
6.156040
 20
6.056600
 11
6.125680
 21
6.072000
  0
LINE
  8
0
 62
     0
  6
CONTINUOUS
 10
6.125680
 20
6.072000
 11
6.099720
 21
6.086960
  0
LINE
  8
0
 62
     0
  6
CONTINUOUS
 10
6.099720
 20
6.086960
 11
6.082560
 21
6.100160
  0
LINE
  8
0
 62
     0
  6
CONTINUOUS
 10
6.082560
 20
6.100160
 11
6.067160
 21
6.108520
  0
LINE
  8
0
 62
     0
  6
CONTINUOUS
 10
6.067160
 20
6.108520
 11
6.056600
 21
6.115120
  0
LINE
  8
0
 62
     0
  6
CONTINUOUS
 10
6.056600
 20
6.115120
 11
6.047800
 21
6.121720
  0
LINE
  8
0
 62
     0
  6
CONTINUOUS
 10
6.047800
 20
6.121720
 11
6.043400
 21
6.123920
  0
LINE
  8
0
 62
     0
  6
CONTINUOUS
 10
6.043400
 20
6.123920
 11
6.041200
 21
6.125680
  0
LINE
  8
0
 62
     0
  6
CONTINUOUS
 10
6.532240
 20
5.985320
 11
6.527840
 21
5.980920
  0
LINE
  8
0
 62
     0
  6
CONTINUOUS
 10
6.527840
 20
5.980920
 11
6.525640
 21
5.972560
  0
LINE
  8
0
 62
     0
  6
CONTINUOUS
 10
6.525640
 20
5.972560
 11
6.527840
 21
5.968160
  0
LINE
  8
0
 62
     0
  6
CONTINUOUS
 10
6.527840
 20
5.968160
 11
6.532240
 21
5.961560
  0
LINE
  8
0
 62
     0
  6
CONTINUOUS
 10
6.532240
 20
5.961560
 11
6.540600
 21
5.959360
  0
LINE
  8
0
 62
     0
  6
CONTINUOUS
 10
6.540600
 20
5.959360
 11
6.547200
 21
5.961560
  0
LINE
  8
0
 62
     0
  6
CONTINUOUS
 10
6.547200
 20
5.961560
 11
6.551600
 21
5.968160
  0
LINE
  8
0
 62
     0
  6
CONTINUOUS
 10
6.551600
 20
5.968160
 11
6.553800
 21
5.972560
  0
LINE
  8
0
 62
     0
  6
CONTINUOUS
 10
6.553800
 20
5.972560
 11
6.551600
 21
5.980920
  0
LINE
  8
0
 62
     0
  6
CONTINUOUS
 10
6.551600
 20
5.980920
 11
6.547200
 21
5.985320
  0
LINE
  8
0
 62
     0
  6
CONTINUOUS
 10
6.547200
 20
5.985320
 11
6.540600
 21
5.987520
  0
LINE
  8
0
 62
     0
  6
CONTINUOUS
 10
6.540600
 20
5.987520
 11
6.532240
 21
5.985320
  0
LINE
  8
0
 62
     0
  6
CONTINUOUS
 10
6.679200
 20
6.125680
 11
6.679200
 21
6.127880
  0
LINE
  8
0
 62
     0
  6
CONTINUOUS
 10
6.679200
 20
6.127880
 11
6.679200
 21
6.130080
  0
LINE
  8
0
 62
     0
  6
CONTINUOUS
 10
6.679200
 20
6.130080
 11
6.677000
 21
6.132280
  0
LINE
  8
0
 62
     0
  6
CONTINUOUS
 10
6.677000
 20
6.132280
 11
6.677000
 21
6.134480
  0
LINE
  8
0
 62
     0
  6
CONTINUOUS
 10
6.677000
 20
6.134480
 11
6.679200
 21
6.134480
  0
LINE
  8
0
 62
     0
  6
CONTINUOUS
 10
6.679200
 20
6.134480
 11
6.679200
 21
6.136680
  0
LINE
  8
0
 62
     0
  6
CONTINUOUS
 10
6.679200
 20
6.136680
 11
6.679200
 21
6.138880
  0
LINE
  8
0
 62
     0
  6
CONTINUOUS
 10
6.679200
 20
6.138880
 11
6.679200
 21
6.143280
  0
LINE
  8
0
 62
     0
  6
CONTINUOUS
 10
6.679200
 20
6.143280
 11
6.681400
 21
6.143280
  0
LINE
  8
0
 62
     0
  6
CONTINUOUS
 10
6.681400
 20
6.143280
 11
6.685360
 21
6.145480
  0
LINE
  8
0
 62
     0
  6
CONTINUOUS
 10
6.685360
 20
6.145480
 11
6.689760
 21
6.145480
  0
LINE
  8
0
 62
     0
  6
CONTINUOUS
 10
6.689760
 20
6.145480
 11
6.700760
 21
6.149880
  0
LINE
  8
0
 62
     0
  6
CONTINUOUS
 10
6.700760
 20
6.149880
 11
6.715720
 21
6.153840
  0
LINE
  8
0
 62
     0
  6
CONTINUOUS
 10
6.715720
 20
6.153840
 11
6.732880
 21
6.158240
  0
LINE
  8
0
 62
     0
  6
CONTINUOUS
 10
6.732880
 20
6.158240
 11
6.758840
 21
6.164840
  0
LINE
  8
0
 62
     0
  6
CONTINUOUS
 10
6.758840
 20
6.164840
 11
6.791400
 21
6.175400
  0
LINE
  8
0
 62
     0
  6
CONTINUOUS
 10
6.791400
 20
6.175400
 11
6.830120
 21
6.184200
  0
LINE
  8
0
 62
     0
  6
CONTINUOUS
 10
6.830120
 20
6.184200
 11
6.871480
 21
6.195200
  0
LINE
  8
0
 62
     0
  6
CONTINUOUS
 10
6.871480
 20
6.195200
 11
6.912400
 21
6.205760
  0
LINE
  8
0
 62
     0
  6
CONTINUOUS
 10
6.912400
 20
6.205760
 11
6.955960
 21
6.216760
  0
LINE
  8
0
 62
     0
  6
CONTINUOUS
 10
6.955960
 20
6.216760
 11
6.996880
 21
6.227320
  0
LINE
  8
0
 62
     0
  6
CONTINUOUS
 10
6.996880
 20
6.227320
 11
7.033400
 21
6.236120
  0
LINE
  8
0
 62
     0
  6
CONTINUOUS
 10
7.033400
 20
6.236120
 11
7.068160
 21
6.244920
  0
LINE
  8
0
 62
     0
  6
CONTINUOUS
 10
7.068160
 20
6.244920
 11
7.094120
 21
6.249320
  0
LINE
  8
0
 62
     0
  6
CONTINUOUS
 10
7.094120
 20
6.249320
 11
7.111280
 21
6.255480
  0
LINE
  8
0
 62
     0
  6
CONTINUOUS
 10
7.111280
 20
6.255480
 11
7.128880
 21
6.257680
  0
LINE
  8
0
 62
     0
  6
CONTINUOUS
 10
7.128880
 20
6.257680
 11
7.137240
 21
6.259880
  0
LINE
  8
0
 62
     0
  6
CONTINUOUS
 10
7.137240
 20
6.259880
 11
7.143840
 21
6.262080
  0
LINE
  8
0
 62
     0
  6
CONTINUOUS
 10
7.143840
 20
6.262080
 11
7.148240
 21
6.264280
  0
LINE
  8
0
 62
     0
  6
CONTINUOUS
 10
7.148240
 20
6.264280
 11
7.150440
 21
6.264280
  0
LINE
  8
0
 62
     0
  6
CONTINUOUS
 10
7.150440
 20
6.264280
 11
7.150440
 21
6.266480
  0
LINE
  8
0
 62
     0
  6
CONTINUOUS
 10
7.150440
 20
6.266480
 11
7.152640
 21
6.268680
  0
LINE
  8
0
 62
     0
  6
CONTINUOUS
 10
7.152640
 20
6.268680
 11
7.152640
 21
6.270880
  0
LINE
  8
0
 62
     0
  6
CONTINUOUS
 10
7.152640
 20
6.270880
 11
7.154840
 21
6.270880
  0
LINE
  8
0
 62
     0
  6
CONTINUOUS
 10
7.154840
 20
6.270880
 11
7.154840
 21
6.273080
  0
LINE
  8
0
 62
     0
  6
CONTINUOUS
 10
7.154840
 20
6.273080
 11
7.154840
 21
6.274840
  0
LINE
  8
0
 62
     0
  6
CONTINUOUS
 10
7.154840
 20
6.274840
 11
7.154840
 21
6.279240
  0
LINE
  8
0
 62
     0
  6
CONTINUOUS
 10
7.154840
 20
6.279240
 11
7.154840
 21
6.281440
  0
LINE
  8
0
 62
     0
  6
CONTINUOUS
 10
7.154840
 20
6.281440
 11
7.152640
 21
6.285840
  0
LINE
  8
0
 62
     0
  6
CONTINUOUS
 10
7.152640
 20
6.285840
 11
7.150440
 21
6.285840
  0
LINE
  8
0
 62
     0
  6
CONTINUOUS
 10
7.150440
 20
6.285840
 11
7.150440
 21
6.288040
  0
LINE
  8
0
 62
     0
  6
CONTINUOUS
 10
7.150440
 20
6.288040
 11
7.148240
 21
6.290240
  0
LINE
  8
0
 62
     0
  6
CONTINUOUS
 10
7.148240
 20
6.290240
 11
7.143840
 21
6.292440
  0
LINE
  8
0
 62
     0
  6
CONTINUOUS
 10
7.143840
 20
6.292440
 11
7.137240
 21
6.296840
  0
LINE
  8
0
 62
     0
  6
CONTINUOUS
 10
7.137240
 20
6.296840
 11
7.130640
 21
6.299040
  0
LINE
  8
0
 62
     0
  6
CONTINUOUS
 10
7.130640
 20
6.299040
 11
7.117880
 21
6.303000
  0
LINE
  8
0
 62
     0
  6
CONTINUOUS
 10
7.117880
 20
6.303000
 11
7.105120
 21
6.309600
  0
LINE
  8
0
 62
     0
  6
CONTINUOUS
 10
7.105120
 20
6.309600
 11
7.083120
 21
6.314000
  0
LINE
  8
0
 62
     0
  6
CONTINUOUS
 10
7.083120
 20
6.314000
 11
7.057160
 21
6.322800
  0
LINE
  8
0
 62
     0
  6
CONTINUOUS
 10
7.057160
 20
6.322800
 11
7.025040
 21
6.333360
  0
LINE
  8
0
 62
     0
  6
CONTINUOUS
 10
7.025040
 20
6.333360
 11
6.988080
 21
6.344360
  0
LINE
  8
0
 62
     0
  6
CONTINUOUS
 10
6.988080
 20
6.344360
 11
6.947160
 21
6.357120
  0
LINE
  8
0
 62
     0
  6
CONTINUOUS
 10
6.947160
 20
6.357120
 11
6.904040
 21
6.370320
  0
LINE
  8
0
 62
     0
  6
CONTINUOUS
 10
6.904040
 20
6.370320
 11
6.864880
 21
6.380880
  0
LINE
  8
0
 62
     0
  6
CONTINUOUS
 10
6.864880
 20
6.380880
 11
6.823960
 21
6.394080
  0
LINE
  8
0
 62
     0
  6
CONTINUOUS
 10
6.823960
 20
6.394080
 11
6.789200
 21
6.404640
  0
LINE
  8
0
 62
     0
  6
CONTINUOUS
 10
6.789200
 20
6.404640
 11
6.756640
 21
6.413440
  0
LINE
  8
0
 62
     0
  6
CONTINUOUS
 10
6.756640
 20
6.413440
 11
6.732880
 21
6.422240
  0
LINE
  8
0
 62
     0
  6
CONTINUOUS
 10
6.732880
 20
6.422240
 11
6.711320
 21
6.426200
  0
LINE
  8
0
 62
     0
  6
CONTINUOUS
 10
6.711320
 20
6.426200
 11
6.696360
 21
6.430600
  0
LINE
  8
0
 62
     0
  6
CONTINUOUS
 10
6.696360
 20
6.430600
 11
6.687560
 21
6.432800
  0
LINE
  8
0
 62
     0
  6
CONTINUOUS
 10
6.687560
 20
6.432800
 11
6.681400
 21
6.435000
  0
LINE
  8
0
 62
     0
  6
CONTINUOUS
 10
6.681400
 20
6.435000
 11
6.677000
 21
6.437200
  0
LINE
  8
0
 62
     0
  6
CONTINUOUS
 10
6.677000
 20
6.437200
 11
6.674800
 21
6.439400
  0
LINE
  8
0
 62
     0
  6
CONTINUOUS
 10
6.674800
 20
6.439400
 11
6.674800
 21
6.441600
  0
LINE
  8
0
 62
     0
  6
CONTINUOUS
 10
6.674800
 20
6.441600
 11
6.674800
 21
6.443800
  0
LINE
  8
0
 62
     0
  6
CONTINUOUS
 10
6.674800
 20
6.443800
 11
6.674800
 21
6.446000
  0
LINE
  8
0
 62
     0
  6
CONTINUOUS
 10
6.674800
 20
6.446000
 11
6.674800
 21
6.448200
  0
LINE
  8
0
 62
     0
  6
CONTINUOUS
 10
6.674800
 20
6.448200
 11
6.674800
 21
6.449960
  0
LINE
  8
0
 62
     0
  6
CONTINUOUS
 10
6.674800
 20
6.449960
 11
6.674800
 21
6.452160
  0
LINE
  8
0
 62
     0
  6
CONTINUOUS
 10
6.674800
 20
6.452160
 11
6.674800
 21
6.454360
  0
LINE
  8
0
 62
     0
  6
CONTINUOUS
 10
6.674800
 20
6.454360
 11
6.674800
 21
6.456560
  0
LINE
  8
0
 62
     0
  6
CONTINUOUS
 10
6.674800
 20
6.456560
 11
6.677000
 21
6.458760
  0
LINE
  8
0
 62
     0
  6
CONTINUOUS
 10
6.677000
 20
6.458760
 11
6.679200
 21
6.460960
  0
LINE
  8
0
 62
     0
  6
CONTINUOUS
 10
6.679200
 20
6.460960
 11
6.679200
 21
6.465360
  0
LINE
  8
0
 62
     0
  6
CONTINUOUS
 10
6.679200
 20
6.465360
 11
6.683160
 21
6.465360
  0
LINE
  8
0
 62
     0
  6
CONTINUOUS
 10
6.683160
 20
6.465360
 11
6.685360
 21
6.467560
  0
LINE
  8
0
 62
     0
  6
CONTINUOUS
 10
6.685360
 20
6.467560
 11
6.687560
 21
6.469760
  0
LINE
  8
0
 62
     0
  6
CONTINUOUS
 10
6.687560
 20
6.469760
 11
6.694160
 21
6.471960
  0
LINE
  8
0
 62
     0
  6
CONTINUOUS
 10
6.694160
 20
6.471960
 11
6.705160
 21
6.474160
  0
LINE
  8
0
 62
     0
  6
CONTINUOUS
 10
6.705160
 20
6.474160
 11
6.726720
 21
6.482520
  0
LINE
  8
0
 62
     0
  6
CONTINUOUS
 10
6.726720
 20
6.482520
 11
6.765440
 21
6.495720
  0
LINE
  8
0
 62
     0
  6
CONTINUOUS
 10
6.765440
 20
6.495720
 11
6.823960
 21
6.510680
  0
LINE
  8
0
 62
     0
  6
CONTINUOUS
 10
6.823960
 20
6.510680
 11
6.910200
 21
6.536640
  0
LINE
  8
0
 62
     0
  6
CONTINUOUS
 10
6.910200
 20
6.536640
 11
7.025040
 21
6.569200
  0
LINE
  8
0
 62
     0
  6
CONTINUOUS
 10
7.025040
 20
6.569200
 11
7.152640
 21
6.607920
  0
LINE
  8
0
 62
     0
  6
CONTINUOUS
 10
7.152640
 20
6.607920
 11
7.156600
 21
6.605720
  0
LINE
  8
0
 62
     0
  6
CONTINUOUS
 10
7.156600
 20
6.605720
 11
7.148240
 21
6.610120
  0
LINE
  8
0
 62
     0
  6
CONTINUOUS
 10
7.148240
 20
6.610120
 11
7.137240
 21
6.618920
  0
LINE
  8
0
 62
     0
  6
CONTINUOUS
 10
7.137240
 20
6.618920
 11
7.137240
 21
6.627280
  0
LINE
  8
0
 62
     0
  6
CONTINUOUS
 10
7.137240
 20
6.627280
 11
7.132840
 21
6.638280
  0
LINE
  8
0
 62
     0
  6
CONTINUOUS
 10
7.132840
 20
6.638280
 11
7.132840
 21
6.647080
  0
LINE
  8
0
 62
     0
  6
CONTINUOUS
 10
7.208520
 20
6.690200
 11
7.208520
 21
6.638280
  0
LINE
  8
0
 62
     0
  6
CONTINUOUS
 10
7.208520
 20
6.638280
 11
7.206320
 21
6.627280
  0
LINE
  8
0
 62
     0
  6
CONTINUOUS
 10
7.206320
 20
6.627280
 11
7.202360
 21
6.618920
  0
LINE
  8
0
 62
     0
  6
CONTINUOUS
 10
7.202360
 20
6.618920
 11
7.193560
 21
6.610120
  0
LINE
  8
0
 62
     0
  6
CONTINUOUS
 10
7.193560
 20
6.610120
 11
7.186960
 21
6.605720
  0
LINE
  8
0
 62
     0
  6
CONTINUOUS
 10
7.186960
 20
6.605720
 11
7.176400
 21
6.603520
  0
LINE
  8
0
 62
     0
  6
CONTINUOUS
 10
7.176400
 20
6.603520
 11
7.163200
 21
6.601320
  0
LINE
  8
0
 62
     0
  6
CONTINUOUS
 10
7.163200
 20
6.601320
 11
7.156600
 21
6.605720
  0
LINE
  8
0
 62
     0
  6
CONTINUOUS
 10
7.154840
 20
6.625080
 11
7.150440
 21
6.625080
  0
LINE
  8
0
 62
     0
  6
CONTINUOUS
 10
7.150440
 20
6.625080
 11
7.143840
 21
6.625080
  0
LINE
  8
0
 62
     0
  6
CONTINUOUS
 10
7.143840
 20
6.625080
 11
7.137240
 21
6.629480
  0
LINE
  8
0
 62
     0
  6
CONTINUOUS
 10
7.137240
 20
6.629480
 11
7.135040
 21
6.633880
  0
LINE
  8
0
 62
     0
  6
CONTINUOUS
 10
7.135040
 20
6.633880
 11
7.132840
 21
6.640480
  0
LINE
  8
0
 62
     0
  6
CONTINUOUS
 10
7.132840
 20
6.640480
 11
7.135040
 21
6.647080
  0
LINE
  8
0
 62
     0
  6
CONTINUOUS
 10
7.163200
 20
6.647080
 11
7.163200
 21
6.640480
  0
LINE
  8
0
 62
     0
  6
CONTINUOUS
 10
7.163200
 20
6.640480
 11
7.163200
 21
6.633880
  0
LINE
  8
0
 62
     0
  6
CONTINUOUS
 10
7.163200
 20
6.633880
 11
7.161000
 21
6.629480
  0
LINE
  8
0
 62
     0
  6
CONTINUOUS
 10
7.161000
 20
6.629480
 11
7.154840
 21
6.625080
  0
LINE
  8
0
 62
     0
  6
CONTINUOUS
 10
7.208520
 20
6.638280
 11
7.208520
 21
6.647080
  0
LINE
  8
0
 62
     0
  6
CONTINUOUS
 10
7.284200
 20
6.674800
 11
7.284200
 21
6.439400
  0
LINE
  8
0
 62
     0
  6
CONTINUOUS
 10
7.284200
 20
6.439400
 11
7.284200
 21
5.918440
  0
LINE
  8
0
 62
     0
  6
CONTINUOUS
 10
7.284200
 20
5.918440
 11
7.080920
 21
5.918440
  0
LINE
  8
0
 62
     0
  6
CONTINUOUS
 10
7.080920
 20
5.918440
 11
6.878080
 21
5.918440
  0
LINE
  8
0
 62
     0
  6
CONTINUOUS
 10
6.878080
 20
5.918440
 11
6.674800
 21
5.918440
  0
LINE
  8
0
 62
     0
  6
CONTINUOUS
 10
6.674800
 20
5.918440
 11
6.674800
 21
6.439400
  0
LINE
  8
0
 62
     0
  6
CONTINUOUS
 10
6.674800
 20
6.439400
 11
6.674800
 21
6.674800
  0
LINE
  8
0
 62
     0
  6
CONTINUOUS
 10
7.236680
 20
6.674800
 11
7.111280
 21
6.048240
  0
LINE
  8
0
 62
     0
  6
CONTINUOUS
 10
7.111280
 20
6.048240
 11
6.979720
 21
6.048240
  0
LINE
  8
0
 62
     0
  6
CONTINUOUS
 10
6.979720
 20
6.048240
 11
6.979720
 21
5.918440
  0
LINE
  8
0
 62
     0
  6
CONTINUOUS
 10
6.979720
 20
5.983120
 11
6.953760
 21
5.985320
  0
LINE
  8
0
 62
     0
  6
CONTINUOUS
 10
6.953760
 20
5.985320
 11
6.923400
 21
5.994120
  0
LINE
  8
0
 62
     0
  6
CONTINUOUS
 10
6.923400
 20
5.994120
 11
6.890840
 21
6.006880
  0
LINE
  8
0
 62
     0
  6
CONTINUOUS
 10
6.890840
 20
6.006880
 11
6.858280
 21
6.022280
  0
LINE
  8
0
 62
     0
  6
CONTINUOUS
 10
6.858280
 20
6.022280
 11
6.826160
 21
6.039440
  0
LINE
  8
0
 62
     0
  6
CONTINUOUS
 10
6.826160
 20
6.039440
 11
6.795800
 21
6.056600
  0
LINE
  8
0
 62
     0
  6
CONTINUOUS
 10
6.795800
 20
6.056600
 11
6.767640
 21
6.072000
  0
LINE
  8
0
 62
     0
  6
CONTINUOUS
 10
6.767640
 20
6.072000
 11
6.741680
 21
6.086960
  0
LINE
  8
0
 62
     0
  6
CONTINUOUS
 10
6.741680
 20
6.086960
 11
6.722320
 21
6.100160
  0
LINE
  8
0
 62
     0
  6
CONTINUOUS
 10
6.722320
 20
6.100160
 11
6.706920
 21
6.108520
  0
LINE
  8
0
 62
     0
  6
CONTINUOUS
 10
6.706920
 20
6.108520
 11
6.696360
 21
6.115120
  0
LINE
  8
0
 62
     0
  6
CONTINUOUS
 10
6.696360
 20
6.115120
 11
6.687560
 21
6.121720
  0
LINE
  8
0
 62
     0
  6
CONTINUOUS
 10
6.687560
 20
6.121720
 11
6.683160
 21
6.123920
  0
LINE
  8
0
 62
     0
  6
CONTINUOUS
 10
6.683160
 20
6.123920
 11
6.679200
 21
6.125680
  0
LINE
  8
0
 62
     0
  6
CONTINUOUS
 10
7.163200
 20
5.980920
 11
7.163200
 21
5.972560
  0
LINE
  8
0
 62
     0
  6
CONTINUOUS
 10
7.163200
 20
5.972560
 11
7.163200
 21
5.968160
  0
LINE
  8
0
 62
     0
  6
CONTINUOUS
 10
7.163200
 20
5.968160
 11
7.172000
 21
5.961560
  0
LINE
  8
0
 62
     0
  6
CONTINUOUS
 10
7.172000
 20
5.961560
 11
7.180360
 21
5.959360
  0
LINE
  8
0
 62
     0
  6
CONTINUOUS
 10
7.180360
 20
5.959360
 11
7.186960
 21
5.961560
  0
LINE
  8
0
 62
     0
  6
CONTINUOUS
 10
7.186960
 20
5.961560
 11
7.189160
 21
5.968160
  0
LINE
  8
0
 62
     0
  6
CONTINUOUS
 10
7.189160
 20
5.968160
 11
7.193560
 21
5.972560
  0
LINE
  8
0
 62
     0
  6
CONTINUOUS
 10
7.193560
 20
5.972560
 11
7.189160
 21
5.980920
  0
LINE
  8
0
 62
     0
  6
CONTINUOUS
 10
7.189160
 20
5.980920
 11
7.186960
 21
5.985320
  0
LINE
  8
0
 62
     0
  6
CONTINUOUS
 10
7.186960
 20
5.985320
 11
7.180360
 21
5.987520
  0
LINE
  8
0
 62
     0
  6
CONTINUOUS
 10
7.180360
 20
5.987520
 11
7.172000
 21
5.985320
  0
LINE
  8
0
 62
     0
  6
CONTINUOUS
 10
7.172000
 20
5.985320
 11
7.163200
 21
5.980920
  0
LINE
  8
0
 62
     0
  6
CONTINUOUS
 10
6.722320
 20
5.907440
 11
6.722320
 21
4.642880
  0
LINE
  8
0
 62
     0
  6
CONTINUOUS
 10
6.592520
 20
4.642880
 11
6.592520
 21
5.907440
  0
LINE
  8
0
 62
     0
  6
CONTINUOUS
 10
4.036560
 20
4.642880
 11
4.036560
 21
5.206520
  0
LINE
  8
0
 62
     0
  6
CONTINUOUS
 10
5.114120
 20
5.235120
 11
5.752120
 21
5.235120
  0
LINE
  8
0
 62
     0
  6
CONTINUOUS
 10
5.752120
 20
5.235120
 11
5.752120
 21
5.760480
  0
LINE
  8
0
 62
     0
  6
CONTINUOUS
 10
5.752120
 20
5.760480
 11
5.114120
 21
5.760480
  0
LINE
  8
0
 62
     0
  6
CONTINUOUS
 10
5.114120
 20
5.760480
 11
5.114120
 21
5.235120
  0
LINE
  8
0
 62
     0
  6
CONTINUOUS
 10
5.217960
 20
5.256680
 11
5.231160
 21
5.272080
  0
LINE
  8
0
 62
     0
  6
CONTINUOUS
 10
5.231160
 20
5.272080
 11
5.228960
 21
5.252720
  0
LINE
  8
0
 62
     0
  6
CONTINUOUS
 10
5.228960
 20
5.252720
 11
5.235560
 21
5.252720
  0
LINE
  8
0
 62
     0
  6
CONTINUOUS
 10
5.235560
 20
5.252720
 11
5.231160
 21
5.272080
  0
LINE
  8
0
 62
     0
  6
CONTINUOUS
 10
5.231160
 20
5.272080
 11
5.241720
 21
5.256680
  0
LINE
  8
0
 62
     0
  6
CONTINUOUS
 10
5.248320
 20
5.261080
 11
5.231160
 21
5.272080
  0
LINE
  8
0
 62
     0
  6
CONTINUOUS
 10
5.231160
 20
5.272080
 11
5.250520
 21
5.276480
  0
LINE
  8
0
 62
     0
  6
CONTINUOUS
 10
5.250520
 20
5.276480
 11
5.250520
 21
5.267680
  0
LINE
  8
0
 62
     0
  6
CONTINUOUS
 10
5.250520
 20
5.267680
 11
5.231160
 21
5.272080
  0
LINE
  8
0
 62
     0
  6
CONTINUOUS
 10
5.231160
 20
5.272080
 11
5.248320
 21
5.282640
  0
LINE
  8
0
 62
     0
  6
CONTINUOUS
 10
5.241720
 20
5.287040
 11
5.231160
 21
5.272080
  0
LINE
  8
0
 62
     0
  6
CONTINUOUS
 10
5.231160
 20
5.272080
 11
5.235560
 21
5.291440
  0
LINE
  8
0
 62
     0
  6
CONTINUOUS
 10
5.235560
 20
5.291440
 11
5.228960
 21
5.291440
  0
LINE
  8
0
 62
     0
  6
CONTINUOUS
 10
5.228960
 20
5.291440
 11
5.231160
 21
5.272080
  0
LINE
  8
0
 62
     0
  6
CONTINUOUS
 10
5.231160
 20
5.272080
 11
5.217960
 21
5.287040
  0
LINE
  8
0
 62
     0
  6
CONTINUOUS
 10
5.215760
 20
5.282640
 11
5.231160
 21
5.272080
  0
LINE
  8
0
 62
     0
  6
CONTINUOUS
 10
5.231160
 20
5.272080
 11
5.213560
 21
5.267680
  0
LINE
  8
0
 62
     0
  6
CONTINUOUS
 10
5.213560
 20
5.267680
 11
5.213560
 21
5.276480
  0
LINE
  8
0
 62
     0
  6
CONTINUOUS
 10
5.213560
 20
5.276480
 11
5.231160
 21
5.272080
  0
LINE
  8
0
 62
     0
  6
CONTINUOUS
 10
5.231160
 20
5.272080
 11
5.215760
 21
5.261080
  0
LINE
  8
0
 62
     0
  6
CONTINUOUS
 10
5.421240
 20
5.261080
 11
5.436640
 21
5.272080
  0
LINE
  8
0
 62
     0
  6
CONTINUOUS
 10
5.436640
 20
5.272080
 11
5.432240
 21
5.252720
  0
LINE
  8
0
 62
     0
  6
CONTINUOUS
 10
5.432240
 20
5.252720
 11
5.440600
 21
5.252720
  0
LINE
  8
0
 62
     0
  6
CONTINUOUS
 10
5.440600
 20
5.252720
 11
5.436640
 21
5.272080
  0
LINE
  8
0
 62
     0
  6
CONTINUOUS
 10
5.436640
 20
5.272080
 11
5.447200
 21
5.256680
  0
LINE
  8
0
 62
     0
  6
CONTINUOUS
 10
5.451600
 20
5.261080
 11
5.436640
 21
5.272080
  0
LINE
  8
0
 62
     0
  6
CONTINUOUS
 10
5.436640
 20
5.272080
 11
5.456000
 21
5.276480
  0
LINE
  8
0
 62
     0
  6
CONTINUOUS
 10
5.456000
 20
5.276480
 11
5.456000
 21
5.267680
  0
LINE
  8
0
 62
     0
  6
CONTINUOUS
 10
5.456000
 20
5.267680
 11
5.436640
 21
5.272080
  0
LINE
  8
0
 62
     0
  6
CONTINUOUS
 10
5.436640
 20
5.272080
 11
5.451600
 21
5.282640
  0
LINE
  8
0
 62
     0
  6
CONTINUOUS
 10
5.447200
 20
5.287040
 11
5.436640
 21
5.272080
  0
LINE
  8
0
 62
     0
  6
CONTINUOUS
 10
5.436640
 20
5.272080
 11
5.440600
 21
5.291440
  0
LINE
  8
0
 62
     0
  6
CONTINUOUS
 10
5.440600
 20
5.291440
 11
5.432240
 21
5.291440
  0
LINE
  8
0
 62
     0
  6
CONTINUOUS
 10
5.432240
 20
5.291440
 11
5.436640
 21
5.272080
  0
LINE
  8
0
 62
     0
  6
CONTINUOUS
 10
5.436640
 20
5.272080
 11
5.425640
 21
5.287040
  0
LINE
  8
0
 62
     0
  6
CONTINUOUS
 10
5.421240
 20
5.282640
 11
5.436640
 21
5.272080
  0
LINE
  8
0
 62
     0
  6
CONTINUOUS
 10
5.436640
 20
5.272080
 11
5.416840
 21
5.267680
  0
LINE
  8
0
 62
     0
  6
CONTINUOUS
 10
5.416840
 20
5.267680
 11
5.416840
 21
5.276480
  0
LINE
  8
0
 62
     0
  6
CONTINUOUS
 10
5.416840
 20
5.276480
 11
5.436640
 21
5.272080
  0
LINE
  8
0
 62
     0
  6
CONTINUOUS
 10
5.436640
 20
5.272080
 11
5.425640
 21
5.256680
  0
LINE
  8
0
 62
     0
  6
CONTINUOUS
 10
5.436640
 20
5.358320
 11
5.458200
 21
5.360520
  0
LINE
  8
0
 62
     0
  6
CONTINUOUS
 10
5.458200
 20
5.360520
 11
5.477560
 21
5.364920
  0
LINE
  8
0
 62
     0
  6
CONTINUOUS
 10
5.477560
 20
5.364920
 11
5.499120
 21
5.371520
  0
LINE
  8
0
 62
     0
  6
CONTINUOUS
 10
5.499120
 20
5.371520
 11
5.518480
 21
5.384280
  0
LINE
  8
0
 62
     0
  6
CONTINUOUS
 10
5.518480
 20
5.384280
 11
5.533880
 21
5.399680
  0
LINE
  8
0
 62
     0
  6
CONTINUOUS
 10
5.533880
 20
5.399680
 11
5.546640
 21
5.414640
  0
LINE
  8
0
 62
     0
  6
CONTINUOUS
 10
5.546640
 20
5.414640
 11
5.559840
 21
5.431800
  0
LINE
  8
0
 62
     0
  6
CONTINUOUS
 10
5.559840
 20
5.431800
 11
5.566000
 21
5.453360
  0
LINE
  8
0
 62
     0
  6
CONTINUOUS
 10
5.566000
 20
5.453360
 11
5.570400
 21
5.473160
  0
LINE
  8
0
 62
     0
  6
CONTINUOUS
 10
5.570400
 20
5.473160
 11
5.572600
 21
5.494720
  0
LINE
  8
0
 62
     0
  6
CONTINUOUS
 10
5.572600
 20
5.494720
 11
5.570400
 21
5.516280
  0
LINE
  8
0
 62
     0
  6
CONTINUOUS
 10
5.570400
 20
5.516280
 11
5.566000
 21
5.537840
  0
LINE
  8
0
 62
     0
  6
CONTINUOUS
 10
5.566000
 20
5.537840
 11
5.559840
 21
5.557200
  0
LINE
  8
0
 62
     0
  6
CONTINUOUS
 10
5.559840
 20
5.557200
 11
5.546640
 21
5.577000
  0
LINE
  8
0
 62
     0
  6
CONTINUOUS
 10
5.546640
 20
5.577000
 11
5.533880
 21
5.591960
  0
LINE
  8
0
 62
     0
  6
CONTINUOUS
 10
5.533880
 20
5.591960
 11
5.518480
 21
5.606920
  0
LINE
  8
0
 62
     0
  6
CONTINUOUS
 10
5.518480
 20
5.606920
 11
5.499120
 21
5.617920
  0
LINE
  8
0
 62
     0
  6
CONTINUOUS
 10
5.499120
 20
5.617920
 11
5.477560
 21
5.626720
  0
LINE
  8
0
 62
     0
  6
CONTINUOUS
 10
5.477560
 20
5.626720
 11
5.458200
 21
5.630680
  0
LINE
  8
0
 62
     0
  6
CONTINUOUS
 10
5.458200
 20
5.630680
 11
5.436640
 21
5.632880
  0
LINE
  8
0
 62
     0
  6
CONTINUOUS
 10
5.436640
 20
5.632880
 11
5.414640
 21
5.630680
  0
LINE
  8
0
 62
     0
  6
CONTINUOUS
 10
5.414640
 20
5.630680
 11
5.395280
 21
5.626720
  0
LINE
  8
0
 62
     0
  6
CONTINUOUS
 10
5.395280
 20
5.626720
 11
5.373720
 21
5.617920
  0
LINE
  8
0
 62
     0
  6
CONTINUOUS
 10
5.373720
 20
5.617920
 11
5.356560
 21
5.606920
  0
LINE
  8
0
 62
     0
  6
CONTINUOUS
 10
5.356560
 20
5.606920
 11
5.338960
 21
5.591960
  0
LINE
  8
0
 62
     0
  6
CONTINUOUS
 10
5.338960
 20
5.591960
 11
5.326200
 21
5.577000
  0
LINE
  8
0
 62
     0
  6
CONTINUOUS
 10
5.326200
 20
5.577000
 11
5.313000
 21
5.557200
  0
LINE
  8
0
 62
     0
  6
CONTINUOUS
 10
5.313000
 20
5.557200
 11
5.306840
 21
5.537840
  0
LINE
  8
0
 62
     0
  6
CONTINUOUS
 10
5.306840
 20
5.537840
 11
5.300240
 21
5.516280
  0
LINE
  8
0
 62
     0
  6
CONTINUOUS
 10
5.300240
 20
5.516280
 11
5.300240
 21
5.494720
  0
LINE
  8
0
 62
     0
  6
CONTINUOUS
 10
5.300240
 20
5.494720
 11
5.300240
 21
5.473160
  0
LINE
  8
0
 62
     0
  6
CONTINUOUS
 10
5.300240
 20
5.473160
 11
5.306840
 21
5.453360
  0
LINE
  8
0
 62
     0
  6
CONTINUOUS
 10
5.306840
 20
5.453360
 11
5.313000
 21
5.431800
  0
LINE
  8
0
 62
     0
  6
CONTINUOUS
 10
5.313000
 20
5.431800
 11
5.326200
 21
5.414640
  0
LINE
  8
0
 62
     0
  6
CONTINUOUS
 10
5.326200
 20
5.414640
 11
5.338960
 21
5.399680
  0
LINE
  8
0
 62
     0
  6
CONTINUOUS
 10
5.338960
 20
5.399680
 11
5.356560
 21
5.384280
  0
LINE
  8
0
 62
     0
  6
CONTINUOUS
 10
5.356560
 20
5.384280
 11
5.373720
 21
5.371520
  0
LINE
  8
0
 62
     0
  6
CONTINUOUS
 10
5.373720
 20
5.371520
 11
5.395280
 21
5.364920
  0
LINE
  8
0
 62
     0
  6
CONTINUOUS
 10
5.395280
 20
5.364920
 11
5.414640
 21
5.360520
  0
LINE
  8
0
 62
     0
  6
CONTINUOUS
 10
5.414640
 20
5.360520
 11
5.436640
 21
5.358320
  0
LINE
  8
0
 62
     0
  6
CONTINUOUS
 10
5.631120
 20
5.287040
 11
5.641680
 21
5.272080
  0
LINE
  8
0
 62
     0
  6
CONTINUOUS
 10
5.641680
 20
5.272080
 11
5.622320
 21
5.267680
  0
LINE
  8
0
 62
     0
  6
CONTINUOUS
 10
5.622320
 20
5.267680
 11
5.622320
 21
5.276480
  0
LINE
  8
0
 62
     0
  6
CONTINUOUS
 10
5.622320
 20
5.276480
 11
5.641680
 21
5.272080
  0
LINE
  8
0
 62
     0
  6
CONTINUOUS
 10
5.641680
 20
5.272080
 11
5.624520
 21
5.261080
  0
LINE
  8
0
 62
     0
  6
CONTINUOUS
 10
5.631120
 20
5.256680
 11
5.641680
 21
5.272080
  0
LINE
  8
0
 62
     0
  6
CONTINUOUS
 10
5.641680
 20
5.272080
 11
5.637280
 21
5.252720
  0
LINE
  8
0
 62
     0
  6
CONTINUOUS
 10
5.637280
 20
5.252720
 11
5.643880
 21
5.252720
  0
LINE
  8
0
 62
     0
  6
CONTINUOUS
 10
5.643880
 20
5.252720
 11
5.641680
 21
5.272080
  0
LINE
  8
0
 62
     0
  6
CONTINUOUS
 10
5.641680
 20
5.272080
 11
5.652680
 21
5.256680
  0
LINE
  8
0
 62
     0
  6
CONTINUOUS
 10
5.657080
 20
5.261080
 11
5.641680
 21
5.272080
  0
LINE
  8
0
 62
     0
  6
CONTINUOUS
 10
5.641680
 20
5.272080
 11
5.659280
 21
5.276480
  0
LINE
  8
0
 62
     0
  6
CONTINUOUS
 10
5.659280
 20
5.276480
 11
5.659280
 21
5.267680
  0
LINE
  8
0
 62
     0
  6
CONTINUOUS
 10
5.659280
 20
5.267680
 11
5.641680
 21
5.272080
  0
LINE
  8
0
 62
     0
  6
CONTINUOUS
 10
5.641680
 20
5.272080
 11
5.657080
 21
5.282640
  0
LINE
  8
0
 62
     0
  6
CONTINUOUS
 10
5.652680
 20
5.287040
 11
5.641680
 21
5.272080
  0
LINE
  8
0
 62
     0
  6
CONTINUOUS
 10
5.641680
 20
5.272080
 11
5.643880
 21
5.291440
  0
LINE
  8
0
 62
     0
  6
CONTINUOUS
 10
5.643880
 20
5.291440
 11
5.637280
 21
5.291440
  0
LINE
  8
0
 62
     0
  6
CONTINUOUS
 10
5.637280
 20
5.291440
 11
5.641680
 21
5.272080
  0
LINE
  8
0
 62
     0
  6
CONTINUOUS
 10
5.641680
 20
5.272080
 11
5.624520
 21
5.282640
  0
LINE
  8
0
 62
     0
  6
CONTINUOUS
 10
5.589760
 20
5.563800
 11
5.591960
 21
5.570400
  0
LINE
  8
0
 62
     0
  6
CONTINUOUS
 10
5.591960
 20
5.570400
 11
5.596360
 21
5.578760
  0
LINE
  8
0
 62
     0
  6
CONTINUOUS
 10
5.596360
 20
5.578760
 11
5.591960
 21
5.587560
  0
LINE
  8
0
 62
     0
  6
CONTINUOUS
 10
5.591960
 20
5.587560
 11
5.589760
 21
5.596360
  0
LINE
  8
0
 62
     0
  6
CONTINUOUS
 10
5.589760
 20
5.596360
 11
5.581400
 21
5.598560
  0
LINE
  8
0
 62
     0
  6
CONTINUOUS
 10
5.581400
 20
5.598560
 11
5.570400
 21
5.600760
  0
LINE
  8
0
 62
     0
  6
CONTINUOUS
 10
5.570400
 20
5.600760
 11
5.563800
 21
5.598560
  0
LINE
  8
0
 62
     0
  6
CONTINUOUS
 10
5.563800
 20
5.598560
 11
5.555440
 21
5.596360
  0
LINE
  8
0
 62
     0
  6
CONTINUOUS
 10
5.555440
 20
5.596360
 11
5.551040
 21
5.587560
  0
LINE
  8
0
 62
     0
  6
CONTINUOUS
 10
5.551040
 20
5.587560
 11
5.551040
 21
5.578760
  0
LINE
  8
0
 62
     0
  6
CONTINUOUS
 10
5.551040
 20
5.578760
 11
5.551040
 21
5.570400
  0
LINE
  8
0
 62
     0
  6
CONTINUOUS
 10
5.551040
 20
5.570400
 11
5.555440
 21
5.563800
  0
LINE
  8
0
 62
     0
  6
CONTINUOUS
 10
5.555440
 20
5.563800
 11
5.563800
 21
5.557200
  0
LINE
  8
0
 62
     0
  6
CONTINUOUS
 10
5.563800
 20
5.557200
 11
5.570400
 21
5.555000
  0
LINE
  8
0
 62
     0
  6
CONTINUOUS
 10
5.570400
 20
5.555000
 11
5.581400
 21
5.557200
  0
LINE
  8
0
 62
     0
  6
CONTINUOUS
 10
5.581400
 20
5.557200
 11
5.589760
 21
5.563800
  0
LINE
  8
0
 62
     0
  6
CONTINUOUS
 10
5.570400
 20
5.578760
 11
5.522880
 21
5.669840
  0
LINE
  8
0
 62
     0
  6
CONTINUOUS
 10
5.522880
 20
5.669840
 11
5.114120
 21
5.669840
  0
LINE
  8
0
 62
     0
  6
CONTINUOUS
 10
5.114120
 20
5.669840
 11
5.120720
 21
5.650480
  0
LINE
  8
0
 62
     0
  6
CONTINUOUS
 10
5.120720
 20
5.650480
 11
5.120720
 21
5.641680
  0
LINE
  8
0
 62
     0
  6
CONTINUOUS
 10
5.120720
 20
5.641680
 11
5.114120
 21
5.624520
  0
LINE
  8
0
 62
     0
  6
CONTINUOUS
 10
5.114120
 20
5.624520
 11
5.120720
 21
5.604720
  0
LINE
  8
0
 62
     0
  6
CONTINUOUS
 10
5.127320
 20
5.606920
 11
5.114120
 21
5.624520
  0
LINE
  8
0
 62
     0
  6
CONTINUOUS
 10
5.114120
 20
5.624520
 11
5.131720
 21
5.613520
  0
LINE
  8
0
 62
     0
  6
CONTINUOUS
 10
5.136120
 20
5.620120
 11
5.114120
 21
5.624520
  0
LINE
  8
0
 62
     0
  6
CONTINUOUS
 10
5.114120
 20
5.624520
 11
5.131720
 21
5.635080
  0
LINE
  8
0
 62
     0
  6
CONTINUOUS
 10
5.127320
 20
5.639480
 11
5.114120
 21
5.624520
  0
LINE
  8
0
 62
     0
  6
CONTINUOUS
 10
5.114120
 20
5.624520
 11
5.263280
 21
5.624520
  0
LINE
  8
0
 62
     0
  6
CONTINUOUS
 10
5.263280
 20
5.624520
 11
5.300240
 21
5.578760
  0
LINE
  8
0
 62
     0
  6
CONTINUOUS
 10
5.300240
 20
5.600760
 11
5.291440
 21
5.598560
  0
LINE
  8
0
 62
     0
  6
CONTINUOUS
 10
5.291440
 20
5.598560
 11
5.283080
 21
5.596360
  0
LINE
  8
0
 62
     0
  6
CONTINUOUS
 10
5.283080
 20
5.596360
 11
5.278680
 21
5.587560
  0
LINE
  8
0
 62
     0
  6
CONTINUOUS
 10
5.278680
 20
5.587560
 11
5.278680
 21
5.578760
  0
LINE
  8
0
 62
     0
  6
CONTINUOUS
 10
5.278680
 20
5.578760
 11
5.278680
 21
5.570400
  0
LINE
  8
0
 62
     0
  6
CONTINUOUS
 10
5.278680
 20
5.570400
 11
5.283080
 21
5.563800
  0
LINE
  8
0
 62
     0
  6
CONTINUOUS
 10
5.283080
 20
5.563800
 11
5.291440
 21
5.557200
  0
LINE
  8
0
 62
     0
  6
CONTINUOUS
 10
5.291440
 20
5.557200
 11
5.300240
 21
5.555000
  0
LINE
  8
0
 62
     0
  6
CONTINUOUS
 10
5.300240
 20
5.555000
 11
5.309040
 21
5.557200
  0
LINE
  8
0
 62
     0
  6
CONTINUOUS
 10
5.309040
 20
5.557200
 11
5.317400
 21
5.563800
  0
LINE
  8
0
 62
     0
  6
CONTINUOUS
 10
5.317400
 20
5.563800
 11
5.321800
 21
5.570400
  0
LINE
  8
0
 62
     0
  6
CONTINUOUS
 10
5.321800
 20
5.570400
 11
5.321800
 21
5.578760
  0
LINE
  8
0
 62
     0
  6
CONTINUOUS
 10
5.321800
 20
5.578760
 11
5.321800
 21
5.587560
  0
LINE
  8
0
 62
     0
  6
CONTINUOUS
 10
5.321800
 20
5.587560
 11
5.317400
 21
5.596360
  0
LINE
  8
0
 62
     0
  6
CONTINUOUS
 10
5.317400
 20
5.596360
 11
5.309040
 21
5.598560
  0
LINE
  8
0
 62
     0
  6
CONTINUOUS
 10
5.309040
 20
5.598560
 11
5.300240
 21
5.600760
  0
LINE
  8
0
 62
     0
  6
CONTINUOUS
 10
5.248320
 20
5.723960
 11
5.231160
 21
5.734520
  0
LINE
  8
0
 62
     0
  6
CONTINUOUS
 10
5.231160
 20
5.734520
 11
5.250520
 21
5.738920
  0
LINE
  8
0
 62
     0
  6
CONTINUOUS
 10
5.250520
 20
5.738920
 11
5.250520
 21
5.730120
  0
LINE
  8
0
 62
     0
  6
CONTINUOUS
 10
5.250520
 20
5.730120
 11
5.231160
 21
5.734520
  0
LINE
  8
0
 62
     0
  6
CONTINUOUS
 10
5.231160
 20
5.734520
 11
5.248320
 21
5.743320
  0
LINE
  8
0
 62
     0
  6
CONTINUOUS
 10
5.241720
 20
5.751680
 11
5.231160
 21
5.734520
  0
LINE
  8
0
 62
     0
  6
CONTINUOUS
 10
5.231160
 20
5.734520
 11
5.235560
 21
5.751680
  0
LINE
  8
0
 62
     0
  6
CONTINUOUS
 10
5.235560
 20
5.751680
 11
5.228960
 21
5.751680
  0
LINE
  8
0
 62
     0
  6
CONTINUOUS
 10
5.228960
 20
5.751680
 11
5.231160
 21
5.734520
  0
LINE
  8
0
 62
     0
  6
CONTINUOUS
 10
5.231160
 20
5.734520
 11
5.217960
 21
5.751680
  0
LINE
  8
0
 62
     0
  6
CONTINUOUS
 10
5.215760
 20
5.743320
 11
5.231160
 21
5.734520
  0
LINE
  8
0
 62
     0
  6
CONTINUOUS
 10
5.231160
 20
5.734520
 11
5.213560
 21
5.730120
  0
LINE
  8
0
 62
     0
  6
CONTINUOUS
 10
5.213560
 20
5.730120
 11
5.213560
 21
5.738920
  0
LINE
  8
0
 62
     0
  6
CONTINUOUS
 10
5.213560
 20
5.738920
 11
5.231160
 21
5.734520
  0
LINE
  8
0
 62
     0
  6
CONTINUOUS
 10
5.231160
 20
5.734520
 11
5.215760
 21
5.723960
  0
LINE
  8
0
 62
     0
  6
CONTINUOUS
 10
5.217960
 20
5.719560
 11
5.231160
 21
5.734520
  0
LINE
  8
0
 62
     0
  6
CONTINUOUS
 10
5.231160
 20
5.734520
 11
5.228960
 21
5.715160
  0
LINE
  8
0
 62
     0
  6
CONTINUOUS
 10
5.228960
 20
5.715160
 11
5.235560
 21
5.715160
  0
LINE
  8
0
 62
     0
  6
CONTINUOUS
 10
5.235560
 20
5.715160
 11
5.231160
 21
5.734520
  0
LINE
  8
0
 62
     0
  6
CONTINUOUS
 10
5.231160
 20
5.734520
 11
5.241720
 21
5.719560
  0
LINE
  8
0
 62
     0
  6
CONTINUOUS
 10
5.127320
 20
5.684800
 11
5.114120
 21
5.669840
  0
LINE
  8
0
 62
     0
  6
CONTINUOUS
 10
5.114120
 20
5.669840
 11
5.131720
 21
5.658840
  0
LINE
  8
0
 62
     0
  6
CONTINUOUS
 10
5.136120
 20
5.665440
 11
5.114120
 21
5.669840
  0
LINE
  8
0
 62
     0
  6
CONTINUOUS
 10
5.114120
 20
5.669840
 11
5.131720
 21
5.680400
  0
LINE
  8
0
 62
     0
  6
CONTINUOUS
 10
5.136120
 20
5.672040
 11
5.114120
 21
5.669840
  0
LINE
  8
0
 62
     0
  6
CONTINUOUS
 10
5.114120
 20
5.669840
 11
5.120720
 21
5.689200
  0
LINE
  8
0
 62
     0
  6
CONTINUOUS
 10
5.114120
 20
5.669840
 11
5.127320
 21
5.652240
  0
LINE
  8
0
 62
     0
  6
CONTINUOUS
 10
5.136120
 20
5.628480
 11
5.114120
 21
5.624520
  0
LINE
  8
0
 62
     0
  6
CONTINUOUS
 10
5.421240
 20
5.723960
 11
5.436640
 21
5.734520
  0
LINE
  8
0
 62
     0
  6
CONTINUOUS
 10
5.436640
 20
5.734520
 11
5.432240
 21
5.715160
  0
LINE
  8
0
 62
     0
  6
CONTINUOUS
 10
5.432240
 20
5.715160
 11
5.440600
 21
5.715160
  0
LINE
  8
0
 62
     0
  6
CONTINUOUS
 10
5.440600
 20
5.715160
 11
5.436640
 21
5.734520
  0
LINE
  8
0
 62
     0
  6
CONTINUOUS
 10
5.436640
 20
5.734520
 11
5.447200
 21
5.719560
  0
LINE
  8
0
 62
     0
  6
CONTINUOUS
 10
5.451600
 20
5.723960
 11
5.436640
 21
5.734520
  0
LINE
  8
0
 62
     0
  6
CONTINUOUS
 10
5.436640
 20
5.734520
 11
5.456000
 21
5.738920
  0
LINE
  8
0
 62
     0
  6
CONTINUOUS
 10
5.456000
 20
5.738920
 11
5.456000
 21
5.730120
  0
LINE
  8
0
 62
     0
  6
CONTINUOUS
 10
5.456000
 20
5.730120
 11
5.436640
 21
5.734520
  0
LINE
  8
0
 62
     0
  6
CONTINUOUS
 10
5.436640
 20
5.734520
 11
5.451600
 21
5.743320
  0
LINE
  8
0
 62
     0
  6
CONTINUOUS
 10
5.447200
 20
5.751680
 11
5.436640
 21
5.734520
  0
LINE
  8
0
 62
     0
  6
CONTINUOUS
 10
5.436640
 20
5.734520
 11
5.440600
 21
5.751680
  0
LINE
  8
0
 62
     0
  6
CONTINUOUS
 10
5.440600
 20
5.751680
 11
5.432240
 21
5.751680
  0
LINE
  8
0
 62
     0
  6
CONTINUOUS
 10
5.432240
 20
5.751680
 11
5.436640
 21
5.734520
  0
LINE
  8
0
 62
     0
  6
CONTINUOUS
 10
5.436640
 20
5.734520
 11
5.425640
 21
5.751680
  0
LINE
  8
0
 62
     0
  6
CONTINUOUS
 10
5.421240
 20
5.743320
 11
5.436640
 21
5.734520
  0
LINE
  8
0
 62
     0
  6
CONTINUOUS
 10
5.436640
 20
5.734520
 11
5.416840
 21
5.730120
  0
LINE
  8
0
 62
     0
  6
CONTINUOUS
 10
5.416840
 20
5.730120
 11
5.416840
 21
5.738920
  0
LINE
  8
0
 62
     0
  6
CONTINUOUS
 10
5.416840
 20
5.738920
 11
5.436640
 21
5.734520
  0
LINE
  8
0
 62
     0
  6
CONTINUOUS
 10
5.436640
 20
5.734520
 11
5.425640
 21
5.719560
  0
LINE
  8
0
 62
     0
  6
CONTINUOUS
 10
5.425640
 20
5.518480
 11
5.421240
 21
5.514080
  0
LINE
  8
0
 62
     0
  6
CONTINUOUS
 10
5.421240
 20
5.514080
 11
5.419040
 21
5.505280
  0
LINE
  8
0
 62
     0
  6
CONTINUOUS
 10
5.419040
 20
5.505280
 11
5.421240
 21
5.499120
  0
LINE
  8
0
 62
     0
  6
CONTINUOUS
 10
5.421240
 20
5.499120
 11
5.423440
 21
5.494720
  0
LINE
  8
0
 62
     0
  6
CONTINUOUS
 10
5.423440
 20
5.494720
 11
5.425640
 21
5.494720
  0
LINE
  8
0
 62
     0
  6
CONTINUOUS
 10
5.425640
 20
5.494720
 11
5.447200
 21
5.485920
  0
LINE
  8
0
 62
     0
  6
CONTINUOUS
 10
5.447200
 20
5.485920
 11
5.451600
 21
5.483720
  0
LINE
  8
0
 62
     0
  6
CONTINUOUS
 10
5.451600
 20
5.483720
 11
5.451600
 21
5.479320
  0
LINE
  8
0
 62
     0
  6
CONTINUOUS
 10
5.451600
 20
5.479320
 11
5.456000
 21
5.473160
  0
LINE
  8
0
 62
     0
  6
CONTINUOUS
 10
5.456000
 20
5.473160
 11
5.451600
 21
5.462160
  0
LINE
  8
0
 62
     0
  6
CONTINUOUS
 10
5.451600
 20
5.462160
 11
5.445000
 21
5.457760
  0
LINE
  8
0
 62
     0
  6
CONTINUOUS
 10
5.445000
 20
5.457760
 11
5.436640
 21
5.453360
  0
LINE
  8
0
 62
     0
  6
CONTINUOUS
 10
5.436640
 20
5.453360
 11
5.421240
 21
5.453360
  0
LINE
  8
0
 62
     0
  6
CONTINUOUS
 10
5.421240
 20
5.453360
 11
5.412440
 21
5.457760
  0
LINE
  8
0
 62
     0
  6
CONTINUOUS
 10
5.412440
 20
5.457760
 11
5.406280
 21
5.462160
  0
LINE
  8
0
 62
     0
  6
CONTINUOUS
 10
5.425640
 20
5.518480
 11
5.438400
 21
5.522880
  0
LINE
  8
0
 62
     0
  6
CONTINUOUS
 10
5.438400
 20
5.522880
 11
5.451600
 21
5.522880
  0
LINE
  8
0
 62
     0
  6
CONTINUOUS
 10
5.451600
 20
5.522880
 11
5.460400
 21
5.518480
  0
LINE
  8
0
 62
     0
  6
CONTINUOUS
 10
5.460400
 20
5.518480
 11
5.466560
 21
5.514080
  0
LINE
  8
0
 62
     0
  6
CONTINUOUS
 10
5.436640
 20
5.272080
 11
5.436640
 21
5.142280
  0
LINE
  8
0
 62
     0
  6
CONTINUOUS
 10
5.436640
 20
5.109720
 11
5.423440
 21
5.109720
  0
LINE
  8
0
 62
     0
  6
CONTINUOUS
 10
5.423440
 20
5.109720
 11
5.412440
 21
5.107520
  0
LINE
  8
0
 62
     0
  6
CONTINUOUS
 10
5.412440
 20
5.107520
 11
5.404080
 21
5.101360
  0
LINE
  8
0
 62
     0
  6
CONTINUOUS
 10
5.404080
 20
5.101360
 11
5.404080
 21
5.094760
  0
LINE
  8
0
 62
     0
  6
CONTINUOUS
 10
5.404080
 20
5.094760
 11
5.404080
 21
5.088160
  0
LINE
  8
0
 62
     0
  6
CONTINUOUS
 10
5.404080
 20
5.088160
 11
5.406280
 21
5.083760
  0
LINE
  8
0
 62
     0
  6
CONTINUOUS
 10
5.406280
 20
5.083760
 11
5.412440
 21
5.081560
  0
LINE
  8
0
 62
     0
  6
CONTINUOUS
 10
5.412440
 20
5.081560
 11
5.425640
 21
5.075400
  0
LINE
  8
0
 62
     0
  6
CONTINUOUS
 10
5.425640
 20
5.075400
 11
5.436640
 21
5.071000
  0
LINE
  8
0
 62
     0
  6
CONTINUOUS
 10
5.436640
 20
5.071000
 11
5.438400
 21
5.062200
  0
LINE
  8
0
 62
     0
  6
CONTINUOUS
 10
5.438400
 20
5.062200
 11
5.436640
 21
5.051640
  0
LINE
  8
0
 62
     0
  6
CONTINUOUS
 10
5.436640
 20
5.051640
 11
5.425640
 21
5.047240
  0
LINE
  8
0
 62
     0
  6
CONTINUOUS
 10
5.425640
 20
5.047240
 11
5.416840
 21
5.042840
  0
LINE
  8
0
 62
     0
  6
CONTINUOUS
 10
5.416840
 20
5.042840
 11
5.406280
 21
5.042840
  0
LINE
  8
0
 62
     0
  6
CONTINUOUS
 10
5.406280
 20
5.042840
 11
5.395280
 21
5.047240
  0
LINE
  8
0
 62
     0
  6
CONTINUOUS
 10
5.395280
 20
5.047240
 11
5.393080
 21
5.051640
  0
LINE
  8
0
 62
     0
  6
CONTINUOUS
 10
5.462160
 20
5.051640
 11
5.466560
 21
5.047240
  0
LINE
  8
0
 62
     0
  6
CONTINUOUS
 10
5.466560
 20
5.047240
 11
5.475360
 21
5.042840
  0
LINE
  8
0
 62
     0
  6
CONTINUOUS
 10
5.475360
 20
5.042840
 11
5.481960
 21
5.042840
  0
LINE
  8
0
 62
     0
  6
CONTINUOUS
 10
5.481960
 20
5.042840
 11
5.492520
 21
5.047240
  0
LINE
  8
0
 62
     0
  6
CONTINUOUS
 10
5.492520
 20
5.047240
 11
5.499120
 21
5.051640
  0
LINE
  8
0
 62
     0
  6
CONTINUOUS
 10
5.499120
 20
5.051640
 11
5.507920
 21
5.062200
  0
LINE
  8
0
 62
     0
  6
CONTINUOUS
 10
5.507920
 20
5.062200
 11
5.520680
 21
5.109720
  0
LINE
  8
0
 62
     0
  6
CONTINUOUS
 10
5.546640
 20
5.109720
 11
5.529480
 21
5.042840
  0
LINE
  8
0
 62
     0
  6
CONTINUOUS
 10
5.535640
 20
5.075400
 11
5.566000
 21
5.075400
  0
LINE
  8
0
 62
     0
  6
CONTINUOUS
 10
5.566000
 20
5.075400
 11
5.574800
 21
5.079360
  0
LINE
  8
0
 62
     0
  6
CONTINUOUS
 10
5.574800
 20
5.079360
 11
5.581400
 21
5.081560
  0
LINE
  8
0
 62
     0
  6
CONTINUOUS
 10
5.581400
 20
5.081560
 11
5.585360
 21
5.088160
  0
LINE
  8
0
 62
     0
  6
CONTINUOUS
 10
5.585360
 20
5.088160
 11
5.587560
 21
5.099160
  0
LINE
  8
0
 62
     0
  6
CONTINUOUS
 10
5.587560
 20
5.099160
 11
5.585360
 21
5.103560
  0
LINE
  8
0
 62
     0
  6
CONTINUOUS
 10
5.585360
 20
5.103560
 11
5.581400
 21
5.107520
  0
LINE
  8
0
 62
     0
  6
CONTINUOUS
 10
5.581400
 20
5.107520
 11
5.574800
 21
5.109720
  0
LINE
  8
0
 62
     0
  6
CONTINUOUS
 10
5.574800
 20
5.109720
 11
5.546640
 21
5.109720
  0
LINE
  8
0
 62
     0
  6
CONTINUOUS
 10
5.613520
 20
5.109720
 11
5.594160
 21
5.042840
  0
LINE
  8
0
 62
     0
  6
CONTINUOUS
 10
5.602960
 20
5.075400
 11
5.633320
 21
5.075400
  0
LINE
  8
0
 62
     0
  6
CONTINUOUS
 10
5.633320
 20
5.075400
 11
5.643880
 21
5.079360
  0
LINE
  8
0
 62
     0
  6
CONTINUOUS
 10
5.643880
 20
5.079360
 11
5.648280
 21
5.081560
  0
LINE
  8
0
 62
     0
  6
CONTINUOUS
 10
5.648280
 20
5.081560
 11
5.652680
 21
5.088160
  0
LINE
  8
0
 62
     0
  6
CONTINUOUS
 10
5.652680
 20
5.088160
 11
5.654880
 21
5.099160
  0
LINE
  8
0
 62
     0
  6
CONTINUOUS
 10
5.654880
 20
5.099160
 11
5.652680
 21
5.103560
  0
LINE
  8
0
 62
     0
  6
CONTINUOUS
 10
5.652680
 20
5.103560
 11
5.652680
 21
5.107520
  0
LINE
  8
0
 62
     0
  6
CONTINUOUS
 10
5.652680
 20
5.107520
 11
5.643880
 21
5.109720
  0
LINE
  8
0
 62
     0
  6
CONTINUOUS
 10
5.643880
 20
5.109720
 11
5.613520
 21
5.109720
  0
LINE
  8
0
 62
     0
  6
CONTINUOUS
 10
5.643880
 20
5.142280
 11
5.643880
 21
5.272080
  0
LINE
  8
0
 62
     0
  6
CONTINUOUS
 10
5.683040
 20
5.109720
 11
5.663240
 21
5.042840
  0
LINE
  8
0
 62
     0
  6
CONTINUOUS
 10
5.663240
 20
5.042840
 11
5.702400
 21
5.042840
  0
LINE
  8
0
 62
     0
  6
CONTINUOUS
 10
5.734960
 20
5.042840
 11
5.743320
 21
5.079360
  0
LINE
  8
0
 62
     0
  6
CONTINUOUS
 10
5.743320
 20
5.079360
 11
5.778080
 21
5.109720
  0
LINE
  8
0
 62
     0
  6
CONTINUOUS
 10
5.726160
 20
5.109720
 11
5.743320
 21
5.079360
  0
LINE
  8
0
 62
     0
  6
CONTINUOUS
 10
5.462160
 20
5.062200
 11
5.462160
 21
5.051640
  0
LINE
  8
0
 62
     0
  6
CONTINUOUS
 10
5.462160
 20
5.062200
 11
5.475360
 21
5.109720
  0
LINE
  8
0
 62
     0
  6
CONTINUOUS
 10
5.445000
 20
5.107520
 11
5.436640
 21
5.109720
  0
LINE
  8
0
 62
     0
  6
CONTINUOUS
 10
5.445000
 20
5.107520
 11
5.449400
 21
5.101360
  0
LINE
  8
0
 62
     0
  6
CONTINUOUS
 10
5.321800
 20
5.109720
 11
5.280880
 21
5.109720
  0
LINE
  8
0
 62
     0
  6
CONTINUOUS
 10
5.280880
 20
5.109720
 11
5.263280
 21
5.042840
  0
LINE
  8
0
 62
     0
  6
CONTINUOUS
 10
5.263280
 20
5.042840
 11
5.304640
 21
5.042840
  0
LINE
  8
0
 62
     0
  6
CONTINUOUS
 10
5.295840
 20
5.079360
 11
5.269880
 21
5.079360
  0
LINE
  8
0
 62
     0
  6
CONTINUOUS
 10
5.254920
 20
5.109720
 11
5.237760
 21
5.042840
  0
LINE
  8
0
 62
     0
  6
CONTINUOUS
 10
5.237760
 20
5.042840
 11
5.209600
 21
5.109720
  0
LINE
  8
0
 62
     0
  6
CONTINUOUS
 10
5.209600
 20
5.109720
 11
5.192000
 21
5.042840
  0
LINE
  8
0
 62
     0
  6
CONTINUOUS
 10
5.166040
 20
5.042840
 11
5.185840
 21
5.109720
  0
LINE
  8
0
 62
     0
  6
CONTINUOUS
 10
5.127320
 20
5.109720
 11
5.112360
 21
5.042840
  0
LINE
  8
0
 62
     0
  6
CONTINUOUS
 10
5.112360
 20
5.042840
 11
5.148880
 21
5.042840
  0
LINE
  8
0
 62
     0
  6
CONTINUOUS
 10
5.231160
 20
5.142280
 11
5.231160
 21
5.272080
  0
LINE
  8
0
 62
     0
  6
CONTINUOUS
 10
5.118520
 20
5.622320
 11
4.969360
 21
5.622320
  0
LINE
  8
0
 62
     0
  6
CONTINUOUS
 10
4.969360
 20
5.622320
 11
4.969360
 21
4.642880
  0
LINE
  8
0
 62
     0
  6
CONTINUOUS
 10
5.231160
 20
5.862120
 11
5.347760
 21
5.978720
  0
LINE
  8
0
 62
     0
  6
CONTINUOUS
 10
5.406280
 20
6.076400
 11
5.414640
 21
6.072000
  0
LINE
  8
0
 62
     0
  6
CONTINUOUS
 10
5.414640
 20
6.072000
 11
5.425640
 21
6.065400
  0
LINE
  8
0
 62
     0
  6
CONTINUOUS
 10
5.425640
 20
6.065400
 11
5.436640
 21
6.065400
  0
LINE
  8
0
 62
     0
  6
CONTINUOUS
 10
5.436640
 20
6.065400
 11
5.447200
 21
6.065400
  0
LINE
  8
0
 62
     0
  6
CONTINUOUS
 10
5.447200
 20
6.065400
 11
5.456000
 21
6.072000
  0
LINE
  8
0
 62
     0
  6
CONTINUOUS
 10
5.456000
 20
6.072000
 11
5.464360
 21
6.076400
  0
LINE
  8
0
 62
     0
  6
CONTINUOUS
 10
5.464360
 20
6.076400
 11
5.470960
 21
6.084760
  0
LINE
  8
0
 62
     0
  6
CONTINUOUS
 10
5.470960
 20
6.084760
 11
5.475360
 21
6.093560
  0
LINE
  8
0
 62
     0
  6
CONTINUOUS
 10
5.475360
 20
6.093560
 11
5.475360
 21
6.104120
  0
LINE
  8
0
 62
     0
  6
CONTINUOUS
 10
5.475360
 20
6.104120
 11
5.475360
 21
6.115120
  0
LINE
  8
0
 62
     0
  6
CONTINUOUS
 10
5.475360
 20
6.115120
 11
5.470960
 21
6.123920
  0
LINE
  8
0
 62
     0
  6
CONTINUOUS
 10
5.470960
 20
6.123920
 11
5.464360
 21
6.134480
  0
LINE
  8
0
 62
     0
  6
CONTINUOUS
 10
5.464360
 20
6.134480
 11
5.456000
 21
6.141080
  0
LINE
  8
0
 62
     0
  6
CONTINUOUS
 10
5.456000
 20
6.141080
 11
5.447200
 21
6.145480
  0
LINE
  8
0
 62
     0
  6
CONTINUOUS
 10
5.447200
 20
6.145480
 11
5.436640
 21
6.145480
  0
LINE
  8
0
 62
     0
  6
CONTINUOUS
 10
5.436640
 20
6.145480
 11
5.425640
 21
6.145480
  0
LINE
  8
0
 62
     0
  6
CONTINUOUS
 10
5.425640
 20
6.145480
 11
5.414640
 21
6.141080
  0
LINE
  8
0
 62
     0
  6
CONTINUOUS
 10
5.414640
 20
6.141080
 11
5.406280
 21
6.134480
  0
LINE
  8
0
 62
     0
  6
CONTINUOUS
 10
5.406280
 20
6.134480
 11
5.399680
 21
6.123920
  0
LINE
  8
0
 62
     0
  6
CONTINUOUS
 10
5.399680
 20
6.123920
 11
5.395280
 21
6.115120
  0
LINE
  8
0
 62
     0
  6
CONTINUOUS
 10
5.395280
 20
6.115120
 11
5.395280
 21
6.104120
  0
LINE
  8
0
 62
     0
  6
CONTINUOUS
 10
5.395280
 20
6.104120
 11
5.395280
 21
6.093560
  0
LINE
  8
0
 62
     0
  6
CONTINUOUS
 10
5.395280
 20
6.093560
 11
5.399680
 21
6.084760
  0
LINE
  8
0
 62
     0
  6
CONTINUOUS
 10
5.399680
 20
6.084760
 11
5.406280
 21
6.076400
  0
LINE
  8
0
 62
     0
  6
CONTINUOUS
 10
5.436640
 20
6.065400
 11
4.898080
 21
6.067600
  0
LINE
  8
0
 62
     0
  6
CONTINUOUS
 10
4.900280
 20
6.080360
 11
4.900280
 21
6.117320
  0
LINE
  8
0
 62
     0
  6
CONTINUOUS
 10
4.900280
 20
6.104120
 11
4.924040
 21
6.106320
  0
LINE
  8
0
 62
     0
  6
CONTINUOUS
 10
4.924040
 20
6.106320
 11
4.950000
 21
6.112920
  0
LINE
  8
0
 62
     0
  6
CONTINUOUS
 10
4.950000
 20
6.112920
 11
4.971560
 21
6.121720
  0
LINE
  8
0
 62
     0
  6
CONTINUOUS
 10
4.971560
 20
6.121720
 11
4.993120
 21
6.132280
  0
LINE
  8
0
 62
     0
  6
CONTINUOUS
 10
4.993120
 20
6.132280
 11
5.010720
 21
6.145480
  0
LINE
  8
0
 62
     0
  6
CONTINUOUS
 10
5.010720
 20
6.145480
 11
5.034480
 21
6.162640
  0
LINE
  8
0
 62
     0
  6
CONTINUOUS
 10
5.034480
 20
6.162640
 11
5.049440
 21
6.179800
  0
LINE
  8
0
 62
     0
  6
CONTINUOUS
 10
5.049440
 20
6.179800
 11
5.062640
 21
6.201360
  0
LINE
  8
0
 62
     0
  6
CONTINUOUS
 10
5.062640
 20
6.201360
 11
5.075400
 21
6.225120
  0
LINE
  8
0
 62
     0
  6
CONTINUOUS
 10
5.075400
 20
6.225120
 11
5.084200
 21
6.247120
  0
LINE
  8
0
 62
     0
  6
CONTINUOUS
 10
5.084200
 20
6.247120
 11
5.088600
 21
6.270880
  0
LINE
  8
0
 62
     0
  6
CONTINUOUS
 10
5.088600
 20
6.270880
 11
5.088600
 21
6.296840
  0
LINE
  8
0
 62
     0
  6
CONTINUOUS
 10
5.088600
 20
6.296840
 11
5.088600
 21
6.320600
  0
LINE
  8
0
 62
     0
  6
CONTINUOUS
 10
5.088600
 20
6.320600
 11
5.084200
 21
6.346560
  0
LINE
  8
0
 62
     0
  6
CONTINUOUS
 10
5.084200
 20
6.346560
 11
5.075400
 21
6.372520
  0
LINE
  8
0
 62
     0
  6
CONTINUOUS
 10
5.075400
 20
6.372520
 11
5.062640
 21
6.391880
  0
LINE
  8
0
 62
     0
  6
CONTINUOUS
 10
5.062640
 20
6.391880
 11
5.049440
 21
6.413440
  0
LINE
  8
0
 62
     0
  6
CONTINUOUS
 10
5.049440
 20
6.413440
 11
5.034480
 21
6.432800
  0
LINE
  8
0
 62
     0
  6
CONTINUOUS
 10
5.034480
 20
6.432800
 11
5.010720
 21
6.448200
  0
LINE
  8
0
 62
     0
  6
CONTINUOUS
 10
5.010720
 20
6.448200
 11
4.993120
 21
6.463160
  0
LINE
  8
0
 62
     0
  6
CONTINUOUS
 10
4.993120
 20
6.463160
 11
4.971560
 21
6.474160
  0
LINE
  8
0
 62
     0
  6
CONTINUOUS
 10
4.971560
 20
6.474160
 11
4.950000
 21
6.482520
  0
LINE
  8
0
 62
     0
  6
CONTINUOUS
 10
4.950000
 20
6.482520
 11
4.924040
 21
6.484720
  0
LINE
  8
0
 62
     0
  6
CONTINUOUS
 10
4.924040
 20
6.484720
 11
4.900280
 21
6.486920
  0
LINE
  8
0
 62
     0
  6
CONTINUOUS
 10
4.900280
 20
6.486920
 11
4.874320
 21
6.484720
  0
LINE
  8
0
 62
     0
  6
CONTINUOUS
 10
4.874320
 20
6.484720
 11
4.848360
 21
6.482520
  0
LINE
  8
0
 62
     0
  6
CONTINUOUS
 10
4.848360
 20
6.482520
 11
4.826800
 21
6.474160
  0
LINE
  8
0
 62
     0
  6
CONTINUOUS
 10
4.826800
 20
6.474160
 11
4.803040
 21
6.463160
  0
LINE
  8
0
 62
     0
  6
CONTINUOUS
 10
4.803040
 20
6.463160
 11
4.781480
 21
6.448200
  0
LINE
  8
0
 62
     0
  6
CONTINUOUS
 10
4.781480
 20
6.448200
 11
4.764320
 21
6.432800
  0
LINE
  8
0
 62
     0
  6
CONTINUOUS
 10
4.764320
 20
6.432800
 11
4.744520
 21
6.413440
  0
LINE
  8
0
 62
     0
  6
CONTINUOUS
 10
4.744520
 20
6.413440
 11
4.733960
 21
6.391880
  0
LINE
  8
0
 62
     0
  6
CONTINUOUS
 10
4.733960
 20
6.391880
 11
4.722960
 21
6.372520
  0
LINE
  8
0
 62
     0
  6
CONTINUOUS
 10
4.722960
 20
6.372520
 11
4.714600
 21
6.346560
  0
LINE
  8
0
 62
     0
  6
CONTINUOUS
 10
4.714600
 20
6.346560
 11
4.708000
 21
6.320600
  0
LINE
  8
0
 62
     0
  6
CONTINUOUS
 10
4.708000
 20
6.320600
 11
4.705800
 21
6.296840
  0
LINE
  8
0
 62
     0
  6
CONTINUOUS
 10
4.705800
 20
6.296840
 11
4.708000
 21
6.270880
  0
LINE
  8
0
 62
     0
  6
CONTINUOUS
 10
4.708000
 20
6.270880
 11
4.714600
 21
6.247120
  0
LINE
  8
0
 62
     0
  6
CONTINUOUS
 10
4.714600
 20
6.247120
 11
4.722960
 21
6.225120
  0
LINE
  8
0
 62
     0
  6
CONTINUOUS
 10
4.722960
 20
6.225120
 11
4.733960
 21
6.201360
  0
LINE
  8
0
 62
     0
  6
CONTINUOUS
 10
4.733960
 20
6.201360
 11
4.744520
 21
6.179800
  0
LINE
  8
0
 62
     0
  6
CONTINUOUS
 10
4.744520
 20
6.179800
 11
4.764320
 21
6.162640
  0
LINE
  8
0
 62
     0
  6
CONTINUOUS
 10
4.764320
 20
6.162640
 11
4.781480
 21
6.145480
  0
LINE
  8
0
 62
     0
  6
CONTINUOUS
 10
4.781480
 20
6.145480
 11
4.803040
 21
6.132280
  0
LINE
  8
0
 62
     0
  6
CONTINUOUS
 10
4.803040
 20
6.132280
 11
4.826800
 21
6.121720
  0
LINE
  8
0
 62
     0
  6
CONTINUOUS
 10
4.826800
 20
6.121720
 11
4.848360
 21
6.112920
  0
LINE
  8
0
 62
     0
  6
CONTINUOUS
 10
4.848360
 20
6.112920
 11
4.874320
 21
6.106320
  0
LINE
  8
0
 62
     0
  6
CONTINUOUS
 10
4.874320
 20
6.106320
 11
4.900280
 21
6.104120
  0
LINE
  8
0
 62
     0
  6
CONTINUOUS
 10
4.962760
 20
6.130080
 11
4.978160
 21
6.093560
  0
LINE
  8
0
 62
     0
  6
CONTINUOUS
 10
5.060440
 20
6.147680
 11
5.034480
 21
6.175400
  0
LINE
  8
0
 62
     0
  6
CONTINUOUS
 10
5.073200
 20
6.229520
 11
5.107960
 21
6.216760
  0
LINE
  8
0
 62
     0
  6
CONTINUOUS
 10
5.127320
 20
6.296840
 11
5.127320
 21
6.324560
  0
LINE
  8
0
 62
     0
  6
CONTINUOUS
 10
5.127320
 20
6.324560
 11
5.120720
 21
6.350520
  0
LINE
  8
0
 62
     0
  6
CONTINUOUS
 10
5.120720
 20
6.350520
 11
5.114120
 21
6.378680
  0
LINE
  8
0
 62
     0
  6
CONTINUOUS
 10
5.114120
 20
6.378680
 11
5.103560
 21
6.402440
  0
LINE
  8
0
 62
     0
  6
CONTINUOUS
 10
5.103560
 20
6.402440
 11
5.086400
 21
6.428400
  0
LINE
  8
0
 62
     0
  6
CONTINUOUS
 10
5.086400
 20
6.428400
 11
5.071000
 21
6.449960
  0
LINE
  8
0
 62
     0
  6
CONTINUOUS
 10
5.071000
 20
6.449960
 11
5.051640
 21
6.467560
  0
LINE
  8
0
 62
     0
  6
CONTINUOUS
 10
5.051640
 20
6.467560
 11
5.027880
 21
6.484720
  0
LINE
  8
0
 62
     0
  6
CONTINUOUS
 10
5.027880
 20
6.484720
 11
5.006320
 21
6.500120
  0
LINE
  8
0
 62
     0
  6
CONTINUOUS
 10
5.006320
 20
6.500120
 11
4.980360
 21
6.510680
  0
LINE
  8
0
 62
     0
  6
CONTINUOUS
 10
4.980360
 20
6.510680
 11
4.952200
 21
6.519480
  0
LINE
  8
0
 62
     0
  6
CONTINUOUS
 10
4.952200
 20
6.519480
 11
4.926240
 21
6.525640
  0
LINE
  8
0
 62
     0
  6
CONTINUOUS
 10
4.926240
 20
6.525640
 11
4.900280
 21
6.525640
  0
LINE
  8
0
 62
     0
  6
CONTINUOUS
 10
4.900280
 20
6.525640
 11
4.869920
 21
6.525640
  0
LINE
  8
0
 62
     0
  6
CONTINUOUS
 10
4.869920
 20
6.525640
 11
4.843960
 21
6.519480
  0
LINE
  8
0
 62
     0
  6
CONTINUOUS
 10
4.843960
 20
6.519480
 11
4.815800
 21
6.510680
  0
LINE
  8
0
 62
     0
  6
CONTINUOUS
 10
4.815800
 20
6.510680
 11
4.792040
 21
6.500120
  0
LINE
  8
0
 62
     0
  6
CONTINUOUS
 10
4.792040
 20
6.500120
 11
4.768280
 21
6.484720
  0
LINE
  8
0
 62
     0
  6
CONTINUOUS
 10
4.768280
 20
6.484720
 11
4.744520
 21
6.467560
  0
LINE
  8
0
 62
     0
  6
CONTINUOUS
 10
4.744520
 20
6.467560
 11
4.725160
 21
6.449960
  0
LINE
  8
0
 62
     0
  6
CONTINUOUS
 10
4.725160
 20
6.449960
 11
4.710200
 21
6.428400
  0
LINE
  8
0
 62
     0
  6
CONTINUOUS
 10
4.710200
 20
6.428400
 11
4.694800
 21
6.402440
  0
LINE
  8
0
 62
     0
  6
CONTINUOUS
 10
4.694800
 20
6.402440
 11
4.684240
 21
6.378680
  0
LINE
  8
0
 62
     0
  6
CONTINUOUS
 10
4.684240
 20
6.378680
 11
4.673240
 21
6.350520
  0
LINE
  8
0
 62
     0
  6
CONTINUOUS
 10
4.673240
 20
6.350520
 11
4.671040
 21
6.324560
  0
LINE
  8
0
 62
     0
  6
CONTINUOUS
 10
4.671040
 20
6.324560
 11
4.668840
 21
6.296840
  0
LINE
  8
0
 62
     0
  6
CONTINUOUS
 10
4.668840
 20
6.296840
 11
4.671040
 21
6.268680
  0
LINE
  8
0
 62
     0
  6
CONTINUOUS
 10
4.671040
 20
6.268680
 11
4.673240
 21
6.242720
  0
LINE
  8
0
 62
     0
  6
CONTINUOUS
 10
4.673240
 20
6.242720
 11
4.684240
 21
6.216760
  0
LINE
  8
0
 62
     0
  6
CONTINUOUS
 10
4.684240
 20
6.216760
 11
4.694800
 21
6.190800
  0
LINE
  8
0
 62
     0
  6
CONTINUOUS
 10
4.694800
 20
6.190800
 11
4.710200
 21
6.167040
  0
LINE
  8
0
 62
     0
  6
CONTINUOUS
 10
4.710200
 20
6.167040
 11
4.725160
 21
6.145480
  0
LINE
  8
0
 62
     0
  6
CONTINUOUS
 10
4.725160
 20
6.145480
 11
4.744520
 21
6.123920
  0
LINE
  8
0
 62
     0
  6
CONTINUOUS
 10
4.744520
 20
6.123920
 11
4.768280
 21
6.108520
  0
LINE
  8
0
 62
     0
  6
CONTINUOUS
 10
4.768280
 20
6.108520
 11
4.792040
 21
6.093560
  0
LINE
  8
0
 62
     0
  6
CONTINUOUS
 10
4.792040
 20
6.093560
 11
4.815800
 21
6.082560
  0
LINE
  8
0
 62
     0
  6
CONTINUOUS
 10
4.815800
 20
6.082560
 11
4.843960
 21
6.074200
  0
LINE
  8
0
 62
     0
  6
CONTINUOUS
 10
4.843960
 20
6.074200
 11
4.869920
 21
6.069800
  0
LINE
  8
0
 62
     0
  6
CONTINUOUS
 10
4.869920
 20
6.069800
 11
4.900280
 21
6.067600
  0
LINE
  8
0
 62
     0
  6
CONTINUOUS
 10
4.900280
 20
6.067600
 11
4.926240
 21
6.069800
  0
LINE
  8
0
 62
     0
  6
CONTINUOUS
 10
4.926240
 20
6.069800
 11
4.952200
 21
6.074200
  0
LINE
  8
0
 62
     0
  6
CONTINUOUS
 10
4.952200
 20
6.074200
 11
4.980360
 21
6.082560
  0
LINE
  8
0
 62
     0
  6
CONTINUOUS
 10
4.980360
 20
6.082560
 11
5.006320
 21
6.093560
  0
LINE
  8
0
 62
     0
  6
CONTINUOUS
 10
5.006320
 20
6.093560
 11
5.027880
 21
6.108520
  0
LINE
  8
0
 62
     0
  6
CONTINUOUS
 10
5.027880
 20
6.108520
 11
5.051640
 21
6.123920
  0
LINE
  8
0
 62
     0
  6
CONTINUOUS
 10
5.051640
 20
6.123920
 11
5.071000
 21
6.145480
  0
LINE
  8
0
 62
     0
  6
CONTINUOUS
 10
5.071000
 20
6.145480
 11
5.086400
 21
6.167040
  0
LINE
  8
0
 62
     0
  6
CONTINUOUS
 10
5.086400
 20
6.167040
 11
5.103560
 21
6.190800
  0
LINE
  8
0
 62
     0
  6
CONTINUOUS
 10
5.103560
 20
6.190800
 11
5.114120
 21
6.216760
  0
LINE
  8
0
 62
     0
  6
CONTINUOUS
 10
5.114120
 20
6.216760
 11
5.120720
 21
6.242720
  0
LINE
  8
0
 62
     0
  6
CONTINUOUS
 10
5.120720
 20
6.242720
 11
5.127320
 21
6.268680
  0
LINE
  8
0
 62
     0
  6
CONTINUOUS
 10
5.127320
 20
6.268680
 11
5.127320
 21
6.296840
  0
LINE
  8
0
 62
     0
  6
CONTINUOUS
 10
5.127320
 20
6.309600
 11
5.088600
 21
6.309600
  0
LINE
  8
0
 62
     0
  6
CONTINUOUS
 10
5.073200
 20
6.389680
 11
5.107960
 21
6.402440
  0
LINE
  8
0
 62
     0
  6
CONTINUOUS
 10
5.071000
 20
6.463160
 11
5.040640
 21
6.437200
  0
LINE
  8
0
 62
     0
  6
CONTINUOUS
 10
5.042840
 20
6.474160
 11
5.460400
 21
6.136680
  0
LINE
  8
0
 62
     0
  6
CONTINUOUS
 10
5.458200
 20
6.257680
 11
5.436640
 21
6.257680
  0
LINE
  8
0
 62
     0
  6
CONTINUOUS
 10
5.436640
 20
6.257680
 11
5.412440
 21
6.257680
  0
LINE
  8
0
 62
     0
  6
CONTINUOUS
 10
5.412440
 20
6.257680
 11
5.393080
 21
6.253280
  0
LINE
  8
0
 62
     0
  6
CONTINUOUS
 10
5.393080
 20
6.253280
 11
5.371520
 21
6.244920
  0
LINE
  8
0
 62
     0
  6
CONTINUOUS
 10
5.371520
 20
6.244920
 11
5.352160
 21
6.233920
  0
LINE
  8
0
 62
     0
  6
CONTINUOUS
 10
5.352160
 20
6.233920
 11
5.335000
 21
6.221160
  0
LINE
  8
0
 62
     0
  6
CONTINUOUS
 10
5.335000
 20
6.221160
 11
5.317400
 21
6.205760
  0
LINE
  8
0
 62
     0
  6
CONTINUOUS
 10
5.317400
 20
6.205760
 11
5.306840
 21
6.188600
  0
LINE
  8
0
 62
     0
  6
CONTINUOUS
 10
5.306840
 20
6.188600
 11
5.293640
 21
6.169240
  0
LINE
  8
0
 62
     0
  6
CONTINUOUS
 10
5.293640
 20
6.169240
 11
5.287480
 21
6.149880
  0
LINE
  8
0
 62
     0
  6
CONTINUOUS
 10
5.287480
 20
6.149880
 11
5.283080
 21
6.127880
  0
LINE
  8
0
 62
     0
  6
CONTINUOUS
 10
5.283080
 20
6.127880
 11
5.280880
 21
6.104120
  0
LINE
  8
0
 62
     0
  6
CONTINUOUS
 10
5.280880
 20
6.104120
 11
5.283080
 21
6.082560
  0
LINE
  8
0
 62
     0
  6
CONTINUOUS
 10
5.283080
 20
6.082560
 11
5.287480
 21
6.061000
  0
LINE
  8
0
 62
     0
  6
CONTINUOUS
 10
5.287480
 20
6.061000
 11
5.293640
 21
6.041640
  0
LINE
  8
0
 62
     0
  6
CONTINUOUS
 10
5.293640
 20
6.041640
 11
5.306840
 21
6.022280
  0
LINE
  8
0
 62
     0
  6
CONTINUOUS
 10
5.306840
 20
6.022280
 11
5.317400
 21
6.004680
  0
LINE
  8
0
 62
     0
  6
CONTINUOUS
 10
5.317400
 20
6.004680
 11
5.335000
 21
5.989720
  0
LINE
  8
0
 62
     0
  6
CONTINUOUS
 10
5.335000
 20
5.989720
 11
5.352160
 21
5.976960
  0
LINE
  8
0
 62
     0
  6
CONTINUOUS
 10
5.352160
 20
5.976960
 11
5.371520
 21
5.968160
  0
LINE
  8
0
 62
     0
  6
CONTINUOUS
 10
5.371520
 20
5.968160
 11
5.393080
 21
5.959360
  0
LINE
  8
0
 62
     0
  6
CONTINUOUS
 10
5.393080
 20
5.959360
 11
5.412440
 21
5.952760
  0
LINE
  8
0
 62
     0
  6
CONTINUOUS
 10
5.412440
 20
5.952760
 11
5.436640
 21
5.952760
  0
LINE
  8
0
 62
     0
  6
CONTINUOUS
 10
5.436640
 20
5.952760
 11
5.458200
 21
5.952760
  0
LINE
  8
0
 62
     0
  6
CONTINUOUS
 10
5.458200
 20
5.952760
 11
5.477560
 21
5.959360
  0
LINE
  8
0
 62
     0
  6
CONTINUOUS
 10
5.477560
 20
5.959360
 11
5.499120
 21
5.968160
  0
LINE
  8
0
 62
     0
  6
CONTINUOUS
 10
5.499120
 20
5.968160
 11
5.518480
 21
5.976960
  0
LINE
  8
0
 62
     0
  6
CONTINUOUS
 10
5.518480
 20
5.976960
 11
5.535640
 21
5.989720
  0
LINE
  8
0
 62
     0
  6
CONTINUOUS
 10
5.535640
 20
5.989720
 11
5.551040
 21
6.004680
  0
LINE
  8
0
 62
     0
  6
CONTINUOUS
 10
5.551040
 20
6.004680
 11
5.563800
 21
6.022280
  0
LINE
  8
0
 62
     0
  6
CONTINUOUS
 10
5.563800
 20
6.022280
 11
5.572600
 21
6.041640
  0
LINE
  8
0
 62
     0
  6
CONTINUOUS
 10
5.572600
 20
6.041640
 11
5.581400
 21
6.061000
  0
LINE
  8
0
 62
     0
  6
CONTINUOUS
 10
5.581400
 20
6.061000
 11
5.585360
 21
6.082560
  0
LINE
  8
0
 62
     0
  6
CONTINUOUS
 10
5.585360
 20
6.082560
 11
5.587560
 21
6.104120
  0
LINE
  8
0
 62
     0
  6
CONTINUOUS
 10
5.587560
 20
6.104120
 11
5.585360
 21
6.127880
  0
LINE
  8
0
 62
     0
  6
CONTINUOUS
 10
5.585360
 20
6.127880
 11
5.581400
 21
6.149880
  0
LINE
  8
0
 62
     0
  6
CONTINUOUS
 10
5.581400
 20
6.149880
 11
5.572600
 21
6.169240
  0
LINE
  8
0
 62
     0
  6
CONTINUOUS
 10
5.572600
 20
6.169240
 11
5.563800
 21
6.188600
  0
LINE
  8
0
 62
     0
  6
CONTINUOUS
 10
5.563800
 20
6.188600
 11
5.551040
 21
6.205760
  0
LINE
  8
0
 62
     0
  6
CONTINUOUS
 10
5.551040
 20
6.205760
 11
5.535640
 21
6.221160
  0
LINE
  8
0
 62
     0
  6
CONTINUOUS
 10
5.535640
 20
6.221160
 11
5.518480
 21
6.233920
  0
LINE
  8
0
 62
     0
  6
CONTINUOUS
 10
5.518480
 20
6.233920
 11
5.499120
 21
6.244920
  0
LINE
  8
0
 62
     0
  6
CONTINUOUS
 10
5.499120
 20
6.244920
 11
5.477560
 21
6.253280
  0
LINE
  8
0
 62
     0
  6
CONTINUOUS
 10
5.477560
 20
6.253280
 11
5.458200
 21
6.257680
  0
LINE
  8
0
 62
     0
  6
CONTINUOUS
 10
5.278680
 20
6.251080
 11
5.280880
 21
6.285840
  0
LINE
  8
0
 62
     0
  6
CONTINUOUS
 10
5.280880
 20
6.285840
 11
5.280880
 21
6.320600
  0
LINE
  8
0
 62
     0
  6
CONTINUOUS
 10
5.280880
 20
6.320600
 11
5.654880
 21
6.320600
  0
LINE
  8
0
 62
     0
  6
CONTINUOUS
 10
5.654880
 20
6.320600
 11
5.654880
 21
6.681400
  0
LINE
  8
0
 62
     0
  6
CONTINUOUS
 10
5.654880
 20
6.681400
 11
4.904680
 21
6.681400
  0
LINE
  8
0
 62
     0
  6
CONTINUOUS
 10
4.904680
 20
6.681400
 11
4.900280
 21
6.681400
  0
LINE
  8
0
 62
     0
  6
CONTINUOUS
 10
4.900280
 20
6.681400
 11
4.863320
 21
6.679200
  0
LINE
  8
0
 62
     0
  6
CONTINUOUS
 10
4.863320
 20
6.679200
 11
4.826800
 21
6.673040
  0
LINE
  8
0
 62
     0
  6
CONTINUOUS
 10
4.826800
 20
6.673040
 11
4.794240
 21
6.666440
  0
LINE
  8
0
 62
     0
  6
CONTINUOUS
 10
4.794240
 20
6.666440
 11
4.759920
 21
6.653240
  0
LINE
  8
0
 62
     0
  6
CONTINUOUS
 10
4.759920
 20
6.653240
 11
4.725160
 21
6.640480
  0
LINE
  8
0
 62
     0
  6
CONTINUOUS
 10
4.725160
 20
6.640480
 11
4.699200
 21
6.623320
  0
LINE
  8
0
 62
     0
  6
CONTINUOUS
 10
4.699200
 20
6.623320
 11
4.668840
 21
6.603520
  0
LINE
  8
0
 62
     0
  6
CONTINUOUS
 10
4.668840
 20
6.603520
 11
4.640680
 21
6.579760
  0
LINE
  8
0
 62
     0
  6
CONTINUOUS
 10
4.640680
 20
6.579760
 11
4.616920
 21
6.558200
  0
LINE
  8
0
 62
     0
  6
CONTINUOUS
 10
4.616920
 20
6.558200
 11
4.593160
 21
6.527840
  0
LINE
  8
0
 62
     0
  6
CONTINUOUS
 10
4.593160
 20
6.527840
 11
4.573800
 21
6.500120
  0
LINE
  8
0
 62
     0
  6
CONTINUOUS
 10
4.573800
 20
6.500120
 11
4.556640
 21
6.469760
  0
LINE
  8
0
 62
     0
  6
CONTINUOUS
 10
4.556640
 20
6.469760
 11
4.541240
 21
6.437200
  0
LINE
  8
0
 62
     0
  6
CONTINUOUS
 10
4.541240
 20
6.437200
 11
4.530680
 21
6.404640
  0
LINE
  8
0
 62
     0
  6
CONTINUOUS
 10
4.530680
 20
6.404640
 11
4.521880
 21
6.372520
  0
LINE
  8
0
 62
     0
  6
CONTINUOUS
 10
4.521880
 20
6.372520
 11
4.517480
 21
6.335560
  0
LINE
  8
0
 62
     0
  6
CONTINUOUS
 10
4.517480
 20
6.335560
 11
4.517480
 21
6.299040
  0
LINE
  8
0
 62
     0
  6
CONTINUOUS
 10
4.517480
 20
6.299040
 11
4.517480
 21
6.266480
  0
LINE
  8
0
 62
     0
  6
CONTINUOUS
 10
4.517480
 20
6.266480
 11
4.521880
 21
6.229520
  0
LINE
  8
0
 62
     0
  6
CONTINUOUS
 10
4.521880
 20
6.229520
 11
4.528480
 21
6.195200
  0
LINE
  8
0
 62
     0
  6
CONTINUOUS
 10
4.528480
 20
6.195200
 11
4.539480
 21
6.162640
  0
LINE
  8
0
 62
     0
  6
CONTINUOUS
 10
4.539480
 20
6.162640
 11
4.554440
 21
6.130080
  0
LINE
  8
0
 62
     0
  6
CONTINUOUS
 10
4.554440
 20
6.130080
 11
4.569400
 21
6.100160
  0
LINE
  8
0
 62
     0
  6
CONTINUOUS
 10
4.569400
 20
6.100160
 11
4.589200
 21
6.072000
  0
LINE
  8
0
 62
     0
  6
CONTINUOUS
 10
4.589200
 20
6.072000
 11
4.612960
 21
6.041640
  0
LINE
  8
0
 62
     0
  6
CONTINUOUS
 10
4.612960
 20
6.041640
 11
4.636720
 21
6.017880
  0
LINE
  8
0
 62
     0
  6
CONTINUOUS
 10
4.636720
 20
6.017880
 11
4.662680
 21
5.996320
  0
LINE
  8
0
 62
     0
  6
CONTINUOUS
 10
4.662680
 20
5.996320
 11
4.692600
 21
5.974760
  0
LINE
  8
0
 62
     0
  6
CONTINUOUS
 10
4.692600
 20
5.974760
 11
4.722960
 21
5.957160
  0
LINE
  8
0
 62
     0
  6
CONTINUOUS
 10
4.722960
 20
5.957160
 11
4.755520
 21
5.942200
  0
LINE
  8
0
 62
     0
  6
CONTINUOUS
 10
4.755520
 20
5.942200
 11
4.788080
 21
5.929000
  0
LINE
  8
0
 62
     0
  6
CONTINUOUS
 10
4.788080
 20
5.929000
 11
4.822400
 21
5.922840
  0
LINE
  8
0
 62
     0
  6
CONTINUOUS
 10
4.822400
 20
5.922840
 11
4.854960
 21
5.918440
  0
LINE
  8
0
 62
     0
  6
CONTINUOUS
 10
4.854960
 20
5.918440
 11
4.891480
 21
5.914040
  0
LINE
  8
0
 62
     0
  6
CONTINUOUS
 10
4.891480
 20
5.914040
 11
4.926240
 21
5.916240
  0
LINE
  8
0
 62
     0
  6
CONTINUOUS
 10
4.926240
 20
5.916240
 11
4.958800
 21
5.918440
  0
LINE
  8
0
 62
     0
  6
CONTINUOUS
 10
4.958800
 20
5.918440
 11
4.995320
 21
5.927240
  0
LINE
  8
0
 62
     0
  6
CONTINUOUS
 10
4.995320
 20
5.927240
 11
5.030080
 21
5.937800
  0
LINE
  8
0
 62
     0
  6
CONTINUOUS
 10
5.030080
 20
5.937800
 11
5.062640
 21
5.951000
  0
LINE
  8
0
 62
     0
  6
CONTINUOUS
 10
5.062640
 20
5.951000
 11
5.092560
 21
5.968160
  0
LINE
  8
0
 62
     0
  6
CONTINUOUS
 10
5.092560
 20
5.968160
 11
5.122920
 21
5.987520
  0
LINE
  8
0
 62
     0
  6
CONTINUOUS
 10
5.122920
 20
5.987520
 11
5.148880
 21
6.009080
  0
LINE
  8
0
 62
     0
  6
CONTINUOUS
 10
5.148880
 20
6.009080
 11
5.174840
 21
6.032840
  0
LINE
  8
0
 62
     0
  6
CONTINUOUS
 10
5.174840
 20
6.032840
 11
5.198600
 21
6.058800
  0
LINE
  8
0
 62
     0
  6
CONTINUOUS
 10
5.198600
 20
6.058800
 11
5.217960
 21
6.086960
  0
LINE
  8
0
 62
     0
  6
CONTINUOUS
 10
5.217960
 20
6.086960
 11
5.237760
 21
6.117320
  0
LINE
  8
0
 62
     0
  6
CONTINUOUS
 10
5.237760
 20
6.117320
 11
5.250520
 21
6.149880
  0
LINE
  8
0
 62
     0
  6
CONTINUOUS
 10
5.250520
 20
6.149880
 11
5.263280
 21
6.182000
  0
LINE
  8
0
 62
     0
  6
CONTINUOUS
 10
5.263280
 20
6.182000
 11
5.269880
 21
6.216760
  0
LINE
  8
0
 62
     0
  6
CONTINUOUS
 10
5.269880
 20
6.216760
 11
5.278680
 21
6.251080
  0
LINE
  8
0
 62
     0
  6
CONTINUOUS
 10
5.280880
 20
6.104120
 11
5.280880
 21
5.951000
  0
LINE
  8
0
 62
     0
  6
CONTINUOUS
 10
5.231160
 20
5.862120
 11
5.231160
 21
5.734520
  0
LINE
  8
0
 62
     0
  6
CONTINUOUS
 10
5.436640
 20
5.734520
 11
5.436640
 21
5.948800
  0
LINE
  8
0
 62
     0
  6
CONTINUOUS
 10
5.527280
 20
5.978720
 11
5.641680
 21
5.862120
  0
LINE
  8
0
 62
     0
  6
CONTINUOUS
 10
5.641680
 20
5.862120
 11
5.641680
 21
5.734520
  0
LINE
  8
0
 62
     0
  6
CONTINUOUS
 10
5.641680
 20
5.734520
 11
5.659280
 21
5.738920
  0
LINE
  8
0
 62
     0
  6
CONTINUOUS
 10
5.659280
 20
5.738920
 11
5.659280
 21
5.730120
  0
LINE
  8
0
 62
     0
  6
CONTINUOUS
 10
5.659280
 20
5.730120
 11
5.641680
 21
5.734520
  0
LINE
  8
0
 62
     0
  6
CONTINUOUS
 10
5.641680
 20
5.734520
 11
5.657080
 21
5.743320
  0
LINE
  8
0
 62
     0
  6
CONTINUOUS
 10
5.652680
 20
5.751680
 11
5.641680
 21
5.734520
  0
LINE
  8
0
 62
     0
  6
CONTINUOUS
 10
5.641680
 20
5.734520
 11
5.643880
 21
5.751680
  0
LINE
  8
0
 62
     0
  6
CONTINUOUS
 10
5.643880
 20
5.751680
 11
5.637280
 21
5.751680
  0
LINE
  8
0
 62
     0
  6
CONTINUOUS
 10
5.637280
 20
5.751680
 11
5.641680
 21
5.734520
  0
LINE
  8
0
 62
     0
  6
CONTINUOUS
 10
5.641680
 20
5.734520
 11
5.631120
 21
5.751680
  0
LINE
  8
0
 62
     0
  6
CONTINUOUS
 10
5.624520
 20
5.743320
 11
5.641680
 21
5.734520
  0
LINE
  8
0
 62
     0
  6
CONTINUOUS
 10
5.641680
 20
5.734520
 11
5.622320
 21
5.730120
  0
LINE
  8
0
 62
     0
  6
CONTINUOUS
 10
5.622320
 20
5.730120
 11
5.622320
 21
5.738920
  0
LINE
  8
0
 62
     0
  6
CONTINUOUS
 10
5.622320
 20
5.738920
 11
5.641680
 21
5.734520
  0
LINE
  8
0
 62
     0
  6
CONTINUOUS
 10
5.641680
 20
5.734520
 11
5.624520
 21
5.723960
  0
LINE
  8
0
 62
     0
  6
CONTINUOUS
 10
5.631120
 20
5.719560
 11
5.641680
 21
5.734520
  0
LINE
  8
0
 62
     0
  6
CONTINUOUS
 10
5.641680
 20
5.734520
 11
5.637280
 21
5.715160
  0
LINE
  8
0
 62
     0
  6
CONTINUOUS
 10
5.637280
 20
5.715160
 11
5.643880
 21
5.715160
  0
LINE
  8
0
 62
     0
  6
CONTINUOUS
 10
5.643880
 20
5.715160
 11
5.641680
 21
5.734520
  0
LINE
  8
0
 62
     0
  6
CONTINUOUS
 10
5.641680
 20
5.734520
 11
5.652680
 21
5.719560
  0
LINE
  8
0
 62
     0
  6
CONTINUOUS
 10
5.657080
 20
5.723960
 11
5.641680
 21
5.734520
  0
LINE
  8
0
 62
     0
  6
CONTINUOUS
 10
5.585360
 20
5.914040
 11
5.585360
 21
6.104120
  0
LINE
  8
0
 62
     0
  6
CONTINUOUS
 10
5.585360
 20
5.951000
 11
5.066600
 21
5.951000
  0
LINE
  8
0
 62
     0
  6
CONTINUOUS
 10
4.807440
 20
6.100160
 11
4.822400
 21
6.134480
  0
LINE
  8
0
 62
     0
  6
CONTINUOUS
 10
4.751120
 20
6.188600
 11
4.720760
 21
6.164840
  0
LINE
  8
0
 62
     0
  6
CONTINUOUS
 10
4.722960
 20
6.236120
 11
4.688640
 21
6.218960
  0
LINE
  8
0
 62
     0
  6
CONTINUOUS
 10
4.668840
 20
6.309600
 11
4.705800
 21
6.309600
  0
LINE
  8
0
 62
     0
  6
CONTINUOUS
 10
4.722960
 20
6.385280
 11
4.688640
 21
6.400240
  0
LINE
  8
0
 62
     0
  6
CONTINUOUS
 10
4.764320
 20
6.432800
 11
4.736160
 21
6.458760
  0
LINE
  8
0
 62
     0
  6
CONTINUOUS
 10
4.820200
 20
6.471960
 11
4.807440
 21
6.506280
  0
LINE
  8
0
 62
     0
  6
CONTINUOUS
 10
4.900280
 20
6.500120
 11
4.900280
 21
6.538840
  0
LINE
  8
0
 62
     0
  6
CONTINUOUS
 10
4.988720
 20
6.521680
 11
4.973760
 21
6.484720
  0
LINE
  8
0
 62
     0
  6
CONTINUOUS
 10
3.151280
 20
6.205760
 11
3.034680
 21
6.257680
  0
LINE
  8
0
 62
     0
  6
CONTINUOUS
 10
3.034680
 20
6.274840
 11
3.151280
 21
6.324560
  0
LINE
  8
0
 62
     0
  6
CONTINUOUS
 10
3.151280
 20
6.309600
 11
3.034680
 21
6.361520
  0
LINE
  8
0
 62
     0
  6
CONTINUOUS
 10
3.034680
 20
6.361520
 11
3.151280
 21
6.411240
  0
LINE
  8
0
 62
     0
  6
CONTINUOUS
 10
3.151280
 20
6.385280
 11
3.034680
 21
6.435000
  0
LINE
  8
0
 62
     0
  6
CONTINUOUS
 10
3.034680
 20
6.448200
 11
3.151280
 21
6.497920
  0
LINE
  8
0
 62
     0
  6
CONTINUOUS
 10
3.151280
 20
6.484720
 11
3.034680
 21
6.534440
  0
LINE
  8
0
 62
     0
  6
CONTINUOUS
 10
3.034680
 20
6.517280
 11
3.151280
 21
6.567000
  0
LINE
  8
0
 62
     0
  6
CONTINUOUS
 10
3.151280
 20
6.577560
 11
3.034680
 21
6.627280
  0
LINE
  8
0
 62
     0
  6
CONTINUOUS
 10
3.034680
 20
6.614520
 11
3.151280
 21
6.664240
  0
LINE
  8
0
 62
     0
  6
CONTINUOUS
 10
3.151280
 20
6.694600
 11
3.151280
 21
5.907440
  0
LINE
  8
0
 62
     0
  6
CONTINUOUS
 10
3.151280
 20
5.925040
 11
3.034680
 21
5.974760
  0
LINE
  8
0
 62
     0
  6
CONTINUOUS
 10
3.034680
 20
5.959360
 11
3.151280
 21
6.011280
  0
LINE
  8
0
 62
     0
  6
CONTINUOUS
 10
3.151280
 20
6.022280
 11
3.034680
 21
6.072000
  0
LINE
  8
0
 62
     0
  6
CONTINUOUS
 10
3.034680
 20
6.091360
 11
3.151280
 21
6.141080
  0
LINE
  8
0
 62
     0
  6
CONTINUOUS
 10
3.151280
 20
6.141080
 11
3.151280
 21
6.145480
  0
LINE
  8
0
 62
     0
  6
CONTINUOUS
 10
3.151280
 20
6.145480
 11
3.034680
 21
6.195200
  0
LINE
  8
0
 62
     0
  6
CONTINUOUS
 10
3.034680
 20
6.195200
 11
3.151280
 21
6.247120
  0
LINE
  8
0
 62
     0
  6
CONTINUOUS
 10
3.151280
 20
6.262080
 11
3.034680
 21
6.314000
  0
LINE
  8
0
 62
     0
  6
CONTINUOUS
 10
3.034680
 20
6.331160
 11
3.151280
 21
6.380880
  0
LINE
  8
0
 62
     0
  6
CONTINUOUS
 10
3.151280
 20
6.342160
 11
3.034680
 21
6.391880
  0
LINE
  8
0
 62
     0
  6
CONTINUOUS
 10
3.034680
 20
6.391880
 11
3.151280
 21
6.443800
  0
LINE
  8
0
 62
     0
  6
CONTINUOUS
 10
3.151280
 20
6.443800
 11
3.151280
 21
6.446000
  0
LINE
  8
0
 62
     0
  6
CONTINUOUS
 10
3.151280
 20
6.446000
 11
3.034680
 21
6.495720
  0
LINE
  8
0
 62
     0
  6
CONTINUOUS
 10
3.034680
 20
6.474160
 11
3.151280
 21
6.523880
  0
LINE
  8
0
 62
     0
  6
CONTINUOUS
 10
3.151280
 20
6.523880
 11
3.151280
 21
6.527840
  0
LINE
  8
0
 62
     0
  6
CONTINUOUS
 10
3.151280
 20
6.527840
 11
3.034680
 21
6.577560
  0
LINE
  8
0
 62
     0
  6
CONTINUOUS
 10
3.034680
 20
6.564800
 11
3.151280
 21
6.614520
  0
LINE
  8
0
 62
     0
  6
CONTINUOUS
 10
3.151280
 20
6.614520
 11
3.151280
 21
6.618920
  0
LINE
  8
0
 62
     0
  6
CONTINUOUS
 10
3.151280
 20
6.618920
 11
3.034680
 21
6.670840
  0
LINE
  8
0
 62
     0
  6
CONTINUOUS
 10
3.034680
 20
6.694600
 11
3.034680
 21
5.907440
  0
LINE
  8
0
 62
     0
  6
CONTINUOUS
 10
3.034680
 20
5.918440
 11
3.151280
 21
5.968160
  0
LINE
  8
0
 62
     0
  6
CONTINUOUS
 10
3.151280
 20
5.968160
 11
3.151280
 21
5.972560
  0
LINE
  8
0
 62
     0
  6
CONTINUOUS
 10
3.151280
 20
5.972560
 11
3.034680
 21
6.022280
  0
LINE
  8
0
 62
     0
  6
CONTINUOUS
 10
3.034680
 20
6.035040
 11
3.151280
 21
5.985320
  0
LINE
  8
0
 62
     0
  6
CONTINUOUS
 10
3.151280
 20
6.061000
 11
3.034680
 21
6.011280
  0
LINE
  8
0
 62
     0
  6
CONTINUOUS
 10
3.034680
 20
6.052200
 11
3.151280
 21
6.104120
  0
LINE
  8
0
 62
     0
  6
CONTINUOUS
 10
3.151280
 20
6.089160
 11
3.034680
 21
6.138880
  0
LINE
  8
0
 62
     0
  6
CONTINUOUS
 10
3.034680
 20
6.153840
 11
3.151280
 21
6.201360
  0
LINE
  8
0
 62
     0
  6
CONTINUOUS
 10
3.151280
 20
6.175400
 11
3.034680
 21
6.227320
  0
LINE
  8
0
 62
     0
  6
CONTINUOUS
 10
3.034680
 20
6.227320
 11
3.034680
 21
6.225120
  0
LINE
  8
0
 62
     0
  6
CONTINUOUS
 10
3.034680
 20
6.225120
 11
3.151280
 21
6.277040
  0
LINE
  8
0
 62
     0
  6
CONTINUOUS
 10
3.151280
 20
6.065400
 11
3.034680
 21
6.115120
  0
LINE
  8
0
 62
     0
  6
CONTINUOUS
 10
2.878920
 20
5.907440
 11
7.576360
 21
5.907440
  0
LINE
  8
0
 62
     0
  6
CONTINUOUS
 10
7.576360
 20
5.907440
 11
7.574160
 21
5.907440
  0
LINE
  8
0
 62
     0
  6
CONTINUOUS
 10
7.574160
 20
5.907440
 11
7.982480
 21
6.288040
  0
LINE
  8
0
 62
     0
  6
CONTINUOUS
 10
7.982480
 20
6.288040
 11
7.576360
 21
6.694600
  0
LINE
  8
0
 62
     0
  6
CONTINUOUS
 10
3.151280
 20
6.603520
 11
3.034680
 21
6.553800
  0
LINE
  8
0
 62
     0
  6
CONTINUOUS
 10
2.848560
 20
5.762680
 11
2.703800
 21
5.459960
  0
LINE
  8
0
 62
     0
  6
CONTINUOUS
 10
2.565640
 20
5.459960
 11
2.710400
 21
5.762680
  0
LINE
  8
0
 62
     0
  6
CONTINUOUS
 10
2.768920
 20
5.641680
 11
2.783880
 21
5.624520
  0
LINE
  8
0
 62
     0
  6
CONTINUOUS
 10
2.783880
 20
5.624520
 11
2.775080
 21
5.646080
  0
LINE
  8
0
 62
     0
  6
CONTINUOUS
 10
2.775080
 20
5.646080
 11
2.783880
 21
5.624520
  0
LINE
  8
0
 62
     0
  6
CONTINUOUS
 10
2.783880
 20
5.624520
 11
2.783880
 21
5.648280
  0
LINE
  8
0
 62
     0
  6
CONTINUOUS
 10
2.783880
 20
5.648280
 11
2.783880
 21
5.624520
  0
LINE
  8
0
 62
     0
  6
CONTINUOUS
 10
2.783880
 20
5.624520
 11
2.792680
 21
5.646080
  0
LINE
  8
0
 62
     0
  6
CONTINUOUS
 10
2.792680
 20
5.646080
 11
2.783880
 21
5.624520
  0
LINE
  8
0
 62
     0
  6
CONTINUOUS
 10
2.783880
 20
5.624520
 11
2.801040
 21
5.641680
  0
LINE
  8
0
 62
     0
  6
CONTINUOUS
 10
2.801040
 20
5.641680
 11
2.783880
 21
5.624520
  0
LINE
  8
0
 62
     0
  6
CONTINUOUS
 10
2.783880
 20
5.624520
 11
2.805440
 21
5.632880
  0
LINE
  8
0
 62
     0
  6
CONTINUOUS
 10
2.805440
 20
5.632880
 11
2.783880
 21
5.624520
  0
LINE
  8
0
 62
     0
  6
CONTINUOUS
 10
2.783880
 20
5.624520
 11
2.807640
 21
5.624520
  0
LINE
  8
0
 62
     0
  6
CONTINUOUS
 10
2.807640
 20
5.624520
 11
2.783880
 21
5.624520
  0
LINE
  8
0
 62
     0
  6
CONTINUOUS
 10
2.783880
 20
5.624520
 11
2.805440
 21
5.615720
  0
LINE
  8
0
 62
     0
  6
CONTINUOUS
 10
2.805440
 20
5.615720
 11
2.783880
 21
5.624520
  0
LINE
  8
0
 62
     0
  6
CONTINUOUS
 10
2.783880
 20
5.624520
 11
2.801040
 21
5.606920
  0
LINE
  8
0
 62
     0
  6
CONTINUOUS
 10
2.801040
 20
5.606920
 11
2.783880
 21
5.624520
  0
LINE
  8
0
 62
     0
  6
CONTINUOUS
 10
2.783880
 20
5.624520
 11
2.792680
 21
5.602520
  0
LINE
  8
0
 62
     0
  6
CONTINUOUS
 10
2.792680
 20
5.602520
 11
2.783880
 21
5.624520
  0
LINE
  8
0
 62
     0
  6
CONTINUOUS
 10
2.783880
 20
5.624520
 11
2.783880
 21
5.600760
  0
LINE
  8
0
 62
     0
  6
CONTINUOUS
 10
2.783880
 20
5.600760
 11
2.783880
 21
5.624520
  0
LINE
  8
0
 62
     0
  6
CONTINUOUS
 10
2.783880
 20
5.624520
 11
2.775080
 21
5.602520
  0
LINE
  8
0
 62
     0
  6
CONTINUOUS
 10
2.775080
 20
5.602520
 11
2.783880
 21
5.624520
  0
LINE
  8
0
 62
     0
  6
CONTINUOUS
 10
2.783880
 20
5.624520
 11
2.768920
 21
5.606920
  0
LINE
  8
0
 62
     0
  6
CONTINUOUS
 10
2.768920
 20
5.606920
 11
2.783880
 21
5.624520
  0
LINE
  8
0
 62
     0
  6
CONTINUOUS
 10
2.783880
 20
5.624520
 11
2.762320
 21
5.615720
  0
LINE
  8
0
 62
     0
  6
CONTINUOUS
 10
2.762320
 20
5.615720
 11
2.783880
 21
5.624520
  0
LINE
  8
0
 62
     0
  6
CONTINUOUS
 10
2.783880
 20
5.624520
 11
2.762320
 21
5.624520
  0
LINE
  8
0
 62
     0
  6
CONTINUOUS
 10
2.762320
 20
5.624520
 11
2.783880
 21
5.624520
  0
LINE
  8
0
 62
     0
  6
CONTINUOUS
 10
2.783880
 20
5.624520
 11
2.762320
 21
5.632880
  0
LINE
  8
0
 62
     0
  6
CONTINUOUS
 10
2.762320
 20
5.632880
 11
2.783880
 21
5.624520
  0
LINE
  8
0
 62
     0
  6
CONTINUOUS
 10
2.783880
 20
5.624520
 11
2.768920
 21
5.641680
  0
LINE
  8
0
 62
     0
  6
CONTINUOUS
 10
2.768920
 20
5.641680
 11
2.762320
 21
5.632880
  0
LINE
  8
0
 62
     0
  6
CONTINUOUS
 10
2.762320
 20
5.632880
 11
2.762320
 21
5.624520
  0
LINE
  8
0
 62
     0
  6
CONTINUOUS
 10
2.762320
 20
5.624520
 11
2.762320
 21
5.615720
  0
LINE
  8
0
 62
     0
  6
CONTINUOUS
 10
2.762320
 20
5.615720
 11
2.768920
 21
5.606920
  0
LINE
  8
0
 62
     0
  6
CONTINUOUS
 10
2.768920
 20
5.606920
 11
2.775080
 21
5.602520
  0
LINE
  8
0
 62
     0
  6
CONTINUOUS
 10
2.775080
 20
5.602520
 11
2.783880
 21
5.600760
  0
LINE
  8
0
 62
     0
  6
CONTINUOUS
 10
2.783880
 20
5.600760
 11
2.783880
 21
5.624520
  0
LINE
  8
0
 62
     0
  6
CONTINUOUS
 10
2.783880
 20
5.624520
 11
2.783880
 21
5.648280
  0
LINE
  8
0
 62
     0
  6
CONTINUOUS
 10
2.783880
 20
5.648280
 11
2.775080
 21
5.646080
  0
LINE
  8
0
 62
     0
  6
CONTINUOUS
 10
2.775080
 20
5.646080
 11
2.768920
 21
5.641680
  0
LINE
  8
0
 62
     0
  6
CONTINUOUS
 10
2.762320
 20
5.635080
 11
2.775080
 21
5.635080
  0
LINE
  8
0
 62
     0
  6
CONTINUOUS
 10
2.781680
 20
5.626720
 11
2.762320
 21
5.626720
  0
LINE
  8
0
 62
     0
  6
CONTINUOUS
 10
2.790480
 20
5.626720
 11
2.807640
 21
5.626720
  0
LINE
  8
0
 62
     0
  6
CONTINUOUS
 10
2.807640
 20
5.626720
 11
2.807640
 21
5.624520
  0
LINE
  8
0
 62
     0
  6
CONTINUOUS
 10
2.807640
 20
5.624520
 11
2.805440
 21
5.632880
  0
LINE
  8
0
 62
     0
  6
CONTINUOUS
 10
2.805440
 20
5.632880
 11
2.801040
 21
5.641680
  0
LINE
  8
0
 62
     0
  6
CONTINUOUS
 10
2.801040
 20
5.641680
 11
2.792680
 21
5.646080
  0
LINE
  8
0
 62
     0
  6
CONTINUOUS
 10
2.792680
 20
5.646080
 11
2.783880
 21
5.648280
  0
LINE
  8
0
 62
     0
  6
CONTINUOUS
 10
2.794880
 20
5.646080
 11
2.794880
 21
5.635080
  0
LINE
  8
0
 62
     0
  6
CONTINUOUS
 10
2.794880
 20
5.635080
 11
2.792680
 21
5.635080
  0
LINE
  8
0
 62
     0
  6
CONTINUOUS
 10
2.792680
 20
5.635080
 11
2.803240
 21
5.635080
  0
LINE
  8
0
 62
     0
  6
CONTINUOUS
 10
2.807640
 20
5.624520
 11
2.805440
 21
5.615720
  0
LINE
  8
0
 62
     0
  6
CONTINUOUS
 10
2.805440
 20
5.615720
 11
2.801040
 21
5.606920
  0
LINE
  8
0
 62
     0
  6
CONTINUOUS
 10
2.801040
 20
5.606920
 11
2.792680
 21
5.602520
  0
LINE
  8
0
 62
     0
  6
CONTINUOUS
 10
2.792680
 20
5.602520
 11
2.783880
 21
5.600760
  0
LINE
  8
0
 62
     0
  6
CONTINUOUS
 10
2.794880
 20
5.602520
 11
2.794880
 21
5.613520
  0
LINE
  8
0
 62
     0
  6
CONTINUOUS
 10
2.669480
 20
5.615720
 11
2.649680
 21
5.624520
  0
LINE
  8
0
 62
     0
  6
CONTINUOUS
 10
2.649680
 20
5.624520
 11
2.665080
 21
5.606920
  0
LINE
  8
0
 62
     0
  6
CONTINUOUS
 10
2.665080
 20
5.606920
 11
2.649680
 21
5.624520
  0
LINE
  8
0
 62
     0
  6
CONTINUOUS
 10
2.649680
 20
5.624520
 11
2.658480
 21
5.602520
  0
LINE
  8
0
 62
     0
  6
CONTINUOUS
 10
2.658480
 20
5.602520
 11
2.649680
 21
5.624520
  0
LINE
  8
0
 62
     0
  6
CONTINUOUS
 10
2.649680
 20
5.624520
 11
2.649680
 21
5.600760
  0
LINE
  8
0
 62
     0
  6
CONTINUOUS
 10
2.649680
 20
5.600760
 11
2.649680
 21
5.624520
  0
LINE
  8
0
 62
     0
  6
CONTINUOUS
 10
2.649680
 20
5.624520
 11
2.639120
 21
5.602520
  0
LINE
  8
0
 62
     0
  6
CONTINUOUS
 10
2.639120
 20
5.602520
 11
2.649680
 21
5.624520
  0
LINE
  8
0
 62
     0
  6
CONTINUOUS
 10
2.649680
 20
5.624520
 11
2.632520
 21
5.606920
  0
LINE
  8
0
 62
     0
  6
CONTINUOUS
 10
2.632520
 20
5.606920
 11
2.649680
 21
5.624520
  0
LINE
  8
0
 62
     0
  6
CONTINUOUS
 10
2.649680
 20
5.624520
 11
2.625920
 21
5.615720
  0
LINE
  8
0
 62
     0
  6
CONTINUOUS
 10
2.625920
 20
5.615720
 11
2.649680
 21
5.624520
  0
LINE
  8
0
 62
     0
  6
CONTINUOUS
 10
2.649680
 20
5.624520
 11
2.625920
 21
5.624520
  0
LINE
  8
0
 62
     0
  6
CONTINUOUS
 10
2.625920
 20
5.624520
 11
2.649680
 21
5.624520
  0
LINE
  8
0
 62
     0
  6
CONTINUOUS
 10
2.649680
 20
5.624520
 11
2.625920
 21
5.632880
  0
LINE
  8
0
 62
     0
  6
CONTINUOUS
 10
2.625920
 20
5.632880
 11
2.649680
 21
5.624520
  0
LINE
  8
0
 62
     0
  6
CONTINUOUS
 10
2.649680
 20
5.624520
 11
2.632520
 21
5.641680
  0
LINE
  8
0
 62
     0
  6
CONTINUOUS
 10
2.632520
 20
5.641680
 11
2.649680
 21
5.624520
  0
LINE
  8
0
 62
     0
  6
CONTINUOUS
 10
2.649680
 20
5.624520
 11
2.639120
 21
5.646080
  0
LINE
  8
0
 62
     0
  6
CONTINUOUS
 10
2.639120
 20
5.646080
 11
2.649680
 21
5.624520
  0
LINE
  8
0
 62
     0
  6
CONTINUOUS
 10
2.649680
 20
5.624520
 11
2.649680
 21
5.648280
  0
LINE
  8
0
 62
     0
  6
CONTINUOUS
 10
2.649680
 20
5.648280
 11
2.649680
 21
5.624520
  0
LINE
  8
0
 62
     0
  6
CONTINUOUS
 10
2.649680
 20
5.624520
 11
2.658480
 21
5.646080
  0
LINE
  8
0
 62
     0
  6
CONTINUOUS
 10
2.658480
 20
5.646080
 11
2.649680
 21
5.624520
  0
LINE
  8
0
 62
     0
  6
CONTINUOUS
 10
2.649680
 20
5.624520
 11
2.665080
 21
5.641680
  0
LINE
  8
0
 62
     0
  6
CONTINUOUS
 10
2.665080
 20
5.641680
 11
2.649680
 21
5.624520
  0
LINE
  8
0
 62
     0
  6
CONTINUOUS
 10
2.649680
 20
5.624520
 11
2.669480
 21
5.632880
  0
LINE
  8
0
 62
     0
  6
CONTINUOUS
 10
2.669480
 20
5.632880
 11
2.649680
 21
5.624520
  0
LINE
  8
0
 62
     0
  6
CONTINUOUS
 10
2.649680
 20
5.624520
 11
2.671680
 21
5.624520
  0
LINE
  8
0
 62
     0
  6
CONTINUOUS
 10
2.671680
 20
5.624520
 11
2.649680
 21
5.624520
  0
LINE
  8
0
 62
     0
  6
CONTINUOUS
 10
2.649680
 20
5.624520
 11
2.669480
 21
5.615720
  0
LINE
  8
0
 62
     0
  6
CONTINUOUS
 10
2.669480
 20
5.615720
 11
2.671680
 21
5.624520
  0
LINE
  8
0
 62
     0
  6
CONTINUOUS
 10
2.671680
 20
5.624520
 11
2.669480
 21
5.632880
  0
LINE
  8
0
 62
     0
  6
CONTINUOUS
 10
2.669480
 20
5.632880
 11
2.665080
 21
5.641680
  0
LINE
  8
0
 62
     0
  6
CONTINUOUS
 10
2.665080
 20
5.641680
 11
2.658480
 21
5.646080
  0
LINE
  8
0
 62
     0
  6
CONTINUOUS
 10
2.658480
 20
5.646080
 11
2.649680
 21
5.648280
  0
LINE
  8
0
 62
     0
  6
CONTINUOUS
 10
2.649680
 20
5.648280
 11
2.639120
 21
5.646080
  0
LINE
  8
0
 62
     0
  6
CONTINUOUS
 10
2.639120
 20
5.646080
 11
2.632520
 21
5.641680
  0
LINE
  8
0
 62
     0
  6
CONTINUOUS
 10
2.632520
 20
5.641680
 11
2.625920
 21
5.632880
  0
LINE
  8
0
 62
     0
  6
CONTINUOUS
 10
2.625920
 20
5.632880
 11
2.625920
 21
5.624520
  0
LINE
  8
0
 62
     0
  6
CONTINUOUS
 10
2.625920
 20
5.624520
 11
2.625920
 21
5.615720
  0
LINE
  8
0
 62
     0
  6
CONTINUOUS
 10
2.625920
 20
5.615720
 11
2.632520
 21
5.606920
  0
LINE
  8
0
 62
     0
  6
CONTINUOUS
 10
2.632520
 20
5.606920
 11
2.639120
 21
5.602520
  0
LINE
  8
0
 62
     0
  6
CONTINUOUS
 10
2.639120
 20
5.602520
 11
2.649680
 21
5.600760
  0
LINE
  8
0
 62
     0
  6
CONTINUOUS
 10
2.649680
 20
5.600760
 11
2.658480
 21
5.602520
  0
LINE
  8
0
 62
     0
  6
CONTINUOUS
 10
2.658480
 20
5.602520
 11
2.665080
 21
5.606920
  0
LINE
  8
0
 62
     0
  6
CONTINUOUS
 10
2.665080
 20
5.606920
 11
2.669480
 21
5.615720
  0
LINE
  8
0
 62
     0
  6
CONTINUOUS
 10
2.671680
 20
5.626720
 11
2.651880
 21
5.626720
  0
LINE
  8
0
 62
     0
  6
CONTINUOUS
 10
2.651880
 20
5.626720
 11
2.651880
 21
5.630680
  0
LINE
  8
0
 62
     0
  6
CONTINUOUS
 10
2.651880
 20
5.630680
 11
2.651880
 21
5.648280
  0
LINE
  8
0
 62
     0
  6
CONTINUOUS
 10
2.658480
 20
5.635080
 11
2.669480
 21
5.635080
  0
LINE
  8
0
 62
     0
  6
CONTINUOUS
 10
2.639120
 20
5.635080
 11
2.628120
 21
5.635080
  0
LINE
  8
0
 62
     0
  6
CONTINUOUS
 10
2.625920
 20
5.626720
 11
2.643520
 21
5.626720
  0
LINE
  8
0
 62
     0
  6
CONTINUOUS
 10
2.651880
 20
5.617920
 11
2.651880
 21
5.600760
  0
LINE
  8
0
 62
     0
  6
CONTINUOUS
 10
2.509320
 20
5.606920
 11
2.492160
 21
5.624520
  0
LINE
  8
0
 62
     0
  6
CONTINUOUS
 10
2.492160
 20
5.624520
 11
2.500520
 21
5.602520
  0
LINE
  8
0
 62
     0
  6
CONTINUOUS
 10
2.500520
 20
5.602520
 11
2.492160
 21
5.624520
  0
LINE
  8
0
 62
     0
  6
CONTINUOUS
 10
2.492160
 20
5.624520
 11
2.492160
 21
5.600760
  0
LINE
  8
0
 62
     0
  6
CONTINUOUS
 10
2.492160
 20
5.600760
 11
2.492160
 21
5.624520
  0
LINE
  8
0
 62
     0
  6
CONTINUOUS
 10
2.492160
 20
5.624520
 11
2.483360
 21
5.602520
  0
LINE
  8
0
 62
     0
  6
CONTINUOUS
 10
2.483360
 20
5.602520
 11
2.492160
 21
5.624520
  0
LINE
  8
0
 62
     0
  6
CONTINUOUS
 10
2.492160
 20
5.624520
 11
2.474560
 21
5.606920
  0
LINE
  8
0
 62
     0
  6
CONTINUOUS
 10
2.474560
 20
5.606920
 11
2.492160
 21
5.624520
  0
LINE
  8
0
 62
     0
  6
CONTINUOUS
 10
2.492160
 20
5.624520
 11
2.472360
 21
5.615720
  0
LINE
  8
0
 62
     0
  6
CONTINUOUS
 10
2.472360
 20
5.615720
 11
2.492160
 21
5.624520
  0
LINE
  8
0
 62
     0
  6
CONTINUOUS
 10
2.492160
 20
5.624520
 11
2.468400
 21
5.624520
  0
LINE
  8
0
 62
     0
  6
CONTINUOUS
 10
2.468400
 20
5.624520
 11
2.492160
 21
5.624520
  0
LINE
  8
0
 62
     0
  6
CONTINUOUS
 10
2.492160
 20
5.624520
 11
2.472360
 21
5.632880
  0
LINE
  8
0
 62
     0
  6
CONTINUOUS
 10
2.472360
 20
5.632880
 11
2.492160
 21
5.624520
  0
LINE
  8
0
 62
     0
  6
CONTINUOUS
 10
2.492160
 20
5.624520
 11
2.474560
 21
5.641680
  0
LINE
  8
0
 62
     0
  6
CONTINUOUS
 10
2.474560
 20
5.641680
 11
2.492160
 21
5.624520
  0
LINE
  8
0
 62
     0
  6
CONTINUOUS
 10
2.492160
 20
5.624520
 11
2.483360
 21
5.646080
  0
LINE
  8
0
 62
     0
  6
CONTINUOUS
 10
2.483360
 20
5.646080
 11
2.492160
 21
5.624520
  0
LINE
  8
0
 62
     0
  6
CONTINUOUS
 10
2.492160
 20
5.624520
 11
2.492160
 21
5.648280
  0
LINE
  8
0
 62
     0
  6
CONTINUOUS
 10
2.492160
 20
5.648280
 11
2.492160
 21
5.624520
  0
LINE
  8
0
 62
     0
  6
CONTINUOUS
 10
2.492160
 20
5.624520
 11
2.500520
 21
5.646080
  0
LINE
  8
0
 62
     0
  6
CONTINUOUS
 10
2.500520
 20
5.646080
 11
2.492160
 21
5.624520
  0
LINE
  8
0
 62
     0
  6
CONTINUOUS
 10
2.492160
 20
5.624520
 11
2.509320
 21
5.641680
  0
LINE
  8
0
 62
     0
  6
CONTINUOUS
 10
2.509320
 20
5.641680
 11
2.492160
 21
5.624520
  0
LINE
  8
0
 62
     0
  6
CONTINUOUS
 10
2.492160
 20
5.624520
 11
2.515920
 21
5.632880
  0
LINE
  8
0
 62
     0
  6
CONTINUOUS
 10
2.515920
 20
5.632880
 11
2.492160
 21
5.624520
  0
LINE
  8
0
 62
     0
  6
CONTINUOUS
 10
2.492160
 20
5.624520
 11
2.515920
 21
5.624520
  0
LINE
  8
0
 62
     0
  6
CONTINUOUS
 10
2.515920
 20
5.624520
 11
2.492160
 21
5.624520
  0
LINE
  8
0
 62
     0
  6
CONTINUOUS
 10
2.492160
 20
5.624520
 11
2.515920
 21
5.615720
  0
LINE
  8
0
 62
     0
  6
CONTINUOUS
 10
2.515920
 20
5.615720
 11
2.492160
 21
5.624520
  0
LINE
  8
0
 62
     0
  6
CONTINUOUS
 10
2.492160
 20
5.624520
 11
2.509320
 21
5.606920
  0
LINE
  8
0
 62
     0
  6
CONTINUOUS
 10
2.509320
 20
5.606920
 11
2.515920
 21
5.615720
  0
LINE
  8
0
 62
     0
  6
CONTINUOUS
 10
2.515920
 20
5.615720
 11
2.515920
 21
5.624520
  0
LINE
  8
0
 62
     0
  6
CONTINUOUS
 10
2.515920
 20
5.624520
 11
2.515920
 21
5.632880
  0
LINE
  8
0
 62
     0
  6
CONTINUOUS
 10
2.515920
 20
5.632880
 11
2.509320
 21
5.641680
  0
LINE
  8
0
 62
     0
  6
CONTINUOUS
 10
2.509320
 20
5.641680
 11
2.500520
 21
5.646080
  0
LINE
  8
0
 62
     0
  6
CONTINUOUS
 10
2.500520
 20
5.646080
 11
2.492160
 21
5.648280
  0
LINE
  8
0
 62
     0
  6
CONTINUOUS
 10
2.492160
 20
5.648280
 11
2.492160
 21
5.624520
  0
LINE
  8
0
 62
     0
  6
CONTINUOUS
 10
2.492160
 20
5.624520
 11
2.492160
 21
5.600760
  0
LINE
  8
0
 62
     0
  6
CONTINUOUS
 10
2.492160
 20
5.600760
 11
2.492160
 21
5.624520
  0
LINE
  8
0
 62
     0
  6
CONTINUOUS
 10
2.492160
 20
5.624520
 11
2.492160
 21
5.648280
  0
LINE
  8
0
 62
     0
  6
CONTINUOUS
 10
2.492160
 20
5.648280
 11
2.483360
 21
5.646080
  0
LINE
  8
0
 62
     0
  6
CONTINUOUS
 10
2.483360
 20
5.646080
 11
2.474560
 21
5.641680
  0
LINE
  8
0
 62
     0
  6
CONTINUOUS
 10
2.474560
 20
5.641680
 11
2.472360
 21
5.632880
  0
LINE
  8
0
 62
     0
  6
CONTINUOUS
 10
2.472360
 20
5.632880
 11
2.468400
 21
5.624520
  0
LINE
  8
0
 62
     0
  6
CONTINUOUS
 10
2.468400
 20
5.624520
 11
2.472360
 21
5.615720
  0
LINE
  8
0
 62
     0
  6
CONTINUOUS
 10
2.472360
 20
5.615720
 11
2.474560
 21
5.606920
  0
LINE
  8
0
 62
     0
  6
CONTINUOUS
 10
2.474560
 20
5.606920
 11
2.483360
 21
5.602520
  0
LINE
  8
0
 62
     0
  6
CONTINUOUS
 10
2.483360
 20
5.602520
 11
2.492160
 21
5.600760
  0
LINE
  8
0
 62
     0
  6
CONTINUOUS
 10
2.492160
 20
5.600760
 11
2.500520
 21
5.602520
  0
LINE
  8
0
 62
     0
  6
CONTINUOUS
 10
2.500520
 20
5.602520
 11
2.509320
 21
5.606920
  0
LINE
  8
0
 62
     0
  6
CONTINUOUS
 10
2.515920
 20
5.626720
 11
2.496560
 21
5.626720
  0
LINE
  8
0
 62
     0
  6
CONTINUOUS
 10
2.496560
 20
5.626720
 11
2.487760
 21
5.626720
  0
LINE
  8
0
 62
     0
  6
CONTINUOUS
 10
2.487760
 20
5.626720
 11
2.468400
 21
5.626720
  0
LINE
  8
0
 62
     0
  6
CONTINUOUS
 10
2.472360
 20
5.635080
 11
2.483360
 21
5.635080
  0
LINE
  8
0
 62
     0
  6
CONTINUOUS
 10
2.502720
 20
5.635080
 11
2.513720
 21
5.635080
  0
LINE
  8
0
 62
     0
  6
CONTINUOUS
 10
2.364560
 20
5.632880
 11
2.343000
 21
5.624520
  0
LINE
  8
0
 62
     0
  6
CONTINUOUS
 10
2.343000
 20
5.624520
 11
2.366760
 21
5.624520
  0
LINE
  8
0
 62
     0
  6
CONTINUOUS
 10
2.366760
 20
5.624520
 11
2.343000
 21
5.624520
  0
LINE
  8
0
 62
     0
  6
CONTINUOUS
 10
2.343000
 20
5.624520
 11
2.364560
 21
5.615720
  0
LINE
  8
0
 62
     0
  6
CONTINUOUS
 10
2.364560
 20
5.615720
 11
2.343000
 21
5.624520
  0
LINE
  8
0
 62
     0
  6
CONTINUOUS
 10
2.343000
 20
5.624520
 11
2.360160
 21
5.606920
  0
LINE
  8
0
 62
     0
  6
CONTINUOUS
 10
2.360160
 20
5.606920
 11
2.343000
 21
5.624520
  0
LINE
  8
0
 62
     0
  6
CONTINUOUS
 10
2.343000
 20
5.624520
 11
2.351360
 21
5.602520
  0
LINE
  8
0
 62
     0
  6
CONTINUOUS
 10
2.351360
 20
5.602520
 11
2.343000
 21
5.624520
  0
LINE
  8
0
 62
     0
  6
CONTINUOUS
 10
2.343000
 20
5.624520
 11
2.343000
 21
5.600760
  0
LINE
  8
0
 62
     0
  6
CONTINUOUS
 10
2.343000
 20
5.600760
 11
2.343000
 21
5.624520
  0
LINE
  8
0
 62
     0
  6
CONTINUOUS
 10
2.343000
 20
5.624520
 11
2.334200
 21
5.602520
  0
LINE
  8
0
 62
     0
  6
CONTINUOUS
 10
2.334200
 20
5.602520
 11
2.343000
 21
5.624520
  0
LINE
  8
0
 62
     0
  6
CONTINUOUS
 10
2.343000
 20
5.624520
 11
2.325400
 21
5.606920
  0
LINE
  8
0
 62
     0
  6
CONTINUOUS
 10
2.325400
 20
5.606920
 11
2.343000
 21
5.624520
  0
LINE
  8
0
 62
     0
  6
CONTINUOUS
 10
2.343000
 20
5.624520
 11
2.321440
 21
5.615720
  0
LINE
  8
0
 62
     0
  6
CONTINUOUS
 10
2.321440
 20
5.615720
 11
2.343000
 21
5.624520
  0
LINE
  8
0
 62
     0
  6
CONTINUOUS
 10
2.343000
 20
5.624520
 11
2.319240
 21
5.624520
  0
LINE
  8
0
 62
     0
  6
CONTINUOUS
 10
2.319240
 20
5.624520
 11
2.343000
 21
5.624520
  0
LINE
  8
0
 62
     0
  6
CONTINUOUS
 10
2.343000
 20
5.624520
 11
2.321440
 21
5.632880
  0
LINE
  8
0
 62
     0
  6
CONTINUOUS
 10
2.321440
 20
5.632880
 11
2.343000
 21
5.624520
  0
LINE
  8
0
 62
     0
  6
CONTINUOUS
 10
2.343000
 20
5.624520
 11
2.325400
 21
5.641680
  0
LINE
  8
0
 62
     0
  6
CONTINUOUS
 10
2.325400
 20
5.641680
 11
2.343000
 21
5.624520
  0
LINE
  8
0
 62
     0
  6
CONTINUOUS
 10
2.343000
 20
5.624520
 11
2.334200
 21
5.646080
  0
LINE
  8
0
 62
     0
  6
CONTINUOUS
 10
2.334200
 20
5.646080
 11
2.343000
 21
5.624520
  0
LINE
  8
0
 62
     0
  6
CONTINUOUS
 10
2.343000
 20
5.624520
 11
2.343000
 21
5.648280
  0
LINE
  8
0
 62
     0
  6
CONTINUOUS
 10
2.343000
 20
5.648280
 11
2.343000
 21
5.624520
  0
LINE
  8
0
 62
     0
  6
CONTINUOUS
 10
2.343000
 20
5.624520
 11
2.351360
 21
5.646080
  0
LINE
  8
0
 62
     0
  6
CONTINUOUS
 10
2.351360
 20
5.646080
 11
2.343000
 21
5.624520
  0
LINE
  8
0
 62
     0
  6
CONTINUOUS
 10
2.343000
 20
5.624520
 11
2.360160
 21
5.641680
  0
LINE
  8
0
 62
     0
  6
CONTINUOUS
 10
2.360160
 20
5.641680
 11
2.343000
 21
5.624520
  0
LINE
  8
0
 62
     0
  6
CONTINUOUS
 10
2.343000
 20
5.624520
 11
2.364560
 21
5.632880
  0
LINE
  8
0
 62
     0
  6
CONTINUOUS
 10
2.364560
 20
5.632880
 11
2.360160
 21
5.641680
  0
LINE
  8
0
 62
     0
  6
CONTINUOUS
 10
2.360160
 20
5.641680
 11
2.351360
 21
5.646080
  0
LINE
  8
0
 62
     0
  6
CONTINUOUS
 10
2.351360
 20
5.646080
 11
2.343000
 21
5.648280
  0
LINE
  8
0
 62
     0
  6
CONTINUOUS
 10
2.343000
 20
5.648280
 11
2.343000
 21
5.624520
  0
LINE
  8
0
 62
     0
  6
CONTINUOUS
 10
2.343000
 20
5.624520
 11
2.343000
 21
5.600760
  0
LINE
  8
0
 62
     0
  6
CONTINUOUS
 10
2.343000
 20
5.600760
 11
2.351360
 21
5.602520
  0
LINE
  8
0
 62
     0
  6
CONTINUOUS
 10
2.351360
 20
5.602520
 11
2.360160
 21
5.606920
  0
LINE
  8
0
 62
     0
  6
CONTINUOUS
 10
2.360160
 20
5.606920
 11
2.364560
 21
5.615720
  0
LINE
  8
0
 62
     0
  6
CONTINUOUS
 10
2.364560
 20
5.615720
 11
2.366760
 21
5.624520
  0
LINE
  8
0
 62
     0
  6
CONTINUOUS
 10
2.366760
 20
5.624520
 11
2.364560
 21
5.632880
  0
LINE
  8
0
 62
     0
  6
CONTINUOUS
 10
2.364560
 20
5.632880
 11
2.362360
 21
5.635080
  0
LINE
  8
0
 62
     0
  6
CONTINUOUS
 10
2.362360
 20
5.635080
 11
2.351360
 21
5.635080
  0
LINE
  8
0
 62
     0
  6
CONTINUOUS
 10
2.347400
 20
5.626720
 11
2.366760
 21
5.626720
  0
LINE
  8
0
 62
     0
  6
CONTINUOUS
 10
2.338600
 20
5.626720
 11
2.319240
 21
5.626720
  0
LINE
  8
0
 62
     0
  6
CONTINUOUS
 10
2.319240
 20
5.626720
 11
2.319240
 21
5.624520
  0
LINE
  8
0
 62
     0
  6
CONTINUOUS
 10
2.319240
 20
5.624520
 11
2.321440
 21
5.615720
  0
LINE
  8
0
 62
     0
  6
CONTINUOUS
 10
2.321440
 20
5.615720
 11
2.325400
 21
5.606920
  0
LINE
  8
0
 62
     0
  6
CONTINUOUS
 10
2.325400
 20
5.606920
 11
2.334200
 21
5.602520
  0
LINE
  8
0
 62
     0
  6
CONTINUOUS
 10
2.334200
 20
5.602520
 11
2.343000
 21
5.600760
  0
LINE
  8
0
 62
     0
  6
CONTINUOUS
 10
2.332000
 20
5.602520
 11
2.332000
 21
5.613520
  0
LINE
  8
0
 62
     0
  6
CONTINUOUS
 10
2.332000
 20
5.635080
 11
2.332000
 21
5.646080
  0
LINE
  8
0
 62
     0
  6
CONTINUOUS
 10
2.332000
 20
5.646080
 11
2.334200
 21
5.646080
  0
LINE
  8
0
 62
     0
  6
CONTINUOUS
 10
2.334200
 20
5.646080
 11
2.325400
 21
5.641680
  0
LINE
  8
0
 62
     0
  6
CONTINUOUS
 10
2.325400
 20
5.641680
 11
2.321440
 21
5.632880
  0
LINE
  8
0
 62
     0
  6
CONTINUOUS
 10
2.321440
 20
5.632880
 11
2.319240
 21
5.624520
  0
LINE
  8
0
 62
     0
  6
CONTINUOUS
 10
2.321440
 20
5.635080
 11
2.332000
 21
5.635080
  0
LINE
  8
0
 62
     0
  6
CONTINUOUS
 10
2.334200
 20
5.646080
 11
2.343000
 21
5.648280
  0
LINE
  8
0
 62
     0
  6
CONTINUOUS
 10
2.230800
 20
5.641680
 11
2.215840
 21
5.624520
  0
LINE
  8
0
 62
     0
  6
CONTINUOUS
 10
2.215840
 20
5.624520
 11
2.237400
 21
5.632880
  0
LINE
  8
0
 62
     0
  6
CONTINUOUS
 10
2.237400
 20
5.632880
 11
2.215840
 21
5.624520
  0
LINE
  8
0
 62
     0
  6
CONTINUOUS
 10
2.215840
 20
5.624520
 11
2.237400
 21
5.624520
  0
LINE
  8
0
 62
     0
  6
CONTINUOUS
 10
2.237400
 20
5.624520
 11
2.215840
 21
5.624520
  0
LINE
  8
0
 62
     0
  6
CONTINUOUS
 10
2.215840
 20
5.624520
 11
2.237400
 21
5.615720
  0
LINE
  8
0
 62
     0
  6
CONTINUOUS
 10
2.237400
 20
5.615720
 11
2.215840
 21
5.624520
  0
LINE
  8
0
 62
     0
  6
CONTINUOUS
 10
2.215840
 20
5.624520
 11
2.230800
 21
5.606920
  0
LINE
  8
0
 62
     0
  6
CONTINUOUS
 10
2.230800
 20
5.606920
 11
2.215840
 21
5.624520
  0
LINE
  8
0
 62
     0
  6
CONTINUOUS
 10
2.215840
 20
5.624520
 11
2.224200
 21
5.602520
  0
LINE
  8
0
 62
     0
  6
CONTINUOUS
 10
2.224200
 20
5.602520
 11
2.215840
 21
5.624520
  0
LINE
  8
0
 62
     0
  6
CONTINUOUS
 10
2.215840
 20
5.624520
 11
2.215840
 21
5.600760
  0
LINE
  8
0
 62
     0
  6
CONTINUOUS
 10
2.215840
 20
5.600760
 11
2.215840
 21
5.624520
  0
LINE
  8
0
 62
     0
  6
CONTINUOUS
 10
2.215840
 20
5.624520
 11
2.204840
 21
5.602520
  0
LINE
  8
0
 62
     0
  6
CONTINUOUS
 10
2.204840
 20
5.602520
 11
2.215840
 21
5.624520
  0
LINE
  8
0
 62
     0
  6
CONTINUOUS
 10
2.215840
 20
5.624520
 11
2.196480
 21
5.606920
  0
LINE
  8
0
 62
     0
  6
CONTINUOUS
 10
2.196480
 20
5.606920
 11
2.215840
 21
5.624520
  0
LINE
  8
0
 62
     0
  6
CONTINUOUS
 10
2.215840
 20
5.624520
 11
2.192080
 21
5.615720
  0
LINE
  8
0
 62
     0
  6
CONTINUOUS
 10
2.192080
 20
5.615720
 11
2.215840
 21
5.624520
  0
LINE
  8
0
 62
     0
  6
CONTINUOUS
 10
2.215840
 20
5.624520
 11
2.189880
 21
5.624520
  0
LINE
  8
0
 62
     0
  6
CONTINUOUS
 10
2.189880
 20
5.624520
 11
2.215840
 21
5.624520
  0
LINE
  8
0
 62
     0
  6
CONTINUOUS
 10
2.215840
 20
5.624520
 11
2.192080
 21
5.632880
  0
LINE
  8
0
 62
     0
  6
CONTINUOUS
 10
2.192080
 20
5.632880
 11
2.215840
 21
5.624520
  0
LINE
  8
0
 62
     0
  6
CONTINUOUS
 10
2.215840
 20
5.624520
 11
2.196480
 21
5.641680
  0
LINE
  8
0
 62
     0
  6
CONTINUOUS
 10
2.196480
 20
5.641680
 11
2.215840
 21
5.624520
  0
LINE
  8
0
 62
     0
  6
CONTINUOUS
 10
2.215840
 20
5.624520
 11
2.204840
 21
5.646080
  0
LINE
  8
0
 62
     0
  6
CONTINUOUS
 10
2.204840
 20
5.646080
 11
2.215840
 21
5.624520
  0
LINE
  8
0
 62
     0
  6
CONTINUOUS
 10
2.215840
 20
5.624520
 11
2.215840
 21
5.648280
  0
LINE
  8
0
 62
     0
  6
CONTINUOUS
 10
2.215840
 20
5.648280
 11
2.215840
 21
5.624520
  0
LINE
  8
0
 62
     0
  6
CONTINUOUS
 10
2.215840
 20
5.624520
 11
2.224200
 21
5.646080
  0
LINE
  8
0
 62
     0
  6
CONTINUOUS
 10
2.224200
 20
5.646080
 11
2.224200
 21
5.632880
  0
LINE
  8
0
 62
     0
  6
CONTINUOUS
 10
2.224200
 20
5.632880
 11
2.224200
 21
5.635080
  0
LINE
  8
0
 62
     0
  6
CONTINUOUS
 10
2.224200
 20
5.635080
 11
2.235200
 21
5.635080
  0
LINE
  8
0
 62
     0
  6
CONTINUOUS
 10
2.235200
 20
5.635080
 11
2.237400
 21
5.632880
  0
LINE
  8
0
 62
     0
  6
CONTINUOUS
 10
2.237400
 20
5.632880
 11
2.230800
 21
5.641680
  0
LINE
  8
0
 62
     0
  6
CONTINUOUS
 10
2.230800
 20
5.641680
 11
2.224200
 21
5.646080
  0
LINE
  8
0
 62
     0
  6
CONTINUOUS
 10
2.224200
 20
5.646080
 11
2.215840
 21
5.624520
  0
LINE
  8
0
 62
     0
  6
CONTINUOUS
 10
2.215840
 20
5.624520
 11
2.230800
 21
5.641680
  0
LINE
  8
0
 62
     0
  6
CONTINUOUS
 10
2.224200
 20
5.646080
 11
2.215840
 21
5.648280
  0
LINE
  8
0
 62
     0
  6
CONTINUOUS
 10
2.215840
 20
5.648280
 11
2.215840
 21
5.624520
  0
LINE
  8
0
 62
     0
  6
CONTINUOUS
 10
2.215840
 20
5.624520
 11
2.215840
 21
5.600760
  0
LINE
  8
0
 62
     0
  6
CONTINUOUS
 10
2.215840
 20
5.600760
 11
2.224200
 21
5.602520
  0
LINE
  8
0
 62
     0
  6
CONTINUOUS
 10
2.224200
 20
5.602520
 11
2.230800
 21
5.606920
  0
LINE
  8
0
 62
     0
  6
CONTINUOUS
 10
2.230800
 20
5.606920
 11
2.237400
 21
5.615720
  0
LINE
  8
0
 62
     0
  6
CONTINUOUS
 10
2.237400
 20
5.615720
 11
2.237400
 21
5.624520
  0
LINE
  8
0
 62
     0
  6
CONTINUOUS
 10
2.237400
 20
5.624520
 11
2.237400
 21
5.632880
  0
LINE
  8
0
 62
     0
  6
CONTINUOUS
 10
2.237400
 20
5.626720
 11
2.218040
 21
5.626720
  0
LINE
  8
0
 62
     0
  6
CONTINUOUS
 10
2.218040
 20
5.626720
 11
2.215840
 21
5.626720
  0
LINE
  8
0
 62
     0
  6
CONTINUOUS
 10
2.215840
 20
5.626720
 11
2.215840
 21
5.648280
  0
LINE
  8
0
 62
     0
  6
CONTINUOUS
 10
2.215840
 20
5.648280
 11
2.204840
 21
5.646080
  0
LINE
  8
0
 62
     0
  6
CONTINUOUS
 10
2.204840
 20
5.646080
 11
2.196480
 21
5.641680
  0
LINE
  8
0
 62
     0
  6
CONTINUOUS
 10
2.196480
 20
5.641680
 11
2.192080
 21
5.632880
  0
LINE
  8
0
 62
     0
  6
CONTINUOUS
 10
2.192080
 20
5.632880
 11
2.189880
 21
5.624520
  0
LINE
  8
0
 62
     0
  6
CONTINUOUS
 10
2.189880
 20
5.624520
 11
2.192080
 21
5.615720
  0
LINE
  8
0
 62
     0
  6
CONTINUOUS
 10
2.192080
 20
5.615720
 11
2.196480
 21
5.606920
  0
LINE
  8
0
 62
     0
  6
CONTINUOUS
 10
2.196480
 20
5.606920
 11
2.204840
 21
5.602520
  0
LINE
  8
0
 62
     0
  6
CONTINUOUS
 10
2.204840
 20
5.602520
 11
2.215840
 21
5.600760
  0
LINE
  8
0
 62
     0
  6
CONTINUOUS
 10
2.215840
 20
5.600760
 11
2.215840
 21
5.622320
  0
LINE
  8
0
 62
     0
  6
CONTINUOUS
 10
2.215840
 20
5.622320
 11
2.209240
 21
5.626720
  0
LINE
  8
0
 62
     0
  6
CONTINUOUS
 10
2.209240
 20
5.626720
 11
2.189880
 21
5.626720
  0
LINE
  8
0
 62
     0
  6
CONTINUOUS
 10
2.194280
 20
5.635080
 11
2.204840
 21
5.635080
  0
LINE
  8
0
 62
     0
  6
CONTINUOUS
 10
2.224200
 20
5.615720
 11
2.224200
 21
5.602520
  0
LINE
  8
0
 62
     0
  6
CONTINUOUS
 10
2.261160
 20
5.459960
 11
2.405480
 21
5.762680
  0
LINE
  8
0
 62
     0
  6
CONTINUOUS
 10
2.278320
 20
5.762680
 11
2.133560
 21
5.459960
  0
LINE
  8
0
 62
     0
  6
CONTINUOUS
 10
2.412080
 20
5.459960
 11
2.556840
 21
5.762680
  0
LINE
  8
0
 62
     0
  6
CONTINUOUS
 10
2.092640
 20
5.907440
 11
2.092640
 21
4.751120
  0
LINE
  8
0
 62
     0
  6
CONTINUOUS
 10
2.092640
 20
4.751120
 11
2.498320
 21
5.157240
  0
LINE
  8
0
 62
     0
  6
CONTINUOUS
 10
2.498320
 20
5.157240
 11
2.878920
 21
4.751120
  0
LINE
  8
0
 62
     0
  6
CONTINUOUS
 10
2.878920
 20
4.751120
 11
2.878920
 21
5.907440
  0
LINE
  8
0
 62
     0
  6
CONTINUOUS
 10
0.899360
 20
6.288040
 11
0.490600
 21
5.907440
  0
LINE
  8
0
 62
     0
  6
CONTINUOUS
 10
0.490600
 20
5.907440
 11
2.092640
 21
5.907440
  0
LINE
  8
0
 62
     0
  6
CONTINUOUS
 10
2.118600
 20
5.624520
 11
2.310440
 21
5.624520
  0
LINE
  8
0
 62
     0
  6
CONTINUOUS
 10
2.412080
 20
5.624520
 11
2.606560
 21
5.624520
  0
LINE
  8
0
 62
     0
  6
CONTINUOUS
 10
2.703800
 20
5.624520
 11
2.918080
 21
5.624520
  0
LINE
  8
0
 62
     0
  6
CONTINUOUS
 10
0.899360
 20
6.288040
 11
0.490600
 21
6.694600
  0
LINE
  8
0
 62
     0
  6
CONTINUOUS
 10
0.490600
 20
6.694600
 11
7.576360
 21
6.694600
  0
LINE
  8
0
 62
     0
  6
CONTINUOUS
 10
2.973960
 20
5.360520
 11
2.973960
 21
5.293640
  0
LINE
  8
0
 62
     0
  6
CONTINUOUS
 10
2.973960
 20
5.328400
 11
3.019720
 21
5.328400
  0
LINE
  8
0
 62
     0
  6
CONTINUOUS
 10
3.019720
 20
5.360520
 11
3.019720
 21
5.293640
  0
LINE
  8
0
 62
     0
  6
CONTINUOUS
 10
3.060640
 20
5.354360
 11
3.175040
 21
5.354360
  0
LINE
  8
0
 62
     0
  6
CONTINUOUS
 10
3.175040
 20
5.321800
 11
3.220800
 21
5.321800
  0
LINE
  8
0
 62
     0
  6
CONTINUOUS
 10
3.220800
 20
5.284840
 11
3.220800
 21
5.477560
  0
LINE
  8
0
 62
     0
  6
CONTINUOUS
 10
3.220800
 20
5.477560
 11
3.339600
 21
5.477560
  0
LINE
  8
0
 62
     0
  6
CONTINUOUS
 10
3.339600
 20
5.477560
 11
3.339600
 21
5.284840
  0
LINE
  8
0
 62
     0
  6
CONTINUOUS
 10
3.339600
 20
5.284840
 11
3.220800
 21
5.284840
  0
LINE
  8
0
 62
     0
  6
CONTINUOUS
 10
3.175040
 20
5.321800
 11
3.175040
 21
5.438400
  0
LINE
  8
0
 62
     0
  6
CONTINUOUS
 10
3.175040
 20
5.438400
 11
3.220800
 21
5.438400
  0
LINE
  8
0
 62
     0
  6
CONTINUOUS
 10
3.175040
 20
5.408040
 11
3.060640
 21
5.408040
  0
LINE
  8
0
 62
     0
  6
CONTINUOUS
 10
3.019720
 20
5.401880
 11
2.973960
 21
5.468760
  0
LINE
  8
0
 62
     0
  6
CONTINUOUS
 10
2.973960
 20
5.468760
 11
2.973960
 21
5.401880
  0
LINE
  8
0
 62
     0
  6
CONTINUOUS
 10
3.019720
 20
5.401880
 11
3.019720
 21
5.468760
  0
LINE
  8
0
 62
     0
  6
CONTINUOUS
 10
3.339600
 20
5.438400
 11
3.382720
 21
5.438400
  0
LINE
  8
0
 62
     0
  6
CONTINUOUS
 10
3.382720
 20
5.438400
 11
3.382720
 21
5.321800
  0
LINE
  8
0
 62
     0
  6
CONTINUOUS
 10
3.382720
 20
5.321800
 11
3.339600
 21
5.321800
  0
LINE
  8
0
 62
     0
  6
CONTINUOUS
 10
3.382720
 20
5.354360
 11
3.555640
 21
5.354360
  0
LINE
  8
0
 62
     0
  6
CONTINUOUS
 10
3.555640
 20
5.354360
 11
3.555640
 21
4.642880
  0
LINE
  8
0
 62
     0
  6
CONTINUOUS
 10
4.235880
 20
4.642880
 11
4.235880
 21
5.206520
  0
LINE
  8
0
 62
     0
  6
CONTINUOUS
 10
3.620320
 20
5.907440
 11
3.620320
 21
5.620120
  0
LINE
  8
0
 62
     0
  6
CONTINUOUS
 10
3.620320
 20
5.620120
 11
3.620320
 21
5.408040
  0
LINE
  8
0
 62
     0
  6
CONTINUOUS
 10
3.711400
 20
5.408040
 11
3.382720
 21
5.408040
  0
LINE
  8
0
 62
     0
  6
CONTINUOUS
 10
3.885200
 20
5.401880
 11
4.859360
 21
5.401880
  0
LINE
  8
0
 62
     0
  6
CONTINUOUS
 10
4.751120
 20
5.401880
 11
4.751120
 21
5.680400
  0
LINE
  8
0
 62
     0
  6
CONTINUOUS
 10
4.751120
 20
5.680400
 11
5.114120
 21
5.680400
  0
LINE
  8
0
 62
     0
  6
CONTINUOUS
 10
5.836160
 20
5.401880
 11
6.322360
 21
5.401880
  0
LINE
  8
0
 62
     0
  6
CONTINUOUS
 10
6.322360
 20
5.401880
 11
6.322360
 21
5.907440
  0
TEXT
  8
0
 62
     0
 10
3.494040
 20
4.550920
 40
0.128668
  1
R
 41
1.000000
  7
SN0
 71
     0
 72
     5
 11
3.632640
 21
4.550920
  0
TEXT
  8
0
 62
     0
 10
3.951640
 20
4.550920
 40
0.128668
  1
Y1
 41
1.000000
  7
SN0
 71
     0
 72
     5
 11
4.197600
 21
4.550920
  0
TEXT
  8
0
 62
     0
 10
4.230600
 20
4.550920
 40
0.128668
  1
Y2
 41
1.000000
  7
SN0
 71
     0
 72
     5
 11
4.476560
 21
4.550920
  0
TEXT
  8
0
 62
     0
 10
4.931080
 20
4.550920
 40
0.128668
  1
G
 41
1.000000
  7
SN0
 71
     0
 72
     5
 11
5.067480
 21
4.550920
  0
TEXT
  8
0
 62
     0
 10
6.367240
 20
4.550920
 40
0.128668
  1
W1
 41
1.000000
  7
SN0
 71
     0
 72
     5
 11
6.647960
 21
4.550920
  0
TEXT
  8
0
 62
     0
 10
6.674360
 20
4.550920
 40
0.128668
  1
W2
 41
1.000000
  7
SN0
 71
     0
 72
     5
 11
6.955080
 21
4.550920
  0
POLYLINE
  8
0
 62
     0
  6
CONTINUOUS
 66
     1
 40
0.014080
 41
0.014080
  0
VERTEX
  8
0
 62
     0
  6
CONTINUOUS
 10
3.484800
 20
4.652560
  0
VERTEX
  8
0
 62
     0
  6
CONTINUOUS
 10
3.610200
 20
4.652560
  0
VERTEX
  8
0
 62
     0
  6
CONTINUOUS
 10
3.610200
 20
4.453680
  0
VERTEX
  8
0
 62
     0
  6
CONTINUOUS
 10
3.484800
 20
4.453680
  0
VERTEX
  8
0
 62
     0
  6
CONTINUOUS
 10
3.484800
 20
4.652560
  0
SEQEND
  8
0
  0
POLYLINE
  8
0
 62
     0
  6
CONTINUOUS
 66
     1
 40
0.014080
 41
0.014080
  0
VERTEX
  8
0
 62
     0
  6
CONTINUOUS
 10
3.957360
 20
4.652560
  0
VERTEX
  8
0
 62
     0
  6
CONTINUOUS
 10
4.139520
 20
4.652560
  0
VERTEX
  8
0
 62
     0
  6
CONTINUOUS
 10
4.139520
 20
4.453680
  0
VERTEX
  8
0
 62
     0
  6
CONTINUOUS
 10
3.957360
 20
4.453680
  0
VERTEX
  8
0
 62
     0
  6
CONTINUOUS
 10
3.957360
 20
4.652560
  0
SEQEND
  8
0
  0
POLYLINE
  8
0
 62
     0
  6
CONTINUOUS
 66
     1
 40
0.014080
 41
0.014080
  0
VERTEX
  8
0
 62
     0
  6
CONTINUOUS
 10
4.227520
 20
4.652560
  0
VERTEX
  8
0
 62
     0
  6
CONTINUOUS
 10
4.409680
 20
4.652560
  0
VERTEX
  8
0
 62
     0
  6
CONTINUOUS
 10
4.409680
 20
4.453680
  0
VERTEX
  8
0
 62
     0
  6
CONTINUOUS
 10
4.227520
 20
4.453680
  0
VERTEX
  8
0
 62
     0
  6
CONTINUOUS
 10
4.227520
 20
4.652560
  0
SEQEND
  8
0
  0
POLYLINE
  8
0
 62
     0
  6
CONTINUOUS
 66
     1
 40
0.014080
 41
0.014080
  0
VERTEX
  8
0
 62
     0
  6
CONTINUOUS
 10
4.911720
 20
4.652560
  0
VERTEX
  8
0
 62
     0
  6
CONTINUOUS
 10
5.054720
 20
4.652560
  0
VERTEX
  8
0
 62
     0
  6
CONTINUOUS
 10
5.054720
 20
4.453680
  0
VERTEX
  8
0
 62
     0
  6
CONTINUOUS
 10
4.911720
 20
4.453680
  0
VERTEX
  8
0
 62
     0
  6
CONTINUOUS
 10
4.911720
 20
4.652560
  0
SEQEND
  8
0
  0
POLYLINE
  8
0
 62
     0
  6
CONTINUOUS
 66
     1
 40
0.014080
 41
0.014080
  0
VERTEX
  8
0
 62
     0
  6
CONTINUOUS
 10
6.366360
 20
4.652560
  0
VERTEX
  8
0
 62
     0
  6
CONTINUOUS
 10
6.600440
 20
4.652560
  0
VERTEX
  8
0
 62
     0
  6
CONTINUOUS
 10
6.600440
 20
4.453680
  0
VERTEX
  8
0
 62
     0
  6
CONTINUOUS
 10
6.366360
 20
4.453680
  0
VERTEX
  8
0
 62
     0
  6
CONTINUOUS
 10
6.366360
 20
4.652560
  0
SEQEND
  8
0
  0
POLYLINE
  8
0
 62
     0
  6
CONTINUOUS
 66
     1
 40
0.014080
 41
0.014080
  0
VERTEX
  8
0
 62
     0
  6
CONTINUOUS
 10
6.663360
 20
4.652560
  0
VERTEX
  8
0
 62
     0
  6
CONTINUOUS
 10
6.897440
 20
4.652560
  0
VERTEX
  8
0
 62
     0
  6
CONTINUOUS
 10
6.897440
 20
4.453680
  0
VERTEX
  8
0
 62
     0
  6
CONTINUOUS
 10
6.663360
 20
4.453680
  0
VERTEX
  8
0
 62
     0
  6
CONTINUOUS
 10
6.663360
 20
4.652560
  0
SEQEND
  8
0
  0
POLYLINE
  8
0
 62
     0
  6
CONTINUOUS
 66
     1
 40
0.000000
 41
0.000000
  0
VERTEX
  8
0
 62
     0
  6
CONTINUOUS
 10
1.514040
 20
5.900840
  0
VERTEX
  8
0
 62
     0
  6
CONTINUOUS
 10
1.514040
 20
5.634640
  0
VERTEX
  8
0
 62
     0
  6
CONTINUOUS
 10
2.085600
 20
5.634640
  0
SEQEND
  8
0
  0
SOLID
  8
0
 62
     7
 10
1.402280
 20
5.774560
 11
1.848440
 21
5.774560
 12
1.402280
 22
5.410680
 13
1.848440
 23
5.410680
  0
POLYLINE
  8
0
 62
     0
  6
CONTINUOUS
 66
     1
 40
0.000000
 41
0.000000
  0
VERTEX
  8
0
 62
     0
  6
CONTINUOUS
 10
1.402280
 20
5.774560
  0
VERTEX
  8
0
 62
     0
  6
CONTINUOUS
 10
1.848440
 20
5.774560
  0
VERTEX
  8
0
 62
     0
  6
CONTINUOUS
 10
1.848440
 20
5.410680
  0
VERTEX
  8
0
 62
     0
  6
CONTINUOUS
 10
1.402280
 20
5.410680
  0
VERTEX
  8
0
 62
     0
  6
CONTINUOUS
 10
1.402280
 20
5.774560
  0
SEQEND
  8
0
  0
TEXT
  8
0
 62
     0
 10
1.416360
 20
5.679960
 40
0.106887
  1
   OA 
 41
1.000000
  7
SN0
 71
     0
 72
     5
 11
1.817200
 21
5.679960
  0
TEXT
  8
0
 62
     0
 10
1.416360
 20
5.537840
 40
0.106887
  1
Damper
 41
1.000000
  7
SN0
 71
     0
 72
     5
 11
1.973840
 21
5.537840
  0
LINE
  8
0
 62
     0
  6
CONTINUOUS
 10
1.499960
 20
5.410680
 11
1.499960
 21
4.653880
  0
LINE
  8
0
 62
     0
  6
CONTINUOUS
 10
1.737120
 20
5.410680
 11
1.737120
 21
4.667960
  0
TEXT
  8
0
 62
     0
 10
1.391280
 20
4.550920
 40
0.128668
  1
A1
 41
1.000000
  7
SN0
 71
     0
 72
     5
 11
1.642520
 21
4.550920
  0
TEXT
  8
0
 62
     0
 10
1.667160
 20
4.550920
 40
0.128668
  1
A2
 41
1.000000
  7
SN0
 71
     0
 72
     5
 11
1.918400
 21
4.550920
  0
POLYLINE
  8
0
 62
     0
  6
CONTINUOUS
 66
     1
 40
0.014080
 41
0.014080
  0
VERTEX
  8
0
 62
     0
  6
CONTINUOUS
 10
1.384680
 20
4.652560
  0
VERTEX
  8
0
 62
     0
  6
CONTINUOUS
 10
1.575640
 20
4.652560
  0
VERTEX
  8
0
 62
     0
  6
CONTINUOUS
 10
1.575640
 20
4.453680
  0
VERTEX
  8
0
 62
     0
  6
CONTINUOUS
 10
1.384680
 20
4.453680
  0
VERTEX
  8
0
 62
     0
  6
CONTINUOUS
 10
1.384680
 20
4.652560
  0
SEQEND
  8
0
  0
POLYLINE
  8
0
 62
     0
  6
CONTINUOUS
 66
     1
 40
0.014080
 41
0.014080
  0
VERTEX
  8
0
 62
     0
  6
CONTINUOUS
 10
1.664960
 20
4.652560
  0
VERTEX
  8
0
 62
     0
  6
CONTINUOUS
 10
1.861640
 20
4.652560
  0
VERTEX
  8
0
 62
     0
  6
CONTINUOUS
 10
1.861640
 20
4.453680
  0
VERTEX
  8
0
 62
     0
  6
CONTINUOUS
 10
1.664960
 20
4.453680
  0
VERTEX
  8
0
 62
     0
  6
CONTINUOUS
 10
1.664960
 20
4.652560
  0
SEQEND
  8
0
  0
LINE
  8
0
 62
     0
  6
CONTINUOUS
 10
3.619440
 20
5.918880
 11
3.619440
 21
6.444680
  0
LINE
  8
0
 62
     0
  6
CONTINUOUS
 10
3.725480
 20
6.387480
 11
3.730320
 21
6.377800
  0
LINE
  8
0
 62
     0
  6
CONTINUOUS
 10
3.730320
 20
6.377800
 11
3.732080
 21
6.367680
  0
LINE
  8
0
 62
     0
  6
CONTINUOUS
 10
3.725480
 20
6.387480
 11
3.723720
 21
6.395840
  0
LINE
  8
0
 62
     0
  6
CONTINUOUS
 10
3.723720
 20
6.395840
 11
3.712280
 21
6.402000
  0
LINE
  8
0
 62
     0
  6
CONTINUOUS
 10
3.712280
 20
6.402000
 11
3.704360
 21
6.405520
  0
LINE
  8
0
 62
     0
  6
CONTINUOUS
 10
3.704360
 20
6.405520
 11
3.694240
 21
6.407280
  0
LINE
  8
0
 62
     0
  6
CONTINUOUS
 10
3.694240
 20
6.407280
 11
3.684560
 21
6.405520
  0
LINE
  8
0
 62
     0
  6
CONTINUOUS
 10
3.684560
 20
6.405520
 11
3.674880
 21
6.402000
  0
LINE
  8
0
 62
     0
  6
CONTINUOUS
 10
3.674880
 20
6.402000
 11
3.665200
 21
6.395840
  0
LINE
  8
0
 62
     0
  6
CONTINUOUS
 10
3.665200
 20
6.395840
 11
3.661680
 21
6.387480
  0
LINE
  8
0
 62
     0
  6
CONTINUOUS
 10
3.661680
 20
6.387480
 11
3.658600
 21
6.377800
  0
LINE
  8
0
 62
     0
  6
CONTINUOUS
 10
3.658600
 20
6.377800
 11
3.655080
 21
6.367680
  0
LINE
  8
0
 62
     0
  6
CONTINUOUS
 10
3.655080
 20
6.367680
 11
3.658600
 21
6.358000
  0
LINE
  8
0
 62
     0
  6
CONTINUOUS
 10
3.658600
 20
6.358000
 11
3.661680
 21
6.350080
  0
LINE
  8
0
 62
     0
  6
CONTINUOUS
 10
3.661680
 20
6.350080
 11
3.665200
 21
6.339960
  0
LINE
  8
0
 62
     0
  6
CONTINUOUS
 10
3.665200
 20
6.339960
 11
3.674880
 21
6.333800
  0
LINE
  8
0
 62
     0
  6
CONTINUOUS
 10
3.674880
 20
6.333800
 11
3.684560
 21
6.330280
  0
LINE
  8
0
 62
     0
  6
CONTINUOUS
 10
3.684560
 20
6.330280
 11
3.694240
 21
6.330280
  0
LINE
  8
0
 62
     0
  6
CONTINUOUS
 10
3.694240
 20
6.330280
 11
3.704360
 21
6.330280
  0
LINE
  8
0
 62
     0
  6
CONTINUOUS
 10
3.704360
 20
6.330280
 11
3.712280
 21
6.333800
  0
LINE
  8
0
 62
     0
  6
CONTINUOUS
 10
3.712280
 20
6.333800
 11
3.723720
 21
6.339960
  0
LINE
  8
0
 62
     0
  6
CONTINUOUS
 10
3.723720
 20
6.339960
 11
3.725480
 21
6.350080
  0
LINE
  8
0
 62
     0
  6
CONTINUOUS
 10
3.725480
 20
6.350080
 11
3.730320
 21
6.358000
  0
LINE
  8
0
 62
     0
  6
CONTINUOUS
 10
3.730320
 20
6.358000
 11
3.732080
 21
6.367680
  0
LINE
  8
0
 62
     0
  6
CONTINUOUS
 10
3.743520
 20
6.304320
 11
3.740000
 21
6.297720
  0
LINE
  8
0
 62
     0
  6
CONTINUOUS
 10
3.740000
 20
6.297720
 11
3.733400
 21
6.288040
  0
LINE
  8
0
 62
     0
  6
CONTINUOUS
 10
3.733400
 20
6.288040
 11
3.732080
 21
6.277920
  0
LINE
  8
0
 62
     0
  6
CONTINUOUS
 10
3.732080
 20
6.277920
 11
3.733400
 21
6.268240
  0
LINE
  8
0
 62
     0
  6
CONTINUOUS
 10
3.733400
 20
6.268240
 11
3.740000
 21
6.258560
  0
LINE
  8
0
 62
     0
  6
CONTINUOUS
 10
3.740000
 20
6.258560
 11
3.743520
 21
6.250200
  0
LINE
  8
0
 62
     0
  6
CONTINUOUS
 10
3.743520
 20
6.250200
 11
3.751440
 21
6.245360
  0
LINE
  8
0
 62
     0
  6
CONTINUOUS
 10
3.751440
 20
6.245360
 11
3.762880
 21
6.240520
  0
LINE
  8
0
 62
     0
  6
CONTINUOUS
 10
3.762880
 20
6.240520
 11
3.771240
 21
6.238760
  0
LINE
  8
0
 62
     0
  6
CONTINUOUS
 10
3.771240
 20
6.238760
 11
3.782680
 21
6.240520
  0
LINE
  8
0
 62
     0
  6
CONTINUOUS
 10
3.782680
 20
6.240520
 11
3.790600
 21
6.245360
  0
LINE
  8
0
 62
     0
  6
CONTINUOUS
 10
3.790600
 20
6.245360
 11
3.800720
 21
6.250200
  0
LINE
  8
0
 62
     0
  6
CONTINUOUS
 10
3.800720
 20
6.250200
 11
3.802040
 21
6.258560
  0
LINE
  8
0
 62
     0
  6
CONTINUOUS
 10
3.802040
 20
6.258560
 11
3.808640
 21
6.268240
  0
LINE
  8
0
 62
     0
  6
CONTINUOUS
 10
3.808640
 20
6.268240
 11
3.810400
 21
6.277920
  0
LINE
  8
0
 62
     0
  6
CONTINUOUS
 10
3.810400
 20
6.277920
 11
3.808640
 21
6.288040
  0
LINE
  8
0
 62
     0
  6
CONTINUOUS
 10
3.808640
 20
6.288040
 11
3.802040
 21
6.297720
  0
LINE
  8
0
 62
     0
  6
CONTINUOUS
 10
3.802040
 20
6.297720
 11
3.800720
 21
6.304320
  0
LINE
  8
0
 62
     0
  6
CONTINUOUS
 10
3.800720
 20
6.304320
 11
3.790600
 21
6.310920
  0
LINE
  8
0
 62
     0
  6
CONTINUOUS
 10
3.790600
 20
6.310920
 11
3.782680
 21
6.315760
  0
LINE
  8
0
 62
     0
  6
CONTINUOUS
 10
3.782680
 20
6.315760
 11
3.771240
 21
6.317080
  0
LINE
  8
0
 62
     0
  6
CONTINUOUS
 10
3.771240
 20
6.317080
 11
3.762880
 21
6.315760
  0
LINE
  8
0
 62
     0
  6
CONTINUOUS
 10
3.762880
 20
6.315760
 11
3.751440
 21
6.310920
  0
LINE
  8
0
 62
     0
  6
CONTINUOUS
 10
3.751440
 20
6.310920
 11
3.743520
 21
6.304320
  0
LINE
  8
0
 62
     0
  6
CONTINUOUS
 10
3.743520
 20
6.420040
 11
3.751440
 21
6.413440
  0
LINE
  8
0
 62
     0
  6
CONTINUOUS
 10
3.751440
 20
6.413440
 11
3.762880
 21
6.408600
  0
LINE
  8
0
 62
     0
  6
CONTINUOUS
 10
3.762880
 20
6.408600
 11
3.771240
 21
6.408600
  0
LINE
  8
0
 62
     0
  6
CONTINUOUS
 10
3.771240
 20
6.408600
 11
3.782680
 21
6.408600
  0
LINE
  8
0
 62
     0
  6
CONTINUOUS
 10
3.782680
 20
6.408600
 11
3.790600
 21
6.413440
  0
LINE
  8
0
 62
     0
  6
CONTINUOUS
 10
3.790600
 20
6.413440
 11
3.800720
 21
6.420040
  0
LINE
  8
0
 62
     0
  6
CONTINUOUS
 10
3.800720
 20
6.420040
 11
3.802040
 21
6.428400
  0
LINE
  8
0
 62
     0
  6
CONTINUOUS
 10
3.802040
 20
6.428400
 11
3.808640
 21
6.436320
  0
LINE
  8
0
 62
     0
  6
CONTINUOUS
 10
3.808640
 20
6.436320
 11
3.810400
 21
6.446440
  0
LINE
  8
0
 62
     0
  6
CONTINUOUS
 10
3.810400
 20
6.446440
 11
3.808640
 21
6.456120
  0
LINE
  8
0
 62
     0
  6
CONTINUOUS
 10
3.808640
 20
6.456120
 11
3.802040
 21
6.465800
  0
LINE
  8
0
 62
     0
  6
CONTINUOUS
 10
3.802040
 20
6.465800
 11
3.800720
 21
6.474160
  0
LINE
  8
0
 62
     0
  6
CONTINUOUS
 10
3.800720
 20
6.474160
 11
3.790600
 21
6.480760
  0
LINE
  8
0
 62
     0
  6
CONTINUOUS
 10
3.790600
 20
6.480760
 11
3.782680
 21
6.483840
  0
LINE
  8
0
 62
     0
  6
CONTINUOUS
 10
3.782680
 20
6.483840
 11
3.771240
 21
6.485600
  0
LINE
  8
0
 62
     0
  6
CONTINUOUS
 10
3.771240
 20
6.485600
 11
3.762880
 21
6.483840
  0
LINE
  8
0
 62
     0
  6
CONTINUOUS
 10
3.762880
 20
6.483840
 11
3.751440
 21
6.480760
  0
LINE
  8
0
 62
     0
  6
CONTINUOUS
 10
3.751440
 20
6.480760
 11
3.743520
 21
6.474160
  0
LINE
  8
0
 62
     0
  6
CONTINUOUS
 10
3.743520
 20
6.474160
 11
3.740000
 21
6.465800
  0
LINE
  8
0
 62
     0
  6
CONTINUOUS
 10
3.740000
 20
6.465800
 11
3.733400
 21
6.456120
  0
LINE
  8
0
 62
     0
  6
CONTINUOUS
 10
3.733400
 20
6.456120
 11
3.732080
 21
6.446440
  0
LINE
  8
0
 62
     0
  6
CONTINUOUS
 10
3.732080
 20
6.446440
 11
3.733400
 21
6.436320
  0
LINE
  8
0
 62
     0
  6
CONTINUOUS
 10
3.733400
 20
6.436320
 11
3.740000
 21
6.428400
  0
LINE
  8
0
 62
     0
  6
CONTINUOUS
 10
3.740000
 20
6.428400
 11
3.743520
 21
6.420040
  0
LINE
  8
0
 62
     0
  6
CONTINUOUS
 10
3.821840
 20
6.444680
 11
3.821840
 21
5.918880
  0
LINE
  8
0
 62
     0
  6
CONTINUOUS
 10
3.723720
 20
5.967720
 11
3.725480
 21
5.976080
  0
LINE
  8
0
 62
     0
  6
CONTINUOUS
 10
3.725480
 20
5.976080
 11
3.730320
 21
5.985760
  0
LINE
  8
0
 62
     0
  6
CONTINUOUS
 10
3.730320
 20
5.985760
 11
3.732080
 21
5.995440
  0
LINE
  8
0
 62
     0
  6
CONTINUOUS
 10
3.732080
 20
5.995440
 11
3.730320
 21
6.005120
  0
LINE
  8
0
 62
     0
  6
CONTINUOUS
 10
3.730320
 20
6.005120
 11
3.725480
 21
6.015240
  0
LINE
  8
0
 62
     0
  6
CONTINUOUS
 10
3.725480
 20
6.015240
 11
3.723720
 21
6.023160
  0
LINE
  8
0
 62
     0
  6
CONTINUOUS
 10
3.723720
 20
6.023160
 11
3.712280
 21
6.028000
  0
LINE
  8
0
 62
     0
  6
CONTINUOUS
 10
3.712280
 20
6.028000
 11
3.704360
 21
6.032840
  0
LINE
  8
0
 62
     0
  6
CONTINUOUS
 10
3.704360
 20
6.032840
 11
3.694240
 21
6.032840
  0
LINE
  8
0
 62
     0
  6
CONTINUOUS
 10
3.694240
 20
6.032840
 11
3.684560
 21
6.032840
  0
LINE
  8
0
 62
     0
  6
CONTINUOUS
 10
3.684560
 20
6.032840
 11
3.674880
 21
6.028000
  0
LINE
  8
0
 62
     0
  6
CONTINUOUS
 10
3.674880
 20
6.028000
 11
3.665200
 21
6.023160
  0
LINE
  8
0
 62
     0
  6
CONTINUOUS
 10
3.665200
 20
6.023160
 11
3.661680
 21
6.015240
  0
LINE
  8
0
 62
     0
  6
CONTINUOUS
 10
3.661680
 20
6.015240
 11
3.658600
 21
6.005120
  0
LINE
  8
0
 62
     0
  6
CONTINUOUS
 10
3.658600
 20
6.005120
 11
3.655080
 21
5.995440
  0
LINE
  8
0
 62
     0
  6
CONTINUOUS
 10
3.655080
 20
5.995440
 11
3.658600
 21
5.985760
  0
LINE
  8
0
 62
     0
  6
CONTINUOUS
 10
3.658600
 20
5.985760
 11
3.661680
 21
5.976080
  0
LINE
  8
0
 62
     0
  6
CONTINUOUS
 10
3.661680
 20
5.976080
 11
3.665200
 21
5.967720
  0
LINE
  8
0
 62
     0
  6
CONTINUOUS
 10
3.665200
 20
5.967720
 11
3.674880
 21
5.961120
  0
LINE
  8
0
 62
     0
  6
CONTINUOUS
 10
3.674880
 20
5.961120
 11
3.684560
 21
5.958040
  0
LINE
  8
0
 62
     0
  6
CONTINUOUS
 10
3.684560
 20
5.958040
 11
3.694240
 21
5.958040
  0
LINE
  8
0
 62
     0
  6
CONTINUOUS
 10
3.694240
 20
5.958040
 11
3.704360
 21
5.958040
  0
LINE
  8
0
 62
     0
  6
CONTINUOUS
 10
3.704360
 20
5.958040
 11
3.712280
 21
5.961120
  0
LINE
  8
0
 62
     0
  6
CONTINUOUS
 10
3.712280
 20
5.961120
 11
3.723720
 21
5.967720
  0
LINE
  8
0
 62
     0
  6
CONTINUOUS
 10
3.743520
 20
6.070680
 11
3.751440
 21
6.064080
  0
LINE
  8
0
 62
     0
  6
CONTINUOUS
 10
3.751440
 20
6.064080
 11
3.762880
 21
6.061000
  0
LINE
  8
0
 62
     0
  6
CONTINUOUS
 10
3.762880
 20
6.061000
 11
3.771240
 21
6.059240
  0
LINE
  8
0
 62
     0
  6
CONTINUOUS
 10
3.771240
 20
6.059240
 11
3.782680
 21
6.061000
  0
LINE
  8
0
 62
     0
  6
CONTINUOUS
 10
3.782680
 20
6.061000
 11
3.790600
 21
6.064080
  0
LINE
  8
0
 62
     0
  6
CONTINUOUS
 10
3.790600
 20
6.064080
 11
3.800720
 21
6.070680
  0
LINE
  8
0
 62
     0
  6
CONTINUOUS
 10
3.800720
 20
6.070680
 11
3.802040
 21
6.078600
  0
LINE
  8
0
 62
     0
  6
CONTINUOUS
 10
3.802040
 20
6.078600
 11
3.808640
 21
6.088720
  0
LINE
  8
0
 62
     0
  6
CONTINUOUS
 10
3.808640
 20
6.088720
 11
3.810400
 21
6.098400
  0
LINE
  8
0
 62
     0
  6
CONTINUOUS
 10
3.810400
 20
6.098400
 11
3.808640
 21
6.108080
  0
LINE
  8
0
 62
     0
  6
CONTINUOUS
 10
3.808640
 20
6.108080
 11
3.802040
 21
6.118200
  0
LINE
  8
0
 62
     0
  6
CONTINUOUS
 10
3.802040
 20
6.118200
 11
3.800720
 21
6.124360
  0
LINE
  8
0
 62
     0
  6
CONTINUOUS
 10
3.800720
 20
6.124360
 11
3.790600
 21
6.130960
  0
LINE
  8
0
 62
     0
  6
CONTINUOUS
 10
3.790600
 20
6.130960
 11
3.782680
 21
6.134480
  0
LINE
  8
0
 62
     0
  6
CONTINUOUS
 10
3.782680
 20
6.134480
 11
3.771240
 21
6.137560
  0
LINE
  8
0
 62
     0
  6
CONTINUOUS
 10
3.771240
 20
6.137560
 11
3.762880
 21
6.134480
  0
LINE
  8
0
 62
     0
  6
CONTINUOUS
 10
3.762880
 20
6.134480
 11
3.751440
 21
6.130960
  0
LINE
  8
0
 62
     0
  6
CONTINUOUS
 10
3.751440
 20
6.130960
 11
3.743520
 21
6.124360
  0
LINE
  8
0
 62
     0
  6
CONTINUOUS
 10
3.743520
 20
6.124360
 11
3.740000
 21
6.118200
  0
LINE
  8
0
 62
     0
  6
CONTINUOUS
 10
3.740000
 20
6.118200
 11
3.733400
 21
6.108080
  0
LINE
  8
0
 62
     0
  6
CONTINUOUS
 10
3.733400
 20
6.108080
 11
3.732080
 21
6.098400
  0
LINE
  8
0
 62
     0
  6
CONTINUOUS
 10
3.732080
 20
6.098400
 11
3.733400
 21
6.088720
  0
LINE
  8
0
 62
     0
  6
CONTINUOUS
 10
3.733400
 20
6.088720
 11
3.740000
 21
6.078600
  0
LINE
  8
0
 62
     0
  6
CONTINUOUS
 10
3.740000
 20
6.078600
 11
3.743520
 21
6.070680
  0
LINE
  8
0
 62
     0
  6
CONTINUOUS
 10
3.723720
 20
6.147240
 11
3.725480
 21
6.155600
  0
LINE
  8
0
 62
     0
  6
CONTINUOUS
 10
3.725480
 20
6.155600
 11
3.730320
 21
6.165280
  0
LINE
  8
0
 62
     0
  6
CONTINUOUS
 10
3.730320
 20
6.165280
 11
3.732080
 21
6.174960
  0
LINE
  8
0
 62
     0
  6
CONTINUOUS
 10
3.732080
 20
6.174960
 11
3.730320
 21
6.185080
  0
LINE
  8
0
 62
     0
  6
CONTINUOUS
 10
3.730320
 20
6.185080
 11
3.725480
 21
6.194760
  0
LINE
  8
0
 62
     0
  6
CONTINUOUS
 10
3.725480
 20
6.194760
 11
3.723720
 21
6.203120
  0
LINE
  8
0
 62
     0
  6
CONTINUOUS
 10
3.723720
 20
6.203120
 11
3.712280
 21
6.207960
  0
LINE
  8
0
 62
     0
  6
CONTINUOUS
 10
3.712280
 20
6.207960
 11
3.704360
 21
6.212800
  0
LINE
  8
0
 62
     0
  6
CONTINUOUS
 10
3.704360
 20
6.212800
 11
3.694240
 21
6.212800
  0
LINE
  8
0
 62
     0
  6
CONTINUOUS
 10
3.694240
 20
6.212800
 11
3.684560
 21
6.212800
  0
LINE
  8
0
 62
     0
  6
CONTINUOUS
 10
3.684560
 20
6.212800
 11
3.674880
 21
6.207960
  0
LINE
  8
0
 62
     0
  6
CONTINUOUS
 10
3.674880
 20
6.207960
 11
3.665200
 21
6.203120
  0
LINE
  8
0
 62
     0
  6
CONTINUOUS
 10
3.665200
 20
6.203120
 11
3.661680
 21
6.194760
  0
LINE
  8
0
 62
     0
  6
CONTINUOUS
 10
3.661680
 20
6.194760
 11
3.658600
 21
6.185080
  0
LINE
  8
0
 62
     0
  6
CONTINUOUS
 10
3.658600
 20
6.185080
 11
3.655080
 21
6.174960
  0
LINE
  8
0
 62
     0
  6
CONTINUOUS
 10
3.655080
 20
6.174960
 11
3.658600
 21
6.165280
  0
LINE
  8
0
 62
     0
  6
CONTINUOUS
 10
3.658600
 20
6.165280
 11
3.661680
 21
6.155600
  0
LINE
  8
0
 62
     0
  6
CONTINUOUS
 10
3.661680
 20
6.155600
 11
3.665200
 21
6.147240
  0
LINE
  8
0
 62
     0
  6
CONTINUOUS
 10
3.665200
 20
6.147240
 11
3.674880
 21
6.140640
  0
LINE
  8
0
 62
     0
  6
CONTINUOUS
 10
3.674880
 20
6.140640
 11
3.684560
 21
6.137560
  0
LINE
  8
0
 62
     0
  6
CONTINUOUS
 10
3.684560
 20
6.137560
 11
3.694240
 21
6.137560
  0
LINE
  8
0
 62
     0
  6
CONTINUOUS
 10
3.694240
 20
6.137560
 11
3.704360
 21
6.137560
  0
LINE
  8
0
 62
     0
  6
CONTINUOUS
 10
3.704360
 20
6.137560
 11
3.712280
 21
6.140640
  0
LINE
  8
0
 62
     0
  6
CONTINUOUS
 10
3.712280
 20
6.140640
 11
3.723720
 21
6.147240
  0
LINE
  8
0
 62
     0
  6
CONTINUOUS
 10
3.821840
 20
5.918880
 11
3.619440
 21
5.918880
  0
LINE
  8
0
 62
     0
  6
CONTINUOUS
 10
3.619440
 20
6.444680
 11
3.619440
 21
6.683160
  0
LINE
  8
0
 62
     0
  6
CONTINUOUS
 10
3.619440
 20
6.683160
 11
3.821840
 21
6.683160
  0
LINE
  8
0
 62
     0
  6
CONTINUOUS
 10
3.821840
 20
6.683160
 11
3.821840
 21
6.444680
  0
LINE
  8
0
 62
     0
  6
CONTINUOUS
 10
3.723720
 20
6.495280
 11
3.725480
 21
6.503640
  0
LINE
  8
0
 62
     0
  6
CONTINUOUS
 10
3.725480
 20
6.503640
 11
3.730320
 21
6.513320
  0
LINE
  8
0
 62
     0
  6
CONTINUOUS
 10
3.730320
 20
6.513320
 11
3.732080
 21
6.523000
  0
LINE
  8
0
 62
     0
  6
CONTINUOUS
 10
3.732080
 20
6.523000
 11
3.730320
 21
6.532680
  0
LINE
  8
0
 62
     0
  6
CONTINUOUS
 10
3.730320
 20
6.532680
 11
3.725480
 21
6.542800
  0
LINE
  8
0
 62
     0
  6
CONTINUOUS
 10
3.725480
 20
6.542800
 11
3.723720
 21
6.550720
  0
LINE
  8
0
 62
     0
  6
CONTINUOUS
 10
3.723720
 20
6.550720
 11
3.712280
 21
6.555560
  0
LINE
  8
0
 62
     0
  6
CONTINUOUS
 10
3.712280
 20
6.555560
 11
3.704360
 21
6.560400
  0
LINE
  8
0
 62
     0
  6
CONTINUOUS
 10
3.704360
 20
6.560400
 11
3.694240
 21
6.562160
  0
LINE
  8
0
 62
     0
  6
CONTINUOUS
 10
3.694240
 20
6.562160
 11
3.684560
 21
6.560400
  0
LINE
  8
0
 62
     0
  6
CONTINUOUS
 10
3.684560
 20
6.560400
 11
3.674880
 21
6.555560
  0
LINE
  8
0
 62
     0
  6
CONTINUOUS
 10
3.674880
 20
6.555560
 11
3.665200
 21
6.550720
  0
LINE
  8
0
 62
     0
  6
CONTINUOUS
 10
3.665200
 20
6.550720
 11
3.661680
 21
6.542800
  0
LINE
  8
0
 62
     0
  6
CONTINUOUS
 10
3.661680
 20
6.542800
 11
3.658600
 21
6.532680
  0
LINE
  8
0
 62
     0
  6
CONTINUOUS
 10
3.658600
 20
6.532680
 11
3.655080
 21
6.523000
  0
LINE
  8
0
 62
     0
  6
CONTINUOUS
 10
3.655080
 20
6.523000
 11
3.658600
 21
6.513320
  0
LINE
  8
0
 62
     0
  6
CONTINUOUS
 10
3.658600
 20
6.513320
 11
3.661680
 21
6.503640
  0
LINE
  8
0
 62
     0
  6
CONTINUOUS
 10
3.661680
 20
6.503640
 11
3.665200
 21
6.495280
  0
LINE
  8
0
 62
     0
  6
CONTINUOUS
 10
3.665200
 20
6.495280
 11
3.674880
 21
6.490440
  0
LINE
  8
0
 62
     0
  6
CONTINUOUS
 10
3.674880
 20
6.490440
 11
3.684560
 21
6.485600
  0
LINE
  8
0
 62
     0
  6
CONTINUOUS
 10
3.684560
 20
6.485600
 11
3.694240
 21
6.483840
  0
LINE
  8
0
 62
     0
  6
CONTINUOUS
 10
3.694240
 20
6.483840
 11
3.704360
 21
6.485600
  0
LINE
  8
0
 62
     0
  6
CONTINUOUS
 10
3.704360
 20
6.485600
 11
3.712280
 21
6.490440
  0
LINE
  8
0
 62
     0
  6
CONTINUOUS
 10
3.712280
 20
6.490440
 11
3.723720
 21
6.495280
  0
LINE
  8
0
 62
     0
  6
CONTINUOUS
 10
3.743520
 20
6.588560
 11
3.751440
 21
6.581960
  0
LINE
  8
0
 62
     0
  6
CONTINUOUS
 10
3.751440
 20
6.581960
 11
3.762880
 21
6.578440
  0
LINE
  8
0
 62
     0
  6
CONTINUOUS
 10
3.762880
 20
6.578440
 11
3.771240
 21
6.577120
  0
LINE
  8
0
 62
     0
  6
CONTINUOUS
 10
3.771240
 20
6.577120
 11
3.782680
 21
6.578440
  0
LINE
  8
0
 62
     0
  6
CONTINUOUS
 10
3.782680
 20
6.578440
 11
3.790600
 21
6.581960
  0
LINE
  8
0
 62
     0
  6
CONTINUOUS
 10
3.790600
 20
6.581960
 11
3.800720
 21
6.588560
  0
LINE
  8
0
 62
     0
  6
CONTINUOUS
 10
3.800720
 20
6.588560
 11
3.802040
 21
6.596480
  0
LINE
  8
0
 62
     0
  6
CONTINUOUS
 10
3.802040
 20
6.596480
 11
3.808640
 21
6.604840
  0
LINE
  8
0
 62
     0
  6
CONTINUOUS
 10
3.808640
 20
6.604840
 11
3.810400
 21
6.616280
  0
LINE
  8
0
 62
     0
  6
CONTINUOUS
 10
3.810400
 20
6.616280
 11
3.808640
 21
6.625960
  0
LINE
  8
0
 62
     0
  6
CONTINUOUS
 10
3.808640
 20
6.625960
 11
3.802040
 21
6.634320
  0
LINE
  8
0
 62
     0
  6
CONTINUOUS
 10
3.802040
 20
6.634320
 11
3.800720
 21
6.644000
  0
LINE
  8
0
 62
     0
  6
CONTINUOUS
 10
3.800720
 20
6.644000
 11
3.790600
 21
6.650600
  0
LINE
  8
0
 62
     0
  6
CONTINUOUS
 10
3.790600
 20
6.650600
 11
3.782680
 21
6.653680
  0
LINE
  8
0
 62
     0
  6
CONTINUOUS
 10
3.782680
 20
6.653680
 11
3.771240
 21
6.653680
  0
LINE
  8
0
 62
     0
  6
CONTINUOUS
 10
3.771240
 20
6.653680
 11
3.762880
 21
6.653680
  0
LINE
  8
0
 62
     0
  6
CONTINUOUS
 10
3.762880
 20
6.653680
 11
3.751440
 21
6.650600
  0
LINE
  8
0
 62
     0
  6
CONTINUOUS
 10
3.751440
 20
6.650600
 11
3.743520
 21
6.644000
  0
LINE
  8
0
 62
     0
  6
CONTINUOUS
 10
3.743520
 20
6.644000
 11
3.740000
 21
6.634320
  0
LINE
  8
0
 62
     0
  6
CONTINUOUS
 10
3.740000
 20
6.634320
 11
3.733400
 21
6.625960
  0
LINE
  8
0
 62
     0
  6
CONTINUOUS
 10
3.733400
 20
6.625960
 11
3.732080
 21
6.616280
  0
LINE
  8
0
 62
     0
  6
CONTINUOUS
 10
3.732080
 20
6.616280
 11
3.733400
 21
6.604840
  0
LINE
  8
0
 62
     0
  6
CONTINUOUS
 10
3.733400
 20
6.604840
 11
3.740000
 21
6.596480
  0
LINE
  8
0
 62
     0
  6
CONTINUOUS
 10
3.740000
 20
6.596480
 11
3.743520
 21
6.588560
  0
LINE
  8
0
 62
     0
  6
CONTINUOUS
 10
3.645400
 20
5.918880
 11
3.665200
 21
5.918880
  0
LINE
  8
0
 62
     0
  6
CONTINUOUS
 10
3.648480
 20
5.918880
 11
3.659920
 21
5.918880
  0
LINE
  8
0
 62
     0
  6
CONTINUOUS
 10
3.789280
 20
5.918880
 11
3.782680
 21
5.918880
  0
LINE
  8
0
 62
     0
  6
CONTINUOUS
 10
3.782680
 20
5.918880
 11
3.802040
 21
5.918880
  0
SOLID
  8
0
 62
     7
 10
3.721520
 20
5.657520
 11
3.721520
 21
5.769280
 12
3.721520
 22
5.657520
 13
3.625160
 23
5.713400
  0
POLYLINE
  8
0
 62
     0
  6
CONTINUOUS
 66
     1
 40
0.000000
 41
0.000000
  0
VERTEX
  8
0
 62
     0
  6
CONTINUOUS
 10
3.721520
 20
5.657520
  0
VERTEX
  8
0
 62
     0
  6
CONTINUOUS
 10
3.721520
 20
5.769280
  0
VERTEX
  8
0
 62
     0
  6
CONTINUOUS
 10
3.625160
 20
5.713400
  0
VERTEX
  8
0
 62
     0
  6
CONTINUOUS
 10
3.721520
 20
5.657520
  0
SEQEND
  8
0
  0
SOLID
  8
0
 62
     7
 10
3.567520
 20
5.611320
 11
3.679280
 21
5.611320
 12
3.567520
 22
5.611320
 13
3.623400
 23
5.707680
  0
POLYLINE
  8
0
 62
     0
  6
CONTINUOUS
 66
     1
 40
0.000000
 41
0.000000
  0
VERTEX
  8
0
 62
     0
  6
CONTINUOUS
 10
3.567520
 20
5.611320
  0
VERTEX
  8
0
 62
     0
  6
CONTINUOUS
 10
3.679280
 20
5.611320
  0
VERTEX
  8
0
 62
     0
  6
CONTINUOUS
 10
3.623400
 20
5.707680
  0
VERTEX
  8
0
 62
     0
  6
CONTINUOUS
 10
3.567520
 20
5.611320
  0
SEQEND
  8
0
  0
SOLID
  8
0
 62
     7
 10
3.678400
 20
5.813720
 11
3.567080
 21
5.811520
 12
3.678400
 22
5.813720
 13
3.624720
 23
5.716040
  0
POLYLINE
  8
0
 62
     0
  6
CONTINUOUS
 66
     1
 40
0.000000
 41
0.000000
  0
VERTEX
  8
0
 62
     0
  6
CONTINUOUS
 10
3.678400
 20
5.813720
  0
VERTEX
  8
0
 62
     0
  6
CONTINUOUS
 10
3.567080
 20
5.811520
  0
VERTEX
  8
0
 62
     0
  6
CONTINUOUS
 10
3.624720
 20
5.716040
  0
VERTEX
  8
0
 62
     0
  6
CONTINUOUS
 10
3.678400
 20
5.813720
  0
SEQEND
  8
0
  0
POLYLINE
  8
0
 62
     0
  6
CONTINUOUS
 66
     1
 40
0.000000
 41
0.000000
  0
VERTEX
  8
0
 62
     0
  6
CONTINUOUS
 10
3.807320
 20
4.664440
  0
VERTEX
  8
0
 62
     0
  6
CONTINUOUS
 10
3.807320
 20
5.505280
  0
VERTEX
  8
0
 62
     0
  6
CONTINUOUS
 10
3.662120
 20
5.505280
  0
VERTEX
  8
0
 62
     0
  6
CONTINUOUS
 10
3.662120
 20
5.623640
  0
SEQEND
  8
0
  0
TEXT
  8
0
 62
     0
 10
3.653760
 20
4.550920
 40
0.128668
  1
B/O
 41
1.000000
  7
SN0
 71
     0
 72
     5
 11
3.964840
 21
4.550920
  0
POLYLINE
  8
0
 62
     0
  6
CONTINUOUS
 66
     1
 40
0.014080
 41
0.014080
  0
VERTEX
  8
0
 62
     0
  6
CONTINUOUS
 10
3.644520
 20
4.652560
  0
VERTEX
  8
0
 62
     0
  6
CONTINUOUS
 10
3.919960
 20
4.652560
  0
VERTEX
  8
0
 62
     0
  6
CONTINUOUS
 10
3.919960
 20
4.453680
  0
VERTEX
  8
0
 62
     0
  6
CONTINUOUS
 10
3.644520
 20
4.453680
  0
VERTEX
  8
0
 62
     0
  6
CONTINUOUS
 10
3.644520
 20
4.652560
  0
SEQEND
  8
0
  0
POLYLINE
  8
0
 62
     0
  6
CONTINUOUS
 66
     1
 40
0.000000
 41
0.000000
  0
VERTEX
  8
0
 62
     0
  6
CONTINUOUS
 10
4.170320
 20
5.561600
  0
VERTEX
  8
0
 62
     0
  6
CONTINUOUS
 10
4.170320
 20
5.193760
  0
VERTEX
  8
0
 62
     0
  6
CONTINUOUS
 10
4.371400
 20
5.247880
  0
VERTEX
  8
0
 62
     0
  6
CONTINUOUS
 10
4.371400
 20
5.496920
  0
VERTEX
  8
0
 62
     0
  6
CONTINUOUS
 10
4.170320
 20
5.551040
  0
VERTEX
  8
0
 62
     0
  6
CONTINUOUS
 10
4.170320
 20
5.561600
  0
SEQEND
  8
0
  0
POLYLINE
  8
0
 62
     0
  6
CONTINUOUS
 66
     1
 40
0.000000
 41
0.000000
  0
VERTEX
  8
0
 62
     0
  6
CONTINUOUS
 10
3.909840
 20
5.561600
  0
VERTEX
  8
0
 62
     0
  6
CONTINUOUS
 10
3.909840
 20
5.193760
  0
VERTEX
  8
0
 62
     0
  6
CONTINUOUS
 10
4.111360
 20
5.247880
  0
VERTEX
  8
0
 62
     0
  6
CONTINUOUS
 10
4.111360
 20
5.496920
  0
VERTEX
  8
0
 62
     0
  6
CONTINUOUS
 10
3.909840
 20
5.551040
  0
VERTEX
  8
0
 62
     0
  6
CONTINUOUS
 10
3.909840
 20
5.561600
  0
SEQEND
  8
0
  0
TEXT
  8
0
 62
     0
 10
3.947240
 20
5.394840
 40
0.070183
  1
C1
 41
1.000000
  7
SN1
 71
     0
 72
     5
 11
4.045800
 21
5.394840
  0
TEXT
  8
0
 62
     0
 10
4.207720
 20
5.394840
 40
0.070183
  1
C2
 41
1.000000
  7
SN1
 71
     0
 72
     5
 11
4.306280
 21
5.394840
  0
ENDSEC
  0
EOF
