  0
SECTION
  2
HEADER
  9
$EXTMIN
 10
1.091640
 20
4.229720
  9
$EXTMAX
 10
3.936240
 20
6.251520
  9
$LTSCALE
 40
0.044000
  9
$PDMODE
 70
    35
  9
$PDSIZE
 40
0.035200
  0
ENDSEC
  0
SECTION
  2
TABLES
  0
TABLE
  2
LTYPE
 70
     9
  0
LTYPE
  2
CONTINUOUS
 70
    64
  3
Solid line
 72
    65
 73
     0
 40
0.000000
  0
LTYPE
  2
DASHED
 70
    64
  3
__ __ __ __ __ __ __ __ __ __ __ __ __ __ __
 72
    65
 73
     2
 40
0.000330
 49
0.000220
 49
-0.000110
  0
LTYPE
  2
HIDDEN
 70
    64
  3
 _ _ _ _ _ _ _ _ _ _ _ _ _ _ _ _ _ _ _ _ _ _
 72
    65
 73
     2
 40
0.000165
 49
0.000110
 49
-0.000055
  0
LTYPE
  2
CENTER
 70
    64
  3
____ _ ____ _ ____ _ ____ _ ____ _ ____ _ ____
 72
    65
 73
     4
 40
0.000880
 49
0.000550
 49
-0.000110
 49
0.000110
 49
-0.000110
  0
LTYPE
  2
PHANTOM
 70
    64
  3
_____ _ _ _____ _ _ _____ _ _ _____ _ _ ____
 72
    65
 73
     6
 40
0.001100
 49
0.000550
 49
-0.000110
 49
0.000110
 49
-0.000110
 49
0.000110
 49
-0.000110
  0
LTYPE
  2
DOT
 70
    64
  3
...............................................
 72
    65
 73
     2
 40
0.000110
 49
0.000000
 49
-0.000110
  0
LTYPE
  2
DASHDOT
 70
    64
  3
__ . __ . __ . __ . __ . __ . __ . __ . __ . __
 72
    65
 73
     4
 40
0.000440
 49
0.000220
 49
-0.000110
 49
0.000000
 49
-0.000110
  0
LTYPE
  2
BORDER
 70
    64
  3
__ __ . __ __ . __ __ . __ __ . __ __ . __ __
 72
    65
 73
     6
 40
0.000770
 49
0.000220
 49
-0.000110
 49
0.000220
 49
-0.000110
 49
0.000000
 49
-0.000110
  0
LTYPE
  2
DIVIDE
 70
    64
  3
__ . . __ . . __ . . __ . . __ . . __ . . __
 72
    65
 73
     6
 40
0.000550
 49
0.000220
 49
-0.000110
 49
0.000000
 49
-0.000110
 49
0.000000
 49
-0.000110
  0
LTYPE
  2
DOTDOT
 70
    64
  3
 . .  . .  . .  . .  . .  . . 
 72
    65
 73
     5
 40
0.000242
 49
-0.000110
 49
0.000000
 49
-0.000110
 49
0.000000
 49
-0.000110
  0
ENDTAB
  0
TABLE
  2
STYLE
 70
     2
  0
STYLE
 70
     0
  2
SN0
 40
0.000000
 41
0.000440
 50
0.000000
 71
     0
 42
0.000000
  3
ROMANS
  0
STYLE
 70
    68
  2
SV0
 40
0.000000
 41
0.000440
 50
0.000000
 71
     0
 42
0.000000
  3
ROMANS
  0
ENDTAB
  0
TABLE
  2
LAYER
 70
     3
  0
LAYER
  2
FOREGROUND
 70
    64
 62
     7
  6
CONTINUOUS
  0
LAYER
  2
BACKGROUND
 70
    65
 62
    -7
  6
CONTINUOUS
  0
LAYER
  2
0
 70
    64
 62
     7
  6
CONTINUOUS
  0
ENDTAB
  0
ENDSEC
  0
SECTION
  2
ENTITIES
  0
POLYLINE
  8
0
 62
     0
  6
CONTINUOUS
 66
     1
 40
0.002200
 41
0.002200
  0
VERTEX
  8
0
 62
     0
  6
CONTINUOUS
 10
2.168320
 20
5.812840
  0
VERTEX
  8
0
 62
     0
  6
CONTINUOUS
 10
2.162600
 20
5.811080
  0
SEQEND
  8
0
  0
POLYLINE
  8
0
 62
     0
  6
CONTINUOUS
 66
     1
 40
0.002200
 41
0.002200
  0
VERTEX
  8
0
 62
     0
  6
CONTINUOUS
 10
2.162600
 20
5.811080
  0
VERTEX
  8
0
 62
     0
  6
CONTINUOUS
 10
2.162600
 20
5.807560
  0
SEQEND
  8
0
  0
POLYLINE
  8
0
 62
     0
  6
CONTINUOUS
 66
     1
 40
0.002200
 41
0.002200
  0
VERTEX
  8
0
 62
     0
  6
CONTINUOUS
 10
2.162600
 20
5.807560
  0
VERTEX
  8
0
 62
     0
  6
CONTINUOUS
 10
2.123880
 20
5.807560
  0
SEQEND
  8
0
  0
POLYLINE
  8
0
 62
     0
  6
CONTINUOUS
 66
     1
 40
0.002200
 41
0.002200
  0
VERTEX
  8
0
 62
     0
  6
CONTINUOUS
 10
2.123880
 20
5.807560
  0
VERTEX
  8
0
 62
     0
  6
CONTINUOUS
 10
2.162600
 20
5.811080
  0
SEQEND
  8
0
  0
POLYLINE
  8
0
 62
     0
  6
CONTINUOUS
 66
     1
 40
0.002200
 41
0.002200
  0
VERTEX
  8
0
 62
     0
  6
CONTINUOUS
 10
2.162600
 20
5.811080
  0
VERTEX
  8
0
 62
     0
  6
CONTINUOUS
 10
2.162600
 20
5.815040
  0
SEQEND
  8
0
  0
POLYLINE
  8
0
 62
     0
  6
CONTINUOUS
 66
     1
 40
0.002200
 41
0.002200
  0
VERTEX
  8
0
 62
     0
  6
CONTINUOUS
 10
2.162600
 20
5.815040
  0
VERTEX
  8
0
 62
     0
  6
CONTINUOUS
 10
2.123880
 20
5.815040
  0
SEQEND
  8
0
  0
POLYLINE
  8
0
 62
     0
  6
CONTINUOUS
 66
     1
 40
0.002200
 41
0.002200
  0
VERTEX
  8
0
 62
     0
  6
CONTINUOUS
 10
2.123880
 20
5.815040
  0
VERTEX
  8
0
 62
     0
  6
CONTINUOUS
 10
2.118160
 20
5.811080
  0
SEQEND
  8
0
  0
POLYLINE
  8
0
 62
     0
  6
CONTINUOUS
 66
     1
 40
0.002200
 41
0.002200
  0
VERTEX
  8
0
 62
     0
  6
CONTINUOUS
 10
2.118160
 20
5.811080
  0
VERTEX
  8
0
 62
     0
  6
CONTINUOUS
 10
2.123880
 20
5.807560
  0
SEQEND
  8
0
  0
POLYLINE
  8
0
 62
     0
  6
CONTINUOUS
 66
     1
 40
0.002200
 41
0.002200
  0
VERTEX
  8
0
 62
     0
  6
CONTINUOUS
 10
2.123880
 20
5.815040
  0
VERTEX
  8
0
 62
     0
  6
CONTINUOUS
 10
2.118160
 20
5.818560
  0
SEQEND
  8
0
  0
POLYLINE
  8
0
 62
     0
  6
CONTINUOUS
 66
     1
 40
0.002200
 41
0.002200
  0
VERTEX
  8
0
 62
     0
  6
CONTINUOUS
 10
2.118160
 20
5.818560
  0
VERTEX
  8
0
 62
     0
  6
CONTINUOUS
 10
2.123880
 20
5.822080
  0
SEQEND
  8
0
  0
POLYLINE
  8
0
 62
     0
  6
CONTINUOUS
 66
     1
 40
0.002200
 41
0.002200
  0
VERTEX
  8
0
 62
     0
  6
CONTINUOUS
 10
2.123880
 20
5.822080
  0
VERTEX
  8
0
 62
     0
  6
CONTINUOUS
 10
2.118160
 20
5.826040
  0
SEQEND
  8
0
  0
POLYLINE
  8
0
 62
     0
  6
CONTINUOUS
 66
     1
 40
0.002200
 41
0.002200
  0
VERTEX
  8
0
 62
     0
  6
CONTINUOUS
 10
2.118160
 20
5.826040
  0
VERTEX
  8
0
 62
     0
  6
CONTINUOUS
 10
2.123880
 20
5.829560
  0
SEQEND
  8
0
  0
POLYLINE
  8
0
 62
     0
  6
CONTINUOUS
 66
     1
 40
0.002200
 41
0.002200
  0
VERTEX
  8
0
 62
     0
  6
CONTINUOUS
 10
2.123880
 20
5.829560
  0
VERTEX
  8
0
 62
     0
  6
CONTINUOUS
 10
2.118160
 20
5.831320
  0
SEQEND
  8
0
  0
POLYLINE
  8
0
 62
     0
  6
CONTINUOUS
 66
     1
 40
0.002200
 41
0.002200
  0
VERTEX
  8
0
 62
     0
  6
CONTINUOUS
 10
2.118160
 20
5.831320
  0
VERTEX
  8
0
 62
     0
  6
CONTINUOUS
 10
2.123880
 20
5.837040
  0
SEQEND
  8
0
  0
POLYLINE
  8
0
 62
     0
  6
CONTINUOUS
 66
     1
 40
0.002200
 41
0.002200
  0
VERTEX
  8
0
 62
     0
  6
CONTINUOUS
 10
2.123880
 20
5.837040
  0
VERTEX
  8
0
 62
     0
  6
CONTINUOUS
 10
2.118160
 20
5.838800
  0
SEQEND
  8
0
  0
POLYLINE
  8
0
 62
     0
  6
CONTINUOUS
 66
     1
 40
0.002200
 41
0.002200
  0
VERTEX
  8
0
 62
     0
  6
CONTINUOUS
 10
2.118160
 20
5.838800
  0
VERTEX
  8
0
 62
     0
  6
CONTINUOUS
 10
2.123880
 20
5.842760
  0
SEQEND
  8
0
  0
POLYLINE
  8
0
 62
     0
  6
CONTINUOUS
 66
     1
 40
0.002200
 41
0.002200
  0
VERTEX
  8
0
 62
     0
  6
CONTINUOUS
 10
2.123880
 20
5.842760
  0
VERTEX
  8
0
 62
     0
  6
CONTINUOUS
 10
2.118160
 20
5.844520
  0
SEQEND
  8
0
  0
POLYLINE
  8
0
 62
     0
  6
CONTINUOUS
 66
     1
 40
0.002200
 41
0.002200
  0
VERTEX
  8
0
 62
     0
  6
CONTINUOUS
 10
2.118160
 20
5.844520
  0
VERTEX
  8
0
 62
     0
  6
CONTINUOUS
 10
2.123880
 20
5.848040
  0
SEQEND
  8
0
  0
POLYLINE
  8
0
 62
     0
  6
CONTINUOUS
 66
     1
 40
0.002200
 41
0.002200
  0
VERTEX
  8
0
 62
     0
  6
CONTINUOUS
 10
2.123880
 20
5.848040
  0
VERTEX
  8
0
 62
     0
  6
CONTINUOUS
 10
2.162600
 20
5.848040
  0
SEQEND
  8
0
  0
POLYLINE
  8
0
 62
     0
  6
CONTINUOUS
 66
     1
 40
0.002200
 41
0.002200
  0
VERTEX
  8
0
 62
     0
  6
CONTINUOUS
 10
2.162600
 20
5.848040
  0
VERTEX
  8
0
 62
     0
  6
CONTINUOUS
 10
2.168320
 20
5.844520
  0
SEQEND
  8
0
  0
POLYLINE
  8
0
 62
     0
  6
CONTINUOUS
 66
     1
 40
0.002200
 41
0.002200
  0
VERTEX
  8
0
 62
     0
  6
CONTINUOUS
 10
2.168320
 20
5.844520
  0
VERTEX
  8
0
 62
     0
  6
CONTINUOUS
 10
2.162600
 20
5.842760
  0
SEQEND
  8
0
  0
POLYLINE
  8
0
 62
     0
  6
CONTINUOUS
 66
     1
 40
0.002200
 41
0.002200
  0
VERTEX
  8
0
 62
     0
  6
CONTINUOUS
 10
2.162600
 20
5.842760
  0
VERTEX
  8
0
 62
     0
  6
CONTINUOUS
 10
2.123880
 20
5.842760
  0
SEQEND
  8
0
  0
POLYLINE
  8
0
 62
     0
  6
CONTINUOUS
 66
     1
 40
0.002200
 41
0.002200
  0
VERTEX
  8
0
 62
     0
  6
CONTINUOUS
 10
2.123880
 20
5.842760
  0
VERTEX
  8
0
 62
     0
  6
CONTINUOUS
 10
2.123880
 20
5.848040
  0
SEQEND
  8
0
  0
POLYLINE
  8
0
 62
     0
  6
CONTINUOUS
 66
     1
 40
0.002200
 41
0.002200
  0
VERTEX
  8
0
 62
     0
  6
CONTINUOUS
 10
2.123880
 20
5.848040
  0
VERTEX
  8
0
 62
     0
  6
CONTINUOUS
 10
2.118160
 20
5.852000
  0
SEQEND
  8
0
  0
POLYLINE
  8
0
 62
     0
  6
CONTINUOUS
 66
     1
 40
0.002200
 41
0.002200
  0
VERTEX
  8
0
 62
     0
  6
CONTINUOUS
 10
2.118160
 20
5.852000
  0
VERTEX
  8
0
 62
     0
  6
CONTINUOUS
 10
2.123880
 20
5.855520
  0
SEQEND
  8
0
  0
POLYLINE
  8
0
 62
     0
  6
CONTINUOUS
 66
     1
 40
0.002200
 41
0.002200
  0
VERTEX
  8
0
 62
     0
  6
CONTINUOUS
 10
2.123880
 20
5.855520
  0
VERTEX
  8
0
 62
     0
  6
CONTINUOUS
 10
2.164360
 20
5.855520
  0
SEQEND
  8
0
  0
POLYLINE
  8
0
 62
     0
  6
CONTINUOUS
 66
     1
 40
0.002200
 41
0.002200
  0
VERTEX
  8
0
 62
     0
  6
CONTINUOUS
 10
2.164360
 20
5.855520
  0
VERTEX
  8
0
 62
     0
  6
CONTINUOUS
 10
2.168320
 20
5.852000
  0
SEQEND
  8
0
  0
POLYLINE
  8
0
 62
     0
  6
CONTINUOUS
 66
     1
 40
0.002200
 41
0.002200
  0
VERTEX
  8
0
 62
     0
  6
CONTINUOUS
 10
2.168320
 20
5.852000
  0
VERTEX
  8
0
 62
     0
  6
CONTINUOUS
 10
2.162600
 20
5.848040
  0
SEQEND
  8
0
  0
POLYLINE
  8
0
 62
     0
  6
CONTINUOUS
 66
     1
 40
0.002200
 41
0.002200
  0
VERTEX
  8
0
 62
     0
  6
CONTINUOUS
 10
2.162600
 20
5.848040
  0
VERTEX
  8
0
 62
     0
  6
CONTINUOUS
 10
2.162600
 20
5.842760
  0
SEQEND
  8
0
  0
POLYLINE
  8
0
 62
     0
  6
CONTINUOUS
 66
     1
 40
0.002200
 41
0.002200
  0
VERTEX
  8
0
 62
     0
  6
CONTINUOUS
 10
2.162600
 20
5.842760
  0
VERTEX
  8
0
 62
     0
  6
CONTINUOUS
 10
2.168320
 20
5.838800
  0
SEQEND
  8
0
  0
POLYLINE
  8
0
 62
     0
  6
CONTINUOUS
 66
     1
 40
0.002200
 41
0.002200
  0
VERTEX
  8
0
 62
     0
  6
CONTINUOUS
 10
2.168320
 20
5.838800
  0
VERTEX
  8
0
 62
     0
  6
CONTINUOUS
 10
2.162600
 20
5.837040
  0
SEQEND
  8
0
  0
POLYLINE
  8
0
 62
     0
  6
CONTINUOUS
 66
     1
 40
0.002200
 41
0.002200
  0
VERTEX
  8
0
 62
     0
  6
CONTINUOUS
 10
2.162600
 20
5.837040
  0
VERTEX
  8
0
 62
     0
  6
CONTINUOUS
 10
2.123880
 20
5.837040
  0
SEQEND
  8
0
  0
POLYLINE
  8
0
 62
     0
  6
CONTINUOUS
 66
     1
 40
0.002200
 41
0.002200
  0
VERTEX
  8
0
 62
     0
  6
CONTINUOUS
 10
2.123880
 20
5.837040
  0
VERTEX
  8
0
 62
     0
  6
CONTINUOUS
 10
2.123880
 20
5.829560
  0
SEQEND
  8
0
  0
POLYLINE
  8
0
 62
     0
  6
CONTINUOUS
 66
     1
 40
0.002200
 41
0.002200
  0
VERTEX
  8
0
 62
     0
  6
CONTINUOUS
 10
2.123880
 20
5.829560
  0
VERTEX
  8
0
 62
     0
  6
CONTINUOUS
 10
2.162600
 20
5.829560
  0
SEQEND
  8
0
  0
POLYLINE
  8
0
 62
     0
  6
CONTINUOUS
 66
     1
 40
0.002200
 41
0.002200
  0
VERTEX
  8
0
 62
     0
  6
CONTINUOUS
 10
2.162600
 20
5.829560
  0
VERTEX
  8
0
 62
     0
  6
CONTINUOUS
 10
2.168320
 20
5.826040
  0
SEQEND
  8
0
  0
POLYLINE
  8
0
 62
     0
  6
CONTINUOUS
 66
     1
 40
0.002200
 41
0.002200
  0
VERTEX
  8
0
 62
     0
  6
CONTINUOUS
 10
2.168320
 20
5.826040
  0
VERTEX
  8
0
 62
     0
  6
CONTINUOUS
 10
2.162600
 20
5.822080
  0
SEQEND
  8
0
  0
POLYLINE
  8
0
 62
     0
  6
CONTINUOUS
 66
     1
 40
0.002200
 41
0.002200
  0
VERTEX
  8
0
 62
     0
  6
CONTINUOUS
 10
2.162600
 20
5.822080
  0
VERTEX
  8
0
 62
     0
  6
CONTINUOUS
 10
2.123880
 20
5.822080
  0
SEQEND
  8
0
  0
POLYLINE
  8
0
 62
     0
  6
CONTINUOUS
 66
     1
 40
0.002200
 41
0.002200
  0
VERTEX
  8
0
 62
     0
  6
CONTINUOUS
 10
2.123880
 20
5.855520
  0
VERTEX
  8
0
 62
     0
  6
CONTINUOUS
 10
2.118160
 20
5.857280
  0
SEQEND
  8
0
  0
POLYLINE
  8
0
 62
     0
  6
CONTINUOUS
 66
     1
 40
0.002200
 41
0.002200
  0
VERTEX
  8
0
 62
     0
  6
CONTINUOUS
 10
2.118160
 20
5.857280
  0
VERTEX
  8
0
 62
     0
  6
CONTINUOUS
 10
2.123880
 20
5.861240
  0
SEQEND
  8
0
  0
POLYLINE
  8
0
 62
     0
  6
CONTINUOUS
 66
     1
 40
0.002200
 41
0.002200
  0
VERTEX
  8
0
 62
     0
  6
CONTINUOUS
 10
2.123880
 20
5.861240
  0
VERTEX
  8
0
 62
     0
  6
CONTINUOUS
 10
2.164360
 20
5.861240
  0
SEQEND
  8
0
  0
POLYLINE
  8
0
 62
     0
  6
CONTINUOUS
 66
     1
 40
0.002200
 41
0.002200
  0
VERTEX
  8
0
 62
     0
  6
CONTINUOUS
 10
2.164360
 20
5.861240
  0
VERTEX
  8
0
 62
     0
  6
CONTINUOUS
 10
2.168320
 20
5.857280
  0
SEQEND
  8
0
  0
POLYLINE
  8
0
 62
     0
  6
CONTINUOUS
 66
     1
 40
0.002200
 41
0.002200
  0
VERTEX
  8
0
 62
     0
  6
CONTINUOUS
 10
2.168320
 20
5.857280
  0
VERTEX
  8
0
 62
     0
  6
CONTINUOUS
 10
2.164360
 20
5.855520
  0
SEQEND
  8
0
  0
POLYLINE
  8
0
 62
     0
  6
CONTINUOUS
 66
     1
 40
0.002200
 41
0.002200
  0
VERTEX
  8
0
 62
     0
  6
CONTINUOUS
 10
2.164360
 20
5.855520
  0
VERTEX
  8
0
 62
     0
  6
CONTINUOUS
 10
2.164360
 20
5.861240
  0
SEQEND
  8
0
  0
POLYLINE
  8
0
 62
     0
  6
CONTINUOUS
 66
     1
 40
0.002200
 41
0.002200
  0
VERTEX
  8
0
 62
     0
  6
CONTINUOUS
 10
2.164360
 20
5.861240
  0
VERTEX
  8
0
 62
     0
  6
CONTINUOUS
 10
2.168320
 20
5.864760
  0
SEQEND
  8
0
  0
POLYLINE
  8
0
 62
     0
  6
CONTINUOUS
 66
     1
 40
0.002200
 41
0.002200
  0
VERTEX
  8
0
 62
     0
  6
CONTINUOUS
 10
2.168320
 20
5.864760
  0
VERTEX
  8
0
 62
     0
  6
CONTINUOUS
 10
2.164360
 20
5.866520
  0
SEQEND
  8
0
  0
POLYLINE
  8
0
 62
     0
  6
CONTINUOUS
 66
     1
 40
0.002200
 41
0.002200
  0
VERTEX
  8
0
 62
     0
  6
CONTINUOUS
 10
2.164360
 20
5.866520
  0
VERTEX
  8
0
 62
     0
  6
CONTINUOUS
 10
2.168320
 20
5.866520
  0
SEQEND
  8
0
  0
POLYLINE
  8
0
 62
     0
  6
CONTINUOUS
 66
     1
 40
0.002200
 41
0.002200
  0
VERTEX
  8
0
 62
     0
  6
CONTINUOUS
 10
2.168320
 20
5.866520
  0
VERTEX
  8
0
 62
     0
  6
CONTINUOUS
 10
2.120360
 20
5.866520
  0
SEQEND
  8
0
  0
POLYLINE
  8
0
 62
     0
  6
CONTINUOUS
 66
     1
 40
0.002200
 41
0.002200
  0
VERTEX
  8
0
 62
     0
  6
CONTINUOUS
 10
2.120360
 20
5.866520
  0
VERTEX
  8
0
 62
     0
  6
CONTINUOUS
 10
2.120360
 20
5.877520
  0
SEQEND
  8
0
  0
POLYLINE
  8
0
 62
     0
  6
CONTINUOUS
 66
     1
 40
0.002200
 41
0.002200
  0
VERTEX
  8
0
 62
     0
  6
CONTINUOUS
 10
2.120360
 20
5.877520
  0
VERTEX
  8
0
 62
     0
  6
CONTINUOUS
 10
2.111120
 20
5.877520
  0
SEQEND
  8
0
  0
POLYLINE
  8
0
 62
     0
  6
CONTINUOUS
 66
     1
 40
0.002200
 41
0.002200
  0
VERTEX
  8
0
 62
     0
  6
CONTINUOUS
 10
2.111120
 20
5.877520
  0
VERTEX
  8
0
 62
     0
  6
CONTINUOUS
 10
2.175800
 20
5.877520
  0
SEQEND
  8
0
  0
POLYLINE
  8
0
 62
     0
  6
CONTINUOUS
 66
     1
 40
0.002200
 41
0.002200
  0
VERTEX
  8
0
 62
     0
  6
CONTINUOUS
 10
2.175800
 20
5.877520
  0
VERTEX
  8
0
 62
     0
  6
CONTINUOUS
 10
2.173600
 20
5.877520
  0
SEQEND
  8
0
  0
POLYLINE
  8
0
 62
     0
  6
CONTINUOUS
 66
     1
 40
0.002200
 41
0.002200
  0
VERTEX
  8
0
 62
     0
  6
CONTINUOUS
 10
2.173600
 20
5.877520
  0
VERTEX
  8
0
 62
     0
  6
CONTINUOUS
 10
2.185040
 20
5.881480
  0
SEQEND
  8
0
  0
POLYLINE
  8
0
 62
     0
  6
CONTINUOUS
 66
     1
 40
0.002200
 41
0.002200
  0
VERTEX
  8
0
 62
     0
  6
CONTINUOUS
 10
2.185040
 20
5.881480
  0
VERTEX
  8
0
 62
     0
  6
CONTINUOUS
 10
2.175800
 20
5.888960
  0
SEQEND
  8
0
  0
POLYLINE
  8
0
 62
     0
  6
CONTINUOUS
 66
     1
 40
0.002200
 41
0.002200
  0
VERTEX
  8
0
 62
     0
  6
CONTINUOUS
 10
2.175800
 20
5.888960
  0
VERTEX
  8
0
 62
     0
  6
CONTINUOUS
 10
2.111120
 20
5.888960
  0
SEQEND
  8
0
  0
POLYLINE
  8
0
 62
     0
  6
CONTINUOUS
 66
     1
 40
0.002200
 41
0.002200
  0
VERTEX
  8
0
 62
     0
  6
CONTINUOUS
 10
2.111120
 20
5.888960
  0
VERTEX
  8
0
 62
     0
  6
CONTINUOUS
 10
2.101880
 20
5.881480
  0
SEQEND
  8
0
  0
POLYLINE
  8
0
 62
     0
  6
CONTINUOUS
 66
     1
 40
0.002200
 41
0.002200
  0
VERTEX
  8
0
 62
     0
  6
CONTINUOUS
 10
2.101880
 20
5.881480
  0
VERTEX
  8
0
 62
     0
  6
CONTINUOUS
 10
2.111120
 20
5.877520
  0
SEQEND
  8
0
  0
POLYLINE
  8
0
 62
     0
  6
CONTINUOUS
 66
     1
 40
0.002200
 41
0.002200
  0
VERTEX
  8
0
 62
     0
  6
CONTINUOUS
 10
2.111120
 20
5.888960
  0
VERTEX
  8
0
 62
     0
  6
CONTINUOUS
 10
2.101880
 20
5.892480
  0
SEQEND
  8
0
  0
POLYLINE
  8
0
 62
     0
  6
CONTINUOUS
 66
     1
 40
0.002200
 41
0.002200
  0
VERTEX
  8
0
 62
     0
  6
CONTINUOUS
 10
2.101880
 20
5.892480
  0
VERTEX
  8
0
 62
     0
  6
CONTINUOUS
 10
2.111120
 20
5.896440
  0
SEQEND
  8
0
  0
POLYLINE
  8
0
 62
     0
  6
CONTINUOUS
 66
     1
 40
0.002200
 41
0.002200
  0
VERTEX
  8
0
 62
     0
  6
CONTINUOUS
 10
2.111120
 20
5.896440
  0
VERTEX
  8
0
 62
     0
  6
CONTINUOUS
 10
2.175800
 20
5.896440
  0
SEQEND
  8
0
  0
POLYLINE
  8
0
 62
     0
  6
CONTINUOUS
 66
     1
 40
0.002200
 41
0.002200
  0
VERTEX
  8
0
 62
     0
  6
CONTINUOUS
 10
2.175800
 20
5.896440
  0
VERTEX
  8
0
 62
     0
  6
CONTINUOUS
 10
2.185040
 20
5.892480
  0
SEQEND
  8
0
  0
POLYLINE
  8
0
 62
     0
  6
CONTINUOUS
 66
     1
 40
0.002200
 41
0.002200
  0
VERTEX
  8
0
 62
     0
  6
CONTINUOUS
 10
2.185040
 20
5.892480
  0
VERTEX
  8
0
 62
     0
  6
CONTINUOUS
 10
2.173600
 20
5.888960
  0
SEQEND
  8
0
  0
POLYLINE
  8
0
 62
     0
  6
CONTINUOUS
 66
     1
 40
0.002200
 41
0.002200
  0
VERTEX
  8
0
 62
     0
  6
CONTINUOUS
 10
2.173600
 20
5.896440
  0
VERTEX
  8
0
 62
     0
  6
CONTINUOUS
 10
2.185040
 20
5.901720
  0
SEQEND
  8
0
  0
POLYLINE
  8
0
 62
     0
  6
CONTINUOUS
 66
     1
 40
0.002200
 41
0.002200
  0
VERTEX
  8
0
 62
     0
  6
CONTINUOUS
 10
2.185040
 20
5.901720
  0
VERTEX
  8
0
 62
     0
  6
CONTINUOUS
 10
2.175800
 20
5.907440
  0
SEQEND
  8
0
  0
POLYLINE
  8
0
 62
     0
  6
CONTINUOUS
 66
     1
 40
0.002200
 41
0.002200
  0
VERTEX
  8
0
 62
     0
  6
CONTINUOUS
 10
2.175800
 20
5.907440
  0
VERTEX
  8
0
 62
     0
  6
CONTINUOUS
 10
2.111120
 20
5.907440
  0
SEQEND
  8
0
  0
POLYLINE
  8
0
 62
     0
  6
CONTINUOUS
 66
     1
 40
0.002200
 41
0.002200
  0
VERTEX
  8
0
 62
     0
  6
CONTINUOUS
 10
2.111120
 20
5.907440
  0
VERTEX
  8
0
 62
     0
  6
CONTINUOUS
 10
2.101880
 20
5.901720
  0
SEQEND
  8
0
  0
POLYLINE
  8
0
 62
     0
  6
CONTINUOUS
 66
     1
 40
0.002200
 41
0.002200
  0
VERTEX
  8
0
 62
     0
  6
CONTINUOUS
 10
2.101880
 20
5.901720
  0
VERTEX
  8
0
 62
     0
  6
CONTINUOUS
 10
2.111120
 20
5.896440
  0
SEQEND
  8
0
  0
POLYLINE
  8
0
 62
     0
  6
CONTINUOUS
 66
     1
 40
0.002200
 41
0.002200
  0
VERTEX
  8
0
 62
     0
  6
CONTINUOUS
 10
2.111120
 20
5.907440
  0
VERTEX
  8
0
 62
     0
  6
CONTINUOUS
 10
2.101880
 20
5.910960
  0
SEQEND
  8
0
  0
POLYLINE
  8
0
 62
     0
  6
CONTINUOUS
 66
     1
 40
0.002200
 41
0.002200
  0
VERTEX
  8
0
 62
     0
  6
CONTINUOUS
 10
2.101880
 20
5.910960
  0
VERTEX
  8
0
 62
     0
  6
CONTINUOUS
 10
2.111120
 20
5.918440
  0
SEQEND
  8
0
  0
POLYLINE
  8
0
 62
     0
  6
CONTINUOUS
 66
     1
 40
0.002200
 41
0.002200
  0
VERTEX
  8
0
 62
     0
  6
CONTINUOUS
 10
2.111120
 20
5.918440
  0
VERTEX
  8
0
 62
     0
  6
CONTINUOUS
 10
2.175800
 20
5.918440
  0
SEQEND
  8
0
  0
POLYLINE
  8
0
 62
     0
  6
CONTINUOUS
 66
     1
 40
0.002200
 41
0.002200
  0
VERTEX
  8
0
 62
     0
  6
CONTINUOUS
 10
2.175800
 20
5.918440
  0
VERTEX
  8
0
 62
     0
  6
CONTINUOUS
 10
2.185040
 20
5.910960
  0
SEQEND
  8
0
  0
POLYLINE
  8
0
 62
     0
  6
CONTINUOUS
 66
     1
 40
0.002200
 41
0.002200
  0
VERTEX
  8
0
 62
     0
  6
CONTINUOUS
 10
2.185040
 20
5.910960
  0
VERTEX
  8
0
 62
     0
  6
CONTINUOUS
 10
2.173600
 20
5.907440
  0
SEQEND
  8
0
  0
POLYLINE
  8
0
 62
     0
  6
CONTINUOUS
 66
     1
 40
0.002200
 41
0.002200
  0
VERTEX
  8
0
 62
     0
  6
CONTINUOUS
 10
2.173600
 20
5.918440
  0
VERTEX
  8
0
 62
     0
  6
CONTINUOUS
 10
2.185040
 20
5.920200
  0
SEQEND
  8
0
  0
POLYLINE
  8
0
 62
     0
  6
CONTINUOUS
 66
     1
 40
0.002200
 41
0.002200
  0
VERTEX
  8
0
 62
     0
  6
CONTINUOUS
 10
2.185040
 20
5.920200
  0
VERTEX
  8
0
 62
     0
  6
CONTINUOUS
 10
2.175800
 20
5.925920
  0
SEQEND
  8
0
  0
POLYLINE
  8
0
 62
     0
  6
CONTINUOUS
 66
     1
 40
0.002200
 41
0.002200
  0
VERTEX
  8
0
 62
     0
  6
CONTINUOUS
 10
2.175800
 20
5.925920
  0
VERTEX
  8
0
 62
     0
  6
CONTINUOUS
 10
2.175800
 20
5.949680
  0
SEQEND
  8
0
  0
POLYLINE
  8
0
 62
     0
  6
CONTINUOUS
 66
     1
 40
0.002200
 41
0.002200
  0
VERTEX
  8
0
 62
     0
  6
CONTINUOUS
 10
2.175800
 20
5.949680
  0
VERTEX
  8
0
 62
     0
  6
CONTINUOUS
 10
2.157320
 20
5.955400
  0
SEQEND
  8
0
  0
POLYLINE
  8
0
 62
     0
  6
CONTINUOUS
 66
     1
 40
0.002200
 41
0.002200
  0
VERTEX
  8
0
 62
     0
  6
CONTINUOUS
 10
2.157320
 20
5.955400
  0
VERTEX
  8
0
 62
     0
  6
CONTINUOUS
 10
2.157320
 20
5.931200
  0
SEQEND
  8
0
  0
POLYLINE
  8
0
 62
     0
  6
CONTINUOUS
 66
     1
 40
0.002200
 41
0.002200
  0
VERTEX
  8
0
 62
     0
  6
CONTINUOUS
 10
2.157320
 20
5.931200
  0
VERTEX
  8
0
 62
     0
  6
CONTINUOUS
 10
2.155120
 20
5.931200
  0
SEQEND
  8
0
  0
POLYLINE
  8
0
 62
     0
  6
CONTINUOUS
 66
     1
 40
0.002200
 41
0.002200
  0
VERTEX
  8
0
 62
     0
  6
CONTINUOUS
 10
2.155120
 20
5.931200
  0
VERTEX
  8
0
 62
     0
  6
CONTINUOUS
 10
2.159080
 20
5.929440
  0
SEQEND
  8
0
  0
POLYLINE
  8
0
 62
     0
  6
CONTINUOUS
 66
     1
 40
0.002200
 41
0.002200
  0
VERTEX
  8
0
 62
     0
  6
CONTINUOUS
 10
2.159080
 20
5.929440
  0
VERTEX
  8
0
 62
     0
  6
CONTINUOUS
 10
2.162600
 20
5.925920
  0
SEQEND
  8
0
  0
POLYLINE
  8
0
 62
     0
  6
CONTINUOUS
 66
     1
 40
0.002200
 41
0.002200
  0
VERTEX
  8
0
 62
     0
  6
CONTINUOUS
 10
2.157320
 20
5.946160
  0
VERTEX
  8
0
 62
     0
  6
CONTINUOUS
 10
2.129600
 20
5.946160
  0
SEQEND
  8
0
  0
POLYLINE
  8
0
 62
     0
  6
CONTINUOUS
 66
     1
 40
0.002200
 41
0.002200
  0
VERTEX
  8
0
 62
     0
  6
CONTINUOUS
 10
2.129600
 20
5.946160
  0
VERTEX
  8
0
 62
     0
  6
CONTINUOUS
 10
2.129600
 20
5.949680
  0
SEQEND
  8
0
  0
POLYLINE
  8
0
 62
     0
  6
CONTINUOUS
 66
     1
 40
0.002200
 41
0.002200
  0
VERTEX
  8
0
 62
     0
  6
CONTINUOUS
 10
2.129600
 20
5.949680
  0
VERTEX
  8
0
 62
     0
  6
CONTINUOUS
 10
2.129600
 20
5.925920
  0
SEQEND
  8
0
  0
POLYLINE
  8
0
 62
     0
  6
CONTINUOUS
 66
     1
 40
0.002200
 41
0.002200
  0
VERTEX
  8
0
 62
     0
  6
CONTINUOUS
 10
2.118160
 20
5.925920
  0
VERTEX
  8
0
 62
     0
  6
CONTINUOUS
 10
2.114640
 20
5.929440
  0
SEQEND
  8
0
  0
POLYLINE
  8
0
 62
     0
  6
CONTINUOUS
 66
     1
 40
0.002200
 41
0.002200
  0
VERTEX
  8
0
 62
     0
  6
CONTINUOUS
 10
2.114640
 20
5.929440
  0
VERTEX
  8
0
 62
     0
  6
CONTINUOUS
 10
2.112880
 20
5.931200
  0
SEQEND
  8
0
  0
POLYLINE
  8
0
 62
     0
  6
CONTINUOUS
 66
     1
 40
0.002200
 41
0.002200
  0
VERTEX
  8
0
 62
     0
  6
CONTINUOUS
 10
2.112880
 20
5.931200
  0
VERTEX
  8
0
 62
     0
  6
CONTINUOUS
 10
2.112880
 20
5.955400
  0
SEQEND
  8
0
  0
POLYLINE
  8
0
 62
     0
  6
CONTINUOUS
 66
     1
 40
0.002200
 41
0.002200
  0
VERTEX
  8
0
 62
     0
  6
CONTINUOUS
 10
2.112880
 20
5.955400
  0
VERTEX
  8
0
 62
     0
  6
CONTINUOUS
 10
2.129600
 20
5.949680
  0
SEQEND
  8
0
  0
POLYLINE
  8
0
 62
     0
  6
CONTINUOUS
 66
     1
 40
0.002200
 41
0.002200
  0
VERTEX
  8
0
 62
     0
  6
CONTINUOUS
 10
2.112880
 20
5.946160
  0
VERTEX
  8
0
 62
     0
  6
CONTINUOUS
 10
2.086920
 20
5.946160
  0
SEQEND
  8
0
  0
POLYLINE
  8
0
 62
     0
  6
CONTINUOUS
 66
     1
 40
0.002200
 41
0.002200
  0
VERTEX
  8
0
 62
     0
  6
CONTINUOUS
 10
2.086920
 20
5.946160
  0
VERTEX
  8
0
 62
     0
  6
CONTINUOUS
 10
2.075920
 20
5.955400
  0
SEQEND
  8
0
  0
POLYLINE
  8
0
 62
     0
  6
CONTINUOUS
 66
     1
 40
0.002200
 41
0.002200
  0
VERTEX
  8
0
 62
     0
  6
CONTINUOUS
 10
2.075920
 20
5.955400
  0
VERTEX
  8
0
 62
     0
  6
CONTINUOUS
 10
2.066680
 20
5.935160
  0
SEQEND
  8
0
  0
POLYLINE
  8
0
 62
     0
  6
CONTINUOUS
 66
     1
 40
0.002200
 41
0.002200
  0
VERTEX
  8
0
 62
     0
  6
CONTINUOUS
 10
2.066680
 20
5.935160
  0
VERTEX
  8
0
 62
     0
  6
CONTINUOUS
 10
2.086920
 20
5.925920
  0
SEQEND
  8
0
  0
POLYLINE
  8
0
 62
     0
  6
CONTINUOUS
 66
     1
 40
0.002200
 41
0.002200
  0
VERTEX
  8
0
 62
     0
  6
CONTINUOUS
 10
2.086920
 20
5.925920
  0
VERTEX
  8
0
 62
     0
  6
CONTINUOUS
 10
2.197800
 20
5.925920
  0
SEQEND
  8
0
  0
POLYLINE
  8
0
 62
     0
  6
CONTINUOUS
 66
     1
 40
0.002200
 41
0.002200
  0
VERTEX
  8
0
 62
     0
  6
CONTINUOUS
 10
2.197800
 20
5.925920
  0
VERTEX
  8
0
 62
     0
  6
CONTINUOUS
 10
2.218040
 20
5.935160
  0
SEQEND
  8
0
  0
POLYLINE
  8
0
 62
     0
  6
CONTINUOUS
 66
     1
 40
0.002200
 41
0.002200
  0
VERTEX
  8
0
 62
     0
  6
CONTINUOUS
 10
2.218040
 20
5.935160
  0
VERTEX
  8
0
 62
     0
  6
CONTINUOUS
 10
2.207040
 20
5.955400
  0
SEQEND
  8
0
  0
POLYLINE
  8
0
 62
     0
  6
CONTINUOUS
 66
     1
 40
0.002200
 41
0.002200
  0
VERTEX
  8
0
 62
     0
  6
CONTINUOUS
 10
2.207040
 20
5.955400
  0
VERTEX
  8
0
 62
     0
  6
CONTINUOUS
 10
2.197800
 20
5.946160
  0
SEQEND
  8
0
  0
POLYLINE
  8
0
 62
     0
  6
CONTINUOUS
 66
     1
 40
0.002200
 41
0.002200
  0
VERTEX
  8
0
 62
     0
  6
CONTINUOUS
 10
2.197800
 20
5.946160
  0
VERTEX
  8
0
 62
     0
  6
CONTINUOUS
 10
2.175800
 20
5.946160
  0
SEQEND
  8
0
  0
POLYLINE
  8
0
 62
     0
  6
CONTINUOUS
 66
     1
 40
0.002200
 41
0.002200
  0
VERTEX
  8
0
 62
     0
  6
CONTINUOUS
 10
2.220240
 20
5.962880
  0
VERTEX
  8
0
 62
     0
  6
CONTINUOUS
 10
2.064480
 20
5.962880
  0
SEQEND
  8
0
  0
POLYLINE
  8
0
 62
     0
  6
CONTINUOUS
 66
     1
 40
0.002200
 41
0.002200
  0
VERTEX
  8
0
 62
     0
  6
CONTINUOUS
 10
2.064480
 20
5.962880
  0
VERTEX
  8
0
 62
     0
  6
CONTINUOUS
 10
2.220240
 20
5.962880
  0
SEQEND
  8
0
  0
POLYLINE
  8
0
 62
     0
  6
CONTINUOUS
 66
     1
 40
0.002200
 41
0.002200
  0
VERTEX
  8
0
 62
     0
  6
CONTINUOUS
 10
2.168320
 20
6.016560
  0
VERTEX
  8
0
 62
     0
  6
CONTINUOUS
 10
2.168320
 20
6.084760
  0
SEQEND
  8
0
  0
POLYLINE
  8
0
 62
     0
  6
CONTINUOUS
 66
     1
 40
0.002200
 41
0.002200
  0
VERTEX
  8
0
 62
     0
  6
CONTINUOUS
 10
2.168320
 20
6.055280
  0
VERTEX
  8
0
 62
     0
  6
CONTINUOUS
 10
2.283160
 20
6.055280
  0
SEQEND
  8
0
  0
POLYLINE
  8
0
 62
     0
  6
CONTINUOUS
 66
     1
 40
0.002200
 41
0.002200
  0
VERTEX
  8
0
 62
     0
  6
CONTINUOUS
 10
2.283160
 20
6.055280
  0
VERTEX
  8
0
 62
     0
  6
CONTINUOUS
 10
2.283160
 20
6.138440
  0
SEQEND
  8
0
  0
POLYLINE
  8
0
 62
     0
  6
CONTINUOUS
 66
     1
 40
0.002200
 41
0.002200
  0
VERTEX
  8
0
 62
     0
  6
CONTINUOUS
 10
2.283160
 20
6.138440
  0
VERTEX
  8
0
 62
     0
  6
CONTINUOUS
 10
2.264240
 20
6.138440
  0
SEQEND
  8
0
  0
POLYLINE
  8
0
 62
     0
  6
CONTINUOUS
 66
     1
 40
0.002200
 41
0.002200
  0
VERTEX
  8
0
 62
     0
  6
CONTINUOUS
 10
2.264240
 20
6.138440
  0
VERTEX
  8
0
 62
     0
  6
CONTINUOUS
 10
2.264240
 20
6.130960
  0
SEQEND
  8
0
  0
POLYLINE
  8
0
 62
     0
  6
CONTINUOUS
 66
     1
 40
0.002200
 41
0.002200
  0
VERTEX
  8
0
 62
     0
  6
CONTINUOUS
 10
2.264240
 20
6.130960
  0
VERTEX
  8
0
 62
     0
  6
CONTINUOUS
 10
2.283160
 20
6.138440
  0
SEQEND
  8
0
  0
POLYLINE
  8
0
 62
     0
  6
CONTINUOUS
 66
     1
 40
0.002200
 41
0.002200
  0
VERTEX
  8
0
 62
     0
  6
CONTINUOUS
 10
2.283160
 20
6.138440
  0
VERTEX
  8
0
 62
     0
  6
CONTINUOUS
 10
2.264240
 20
6.138440
  0
SEQEND
  8
0
  0
POLYLINE
  8
0
 62
     0
  6
CONTINUOUS
 66
     1
 40
0.002200
 41
0.002200
  0
VERTEX
  8
0
 62
     0
  6
CONTINUOUS
 10
2.264240
 20
6.130960
  0
VERTEX
  8
0
 62
     0
  6
CONTINUOUS
 10
2.269960
 20
6.125680
  0
SEQEND
  8
0
  0
POLYLINE
  8
0
 62
     0
  6
CONTINUOUS
 66
     1
 40
0.002200
 41
0.002200
  0
VERTEX
  8
0
 62
     0
  6
CONTINUOUS
 10
2.269960
 20
6.125680
  0
VERTEX
  8
0
 62
     0
  6
CONTINUOUS
 10
2.283160
 20
6.138440
  0
SEQEND
  8
0
  0
POLYLINE
  8
0
 62
     0
  6
CONTINUOUS
 66
     1
 40
0.002200
 41
0.002200
  0
VERTEX
  8
0
 62
     0
  6
CONTINUOUS
 10
2.283160
 20
6.138440
  0
VERTEX
  8
0
 62
     0
  6
CONTINUOUS
 10
2.264240
 20
6.130960
  0
SEQEND
  8
0
  0
POLYLINE
  8
0
 62
     0
  6
CONTINUOUS
 66
     1
 40
0.002200
 41
0.002200
  0
VERTEX
  8
0
 62
     0
  6
CONTINUOUS
 10
2.269960
 20
6.125680
  0
VERTEX
  8
0
 62
     0
  6
CONTINUOUS
 10
2.275680
 20
6.121720
  0
SEQEND
  8
0
  0
POLYLINE
  8
0
 62
     0
  6
CONTINUOUS
 66
     1
 40
0.002200
 41
0.002200
  0
VERTEX
  8
0
 62
     0
  6
CONTINUOUS
 10
2.275680
 20
6.121720
  0
VERTEX
  8
0
 62
     0
  6
CONTINUOUS
 10
2.283160
 20
6.138440
  0
SEQEND
  8
0
  0
POLYLINE
  8
0
 62
     0
  6
CONTINUOUS
 66
     1
 40
0.002200
 41
0.002200
  0
VERTEX
  8
0
 62
     0
  6
CONTINUOUS
 10
2.283160
 20
6.138440
  0
VERTEX
  8
0
 62
     0
  6
CONTINUOUS
 10
2.269960
 20
6.125680
  0
SEQEND
  8
0
  0
POLYLINE
  8
0
 62
     0
  6
CONTINUOUS
 66
     1
 40
0.002200
 41
0.002200
  0
VERTEX
  8
0
 62
     0
  6
CONTINUOUS
 10
2.275680
 20
6.121720
  0
VERTEX
  8
0
 62
     0
  6
CONTINUOUS
 10
2.283160
 20
6.121720
  0
SEQEND
  8
0
  0
POLYLINE
  8
0
 62
     0
  6
CONTINUOUS
 66
     1
 40
0.002200
 41
0.002200
  0
VERTEX
  8
0
 62
     0
  6
CONTINUOUS
 10
2.283160
 20
6.121720
  0
VERTEX
  8
0
 62
     0
  6
CONTINUOUS
 10
2.283160
 20
6.138440
  0
SEQEND
  8
0
  0
POLYLINE
  8
0
 62
     0
  6
CONTINUOUS
 66
     1
 40
0.002200
 41
0.002200
  0
VERTEX
  8
0
 62
     0
  6
CONTINUOUS
 10
2.283160
 20
6.138440
  0
VERTEX
  8
0
 62
     0
  6
CONTINUOUS
 10
2.275680
 20
6.121720
  0
SEQEND
  8
0
  0
POLYLINE
  8
0
 62
     0
  6
CONTINUOUS
 66
     1
 40
0.002200
 41
0.002200
  0
VERTEX
  8
0
 62
     0
  6
CONTINUOUS
 10
2.283160
 20
6.121720
  0
VERTEX
  8
0
 62
     0
  6
CONTINUOUS
 10
2.283160
 20
6.138440
  0
SEQEND
  8
0
  0
POLYLINE
  8
0
 62
     0
  6
CONTINUOUS
 66
     1
 40
0.002200
 41
0.002200
  0
VERTEX
  8
0
 62
     0
  6
CONTINUOUS
 10
2.283160
 20
6.138440
  0
VERTEX
  8
0
 62
     0
  6
CONTINUOUS
 10
2.283160
 20
6.121720
  0
SEQEND
  8
0
  0
POLYLINE
  8
0
 62
     0
  6
CONTINUOUS
 66
     1
 40
0.002200
 41
0.002200
  0
VERTEX
  8
0
 62
     0
  6
CONTINUOUS
 10
2.283160
 20
6.121720
  0
VERTEX
  8
0
 62
     0
  6
CONTINUOUS
 10
2.288440
 20
6.121720
  0
SEQEND
  8
0
  0
POLYLINE
  8
0
 62
     0
  6
CONTINUOUS
 66
     1
 40
0.002200
 41
0.002200
  0
VERTEX
  8
0
 62
     0
  6
CONTINUOUS
 10
2.288440
 20
6.121720
  0
VERTEX
  8
0
 62
     0
  6
CONTINUOUS
 10
2.283160
 20
6.138440
  0
SEQEND
  8
0
  0
POLYLINE
  8
0
 62
     0
  6
CONTINUOUS
 66
     1
 40
0.002200
 41
0.002200
  0
VERTEX
  8
0
 62
     0
  6
CONTINUOUS
 10
2.283160
 20
6.138440
  0
VERTEX
  8
0
 62
     0
  6
CONTINUOUS
 10
2.288440
 20
6.121720
  0
SEQEND
  8
0
  0
POLYLINE
  8
0
 62
     0
  6
CONTINUOUS
 66
     1
 40
0.002200
 41
0.002200
  0
VERTEX
  8
0
 62
     0
  6
CONTINUOUS
 10
2.288440
 20
6.121720
  0
VERTEX
  8
0
 62
     0
  6
CONTINUOUS
 10
2.294160
 20
6.125680
  0
SEQEND
  8
0
  0
POLYLINE
  8
0
 62
     0
  6
CONTINUOUS
 66
     1
 40
0.002200
 41
0.002200
  0
VERTEX
  8
0
 62
     0
  6
CONTINUOUS
 10
2.294160
 20
6.125680
  0
VERTEX
  8
0
 62
     0
  6
CONTINUOUS
 10
2.283160
 20
6.138440
  0
SEQEND
  8
0
  0
POLYLINE
  8
0
 62
     0
  6
CONTINUOUS
 66
     1
 40
0.002200
 41
0.002200
  0
VERTEX
  8
0
 62
     0
  6
CONTINUOUS
 10
2.283160
 20
6.138440
  0
VERTEX
  8
0
 62
     0
  6
CONTINUOUS
 10
2.294160
 20
6.125680
  0
SEQEND
  8
0
  0
POLYLINE
  8
0
 62
     0
  6
CONTINUOUS
 66
     1
 40
0.002200
 41
0.002200
  0
VERTEX
  8
0
 62
     0
  6
CONTINUOUS
 10
2.294160
 20
6.125680
  0
VERTEX
  8
0
 62
     0
  6
CONTINUOUS
 10
2.299440
 20
6.130960
  0
SEQEND
  8
0
  0
POLYLINE
  8
0
 62
     0
  6
CONTINUOUS
 66
     1
 40
0.002200
 41
0.002200
  0
VERTEX
  8
0
 62
     0
  6
CONTINUOUS
 10
2.299440
 20
6.130960
  0
VERTEX
  8
0
 62
     0
  6
CONTINUOUS
 10
2.283160
 20
6.138440
  0
SEQEND
  8
0
  0
POLYLINE
  8
0
 62
     0
  6
CONTINUOUS
 66
     1
 40
0.002200
 41
0.002200
  0
VERTEX
  8
0
 62
     0
  6
CONTINUOUS
 10
2.283160
 20
6.138440
  0
VERTEX
  8
0
 62
     0
  6
CONTINUOUS
 10
2.299440
 20
6.130960
  0
SEQEND
  8
0
  0
POLYLINE
  8
0
 62
     0
  6
CONTINUOUS
 66
     1
 40
0.002200
 41
0.002200
  0
VERTEX
  8
0
 62
     0
  6
CONTINUOUS
 10
2.299440
 20
6.130960
  0
VERTEX
  8
0
 62
     0
  6
CONTINUOUS
 10
2.299440
 20
6.138440
  0
SEQEND
  8
0
  0
POLYLINE
  8
0
 62
     0
  6
CONTINUOUS
 66
     1
 40
0.002200
 41
0.002200
  0
VERTEX
  8
0
 62
     0
  6
CONTINUOUS
 10
2.299440
 20
6.138440
  0
VERTEX
  8
0
 62
     0
  6
CONTINUOUS
 10
2.283160
 20
6.138440
  0
SEQEND
  8
0
  0
POLYLINE
  8
0
 62
     0
  6
CONTINUOUS
 66
     1
 40
0.002200
 41
0.002200
  0
VERTEX
  8
0
 62
     0
  6
CONTINUOUS
 10
2.283160
 20
6.138440
  0
VERTEX
  8
0
 62
     0
  6
CONTINUOUS
 10
2.283160
 20
6.121720
  0
SEQEND
  8
0
  0
POLYLINE
  8
0
 62
     0
  6
CONTINUOUS
 66
     1
 40
0.002200
 41
0.002200
  0
VERTEX
  8
0
 62
     0
  6
CONTINUOUS
 10
2.283160
 20
6.138440
  0
VERTEX
  8
0
 62
     0
  6
CONTINUOUS
 10
2.299440
 20
6.138440
  0
SEQEND
  8
0
  0
POLYLINE
  8
0
 62
     0
  6
CONTINUOUS
 66
     1
 40
0.002200
 41
0.002200
  0
VERTEX
  8
0
 62
     0
  6
CONTINUOUS
 10
2.349600
 20
6.138440
  0
VERTEX
  8
0
 62
     0
  6
CONTINUOUS
 10
2.358840
 20
6.118200
  0
SEQEND
  8
0
  0
POLYLINE
  8
0
 62
     0
  6
CONTINUOUS
 66
     1
 40
0.002200
 41
0.002200
  0
VERTEX
  8
0
 62
     0
  6
CONTINUOUS
 10
2.358840
 20
6.118200
  0
VERTEX
  8
0
 62
     0
  6
CONTINUOUS
 10
2.349600
 20
6.118200
  0
SEQEND
  8
0
  0
POLYLINE
  8
0
 62
     0
  6
CONTINUOUS
 66
     1
 40
0.002200
 41
0.002200
  0
VERTEX
  8
0
 62
     0
  6
CONTINUOUS
 10
2.349600
 20
6.118200
  0
VERTEX
  8
0
 62
     0
  6
CONTINUOUS
 10
2.349600
 20
5.962880
  0
SEQEND
  8
0
  0
POLYLINE
  8
0
 62
     0
  6
CONTINUOUS
 66
     1
 40
0.002200
 41
0.002200
  0
VERTEX
  8
0
 62
     0
  6
CONTINUOUS
 10
2.349600
 20
5.962880
  0
VERTEX
  8
0
 62
     0
  6
CONTINUOUS
 10
1.935120
 20
5.962880
  0
SEQEND
  8
0
  0
POLYLINE
  8
0
 62
     0
  6
CONTINUOUS
 66
     1
 40
0.002200
 41
0.002200
  0
VERTEX
  8
0
 62
     0
  6
CONTINUOUS
 10
1.935120
 20
5.962880
  0
VERTEX
  8
0
 62
     0
  6
CONTINUOUS
 10
1.935120
 20
6.118200
  0
SEQEND
  8
0
  0
POLYLINE
  8
0
 62
     0
  6
CONTINUOUS
 66
     1
 40
0.002200
 41
0.002200
  0
VERTEX
  8
0
 62
     0
  6
CONTINUOUS
 10
1.935120
 20
6.118200
  0
VERTEX
  8
0
 62
     0
  6
CONTINUOUS
 10
1.925880
 20
6.118200
  0
SEQEND
  8
0
  0
POLYLINE
  8
0
 62
     0
  6
CONTINUOUS
 66
     1
 40
0.002200
 41
0.002200
  0
VERTEX
  8
0
 62
     0
  6
CONTINUOUS
 10
1.925880
 20
6.118200
  0
VERTEX
  8
0
 62
     0
  6
CONTINUOUS
 10
1.935120
 20
6.138440
  0
SEQEND
  8
0
  0
POLYLINE
  8
0
 62
     0
  6
CONTINUOUS
 66
     1
 40
0.002200
 41
0.002200
  0
VERTEX
  8
0
 62
     0
  6
CONTINUOUS
 10
1.935120
 20
6.138440
  0
VERTEX
  8
0
 62
     0
  6
CONTINUOUS
 10
2.349600
 20
6.138440
  0
SEQEND
  8
0
  0
POLYLINE
  8
0
 62
     0
  6
CONTINUOUS
 66
     1
 40
0.002200
 41
0.002200
  0
VERTEX
  8
0
 62
     0
  6
CONTINUOUS
 10
2.111120
 20
6.084760
  0
VERTEX
  8
0
 62
     0
  6
CONTINUOUS
 10
2.111120
 20
6.016560
  0
SEQEND
  8
0
  0
POLYLINE
  8
0
 62
     0
  6
CONTINUOUS
 66
     1
 40
0.002200
 41
0.002200
  0
VERTEX
  8
0
 62
     0
  6
CONTINUOUS
 10
2.111120
 20
6.055280
  0
VERTEX
  8
0
 62
     0
  6
CONTINUOUS
 10
2.001560
 20
6.055280
  0
SEQEND
  8
0
  0
POLYLINE
  8
0
 62
     0
  6
CONTINUOUS
 66
     1
 40
0.002200
 41
0.002200
  0
VERTEX
  8
0
 62
     0
  6
CONTINUOUS
 10
2.001560
 20
6.055280
  0
VERTEX
  8
0
 62
     0
  6
CONTINUOUS
 10
2.001560
 20
6.138440
  0
SEQEND
  8
0
  0
POLYLINE
  8
0
 62
     0
  6
CONTINUOUS
 66
     1
 40
0.002200
 41
0.002200
  0
VERTEX
  8
0
 62
     0
  6
CONTINUOUS
 10
2.001560
 20
6.138440
  0
VERTEX
  8
0
 62
     0
  6
CONTINUOUS
 10
1.983080
 20
6.138440
  0
SEQEND
  8
0
  0
POLYLINE
  8
0
 62
     0
  6
CONTINUOUS
 66
     1
 40
0.002200
 41
0.002200
  0
VERTEX
  8
0
 62
     0
  6
CONTINUOUS
 10
1.983080
 20
6.138440
  0
VERTEX
  8
0
 62
     0
  6
CONTINUOUS
 10
1.985280
 20
6.130960
  0
SEQEND
  8
0
  0
POLYLINE
  8
0
 62
     0
  6
CONTINUOUS
 66
     1
 40
0.002200
 41
0.002200
  0
VERTEX
  8
0
 62
     0
  6
CONTINUOUS
 10
1.985280
 20
6.130960
  0
VERTEX
  8
0
 62
     0
  6
CONTINUOUS
 10
2.001560
 20
6.138440
  0
SEQEND
  8
0
  0
POLYLINE
  8
0
 62
     0
  6
CONTINUOUS
 66
     1
 40
0.002200
 41
0.002200
  0
VERTEX
  8
0
 62
     0
  6
CONTINUOUS
 10
2.001560
 20
6.138440
  0
VERTEX
  8
0
 62
     0
  6
CONTINUOUS
 10
1.983080
 20
6.138440
  0
SEQEND
  8
0
  0
POLYLINE
  8
0
 62
     0
  6
CONTINUOUS
 66
     1
 40
0.002200
 41
0.002200
  0
VERTEX
  8
0
 62
     0
  6
CONTINUOUS
 10
1.985280
 20
6.130960
  0
VERTEX
  8
0
 62
     0
  6
CONTINUOUS
 10
1.988800
 20
6.125680
  0
SEQEND
  8
0
  0
POLYLINE
  8
0
 62
     0
  6
CONTINUOUS
 66
     1
 40
0.002200
 41
0.002200
  0
VERTEX
  8
0
 62
     0
  6
CONTINUOUS
 10
1.988800
 20
6.125680
  0
VERTEX
  8
0
 62
     0
  6
CONTINUOUS
 10
2.001560
 20
6.138440
  0
SEQEND
  8
0
  0
POLYLINE
  8
0
 62
     0
  6
CONTINUOUS
 66
     1
 40
0.002200
 41
0.002200
  0
VERTEX
  8
0
 62
     0
  6
CONTINUOUS
 10
2.001560
 20
6.138440
  0
VERTEX
  8
0
 62
     0
  6
CONTINUOUS
 10
1.985280
 20
6.130960
  0
SEQEND
  8
0
  0
POLYLINE
  8
0
 62
     0
  6
CONTINUOUS
 66
     1
 40
0.002200
 41
0.002200
  0
VERTEX
  8
0
 62
     0
  6
CONTINUOUS
 10
1.988800
 20
6.125680
  0
VERTEX
  8
0
 62
     0
  6
CONTINUOUS
 10
1.994520
 20
6.121720
  0
SEQEND
  8
0
  0
POLYLINE
  8
0
 62
     0
  6
CONTINUOUS
 66
     1
 40
0.002200
 41
0.002200
  0
VERTEX
  8
0
 62
     0
  6
CONTINUOUS
 10
1.994520
 20
6.121720
  0
VERTEX
  8
0
 62
     0
  6
CONTINUOUS
 10
2.001560
 20
6.138440
  0
SEQEND
  8
0
  0
POLYLINE
  8
0
 62
     0
  6
CONTINUOUS
 66
     1
 40
0.002200
 41
0.002200
  0
VERTEX
  8
0
 62
     0
  6
CONTINUOUS
 10
2.001560
 20
6.138440
  0
VERTEX
  8
0
 62
     0
  6
CONTINUOUS
 10
1.988800
 20
6.125680
  0
SEQEND
  8
0
  0
POLYLINE
  8
0
 62
     0
  6
CONTINUOUS
 66
     1
 40
0.002200
 41
0.002200
  0
VERTEX
  8
0
 62
     0
  6
CONTINUOUS
 10
1.994520
 20
6.121720
  0
VERTEX
  8
0
 62
     0
  6
CONTINUOUS
 10
2.001560
 20
6.121720
  0
SEQEND
  8
0
  0
POLYLINE
  8
0
 62
     0
  6
CONTINUOUS
 66
     1
 40
0.002200
 41
0.002200
  0
VERTEX
  8
0
 62
     0
  6
CONTINUOUS
 10
2.001560
 20
6.121720
  0
VERTEX
  8
0
 62
     0
  6
CONTINUOUS
 10
2.001560
 20
6.138440
  0
SEQEND
  8
0
  0
POLYLINE
  8
0
 62
     0
  6
CONTINUOUS
 66
     1
 40
0.002200
 41
0.002200
  0
VERTEX
  8
0
 62
     0
  6
CONTINUOUS
 10
2.001560
 20
6.138440
  0
VERTEX
  8
0
 62
     0
  6
CONTINUOUS
 10
1.994520
 20
6.121720
  0
SEQEND
  8
0
  0
POLYLINE
  8
0
 62
     0
  6
CONTINUOUS
 66
     1
 40
0.002200
 41
0.002200
  0
VERTEX
  8
0
 62
     0
  6
CONTINUOUS
 10
2.001560
 20
6.121720
  0
VERTEX
  8
0
 62
     0
  6
CONTINUOUS
 10
2.001560
 20
6.138440
  0
SEQEND
  8
0
  0
POLYLINE
  8
0
 62
     0
  6
CONTINUOUS
 66
     1
 40
0.002200
 41
0.002200
  0
VERTEX
  8
0
 62
     0
  6
CONTINUOUS
 10
2.001560
 20
6.138440
  0
VERTEX
  8
0
 62
     0
  6
CONTINUOUS
 10
2.001560
 20
6.121720
  0
SEQEND
  8
0
  0
POLYLINE
  8
0
 62
     0
  6
CONTINUOUS
 66
     1
 40
0.002200
 41
0.002200
  0
VERTEX
  8
0
 62
     0
  6
CONTINUOUS
 10
2.001560
 20
6.121720
  0
VERTEX
  8
0
 62
     0
  6
CONTINUOUS
 10
2.007280
 20
6.121720
  0
SEQEND
  8
0
  0
POLYLINE
  8
0
 62
     0
  6
CONTINUOUS
 66
     1
 40
0.002200
 41
0.002200
  0
VERTEX
  8
0
 62
     0
  6
CONTINUOUS
 10
2.007280
 20
6.121720
  0
VERTEX
  8
0
 62
     0
  6
CONTINUOUS
 10
2.001560
 20
6.138440
  0
SEQEND
  8
0
  0
POLYLINE
  8
0
 62
     0
  6
CONTINUOUS
 66
     1
 40
0.002200
 41
0.002200
  0
VERTEX
  8
0
 62
     0
  6
CONTINUOUS
 10
2.001560
 20
6.138440
  0
VERTEX
  8
0
 62
     0
  6
CONTINUOUS
 10
2.007280
 20
6.121720
  0
SEQEND
  8
0
  0
POLYLINE
  8
0
 62
     0
  6
CONTINUOUS
 66
     1
 40
0.002200
 41
0.002200
  0
VERTEX
  8
0
 62
     0
  6
CONTINUOUS
 10
2.007280
 20
6.121720
  0
VERTEX
  8
0
 62
     0
  6
CONTINUOUS
 10
2.014760
 20
6.125680
  0
SEQEND
  8
0
  0
POLYLINE
  8
0
 62
     0
  6
CONTINUOUS
 66
     1
 40
0.002200
 41
0.002200
  0
VERTEX
  8
0
 62
     0
  6
CONTINUOUS
 10
2.014760
 20
6.125680
  0
VERTEX
  8
0
 62
     0
  6
CONTINUOUS
 10
2.001560
 20
6.138440
  0
SEQEND
  8
0
  0
POLYLINE
  8
0
 62
     0
  6
CONTINUOUS
 66
     1
 40
0.002200
 41
0.002200
  0
VERTEX
  8
0
 62
     0
  6
CONTINUOUS
 10
2.001560
 20
6.138440
  0
VERTEX
  8
0
 62
     0
  6
CONTINUOUS
 10
2.014760
 20
6.125680
  0
SEQEND
  8
0
  0
POLYLINE
  8
0
 62
     0
  6
CONTINUOUS
 66
     1
 40
0.002200
 41
0.002200
  0
VERTEX
  8
0
 62
     0
  6
CONTINUOUS
 10
2.014760
 20
6.125680
  0
VERTEX
  8
0
 62
     0
  6
CONTINUOUS
 10
2.020480
 20
6.130960
  0
SEQEND
  8
0
  0
POLYLINE
  8
0
 62
     0
  6
CONTINUOUS
 66
     1
 40
0.002200
 41
0.002200
  0
VERTEX
  8
0
 62
     0
  6
CONTINUOUS
 10
2.020480
 20
6.130960
  0
VERTEX
  8
0
 62
     0
  6
CONTINUOUS
 10
2.001560
 20
6.138440
  0
SEQEND
  8
0
  0
POLYLINE
  8
0
 62
     0
  6
CONTINUOUS
 66
     1
 40
0.002200
 41
0.002200
  0
VERTEX
  8
0
 62
     0
  6
CONTINUOUS
 10
2.001560
 20
6.138440
  0
VERTEX
  8
0
 62
     0
  6
CONTINUOUS
 10
2.020480
 20
6.130960
  0
SEQEND
  8
0
  0
POLYLINE
  8
0
 62
     0
  6
CONTINUOUS
 66
     1
 40
0.002200
 41
0.002200
  0
VERTEX
  8
0
 62
     0
  6
CONTINUOUS
 10
2.020480
 20
6.130960
  0
VERTEX
  8
0
 62
     0
  6
CONTINUOUS
 10
2.020480
 20
6.138440
  0
SEQEND
  8
0
  0
POLYLINE
  8
0
 62
     0
  6
CONTINUOUS
 66
     1
 40
0.002200
 41
0.002200
  0
VERTEX
  8
0
 62
     0
  6
CONTINUOUS
 10
2.020480
 20
6.138440
  0
VERTEX
  8
0
 62
     0
  6
CONTINUOUS
 10
2.001560
 20
6.138440
  0
SEQEND
  8
0
  0
POLYLINE
  8
0
 62
     0
  6
CONTINUOUS
 66
     1
 40
0.002200
 41
0.002200
  0
VERTEX
  8
0
 62
     0
  6
CONTINUOUS
 10
2.001560
 20
6.138440
  0
VERTEX
  8
0
 62
     0
  6
CONTINUOUS
 10
2.020480
 20
6.138440
  0
SEQEND
  8
0
  0
POLYLINE
  8
0
 62
     0
  6
CONTINUOUS
 66
     1
 40
0.002200
 41
0.002200
  0
VERTEX
  8
0
 62
     0
  6
CONTINUOUS
 10
2.009040
 20
6.130960
  0
VERTEX
  8
0
 62
     0
  6
CONTINUOUS
 10
2.009040
 20
6.121720
  0
SEQEND
  8
0
  0
POLYLINE
  8
0
 62
     0
  6
CONTINUOUS
 66
     1
 40
0.002200
 41
0.002200
  0
VERTEX
  8
0
 62
     0
  6
CONTINUOUS
 10
2.101880
 20
5.920200
  0
VERTEX
  8
0
 62
     0
  6
CONTINUOUS
 10
2.111120
 20
5.918440
  0
SEQEND
  8
0
  0
POLYLINE
  8
0
 62
     0
  6
CONTINUOUS
 66
     1
 40
0.002200
 41
0.002200
  0
VERTEX
  8
0
 62
     0
  6
CONTINUOUS
 10
2.111120
 20
5.925920
  0
VERTEX
  8
0
 62
     0
  6
CONTINUOUS
 10
2.101880
 20
5.920200
  0
SEQEND
  8
0
  0
POLYLINE
  8
0
 62
     0
  6
CONTINUOUS
 66
     1
 40
0.002200
 41
0.002200
  0
VERTEX
  8
0
 62
     0
  6
CONTINUOUS
 10
2.118160
 20
5.863000
  0
VERTEX
  8
0
 62
     0
  6
CONTINUOUS
 10
2.123880
 20
5.861240
  0
SEQEND
  8
0
  0
POLYLINE
  8
0
 62
     0
  6
CONTINUOUS
 66
     1
 40
0.002200
 41
0.002200
  0
VERTEX
  8
0
 62
     0
  6
CONTINUOUS
 10
2.123880
 20
5.861240
  0
VERTEX
  8
0
 62
     0
  6
CONTINUOUS
 10
2.123880
 20
5.866520
  0
SEQEND
  8
0
  0
POLYLINE
  8
0
 62
     0
  6
CONTINUOUS
 66
     1
 40
0.002200
 41
0.002200
  0
VERTEX
  8
0
 62
     0
  6
CONTINUOUS
 10
2.123880
 20
5.866520
  0
VERTEX
  8
0
 62
     0
  6
CONTINUOUS
 10
2.118160
 20
5.863000
  0
SEQEND
  8
0
  0
POLYLINE
  8
0
 62
     0
  6
CONTINUOUS
 66
     1
 40
0.002200
 41
0.002200
  0
VERTEX
  8
0
 62
     0
  6
CONTINUOUS
 10
2.168320
 20
5.866520
  0
VERTEX
  8
0
 62
     0
  6
CONTINUOUS
 10
2.168320
 20
5.877520
  0
SEQEND
  8
0
  0
POLYLINE
  8
0
 62
     0
  6
CONTINUOUS
 66
     1
 40
0.002200
 41
0.002200
  0
VERTEX
  8
0
 62
     0
  6
CONTINUOUS
 10
2.168320
 20
5.831320
  0
VERTEX
  8
0
 62
     0
  6
CONTINUOUS
 10
2.162600
 20
5.829560
  0
SEQEND
  8
0
  0
POLYLINE
  8
0
 62
     0
  6
CONTINUOUS
 66
     1
 40
0.002200
 41
0.002200
  0
VERTEX
  8
0
 62
     0
  6
CONTINUOUS
 10
2.162600
 20
5.829560
  0
VERTEX
  8
0
 62
     0
  6
CONTINUOUS
 10
2.162600
 20
5.837040
  0
SEQEND
  8
0
  0
POLYLINE
  8
0
 62
     0
  6
CONTINUOUS
 66
     1
 40
0.002200
 41
0.002200
  0
VERTEX
  8
0
 62
     0
  6
CONTINUOUS
 10
2.162600
 20
5.837040
  0
VERTEX
  8
0
 62
     0
  6
CONTINUOUS
 10
2.168320
 20
5.831320
  0
SEQEND
  8
0
  0
POLYLINE
  8
0
 62
     0
  6
CONTINUOUS
 66
     1
 40
0.002200
 41
0.002200
  0
VERTEX
  8
0
 62
     0
  6
CONTINUOUS
 10
2.168320
 20
5.818560
  0
VERTEX
  8
0
 62
     0
  6
CONTINUOUS
 10
2.162600
 20
5.815040
  0
SEQEND
  8
0
  0
POLYLINE
  8
0
 62
     0
  6
CONTINUOUS
 66
     1
 40
0.002200
 41
0.002200
  0
VERTEX
  8
0
 62
     0
  6
CONTINUOUS
 10
2.162600
 20
5.815040
  0
VERTEX
  8
0
 62
     0
  6
CONTINUOUS
 10
2.168320
 20
5.812840
  0
SEQEND
  8
0
  0
POLYLINE
  8
0
 62
     0
  6
CONTINUOUS
 66
     1
 40
0.002200
 41
0.002200
  0
VERTEX
  8
0
 62
     0
  6
CONTINUOUS
 10
2.168320
 20
5.812840
  0
VERTEX
  8
0
 62
     0
  6
CONTINUOUS
 10
2.168320
 20
5.818560
  0
SEQEND
  8
0
  0
POLYLINE
  8
0
 62
     0
  6
CONTINUOUS
 66
     1
 40
0.002200
 41
0.002200
  0
VERTEX
  8
0
 62
     0
  6
CONTINUOUS
 10
2.168320
 20
5.818560
  0
VERTEX
  8
0
 62
     0
  6
CONTINUOUS
 10
2.162600
 20
5.822080
  0
SEQEND
  8
0
  0
POLYLINE
  8
0
 62
     0
  6
CONTINUOUS
 66
     1
 40
0.002200
 41
0.002200
  0
VERTEX
  8
0
 62
     0
  6
CONTINUOUS
 10
2.144120
 20
5.807560
  0
VERTEX
  8
0
 62
     0
  6
CONTINUOUS
 10
2.144120
 20
5.785120
  0
SEQEND
  8
0
  0
POLYLINE
  8
0
 62
     0
  6
CONTINUOUS
 66
     1
 40
0.002200
 41
0.002200
  0
VERTEX
  8
0
 62
     0
  6
CONTINUOUS
 10
2.144120
 20
5.785120
  0
VERTEX
  8
0
 62
     0
  6
CONTINUOUS
 10
2.142360
 20
5.768400
  0
SEQEND
  8
0
  0
POLYLINE
  8
0
 62
     0
  6
CONTINUOUS
 66
     1
 40
0.002200
 41
0.002200
  0
VERTEX
  8
0
 62
     0
  6
CONTINUOUS
 10
2.142360
 20
5.768400
  0
VERTEX
  8
0
 62
     0
  6
CONTINUOUS
 10
2.140600
 20
5.755640
  0
SEQEND
  8
0
  0
POLYLINE
  8
0
 62
     0
  6
CONTINUOUS
 66
     1
 40
0.002200
 41
0.002200
  0
VERTEX
  8
0
 62
     0
  6
CONTINUOUS
 10
2.140600
 20
5.755640
  0
VERTEX
  8
0
 62
     0
  6
CONTINUOUS
 10
2.138840
 20
5.744640
  0
SEQEND
  8
0
  0
POLYLINE
  8
0
 62
     0
  6
CONTINUOUS
 66
     1
 40
0.002200
 41
0.002200
  0
VERTEX
  8
0
 62
     0
  6
CONTINUOUS
 10
2.138840
 20
5.744640
  0
VERTEX
  8
0
 62
     0
  6
CONTINUOUS
 10
2.136640
 20
5.740680
  0
SEQEND
  8
0
  0
POLYLINE
  8
0
 62
     0
  6
CONTINUOUS
 66
     1
 40
0.002200
 41
0.002200
  0
VERTEX
  8
0
 62
     0
  6
CONTINUOUS
 10
2.136640
 20
5.740680
  0
VERTEX
  8
0
 62
     0
  6
CONTINUOUS
 10
2.133120
 20
5.733640
  0
SEQEND
  8
0
  0
POLYLINE
  8
0
 62
     0
  6
CONTINUOUS
 66
     1
 40
0.002200
 41
0.002200
  0
VERTEX
  8
0
 62
     0
  6
CONTINUOUS
 10
2.133120
 20
5.733640
  0
VERTEX
  8
0
 62
     0
  6
CONTINUOUS
 10
2.131360
 20
5.731440
  0
SEQEND
  8
0
  0
POLYLINE
  8
0
 62
     0
  6
CONTINUOUS
 66
     1
 40
0.002200
 41
0.002200
  0
VERTEX
  8
0
 62
     0
  6
CONTINUOUS
 10
2.131360
 20
5.731440
  0
VERTEX
  8
0
 62
     0
  6
CONTINUOUS
 10
2.127400
 20
5.731440
  0
SEQEND
  8
0
  0
POLYLINE
  8
0
 62
     0
  6
CONTINUOUS
 66
     1
 40
0.002200
 41
0.002200
  0
VERTEX
  8
0
 62
     0
  6
CONTINUOUS
 10
2.127400
 20
5.731440
  0
VERTEX
  8
0
 62
     0
  6
CONTINUOUS
 10
2.131360
 20
5.727920
  0
SEQEND
  8
0
  0
POLYLINE
  8
0
 62
     0
  6
CONTINUOUS
 66
     1
 40
0.002200
 41
0.002200
  0
VERTEX
  8
0
 62
     0
  6
CONTINUOUS
 10
2.131360
 20
5.727920
  0
VERTEX
  8
0
 62
     0
  6
CONTINUOUS
 10
2.127400
 20
5.726160
  0
SEQEND
  8
0
  0
POLYLINE
  8
0
 62
     0
  6
CONTINUOUS
 66
     1
 40
0.002200
 41
0.002200
  0
VERTEX
  8
0
 62
     0
  6
CONTINUOUS
 10
2.127400
 20
5.726160
  0
VERTEX
  8
0
 62
     0
  6
CONTINUOUS
 10
2.123880
 20
5.727920
  0
SEQEND
  8
0
  0
POLYLINE
  8
0
 62
     0
  6
CONTINUOUS
 66
     1
 40
0.002200
 41
0.002200
  0
VERTEX
  8
0
 62
     0
  6
CONTINUOUS
 10
2.123880
 20
5.727920
  0
VERTEX
  8
0
 62
     0
  6
CONTINUOUS
 10
2.123880
 20
5.726160
  0
SEQEND
  8
0
  0
POLYLINE
  8
0
 62
     0
  6
CONTINUOUS
 66
     1
 40
0.002200
 41
0.002200
  0
VERTEX
  8
0
 62
     0
  6
CONTINUOUS
 10
2.123880
 20
5.726160
  0
VERTEX
  8
0
 62
     0
  6
CONTINUOUS
 10
2.127400
 20
5.724400
  0
SEQEND
  8
0
  0
POLYLINE
  8
0
 62
     0
  6
CONTINUOUS
 66
     1
 40
0.002200
 41
0.002200
  0
VERTEX
  8
0
 62
     0
  6
CONTINUOUS
 10
2.127400
 20
5.724400
  0
VERTEX
  8
0
 62
     0
  6
CONTINUOUS
 10
2.123880
 20
5.722200
  0
SEQEND
  8
0
  0
POLYLINE
  8
0
 62
     0
  6
CONTINUOUS
 66
     1
 40
0.002200
 41
0.002200
  0
VERTEX
  8
0
 62
     0
  6
CONTINUOUS
 10
2.123880
 20
5.722200
  0
VERTEX
  8
0
 62
     0
  6
CONTINUOUS
 10
2.122120
 20
5.724400
  0
SEQEND
  8
0
  0
POLYLINE
  8
0
 62
     0
  6
CONTINUOUS
 66
     1
 40
0.002200
 41
0.002200
  0
VERTEX
  8
0
 62
     0
  6
CONTINUOUS
 10
2.122120
 20
5.724400
  0
VERTEX
  8
0
 62
     0
  6
CONTINUOUS
 10
2.120360
 20
5.722200
  0
SEQEND
  8
0
  0
POLYLINE
  8
0
 62
     0
  6
CONTINUOUS
 66
     1
 40
0.002200
 41
0.002200
  0
VERTEX
  8
0
 62
     0
  6
CONTINUOUS
 10
2.120360
 20
5.722200
  0
VERTEX
  8
0
 62
     0
  6
CONTINUOUS
 10
2.123880
 20
5.722200
  0
SEQEND
  8
0
  0
POLYLINE
  8
0
 62
     0
  6
CONTINUOUS
 66
     1
 40
0.002200
 41
0.002200
  0
VERTEX
  8
0
 62
     0
  6
CONTINUOUS
 10
2.123880
 20
5.722200
  0
VERTEX
  8
0
 62
     0
  6
CONTINUOUS
 10
2.122120
 20
5.718680
  0
SEQEND
  8
0
  0
POLYLINE
  8
0
 62
     0
  6
CONTINUOUS
 66
     1
 40
0.002200
 41
0.002200
  0
VERTEX
  8
0
 62
     0
  6
CONTINUOUS
 10
2.122120
 20
5.718680
  0
VERTEX
  8
0
 62
     0
  6
CONTINUOUS
 10
2.120360
 20
5.718680
  0
SEQEND
  8
0
  0
POLYLINE
  8
0
 62
     0
  6
CONTINUOUS
 66
     1
 40
0.002200
 41
0.002200
  0
VERTEX
  8
0
 62
     0
  6
CONTINUOUS
 10
2.120360
 20
5.718680
  0
VERTEX
  8
0
 62
     0
  6
CONTINUOUS
 10
2.118160
 20
5.718680
  0
SEQEND
  8
0
  0
POLYLINE
  8
0
 62
     0
  6
CONTINUOUS
 66
     1
 40
0.002200
 41
0.002200
  0
VERTEX
  8
0
 62
     0
  6
CONTINUOUS
 10
2.118160
 20
5.718680
  0
VERTEX
  8
0
 62
     0
  6
CONTINUOUS
 10
2.122120
 20
5.716920
  0
SEQEND
  8
0
  0
POLYLINE
  8
0
 62
     0
  6
CONTINUOUS
 66
     1
 40
0.002200
 41
0.002200
  0
VERTEX
  8
0
 62
     0
  6
CONTINUOUS
 10
2.122120
 20
5.716920
  0
VERTEX
  8
0
 62
     0
  6
CONTINUOUS
 10
2.122120
 20
5.715160
  0
SEQEND
  8
0
  0
POLYLINE
  8
0
 62
     0
  6
CONTINUOUS
 66
     1
 40
0.002200
 41
0.002200
  0
VERTEX
  8
0
 62
     0
  6
CONTINUOUS
 10
2.122120
 20
5.715160
  0
VERTEX
  8
0
 62
     0
  6
CONTINUOUS
 10
2.118160
 20
5.716920
  0
SEQEND
  8
0
  0
POLYLINE
  8
0
 62
     0
  6
CONTINUOUS
 66
     1
 40
0.002200
 41
0.002200
  0
VERTEX
  8
0
 62
     0
  6
CONTINUOUS
 10
2.118160
 20
5.716920
  0
VERTEX
  8
0
 62
     0
  6
CONTINUOUS
 10
2.118160
 20
5.715160
  0
SEQEND
  8
0
  0
POLYLINE
  8
0
 62
     0
  6
CONTINUOUS
 66
     1
 40
0.002200
 41
0.002200
  0
VERTEX
  8
0
 62
     0
  6
CONTINUOUS
 10
2.118160
 20
5.715160
  0
VERTEX
  8
0
 62
     0
  6
CONTINUOUS
 10
2.122120
 20
5.715160
  0
SEQEND
  8
0
  0
POLYLINE
  8
0
 62
     0
  6
CONTINUOUS
 66
     1
 40
0.002200
 41
0.002200
  0
VERTEX
  8
0
 62
     0
  6
CONTINUOUS
 10
2.122120
 20
5.715160
  0
VERTEX
  8
0
 62
     0
  6
CONTINUOUS
 10
2.122120
 20
5.712960
  0
SEQEND
  8
0
  0
POLYLINE
  8
0
 62
     0
  6
CONTINUOUS
 66
     1
 40
0.002200
 41
0.002200
  0
VERTEX
  8
0
 62
     0
  6
CONTINUOUS
 10
2.122120
 20
5.712960
  0
VERTEX
  8
0
 62
     0
  6
CONTINUOUS
 10
2.118160
 20
5.712960
  0
SEQEND
  8
0
  0
POLYLINE
  8
0
 62
     0
  6
CONTINUOUS
 66
     1
 40
0.002200
 41
0.002200
  0
VERTEX
  8
0
 62
     0
  6
CONTINUOUS
 10
2.118160
 20
5.712960
  0
VERTEX
  8
0
 62
     0
  6
CONTINUOUS
 10
2.118160
 20
5.709440
  0
SEQEND
  8
0
  0
POLYLINE
  8
0
 62
     0
  6
CONTINUOUS
 66
     1
 40
0.002200
 41
0.002200
  0
VERTEX
  8
0
 62
     0
  6
CONTINUOUS
 10
2.118160
 20
5.709440
  0
VERTEX
  8
0
 62
     0
  6
CONTINUOUS
 10
2.122120
 20
5.711200
  0
SEQEND
  8
0
  0
POLYLINE
  8
0
 62
     0
  6
CONTINUOUS
 66
     1
 40
0.002200
 41
0.002200
  0
VERTEX
  8
0
 62
     0
  6
CONTINUOUS
 10
2.122120
 20
5.711200
  0
VERTEX
  8
0
 62
     0
  6
CONTINUOUS
 10
2.122120
 20
5.709440
  0
SEQEND
  8
0
  0
POLYLINE
  8
0
 62
     0
  6
CONTINUOUS
 66
     1
 40
0.002200
 41
0.002200
  0
VERTEX
  8
0
 62
     0
  6
CONTINUOUS
 10
2.122120
 20
5.709440
  0
VERTEX
  8
0
 62
     0
  6
CONTINUOUS
 10
2.118160
 20
5.707680
  0
SEQEND
  8
0
  0
POLYLINE
  8
0
 62
     0
  6
CONTINUOUS
 66
     1
 40
0.002200
 41
0.002200
  0
VERTEX
  8
0
 62
     0
  6
CONTINUOUS
 10
2.118160
 20
5.707680
  0
VERTEX
  8
0
 62
     0
  6
CONTINUOUS
 10
2.120360
 20
5.707680
  0
SEQEND
  8
0
  0
POLYLINE
  8
0
 62
     0
  6
CONTINUOUS
 66
     1
 40
0.002200
 41
0.002200
  0
VERTEX
  8
0
 62
     0
  6
CONTINUOUS
 10
2.120360
 20
5.707680
  0
VERTEX
  8
0
 62
     0
  6
CONTINUOUS
 10
2.122120
 20
5.707680
  0
SEQEND
  8
0
  0
POLYLINE
  8
0
 62
     0
  6
CONTINUOUS
 66
     1
 40
0.002200
 41
0.002200
  0
VERTEX
  8
0
 62
     0
  6
CONTINUOUS
 10
2.122120
 20
5.707680
  0
VERTEX
  8
0
 62
     0
  6
CONTINUOUS
 10
2.120360
 20
5.705920
  0
SEQEND
  8
0
  0
POLYLINE
  8
0
 62
     0
  6
CONTINUOUS
 66
     1
 40
0.002200
 41
0.002200
  0
VERTEX
  8
0
 62
     0
  6
CONTINUOUS
 10
2.120360
 20
5.705920
  0
VERTEX
  8
0
 62
     0
  6
CONTINUOUS
 10
2.120360
 20
5.703720
  0
SEQEND
  8
0
  0
POLYLINE
  8
0
 62
     0
  6
CONTINUOUS
 66
     1
 40
0.002200
 41
0.002200
  0
VERTEX
  8
0
 62
     0
  6
CONTINUOUS
 10
2.120360
 20
5.703720
  0
VERTEX
  8
0
 62
     0
  6
CONTINUOUS
 10
2.123880
 20
5.705920
  0
SEQEND
  8
0
  0
POLYLINE
  8
0
 62
     0
  6
CONTINUOUS
 66
     1
 40
0.002200
 41
0.002200
  0
VERTEX
  8
0
 62
     0
  6
CONTINUOUS
 10
2.123880
 20
5.705920
  0
VERTEX
  8
0
 62
     0
  6
CONTINUOUS
 10
2.123880
 20
5.703720
  0
SEQEND
  8
0
  0
POLYLINE
  8
0
 62
     0
  6
CONTINUOUS
 66
     1
 40
0.002200
 41
0.002200
  0
VERTEX
  8
0
 62
     0
  6
CONTINUOUS
 10
2.123880
 20
5.703720
  0
VERTEX
  8
0
 62
     0
  6
CONTINUOUS
 10
2.122120
 20
5.700200
  0
SEQEND
  8
0
  0
POLYLINE
  8
0
 62
     0
  6
CONTINUOUS
 66
     1
 40
0.002200
 41
0.002200
  0
VERTEX
  8
0
 62
     0
  6
CONTINUOUS
 10
2.122120
 20
5.700200
  0
VERTEX
  8
0
 62
     0
  6
CONTINUOUS
 10
2.123880
 20
5.700200
  0
SEQEND
  8
0
  0
POLYLINE
  8
0
 62
     0
  6
CONTINUOUS
 66
     1
 40
0.002200
 41
0.002200
  0
VERTEX
  8
0
 62
     0
  6
CONTINUOUS
 10
2.123880
 20
5.700200
  0
VERTEX
  8
0
 62
     0
  6
CONTINUOUS
 10
2.127400
 20
5.703720
  0
SEQEND
  8
0
  0
POLYLINE
  8
0
 62
     0
  6
CONTINUOUS
 66
     1
 40
0.002200
 41
0.002200
  0
VERTEX
  8
0
 62
     0
  6
CONTINUOUS
 10
2.127400
 20
5.703720
  0
VERTEX
  8
0
 62
     0
  6
CONTINUOUS
 10
2.127400
 20
5.700200
  0
SEQEND
  8
0
  0
POLYLINE
  8
0
 62
     0
  6
CONTINUOUS
 66
     1
 40
0.002200
 41
0.002200
  0
VERTEX
  8
0
 62
     0
  6
CONTINUOUS
 10
2.127400
 20
5.700200
  0
VERTEX
  8
0
 62
     0
  6
CONTINUOUS
 10
2.123880
 20
5.698440
  0
SEQEND
  8
0
  0
POLYLINE
  8
0
 62
     0
  6
CONTINUOUS
 66
     1
 40
0.002200
 41
0.002200
  0
VERTEX
  8
0
 62
     0
  6
CONTINUOUS
 10
2.123880
 20
5.698440
  0
VERTEX
  8
0
 62
     0
  6
CONTINUOUS
 10
2.127400
 20
5.696240
  0
SEQEND
  8
0
  0
POLYLINE
  8
0
 62
     0
  6
CONTINUOUS
 66
     1
 40
0.002200
 41
0.002200
  0
VERTEX
  8
0
 62
     0
  6
CONTINUOUS
 10
2.127400
 20
5.696240
  0
VERTEX
  8
0
 62
     0
  6
CONTINUOUS
 10
2.127400
 20
5.700200
  0
SEQEND
  8
0
  0
POLYLINE
  8
0
 62
     0
  6
CONTINUOUS
 66
     1
 40
0.002200
 41
0.002200
  0
VERTEX
  8
0
 62
     0
  6
CONTINUOUS
 10
2.127400
 20
5.700200
  0
VERTEX
  8
0
 62
     0
  6
CONTINUOUS
 10
2.131360
 20
5.698440
  0
SEQEND
  8
0
  0
POLYLINE
  8
0
 62
     0
  6
CONTINUOUS
 66
     1
 40
0.002200
 41
0.002200
  0
VERTEX
  8
0
 62
     0
  6
CONTINUOUS
 10
2.131360
 20
5.698440
  0
VERTEX
  8
0
 62
     0
  6
CONTINUOUS
 10
2.127400
 20
5.696240
  0
SEQEND
  8
0
  0
POLYLINE
  8
0
 62
     0
  6
CONTINUOUS
 66
     1
 40
0.002200
 41
0.002200
  0
VERTEX
  8
0
 62
     0
  6
CONTINUOUS
 10
2.127400
 20
5.696240
  0
VERTEX
  8
0
 62
     0
  6
CONTINUOUS
 10
2.129600
 20
5.694480
  0
SEQEND
  8
0
  0
POLYLINE
  8
0
 62
     0
  6
CONTINUOUS
 66
     1
 40
0.002200
 41
0.002200
  0
VERTEX
  8
0
 62
     0
  6
CONTINUOUS
 10
2.129600
 20
5.694480
  0
VERTEX
  8
0
 62
     0
  6
CONTINUOUS
 10
2.131360
 20
5.698440
  0
SEQEND
  8
0
  0
POLYLINE
  8
0
 62
     0
  6
CONTINUOUS
 66
     1
 40
0.002200
 41
0.002200
  0
VERTEX
  8
0
 62
     0
  6
CONTINUOUS
 10
2.131360
 20
5.698440
  0
VERTEX
  8
0
 62
     0
  6
CONTINUOUS
 10
2.133120
 20
5.696240
  0
SEQEND
  8
0
  0
POLYLINE
  8
0
 62
     0
  6
CONTINUOUS
 66
     1
 40
0.002200
 41
0.002200
  0
VERTEX
  8
0
 62
     0
  6
CONTINUOUS
 10
2.133120
 20
5.696240
  0
VERTEX
  8
0
 62
     0
  6
CONTINUOUS
 10
2.131360
 20
5.694480
  0
SEQEND
  8
0
  0
POLYLINE
  8
0
 62
     0
  6
CONTINUOUS
 66
     1
 40
0.002200
 41
0.002200
  0
VERTEX
  8
0
 62
     0
  6
CONTINUOUS
 10
2.131360
 20
5.694480
  0
VERTEX
  8
0
 62
     0
  6
CONTINUOUS
 10
2.133120
 20
5.690960
  0
SEQEND
  8
0
  0
POLYLINE
  8
0
 62
     0
  6
CONTINUOUS
 66
     1
 40
0.002200
 41
0.002200
  0
VERTEX
  8
0
 62
     0
  6
CONTINUOUS
 10
2.133120
 20
5.690960
  0
VERTEX
  8
0
 62
     0
  6
CONTINUOUS
 10
2.136640
 20
5.696240
  0
SEQEND
  8
0
  0
POLYLINE
  8
0
 62
     0
  6
CONTINUOUS
 66
     1
 40
0.002200
 41
0.002200
  0
VERTEX
  8
0
 62
     0
  6
CONTINUOUS
 10
2.136640
 20
5.696240
  0
VERTEX
  8
0
 62
     0
  6
CONTINUOUS
 10
2.138840
 20
5.694480
  0
SEQEND
  8
0
  0
POLYLINE
  8
0
 62
     0
  6
CONTINUOUS
 66
     1
 40
0.002200
 41
0.002200
  0
VERTEX
  8
0
 62
     0
  6
CONTINUOUS
 10
2.138840
 20
5.694480
  0
VERTEX
  8
0
 62
     0
  6
CONTINUOUS
 10
2.136640
 20
5.690960
  0
SEQEND
  8
0
  0
POLYLINE
  8
0
 62
     0
  6
CONTINUOUS
 66
     1
 40
0.002200
 41
0.002200
  0
VERTEX
  8
0
 62
     0
  6
CONTINUOUS
 10
2.136640
 20
5.690960
  0
VERTEX
  8
0
 62
     0
  6
CONTINUOUS
 10
2.138840
 20
5.690960
  0
SEQEND
  8
0
  0
POLYLINE
  8
0
 62
     0
  6
CONTINUOUS
 66
     1
 40
0.002200
 41
0.002200
  0
VERTEX
  8
0
 62
     0
  6
CONTINUOUS
 10
2.138840
 20
5.690960
  0
VERTEX
  8
0
 62
     0
  6
CONTINUOUS
 10
2.144120
 20
5.689200
  0
SEQEND
  8
0
  0
POLYLINE
  8
0
 62
     0
  6
CONTINUOUS
 66
     1
 40
0.002200
 41
0.002200
  0
VERTEX
  8
0
 62
     0
  6
CONTINUOUS
 10
2.144120
 20
5.689200
  0
VERTEX
  8
0
 62
     0
  6
CONTINUOUS
 10
2.145880
 20
5.689200
  0
SEQEND
  8
0
  0
POLYLINE
  8
0
 62
     0
  6
CONTINUOUS
 66
     1
 40
0.002200
 41
0.002200
  0
VERTEX
  8
0
 62
     0
  6
CONTINUOUS
 10
2.145880
 20
5.689200
  0
VERTEX
  8
0
 62
     0
  6
CONTINUOUS
 10
2.149840
 20
5.685240
  0
SEQEND
  8
0
  0
POLYLINE
  8
0
 62
     0
  6
CONTINUOUS
 66
     1
 40
0.002200
 41
0.002200
  0
VERTEX
  8
0
 62
     0
  6
CONTINUOUS
 10
2.149840
 20
5.685240
  0
VERTEX
  8
0
 62
     0
  6
CONTINUOUS
 10
2.155120
 20
5.683480
  0
SEQEND
  8
0
  0
POLYLINE
  8
0
 62
     0
  6
CONTINUOUS
 66
     1
 40
0.002200
 41
0.002200
  0
VERTEX
  8
0
 62
     0
  6
CONTINUOUS
 10
2.155120
 20
5.683480
  0
VERTEX
  8
0
 62
     0
  6
CONTINUOUS
 10
2.159080
 20
5.681720
  0
SEQEND
  8
0
  0
POLYLINE
  8
0
 62
     0
  6
CONTINUOUS
 66
     1
 40
0.002200
 41
0.002200
  0
VERTEX
  8
0
 62
     0
  6
CONTINUOUS
 10
2.159080
 20
5.681720
  0
VERTEX
  8
0
 62
     0
  6
CONTINUOUS
 10
2.164360
 20
5.677760
  0
SEQEND
  8
0
  0
POLYLINE
  8
0
 62
     0
  6
CONTINUOUS
 66
     1
 40
0.002200
 41
0.002200
  0
VERTEX
  8
0
 62
     0
  6
CONTINUOUS
 10
2.164360
 20
5.677760
  0
VERTEX
  8
0
 62
     0
  6
CONTINUOUS
 10
2.168320
 20
5.677760
  0
SEQEND
  8
0
  0
POLYLINE
  8
0
 62
     0
  6
CONTINUOUS
 66
     1
 40
0.002200
 41
0.002200
  0
VERTEX
  8
0
 62
     0
  6
CONTINUOUS
 10
2.168320
 20
5.677760
  0
VERTEX
  8
0
 62
     0
  6
CONTINUOUS
 10
2.173600
 20
5.674240
  0
SEQEND
  8
0
  0
POLYLINE
  8
0
 62
     0
  6
CONTINUOUS
 66
     1
 40
0.002200
 41
0.002200
  0
VERTEX
  8
0
 62
     0
  6
CONTINUOUS
 10
2.173600
 20
5.674240
  0
VERTEX
  8
0
 62
     0
  6
CONTINUOUS
 10
2.177560
 20
5.670720
  0
SEQEND
  8
0
  0
POLYLINE
  8
0
 62
     0
  6
CONTINUOUS
 66
     1
 40
0.002200
 41
0.002200
  0
VERTEX
  8
0
 62
     0
  6
CONTINUOUS
 10
2.177560
 20
5.670720
  0
VERTEX
  8
0
 62
     0
  6
CONTINUOUS
 10
2.181080
 20
5.668520
  0
SEQEND
  8
0
  0
POLYLINE
  8
0
 62
     0
  6
CONTINUOUS
 66
     1
 40
0.002200
 41
0.002200
  0
VERTEX
  8
0
 62
     0
  6
CONTINUOUS
 10
2.181080
 20
5.668520
  0
VERTEX
  8
0
 62
     0
  6
CONTINUOUS
 10
2.185040
 20
5.665000
  0
SEQEND
  8
0
  0
POLYLINE
  8
0
 62
     0
  6
CONTINUOUS
 66
     1
 40
0.002200
 41
0.002200
  0
VERTEX
  8
0
 62
     0
  6
CONTINUOUS
 10
2.185040
 20
5.665000
  0
VERTEX
  8
0
 62
     0
  6
CONTINUOUS
 10
2.188560
 20
5.663240
  0
SEQEND
  8
0
  0
POLYLINE
  8
0
 62
     0
  6
CONTINUOUS
 66
     1
 40
0.002200
 41
0.002200
  0
VERTEX
  8
0
 62
     0
  6
CONTINUOUS
 10
2.188560
 20
5.663240
  0
VERTEX
  8
0
 62
     0
  6
CONTINUOUS
 10
2.190320
 20
5.659280
  0
SEQEND
  8
0
  0
POLYLINE
  8
0
 62
     0
  6
CONTINUOUS
 66
     1
 40
0.002200
 41
0.002200
  0
VERTEX
  8
0
 62
     0
  6
CONTINUOUS
 10
2.190320
 20
5.659280
  0
VERTEX
  8
0
 62
     0
  6
CONTINUOUS
 10
2.194280
 20
5.655760
  0
SEQEND
  8
0
  0
POLYLINE
  8
0
 62
     0
  6
CONTINUOUS
 66
     1
 40
0.002200
 41
0.002200
  0
VERTEX
  8
0
 62
     0
  6
CONTINUOUS
 10
2.194280
 20
5.655760
  0
VERTEX
  8
0
 62
     0
  6
CONTINUOUS
 10
2.194280
 20
5.654000
  0
SEQEND
  8
0
  0
POLYLINE
  8
0
 62
     0
  6
CONTINUOUS
 66
     1
 40
0.002200
 41
0.002200
  0
VERTEX
  8
0
 62
     0
  6
CONTINUOUS
 10
2.194280
 20
5.654000
  0
VERTEX
  8
0
 62
     0
  6
CONTINUOUS
 10
2.197800
 20
5.654000
  0
SEQEND
  8
0
  0
POLYLINE
  8
0
 62
     0
  6
CONTINUOUS
 66
     1
 40
0.002200
 41
0.002200
  0
VERTEX
  8
0
 62
     0
  6
CONTINUOUS
 10
2.197800
 20
5.654000
  0
VERTEX
  8
0
 62
     0
  6
CONTINUOUS
 10
2.194280
 20
5.652240
  0
SEQEND
  8
0
  0
POLYLINE
  8
0
 62
     0
  6
CONTINUOUS
 66
     1
 40
0.002200
 41
0.002200
  0
VERTEX
  8
0
 62
     0
  6
CONTINUOUS
 10
2.194280
 20
5.652240
  0
VERTEX
  8
0
 62
     0
  6
CONTINUOUS
 10
2.194280
 20
5.650040
  0
SEQEND
  8
0
  0
POLYLINE
  8
0
 62
     0
  6
CONTINUOUS
 66
     1
 40
0.002200
 41
0.002200
  0
VERTEX
  8
0
 62
     0
  6
CONTINUOUS
 10
2.194280
 20
5.650040
  0
VERTEX
  8
0
 62
     0
  6
CONTINUOUS
 10
2.197800
 20
5.652240
  0
SEQEND
  8
0
  0
POLYLINE
  8
0
 62
     0
  6
CONTINUOUS
 66
     1
 40
0.002200
 41
0.002200
  0
VERTEX
  8
0
 62
     0
  6
CONTINUOUS
 10
2.197800
 20
5.652240
  0
VERTEX
  8
0
 62
     0
  6
CONTINUOUS
 10
2.199560
 20
5.648280
  0
SEQEND
  8
0
  0
POLYLINE
  8
0
 62
     0
  6
CONTINUOUS
 66
     1
 40
0.002200
 41
0.002200
  0
VERTEX
  8
0
 62
     0
  6
CONTINUOUS
 10
2.199560
 20
5.648280
  0
VERTEX
  8
0
 62
     0
  6
CONTINUOUS
 10
2.197800
 20
5.646520
  0
SEQEND
  8
0
  0
POLYLINE
  8
0
 62
     0
  6
CONTINUOUS
 66
     1
 40
0.002200
 41
0.002200
  0
VERTEX
  8
0
 62
     0
  6
CONTINUOUS
 10
2.197800
 20
5.646520
  0
VERTEX
  8
0
 62
     0
  6
CONTINUOUS
 10
2.197800
 20
5.644760
  0
SEQEND
  8
0
  0
POLYLINE
  8
0
 62
     0
  6
CONTINUOUS
 66
     1
 40
0.002200
 41
0.002200
  0
VERTEX
  8
0
 62
     0
  6
CONTINUOUS
 10
2.197800
 20
5.644760
  0
VERTEX
  8
0
 62
     0
  6
CONTINUOUS
 10
2.199560
 20
5.644760
  0
SEQEND
  8
0
  0
POLYLINE
  8
0
 62
     0
  6
CONTINUOUS
 66
     1
 40
0.002200
 41
0.002200
  0
VERTEX
  8
0
 62
     0
  6
CONTINUOUS
 10
2.199560
 20
5.644760
  0
VERTEX
  8
0
 62
     0
  6
CONTINUOUS
 10
2.199560
 20
5.639040
  0
SEQEND
  8
0
  0
POLYLINE
  8
0
 62
     0
  6
CONTINUOUS
 66
     1
 40
0.002200
 41
0.002200
  0
VERTEX
  8
0
 62
     0
  6
CONTINUOUS
 10
2.199560
 20
5.639040
  0
VERTEX
  8
0
 62
     0
  6
CONTINUOUS
 10
2.197800
 20
5.640800
  0
SEQEND
  8
0
  0
POLYLINE
  8
0
 62
     0
  6
CONTINUOUS
 66
     1
 40
0.002200
 41
0.002200
  0
VERTEX
  8
0
 62
     0
  6
CONTINUOUS
 10
2.197800
 20
5.640800
  0
VERTEX
  8
0
 62
     0
  6
CONTINUOUS
 10
2.197800
 20
5.637280
  0
SEQEND
  8
0
  0
POLYLINE
  8
0
 62
     0
  6
CONTINUOUS
 66
     1
 40
0.002200
 41
0.002200
  0
VERTEX
  8
0
 62
     0
  6
CONTINUOUS
 10
2.197800
 20
5.637280
  0
VERTEX
  8
0
 62
     0
  6
CONTINUOUS
 10
2.197800
 20
5.635520
  0
SEQEND
  8
0
  0
POLYLINE
  8
0
 62
     0
  6
CONTINUOUS
 66
     1
 40
0.002200
 41
0.002200
  0
VERTEX
  8
0
 62
     0
  6
CONTINUOUS
 10
2.197800
 20
5.635520
  0
VERTEX
  8
0
 62
     0
  6
CONTINUOUS
 10
2.194280
 20
5.633760
  0
SEQEND
  8
0
  0
POLYLINE
  8
0
 62
     0
  6
CONTINUOUS
 66
     1
 40
0.002200
 41
0.002200
  0
VERTEX
  8
0
 62
     0
  6
CONTINUOUS
 10
2.194280
 20
5.633760
  0
VERTEX
  8
0
 62
     0
  6
CONTINUOUS
 10
2.192520
 20
5.629800
  0
SEQEND
  8
0
  0
POLYLINE
  8
0
 62
     0
  6
CONTINUOUS
 66
     1
 40
0.002200
 41
0.002200
  0
VERTEX
  8
0
 62
     0
  6
CONTINUOUS
 10
2.192520
 20
5.629800
  0
VERTEX
  8
0
 62
     0
  6
CONTINUOUS
 10
2.190320
 20
5.626280
  0
SEQEND
  8
0
  0
POLYLINE
  8
0
 62
     0
  6
CONTINUOUS
 66
     1
 40
0.002200
 41
0.002200
  0
VERTEX
  8
0
 62
     0
  6
CONTINUOUS
 10
2.190320
 20
5.626280
  0
VERTEX
  8
0
 62
     0
  6
CONTINUOUS
 10
2.185040
 20
5.622320
  0
SEQEND
  8
0
  0
POLYLINE
  8
0
 62
     0
  6
CONTINUOUS
 66
     1
 40
0.002200
 41
0.002200
  0
VERTEX
  8
0
 62
     0
  6
CONTINUOUS
 10
2.185040
 20
5.622320
  0
VERTEX
  8
0
 62
     0
  6
CONTINUOUS
 10
2.181080
 20
5.618800
  0
SEQEND
  8
0
  0
POLYLINE
  8
0
 62
     0
  6
CONTINUOUS
 66
     1
 40
0.002200
 41
0.002200
  0
VERTEX
  8
0
 62
     0
  6
CONTINUOUS
 10
2.181080
 20
5.618800
  0
VERTEX
  8
0
 62
     0
  6
CONTINUOUS
 10
2.175800
 20
5.617040
  0
SEQEND
  8
0
  0
POLYLINE
  8
0
 62
     0
  6
CONTINUOUS
 66
     1
 40
0.002200
 41
0.002200
  0
VERTEX
  8
0
 62
     0
  6
CONTINUOUS
 10
2.175800
 20
5.617040
  0
VERTEX
  8
0
 62
     0
  6
CONTINUOUS
 10
2.168320
 20
5.615280
  0
SEQEND
  8
0
  0
POLYLINE
  8
0
 62
     0
  6
CONTINUOUS
 66
     1
 40
0.002200
 41
0.002200
  0
VERTEX
  8
0
 62
     0
  6
CONTINUOUS
 10
2.168320
 20
5.615280
  0
VERTEX
  8
0
 62
     0
  6
CONTINUOUS
 10
2.164360
 20
5.611320
  0
SEQEND
  8
0
  0
POLYLINE
  8
0
 62
     0
  6
CONTINUOUS
 66
     1
 40
0.002200
 41
0.002200
  0
VERTEX
  8
0
 62
     0
  6
CONTINUOUS
 10
2.164360
 20
5.611320
  0
VERTEX
  8
0
 62
     0
  6
CONTINUOUS
 10
2.155120
 20
5.609560
  0
SEQEND
  8
0
  0
POLYLINE
  8
0
 62
     0
  6
CONTINUOUS
 66
     1
 40
0.002200
 41
0.002200
  0
VERTEX
  8
0
 62
     0
  6
CONTINUOUS
 10
2.155120
 20
5.609560
  0
VERTEX
  8
0
 62
     0
  6
CONTINUOUS
 10
2.149840
 20
5.607800
  0
SEQEND
  8
0
  0
POLYLINE
  8
0
 62
     0
  6
CONTINUOUS
 66
     1
 40
0.002200
 41
0.002200
  0
VERTEX
  8
0
 62
     0
  6
CONTINUOUS
 10
2.149840
 20
5.607800
  0
VERTEX
  8
0
 62
     0
  6
CONTINUOUS
 10
2.145880
 20
5.603840
  0
SEQEND
  8
0
  0
POLYLINE
  8
0
 62
     0
  6
CONTINUOUS
 66
     1
 40
0.002200
 41
0.002200
  0
VERTEX
  8
0
 62
     0
  6
CONTINUOUS
 10
2.145880
 20
5.603840
  0
VERTEX
  8
0
 62
     0
  6
CONTINUOUS
 10
2.140600
 20
5.602080
  0
SEQEND
  8
0
  0
POLYLINE
  8
0
 62
     0
  6
CONTINUOUS
 66
     1
 40
0.002200
 41
0.002200
  0
VERTEX
  8
0
 62
     0
  6
CONTINUOUS
 10
2.140600
 20
5.602080
  0
VERTEX
  8
0
 62
     0
  6
CONTINUOUS
 10
2.136640
 20
5.600320
  0
SEQEND
  8
0
  0
POLYLINE
  8
0
 62
     0
  6
CONTINUOUS
 66
     1
 40
0.002200
 41
0.002200
  0
VERTEX
  8
0
 62
     0
  6
CONTINUOUS
 10
2.136640
 20
5.600320
  0
VERTEX
  8
0
 62
     0
  6
CONTINUOUS
 10
2.133120
 20
5.602080
  0
SEQEND
  8
0
  0
POLYLINE
  8
0
 62
     0
  6
CONTINUOUS
 66
     1
 40
0.002200
 41
0.002200
  0
VERTEX
  8
0
 62
     0
  6
CONTINUOUS
 10
2.133120
 20
5.602080
  0
VERTEX
  8
0
 62
     0
  6
CONTINUOUS
 10
2.136640
 20
5.598560
  0
SEQEND
  8
0
  0
POLYLINE
  8
0
 62
     0
  6
CONTINUOUS
 66
     1
 40
0.002200
 41
0.002200
  0
VERTEX
  8
0
 62
     0
  6
CONTINUOUS
 10
2.136640
 20
5.598560
  0
VERTEX
  8
0
 62
     0
  6
CONTINUOUS
 10
2.133120
 20
5.596800
  0
SEQEND
  8
0
  0
POLYLINE
  8
0
 62
     0
  6
CONTINUOUS
 66
     1
 40
0.002200
 41
0.002200
  0
VERTEX
  8
0
 62
     0
  6
CONTINUOUS
 10
2.133120
 20
5.596800
  0
VERTEX
  8
0
 62
     0
  6
CONTINUOUS
 10
2.131360
 20
5.600320
  0
SEQEND
  8
0
  0
POLYLINE
  8
0
 62
     0
  6
CONTINUOUS
 66
     1
 40
0.002200
 41
0.002200
  0
VERTEX
  8
0
 62
     0
  6
CONTINUOUS
 10
2.131360
 20
5.600320
  0
VERTEX
  8
0
 62
     0
  6
CONTINUOUS
 10
2.129600
 20
5.600320
  0
SEQEND
  8
0
  0
POLYLINE
  8
0
 62
     0
  6
CONTINUOUS
 66
     1
 40
0.002200
 41
0.002200
  0
VERTEX
  8
0
 62
     0
  6
CONTINUOUS
 10
2.129600
 20
5.600320
  0
VERTEX
  8
0
 62
     0
  6
CONTINUOUS
 10
2.131360
 20
5.596800
  0
SEQEND
  8
0
  0
POLYLINE
  8
0
 62
     0
  6
CONTINUOUS
 66
     1
 40
0.002200
 41
0.002200
  0
VERTEX
  8
0
 62
     0
  6
CONTINUOUS
 10
2.131360
 20
5.596800
  0
VERTEX
  8
0
 62
     0
  6
CONTINUOUS
 10
2.129600
 20
5.594600
  0
SEQEND
  8
0
  0
POLYLINE
  8
0
 62
     0
  6
CONTINUOUS
 66
     1
 40
0.002200
 41
0.002200
  0
VERTEX
  8
0
 62
     0
  6
CONTINUOUS
 10
2.129600
 20
5.594600
  0
VERTEX
  8
0
 62
     0
  6
CONTINUOUS
 10
2.127400
 20
5.598560
  0
SEQEND
  8
0
  0
POLYLINE
  8
0
 62
     0
  6
CONTINUOUS
 66
     1
 40
0.002200
 41
0.002200
  0
VERTEX
  8
0
 62
     0
  6
CONTINUOUS
 10
2.127400
 20
5.598560
  0
VERTEX
  8
0
 62
     0
  6
CONTINUOUS
 10
2.123880
 20
5.598560
  0
SEQEND
  8
0
  0
POLYLINE
  8
0
 62
     0
  6
CONTINUOUS
 66
     1
 40
0.002200
 41
0.002200
  0
VERTEX
  8
0
 62
     0
  6
CONTINUOUS
 10
2.123880
 20
5.598560
  0
VERTEX
  8
0
 62
     0
  6
CONTINUOUS
 10
2.127400
 20
5.592840
  0
SEQEND
  8
0
  0
POLYLINE
  8
0
 62
     0
  6
CONTINUOUS
 66
     1
 40
0.002200
 41
0.002200
  0
VERTEX
  8
0
 62
     0
  6
CONTINUOUS
 10
2.127400
 20
5.592840
  0
VERTEX
  8
0
 62
     0
  6
CONTINUOUS
 10
2.123880
 20
5.596800
  0
SEQEND
  8
0
  0
POLYLINE
  8
0
 62
     0
  6
CONTINUOUS
 66
     1
 40
0.002200
 41
0.002200
  0
VERTEX
  8
0
 62
     0
  6
CONTINUOUS
 10
2.123880
 20
5.596800
  0
VERTEX
  8
0
 62
     0
  6
CONTINUOUS
 10
2.123880
 20
5.594600
  0
SEQEND
  8
0
  0
POLYLINE
  8
0
 62
     0
  6
CONTINUOUS
 66
     1
 40
0.002200
 41
0.002200
  0
VERTEX
  8
0
 62
     0
  6
CONTINUOUS
 10
2.123880
 20
5.594600
  0
VERTEX
  8
0
 62
     0
  6
CONTINUOUS
 10
2.127400
 20
5.592840
  0
SEQEND
  8
0
  0
POLYLINE
  8
0
 62
     0
  6
CONTINUOUS
 66
     1
 40
0.002200
 41
0.002200
  0
VERTEX
  8
0
 62
     0
  6
CONTINUOUS
 10
2.127400
 20
5.592840
  0
VERTEX
  8
0
 62
     0
  6
CONTINUOUS
 10
2.123880
 20
5.594600
  0
SEQEND
  8
0
  0
POLYLINE
  8
0
 62
     0
  6
CONTINUOUS
 66
     1
 40
0.002200
 41
0.002200
  0
VERTEX
  8
0
 62
     0
  6
CONTINUOUS
 10
2.123880
 20
5.594600
  0
VERTEX
  8
0
 62
     0
  6
CONTINUOUS
 10
2.123880
 20
5.592840
  0
SEQEND
  8
0
  0
POLYLINE
  8
0
 62
     0
  6
CONTINUOUS
 66
     1
 40
0.002200
 41
0.002200
  0
VERTEX
  8
0
 62
     0
  6
CONTINUOUS
 10
2.123880
 20
5.592840
  0
VERTEX
  8
0
 62
     0
  6
CONTINUOUS
 10
2.122120
 20
5.594600
  0
SEQEND
  8
0
  0
POLYLINE
  8
0
 62
     0
  6
CONTINUOUS
 66
     1
 40
0.002200
 41
0.002200
  0
VERTEX
  8
0
 62
     0
  6
CONTINUOUS
 10
2.122120
 20
5.594600
  0
VERTEX
  8
0
 62
     0
  6
CONTINUOUS
 10
2.123880
 20
5.591080
  0
SEQEND
  8
0
  0
POLYLINE
  8
0
 62
     0
  6
CONTINUOUS
 66
     1
 40
0.002200
 41
0.002200
  0
VERTEX
  8
0
 62
     0
  6
CONTINUOUS
 10
2.123880
 20
5.591080
  0
VERTEX
  8
0
 62
     0
  6
CONTINUOUS
 10
2.122120
 20
5.592840
  0
SEQEND
  8
0
  0
POLYLINE
  8
0
 62
     0
  6
CONTINUOUS
 66
     1
 40
0.002200
 41
0.002200
  0
VERTEX
  8
0
 62
     0
  6
CONTINUOUS
 10
2.122120
 20
5.592840
  0
VERTEX
  8
0
 62
     0
  6
CONTINUOUS
 10
2.123880
 20
5.591080
  0
SEQEND
  8
0
  0
POLYLINE
  8
0
 62
     0
  6
CONTINUOUS
 66
     1
 40
0.002200
 41
0.002200
  0
VERTEX
  8
0
 62
     0
  6
CONTINUOUS
 10
2.123880
 20
5.591080
  0
VERTEX
  8
0
 62
     0
  6
CONTINUOUS
 10
2.122120
 20
5.591080
  0
SEQEND
  8
0
  0
POLYLINE
  8
0
 62
     0
  6
CONTINUOUS
 66
     1
 40
0.002200
 41
0.002200
  0
VERTEX
  8
0
 62
     0
  6
CONTINUOUS
 10
2.122120
 20
5.591080
  0
VERTEX
  8
0
 62
     0
  6
CONTINUOUS
 10
2.120360
 20
5.592840
  0
SEQEND
  8
0
  0
POLYLINE
  8
0
 62
     0
  6
CONTINUOUS
 66
     1
 40
0.002200
 41
0.002200
  0
VERTEX
  8
0
 62
     0
  6
CONTINUOUS
 10
2.120360
 20
5.592840
  0
VERTEX
  8
0
 62
     0
  6
CONTINUOUS
 10
2.120360
 20
5.589320
  0
SEQEND
  8
0
  0
POLYLINE
  8
0
 62
     0
  6
CONTINUOUS
 66
     1
 40
0.002200
 41
0.002200
  0
VERTEX
  8
0
 62
     0
  6
CONTINUOUS
 10
2.120360
 20
5.589320
  0
VERTEX
  8
0
 62
     0
  6
CONTINUOUS
 10
2.118160
 20
5.591080
  0
SEQEND
  8
0
  0
POLYLINE
  8
0
 62
     0
  6
CONTINUOUS
 66
     1
 40
0.002200
 41
0.002200
  0
VERTEX
  8
0
 62
     0
  6
CONTINUOUS
 10
2.118160
 20
5.591080
  0
VERTEX
  8
0
 62
     0
  6
CONTINUOUS
 10
2.116400
 20
5.591080
  0
SEQEND
  8
0
  0
POLYLINE
  8
0
 62
     0
  6
CONTINUOUS
 66
     1
 40
0.002200
 41
0.002200
  0
VERTEX
  8
0
 62
     0
  6
CONTINUOUS
 10
2.116400
 20
5.591080
  0
VERTEX
  8
0
 62
     0
  6
CONTINUOUS
 10
2.116400
 20
5.589320
  0
SEQEND
  8
0
  0
POLYLINE
  8
0
 62
     0
  6
CONTINUOUS
 66
     1
 40
0.002200
 41
0.002200
  0
VERTEX
  8
0
 62
     0
  6
CONTINUOUS
 10
2.116400
 20
5.589320
  0
VERTEX
  8
0
 62
     0
  6
CONTINUOUS
 10
2.114640
 20
5.585360
  0
SEQEND
  8
0
  0
POLYLINE
  8
0
 62
     0
  6
CONTINUOUS
 66
     1
 40
0.002200
 41
0.002200
  0
VERTEX
  8
0
 62
     0
  6
CONTINUOUS
 10
2.114640
 20
5.585360
  0
VERTEX
  8
0
 62
     0
  6
CONTINUOUS
 10
2.112880
 20
5.589320
  0
SEQEND
  8
0
  0
POLYLINE
  8
0
 62
     0
  6
CONTINUOUS
 66
     1
 40
0.002200
 41
0.002200
  0
VERTEX
  8
0
 62
     0
  6
CONTINUOUS
 10
2.112880
 20
5.589320
  0
VERTEX
  8
0
 62
     0
  6
CONTINUOUS
 10
2.111120
 20
5.589320
  0
SEQEND
  8
0
  0
POLYLINE
  8
0
 62
     0
  6
CONTINUOUS
 66
     1
 40
0.002200
 41
0.002200
  0
VERTEX
  8
0
 62
     0
  6
CONTINUOUS
 10
2.111120
 20
5.589320
  0
VERTEX
  8
0
 62
     0
  6
CONTINUOUS
 10
2.111120
 20
5.585360
  0
SEQEND
  8
0
  0
POLYLINE
  8
0
 62
     0
  6
CONTINUOUS
 66
     1
 40
0.002200
 41
0.002200
  0
VERTEX
  8
0
 62
     0
  6
CONTINUOUS
 10
2.111120
 20
5.585360
  0
VERTEX
  8
0
 62
     0
  6
CONTINUOUS
 10
2.108920
 20
5.581840
  0
SEQEND
  8
0
  0
POLYLINE
  8
0
 62
     0
  6
CONTINUOUS
 66
     1
 40
0.002200
 41
0.002200
  0
VERTEX
  8
0
 62
     0
  6
CONTINUOUS
 10
2.108920
 20
5.581840
  0
VERTEX
  8
0
 62
     0
  6
CONTINUOUS
 10
2.105400
 20
5.580080
  0
SEQEND
  8
0
  0
POLYLINE
  8
0
 62
     0
  6
CONTINUOUS
 66
     1
 40
0.002200
 41
0.002200
  0
VERTEX
  8
0
 62
     0
  6
CONTINUOUS
 10
2.105400
 20
5.580080
  0
VERTEX
  8
0
 62
     0
  6
CONTINUOUS
 10
2.101880
 20
5.576120
  0
SEQEND
  8
0
  0
POLYLINE
  8
0
 62
     0
  6
CONTINUOUS
 66
     1
 40
0.002200
 41
0.002200
  0
VERTEX
  8
0
 62
     0
  6
CONTINUOUS
 10
2.101880
 20
5.576120
  0
VERTEX
  8
0
 62
     0
  6
CONTINUOUS
 10
2.099680
 20
5.574360
  0
SEQEND
  8
0
  0
POLYLINE
  8
0
 62
     0
  6
CONTINUOUS
 66
     1
 40
0.002200
 41
0.002200
  0
VERTEX
  8
0
 62
     0
  6
CONTINUOUS
 10
2.099680
 20
5.574360
  0
VERTEX
  8
0
 62
     0
  6
CONTINUOUS
 10
2.097920
 20
5.566880
  0
SEQEND
  8
0
  0
POLYLINE
  8
0
 62
     0
  6
CONTINUOUS
 66
     1
 40
0.002200
 41
0.002200
  0
VERTEX
  8
0
 62
     0
  6
CONTINUOUS
 10
2.097920
 20
5.566880
  0
VERTEX
  8
0
 62
     0
  6
CONTINUOUS
 10
2.096160
 20
5.563360
  0
SEQEND
  8
0
  0
POLYLINE
  8
0
 62
     0
  6
CONTINUOUS
 66
     1
 40
0.002200
 41
0.002200
  0
VERTEX
  8
0
 62
     0
  6
CONTINUOUS
 10
2.096160
 20
5.563360
  0
VERTEX
  8
0
 62
     0
  6
CONTINUOUS
 10
2.094400
 20
5.559400
  0
SEQEND
  8
0
  0
POLYLINE
  8
0
 62
     0
  6
CONTINUOUS
 66
     1
 40
0.002200
 41
0.002200
  0
VERTEX
  8
0
 62
     0
  6
CONTINUOUS
 10
2.094400
 20
5.559400
  0
VERTEX
  8
0
 62
     0
  6
CONTINUOUS
 10
2.094400
 20
5.554120
  0
SEQEND
  8
0
  0
POLYLINE
  8
0
 62
     0
  6
CONTINUOUS
 66
     1
 40
0.002200
 41
0.002200
  0
VERTEX
  8
0
 62
     0
  6
CONTINUOUS
 10
2.094400
 20
5.554120
  0
VERTEX
  8
0
 62
     0
  6
CONTINUOUS
 10
2.094400
 20
5.548400
  0
SEQEND
  8
0
  0
POLYLINE
  8
0
 62
     0
  6
CONTINUOUS
 66
     1
 40
0.002200
 41
0.002200
  0
VERTEX
  8
0
 62
     0
  6
CONTINUOUS
 10
2.094400
 20
5.548400
  0
VERTEX
  8
0
 62
     0
  6
CONTINUOUS
 10
2.092200
 20
5.544880
  0
SEQEND
  8
0
  0
POLYLINE
  8
0
 62
     0
  6
CONTINUOUS
 66
     1
 40
0.002200
 41
0.002200
  0
VERTEX
  8
0
 62
     0
  6
CONTINUOUS
 10
2.092200
 20
5.544880
  0
VERTEX
  8
0
 62
     0
  6
CONTINUOUS
 10
2.092200
 20
5.539160
  0
SEQEND
  8
0
  0
POLYLINE
  8
0
 62
     0
  6
CONTINUOUS
 66
     1
 40
0.002200
 41
0.002200
  0
VERTEX
  8
0
 62
     0
  6
CONTINUOUS
 10
2.092200
 20
5.539160
  0
VERTEX
  8
0
 62
     0
  6
CONTINUOUS
 10
2.094400
 20
5.535640
  0
SEQEND
  8
0
  0
POLYLINE
  8
0
 62
     0
  6
CONTINUOUS
 66
     1
 40
0.002200
 41
0.002200
  0
VERTEX
  8
0
 62
     0
  6
CONTINUOUS
 10
2.094400
 20
5.535640
  0
VERTEX
  8
0
 62
     0
  6
CONTINUOUS
 10
2.094400
 20
5.529920
  0
SEQEND
  8
0
  0
POLYLINE
  8
0
 62
     0
  6
CONTINUOUS
 66
     1
 40
0.002200
 41
0.002200
  0
VERTEX
  8
0
 62
     0
  6
CONTINUOUS
 10
2.094400
 20
5.529920
  0
VERTEX
  8
0
 62
     0
  6
CONTINUOUS
 10
2.092200
 20
5.529920
  0
SEQEND
  8
0
  0
POLYLINE
  8
0
 62
     0
  6
CONTINUOUS
 66
     1
 40
0.002200
 41
0.002200
  0
VERTEX
  8
0
 62
     0
  6
CONTINUOUS
 10
2.092200
 20
5.529920
  0
VERTEX
  8
0
 62
     0
  6
CONTINUOUS
 10
2.094400
 20
5.526400
  0
SEQEND
  8
0
  0
POLYLINE
  8
0
 62
     0
  6
CONTINUOUS
 66
     1
 40
0.002200
 41
0.002200
  0
VERTEX
  8
0
 62
     0
  6
CONTINUOUS
 10
2.094400
 20
5.526400
  0
VERTEX
  8
0
 62
     0
  6
CONTINUOUS
 10
2.096160
 20
5.528160
  0
SEQEND
  8
0
  0
POLYLINE
  8
0
 62
     0
  6
CONTINUOUS
 66
     1
 40
0.002200
 41
0.002200
  0
VERTEX
  8
0
 62
     0
  6
CONTINUOUS
 10
2.096160
 20
5.528160
  0
VERTEX
  8
0
 62
     0
  6
CONTINUOUS
 10
2.097920
 20
5.526400
  0
SEQEND
  8
0
  0
POLYLINE
  8
0
 62
     0
  6
CONTINUOUS
 66
     1
 40
0.002200
 41
0.002200
  0
VERTEX
  8
0
 62
     0
  6
CONTINUOUS
 10
2.097920
 20
5.526400
  0
VERTEX
  8
0
 62
     0
  6
CONTINUOUS
 10
2.094400
 20
5.522440
  0
SEQEND
  8
0
  0
POLYLINE
  8
0
 62
     0
  6
CONTINUOUS
 66
     1
 40
0.002200
 41
0.002200
  0
VERTEX
  8
0
 62
     0
  6
CONTINUOUS
 10
2.094400
 20
5.522440
  0
VERTEX
  8
0
 62
     0
  6
CONTINUOUS
 10
2.096160
 20
5.520680
  0
SEQEND
  8
0
  0
POLYLINE
  8
0
 62
     0
  6
CONTINUOUS
 66
     1
 40
0.002200
 41
0.002200
  0
VERTEX
  8
0
 62
     0
  6
CONTINUOUS
 10
2.096160
 20
5.520680
  0
VERTEX
  8
0
 62
     0
  6
CONTINUOUS
 10
2.099680
 20
5.522440
  0
SEQEND
  8
0
  0
POLYLINE
  8
0
 62
     0
  6
CONTINUOUS
 66
     1
 40
0.002200
 41
0.002200
  0
VERTEX
  8
0
 62
     0
  6
CONTINUOUS
 10
2.099680
 20
5.522440
  0
VERTEX
  8
0
 62
     0
  6
CONTINUOUS
 10
2.101880
 20
5.522440
  0
SEQEND
  8
0
  0
POLYLINE
  8
0
 62
     0
  6
CONTINUOUS
 66
     1
 40
0.002200
 41
0.002200
  0
VERTEX
  8
0
 62
     0
  6
CONTINUOUS
 10
2.101880
 20
5.522440
  0
VERTEX
  8
0
 62
     0
  6
CONTINUOUS
 10
2.099680
 20
5.518920
  0
SEQEND
  8
0
  0
POLYLINE
  8
0
 62
     0
  6
CONTINUOUS
 66
     1
 40
0.002200
 41
0.002200
  0
VERTEX
  8
0
 62
     0
  6
CONTINUOUS
 10
2.099680
 20
5.518920
  0
VERTEX
  8
0
 62
     0
  6
CONTINUOUS
 10
2.101880
 20
5.517160
  0
SEQEND
  8
0
  0
POLYLINE
  8
0
 62
     0
  6
CONTINUOUS
 66
     1
 40
0.002200
 41
0.002200
  0
VERTEX
  8
0
 62
     0
  6
CONTINUOUS
 10
2.101880
 20
5.517160
  0
VERTEX
  8
0
 62
     0
  6
CONTINUOUS
 10
2.105400
 20
5.518920
  0
SEQEND
  8
0
  0
POLYLINE
  8
0
 62
     0
  6
CONTINUOUS
 66
     1
 40
0.002200
 41
0.002200
  0
VERTEX
  8
0
 62
     0
  6
CONTINUOUS
 10
2.105400
 20
5.518920
  0
VERTEX
  8
0
 62
     0
  6
CONTINUOUS
 10
2.108920
 20
5.515400
  0
SEQEND
  8
0
  0
POLYLINE
  8
0
 62
     0
  6
CONTINUOUS
 66
     1
 40
0.002200
 41
0.002200
  0
VERTEX
  8
0
 62
     0
  6
CONTINUOUS
 10
2.108920
 20
5.515400
  0
VERTEX
  8
0
 62
     0
  6
CONTINUOUS
 10
2.111120
 20
5.513200
  0
SEQEND
  8
0
  0
POLYLINE
  8
0
 62
     0
  6
CONTINUOUS
 66
     1
 40
0.002200
 41
0.002200
  0
VERTEX
  8
0
 62
     0
  6
CONTINUOUS
 10
2.111120
 20
5.513200
  0
VERTEX
  8
0
 62
     0
  6
CONTINUOUS
 10
2.116400
 20
5.511440
  0
SEQEND
  8
0
  0
POLYLINE
  8
0
 62
     0
  6
CONTINUOUS
 66
     1
 40
0.002200
 41
0.002200
  0
VERTEX
  8
0
 62
     0
  6
CONTINUOUS
 10
2.116400
 20
5.511440
  0
VERTEX
  8
0
 62
     0
  6
CONTINUOUS
 10
2.120360
 20
5.511440
  0
SEQEND
  8
0
  0
POLYLINE
  8
0
 62
     0
  6
CONTINUOUS
 66
     1
 40
0.002200
 41
0.002200
  0
VERTEX
  8
0
 62
     0
  6
CONTINUOUS
 10
2.120360
 20
5.511440
  0
VERTEX
  8
0
 62
     0
  6
CONTINUOUS
 10
2.123880
 20
5.507920
  0
SEQEND
  8
0
  0
POLYLINE
  8
0
 62
     0
  6
CONTINUOUS
 66
     1
 40
0.002200
 41
0.002200
  0
VERTEX
  8
0
 62
     0
  6
CONTINUOUS
 10
2.123880
 20
5.507920
  0
VERTEX
  8
0
 62
     0
  6
CONTINUOUS
 10
2.127400
 20
5.507920
  0
SEQEND
  8
0
  0
POLYLINE
  8
0
 62
     0
  6
CONTINUOUS
 66
     1
 40
0.002200
 41
0.002200
  0
VERTEX
  8
0
 62
     0
  6
CONTINUOUS
 10
2.127400
 20
5.507920
  0
VERTEX
  8
0
 62
     0
  6
CONTINUOUS
 10
2.131360
 20
5.506160
  0
SEQEND
  8
0
  0
POLYLINE
  8
0
 62
     0
  6
CONTINUOUS
 66
     1
 40
0.002200
 41
0.002200
  0
VERTEX
  8
0
 62
     0
  6
CONTINUOUS
 10
2.131360
 20
5.506160
  0
VERTEX
  8
0
 62
     0
  6
CONTINUOUS
 10
2.136640
 20
5.503960
  0
SEQEND
  8
0
  0
POLYLINE
  8
0
 62
     0
  6
CONTINUOUS
 66
     1
 40
0.002200
 41
0.002200
  0
VERTEX
  8
0
 62
     0
  6
CONTINUOUS
 10
2.136640
 20
5.503960
  0
VERTEX
  8
0
 62
     0
  6
CONTINUOUS
 10
2.136640
 20
5.502200
  0
SEQEND
  8
0
  0
POLYLINE
  8
0
 62
     0
  6
CONTINUOUS
 66
     1
 40
0.002200
 41
0.002200
  0
VERTEX
  8
0
 62
     0
  6
CONTINUOUS
 10
2.136640
 20
5.502200
  0
VERTEX
  8
0
 62
     0
  6
CONTINUOUS
 10
2.138840
 20
5.506160
  0
SEQEND
  8
0
  0
POLYLINE
  8
0
 62
     0
  6
CONTINUOUS
 66
     1
 40
0.002200
 41
0.002200
  0
VERTEX
  8
0
 62
     0
  6
CONTINUOUS
 10
2.138840
 20
5.506160
  0
VERTEX
  8
0
 62
     0
  6
CONTINUOUS
 10
2.140600
 20
5.503960
  0
SEQEND
  8
0
  0
POLYLINE
  8
0
 62
     0
  6
CONTINUOUS
 66
     1
 40
0.002200
 41
0.002200
  0
VERTEX
  8
0
 62
     0
  6
CONTINUOUS
 10
2.140600
 20
5.503960
  0
VERTEX
  8
0
 62
     0
  6
CONTINUOUS
 10
2.140600
 20
5.500440
  0
SEQEND
  8
0
  0
POLYLINE
  8
0
 62
     0
  6
CONTINUOUS
 66
     1
 40
0.002200
 41
0.002200
  0
VERTEX
  8
0
 62
     0
  6
CONTINUOUS
 10
2.140600
 20
5.500440
  0
VERTEX
  8
0
 62
     0
  6
CONTINUOUS
 10
2.144120
 20
5.500440
  0
SEQEND
  8
0
  0
POLYLINE
  8
0
 62
     0
  6
CONTINUOUS
 66
     1
 40
0.002200
 41
0.002200
  0
VERTEX
  8
0
 62
     0
  6
CONTINUOUS
 10
2.144120
 20
5.500440
  0
VERTEX
  8
0
 62
     0
  6
CONTINUOUS
 10
2.144120
 20
5.503960
  0
SEQEND
  8
0
  0
POLYLINE
  8
0
 62
     0
  6
CONTINUOUS
 66
     1
 40
0.002200
 41
0.002200
  0
VERTEX
  8
0
 62
     0
  6
CONTINUOUS
 10
2.144120
 20
5.503960
  0
VERTEX
  8
0
 62
     0
  6
CONTINUOUS
 10
2.145880
 20
5.503960
  0
SEQEND
  8
0
  0
POLYLINE
  8
0
 62
     0
  6
CONTINUOUS
 66
     1
 40
0.002200
 41
0.002200
  0
VERTEX
  8
0
 62
     0
  6
CONTINUOUS
 10
2.145880
 20
5.503960
  0
VERTEX
  8
0
 62
     0
  6
CONTINUOUS
 10
2.145880
 20
5.500440
  0
SEQEND
  8
0
  0
POLYLINE
  8
0
 62
     0
  6
CONTINUOUS
 66
     1
 40
0.002200
 41
0.002200
  0
VERTEX
  8
0
 62
     0
  6
CONTINUOUS
 10
2.145880
 20
5.500440
  0
VERTEX
  8
0
 62
     0
  6
CONTINUOUS
 10
2.148080
 20
5.500440
  0
SEQEND
  8
0
  0
POLYLINE
  8
0
 62
     0
  6
CONTINUOUS
 66
     1
 40
0.002200
 41
0.002200
  0
VERTEX
  8
0
 62
     0
  6
CONTINUOUS
 10
2.148080
 20
5.500440
  0
VERTEX
  8
0
 62
     0
  6
CONTINUOUS
 10
2.148080
 20
5.503960
  0
SEQEND
  8
0
  0
POLYLINE
  8
0
 62
     0
  6
CONTINUOUS
 66
     1
 40
0.002200
 41
0.002200
  0
VERTEX
  8
0
 62
     0
  6
CONTINUOUS
 10
2.148080
 20
5.503960
  0
VERTEX
  8
0
 62
     0
  6
CONTINUOUS
 10
2.149840
 20
5.503960
  0
SEQEND
  8
0
  0
POLYLINE
  8
0
 62
     0
  6
CONTINUOUS
 66
     1
 40
0.002200
 41
0.002200
  0
VERTEX
  8
0
 62
     0
  6
CONTINUOUS
 10
2.149840
 20
5.503960
  0
VERTEX
  8
0
 62
     0
  6
CONTINUOUS
 10
2.148080
 20
5.500440
  0
SEQEND
  8
0
  0
POLYLINE
  8
0
 62
     0
  6
CONTINUOUS
 66
     1
 40
0.002200
 41
0.002200
  0
VERTEX
  8
0
 62
     0
  6
CONTINUOUS
 10
2.148080
 20
5.500440
  0
VERTEX
  8
0
 62
     0
  6
CONTINUOUS
 10
2.149840
 20
5.500440
  0
SEQEND
  8
0
  0
POLYLINE
  8
0
 62
     0
  6
CONTINUOUS
 66
     1
 40
0.002200
 41
0.002200
  0
VERTEX
  8
0
 62
     0
  6
CONTINUOUS
 10
2.149840
 20
5.500440
  0
VERTEX
  8
0
 62
     0
  6
CONTINUOUS
 10
2.149840
 20
5.502200
  0
SEQEND
  8
0
  0
POLYLINE
  8
0
 62
     0
  6
CONTINUOUS
 66
     1
 40
0.002200
 41
0.002200
  0
VERTEX
  8
0
 62
     0
  6
CONTINUOUS
 10
2.149840
 20
5.502200
  0
VERTEX
  8
0
 62
     0
  6
CONTINUOUS
 10
2.153360
 20
5.502200
  0
SEQEND
  8
0
  0
POLYLINE
  8
0
 62
     0
  6
CONTINUOUS
 66
     1
 40
0.002200
 41
0.002200
  0
VERTEX
  8
0
 62
     0
  6
CONTINUOUS
 10
2.153360
 20
5.502200
  0
VERTEX
  8
0
 62
     0
  6
CONTINUOUS
 10
2.153360
 20
5.500440
  0
SEQEND
  8
0
  0
POLYLINE
  8
0
 62
     0
  6
CONTINUOUS
 66
     1
 40
0.002200
 41
0.002200
  0
VERTEX
  8
0
 62
     0
  6
CONTINUOUS
 10
2.153360
 20
5.500440
  0
VERTEX
  8
0
 62
     0
  6
CONTINUOUS
 10
2.155120
 20
5.502200
  0
SEQEND
  8
0
  0
POLYLINE
  8
0
 62
     0
  6
CONTINUOUS
 66
     1
 40
0.002200
 41
0.002200
  0
VERTEX
  8
0
 62
     0
  6
CONTINUOUS
 10
2.155120
 20
5.502200
  0
VERTEX
  8
0
 62
     0
  6
CONTINUOUS
 10
2.155120
 20
5.500440
  0
SEQEND
  8
0
  0
POLYLINE
  8
0
 62
     0
  6
CONTINUOUS
 66
     1
 40
0.002200
 41
0.002200
  0
VERTEX
  8
0
 62
     0
  6
CONTINUOUS
 10
2.155120
 20
5.500440
  0
VERTEX
  8
0
 62
     0
  6
CONTINUOUS
 10
2.155120
 20
5.496480
  0
SEQEND
  8
0
  0
POLYLINE
  8
0
 62
     0
  6
CONTINUOUS
 66
     1
 40
0.002200
 41
0.002200
  0
VERTEX
  8
0
 62
     0
  6
CONTINUOUS
 10
2.155120
 20
5.496480
  0
VERTEX
  8
0
 62
     0
  6
CONTINUOUS
 10
2.157320
 20
5.500440
  0
SEQEND
  8
0
  0
POLYLINE
  8
0
 62
     0
  6
CONTINUOUS
 66
     1
 40
0.002200
 41
0.002200
  0
VERTEX
  8
0
 62
     0
  6
CONTINUOUS
 10
2.157320
 20
5.500440
  0
VERTEX
  8
0
 62
     0
  6
CONTINUOUS
 10
2.159080
 20
5.500440
  0
SEQEND
  8
0
  0
POLYLINE
  8
0
 62
     0
  6
CONTINUOUS
 66
     1
 40
0.002200
 41
0.002200
  0
VERTEX
  8
0
 62
     0
  6
CONTINUOUS
 10
2.159080
 20
5.500440
  0
VERTEX
  8
0
 62
     0
  6
CONTINUOUS
 10
2.159080
 20
5.496480
  0
SEQEND
  8
0
  0
POLYLINE
  8
0
 62
     0
  6
CONTINUOUS
 66
     1
 40
0.002200
 41
0.002200
  0
VERTEX
  8
0
 62
     0
  6
CONTINUOUS
 10
2.159080
 20
5.496480
  0
VERTEX
  8
0
 62
     0
  6
CONTINUOUS
 10
2.162600
 20
5.496480
  0
SEQEND
  8
0
  0
POLYLINE
  8
0
 62
     0
  6
CONTINUOUS
 66
     1
 40
0.002200
 41
0.002200
  0
VERTEX
  8
0
 62
     0
  6
CONTINUOUS
 10
2.162600
 20
5.496480
  0
VERTEX
  8
0
 62
     0
  6
CONTINUOUS
 10
2.162600
 20
5.500440
  0
SEQEND
  8
0
  0
POLYLINE
  8
0
 62
     0
  6
CONTINUOUS
 66
     1
 40
0.002200
 41
0.002200
  0
VERTEX
  8
0
 62
     0
  6
CONTINUOUS
 10
2.162600
 20
5.500440
  0
VERTEX
  8
0
 62
     0
  6
CONTINUOUS
 10
2.164360
 20
5.500440
  0
SEQEND
  8
0
  0
POLYLINE
  8
0
 62
     0
  6
CONTINUOUS
 66
     1
 40
0.002200
 41
0.002200
  0
VERTEX
  8
0
 62
     0
  6
CONTINUOUS
 10
2.164360
 20
5.500440
  0
VERTEX
  8
0
 62
     0
  6
CONTINUOUS
 10
2.164360
 20
5.496480
  0
SEQEND
  8
0
  0
POLYLINE
  8
0
 62
     0
  6
CONTINUOUS
 66
     1
 40
0.002200
 41
0.002200
  0
VERTEX
  8
0
 62
     0
  6
CONTINUOUS
 10
2.164360
 20
5.496480
  0
VERTEX
  8
0
 62
     0
  6
CONTINUOUS
 10
2.166560
 20
5.494720
  0
SEQEND
  8
0
  0
POLYLINE
  8
0
 62
     0
  6
CONTINUOUS
 66
     1
 40
0.002200
 41
0.002200
  0
VERTEX
  8
0
 62
     0
  6
CONTINUOUS
 10
2.166560
 20
5.494720
  0
VERTEX
  8
0
 62
     0
  6
CONTINUOUS
 10
2.166560
 20
5.500440
  0
SEQEND
  8
0
  0
POLYLINE
  8
0
 62
     0
  6
CONTINUOUS
 66
     1
 40
0.002200
 41
0.002200
  0
VERTEX
  8
0
 62
     0
  6
CONTINUOUS
 10
2.166560
 20
5.500440
  0
VERTEX
  8
0
 62
     0
  6
CONTINUOUS
 10
2.168320
 20
5.496480
  0
SEQEND
  8
0
  0
POLYLINE
  8
0
 62
     0
  6
CONTINUOUS
 66
     1
 40
0.002200
 41
0.002200
  0
VERTEX
  8
0
 62
     0
  6
CONTINUOUS
 10
2.168320
 20
5.496480
  0
VERTEX
  8
0
 62
     0
  6
CONTINUOUS
 10
2.168320
 20
5.494720
  0
SEQEND
  8
0
  0
POLYLINE
  8
0
 62
     0
  6
CONTINUOUS
 66
     1
 40
0.002200
 41
0.002200
  0
VERTEX
  8
0
 62
     0
  6
CONTINUOUS
 10
2.168320
 20
5.494720
  0
VERTEX
  8
0
 62
     0
  6
CONTINUOUS
 10
2.171840
 20
5.492960
  0
SEQEND
  8
0
  0
POLYLINE
  8
0
 62
     0
  6
CONTINUOUS
 66
     1
 40
0.002200
 41
0.002200
  0
VERTEX
  8
0
 62
     0
  6
CONTINUOUS
 10
2.171840
 20
5.492960
  0
VERTEX
  8
0
 62
     0
  6
CONTINUOUS
 10
2.171840
 20
5.496480
  0
SEQEND
  8
0
  0
POLYLINE
  8
0
 62
     0
  6
CONTINUOUS
 66
     1
 40
0.002200
 41
0.002200
  0
VERTEX
  8
0
 62
     0
  6
CONTINUOUS
 10
2.171840
 20
5.496480
  0
VERTEX
  8
0
 62
     0
  6
CONTINUOUS
 10
2.173600
 20
5.496480
  0
SEQEND
  8
0
  0
POLYLINE
  8
0
 62
     0
  6
CONTINUOUS
 66
     1
 40
0.002200
 41
0.002200
  0
VERTEX
  8
0
 62
     0
  6
CONTINUOUS
 10
2.173600
 20
5.496480
  0
VERTEX
  8
0
 62
     0
  6
CONTINUOUS
 10
2.173600
 20
5.492960
  0
SEQEND
  8
0
  0
POLYLINE
  8
0
 62
     0
  6
CONTINUOUS
 66
     1
 40
0.002200
 41
0.002200
  0
VERTEX
  8
0
 62
     0
  6
CONTINUOUS
 10
2.173600
 20
5.492960
  0
VERTEX
  8
0
 62
     0
  6
CONTINUOUS
 10
2.175800
 20
5.492960
  0
SEQEND
  8
0
  0
POLYLINE
  8
0
 62
     0
  6
CONTINUOUS
 66
     1
 40
0.002200
 41
0.002200
  0
VERTEX
  8
0
 62
     0
  6
CONTINUOUS
 10
2.175800
 20
5.492960
  0
VERTEX
  8
0
 62
     0
  6
CONTINUOUS
 10
2.175800
 20
5.496480
  0
SEQEND
  8
0
  0
POLYLINE
  8
0
 62
     0
  6
CONTINUOUS
 66
     1
 40
0.002200
 41
0.002200
  0
VERTEX
  8
0
 62
     0
  6
CONTINUOUS
 10
2.175800
 20
5.496480
  0
VERTEX
  8
0
 62
     0
  6
CONTINUOUS
 10
2.177560
 20
5.496480
  0
SEQEND
  8
0
  0
POLYLINE
  8
0
 62
     0
  6
CONTINUOUS
 66
     1
 40
0.002200
 41
0.002200
  0
VERTEX
  8
0
 62
     0
  6
CONTINUOUS
 10
2.177560
 20
5.496480
  0
VERTEX
  8
0
 62
     0
  6
CONTINUOUS
 10
2.177560
 20
5.492960
  0
SEQEND
  8
0
  0
POLYLINE
  8
0
 62
     0
  6
CONTINUOUS
 66
     1
 40
0.002200
 41
0.002200
  0
VERTEX
  8
0
 62
     0
  6
CONTINUOUS
 10
2.177560
 20
5.492960
  0
VERTEX
  8
0
 62
     0
  6
CONTINUOUS
 10
2.179320
 20
5.492960
  0
SEQEND
  8
0
  0
POLYLINE
  8
0
 62
     0
  6
CONTINUOUS
 66
     1
 40
0.002200
 41
0.002200
  0
VERTEX
  8
0
 62
     0
  6
CONTINUOUS
 10
2.179320
 20
5.492960
  0
VERTEX
  8
0
 62
     0
  6
CONTINUOUS
 10
2.179320
 20
5.496480
  0
SEQEND
  8
0
  0
POLYLINE
  8
0
 62
     0
  6
CONTINUOUS
 66
     1
 40
0.002200
 41
0.002200
  0
VERTEX
  8
0
 62
     0
  6
CONTINUOUS
 10
2.179320
 20
5.496480
  0
VERTEX
  8
0
 62
     0
  6
CONTINUOUS
 10
2.181080
 20
5.494720
  0
SEQEND
  8
0
  0
POLYLINE
  8
0
 62
     0
  6
CONTINUOUS
 66
     1
 40
0.002200
 41
0.002200
  0
VERTEX
  8
0
 62
     0
  6
CONTINUOUS
 10
2.181080
 20
5.494720
  0
VERTEX
  8
0
 62
     0
  6
CONTINUOUS
 10
2.181080
 20
5.491200
  0
SEQEND
  8
0
  0
POLYLINE
  8
0
 62
     0
  6
CONTINUOUS
 66
     1
 40
0.002200
 41
0.002200
  0
VERTEX
  8
0
 62
     0
  6
CONTINUOUS
 10
2.181080
 20
5.491200
  0
VERTEX
  8
0
 62
     0
  6
CONTINUOUS
 10
2.185040
 20
5.492960
  0
SEQEND
  8
0
  0
POLYLINE
  8
0
 62
     0
  6
CONTINUOUS
 66
     1
 40
0.002200
 41
0.002200
  0
VERTEX
  8
0
 62
     0
  6
CONTINUOUS
 10
2.185040
 20
5.492960
  0
VERTEX
  8
0
 62
     0
  6
CONTINUOUS
 10
2.186800
 20
5.492960
  0
SEQEND
  8
0
  0
POLYLINE
  8
0
 62
     0
  6
CONTINUOUS
 66
     1
 40
0.002200
 41
0.002200
  0
VERTEX
  8
0
 62
     0
  6
CONTINUOUS
 10
2.186800
 20
5.492960
  0
VERTEX
  8
0
 62
     0
  6
CONTINUOUS
 10
2.185040
 20
5.489440
  0
SEQEND
  8
0
  0
POLYLINE
  8
0
 62
     0
  6
CONTINUOUS
 66
     1
 40
0.002200
 41
0.002200
  0
VERTEX
  8
0
 62
     0
  6
CONTINUOUS
 10
2.185040
 20
5.489440
  0
VERTEX
  8
0
 62
     0
  6
CONTINUOUS
 10
2.186800
 20
5.487680
  0
SEQEND
  8
0
  0
POLYLINE
  8
0
 62
     0
  6
CONTINUOUS
 66
     1
 40
0.002200
 41
0.002200
  0
VERTEX
  8
0
 62
     0
  6
CONTINUOUS
 10
2.186800
 20
5.487680
  0
VERTEX
  8
0
 62
     0
  6
CONTINUOUS
 10
2.190320
 20
5.491200
  0
SEQEND
  8
0
  0
POLYLINE
  8
0
 62
     0
  6
CONTINUOUS
 66
     1
 40
0.002200
 41
0.002200
  0
VERTEX
  8
0
 62
     0
  6
CONTINUOUS
 10
2.190320
 20
5.491200
  0
VERTEX
  8
0
 62
     0
  6
CONTINUOUS
 10
2.190320
 20
5.485480
  0
SEQEND
  8
0
  0
POLYLINE
  8
0
 62
     0
  6
CONTINUOUS
 66
     1
 40
0.002200
 41
0.002200
  0
VERTEX
  8
0
 62
     0
  6
CONTINUOUS
 10
2.190320
 20
5.485480
  0
VERTEX
  8
0
 62
     0
  6
CONTINUOUS
 10
2.190320
 20
5.487680
  0
SEQEND
  8
0
  0
POLYLINE
  8
0
 62
     0
  6
CONTINUOUS
 66
     1
 40
0.002200
 41
0.002200
  0
VERTEX
  8
0
 62
     0
  6
CONTINUOUS
 10
2.190320
 20
5.487680
  0
VERTEX
  8
0
 62
     0
  6
CONTINUOUS
 10
2.190320
 20
5.485480
  0
SEQEND
  8
0
  0
POLYLINE
  8
0
 62
     0
  6
CONTINUOUS
 66
     1
 40
0.002200
 41
0.002200
  0
VERTEX
  8
0
 62
     0
  6
CONTINUOUS
 10
2.190320
 20
5.485480
  0
VERTEX
  8
0
 62
     0
  6
CONTINUOUS
 10
2.194280
 20
5.483720
  0
SEQEND
  8
0
  0
POLYLINE
  8
0
 62
     0
  6
CONTINUOUS
 66
     1
 40
0.002200
 41
0.002200
  0
VERTEX
  8
0
 62
     0
  6
CONTINUOUS
 10
2.194280
 20
5.483720
  0
VERTEX
  8
0
 62
     0
  6
CONTINUOUS
 10
2.197800
 20
5.478000
  0
SEQEND
  8
0
  0
POLYLINE
  8
0
 62
     0
  6
CONTINUOUS
 66
     1
 40
0.002200
 41
0.002200
  0
VERTEX
  8
0
 62
     0
  6
CONTINUOUS
 10
2.197800
 20
5.478000
  0
VERTEX
  8
0
 62
     0
  6
CONTINUOUS
 10
2.197800
 20
5.476240
  0
SEQEND
  8
0
  0
POLYLINE
  8
0
 62
     0
  6
CONTINUOUS
 66
     1
 40
0.002200
 41
0.002200
  0
VERTEX
  8
0
 62
     0
  6
CONTINUOUS
 10
2.197800
 20
5.476240
  0
VERTEX
  8
0
 62
     0
  6
CONTINUOUS
 10
2.199560
 20
5.472720
  0
SEQEND
  8
0
  0
POLYLINE
  8
0
 62
     0
  6
CONTINUOUS
 66
     1
 40
0.002200
 41
0.002200
  0
VERTEX
  8
0
 62
     0
  6
CONTINUOUS
 10
2.199560
 20
5.472720
  0
VERTEX
  8
0
 62
     0
  6
CONTINUOUS
 10
2.201760
 20
5.468760
  0
SEQEND
  8
0
  0
POLYLINE
  8
0
 62
     0
  6
CONTINUOUS
 66
     1
 40
0.002200
 41
0.002200
  0
VERTEX
  8
0
 62
     0
  6
CONTINUOUS
 10
2.201760
 20
5.468760
  0
VERTEX
  8
0
 62
     0
  6
CONTINUOUS
 10
2.203520
 20
5.465240
  0
SEQEND
  8
0
  0
POLYLINE
  8
0
 62
     0
  6
CONTINUOUS
 66
     1
 40
0.002200
 41
0.002200
  0
VERTEX
  8
0
 62
     0
  6
CONTINUOUS
 10
2.203520
 20
5.465240
  0
VERTEX
  8
0
 62
     0
  6
CONTINUOUS
 10
2.205280
 20
5.461720
  0
SEQEND
  8
0
  0
POLYLINE
  8
0
 62
     0
  6
CONTINUOUS
 66
     1
 40
0.002200
 41
0.002200
  0
VERTEX
  8
0
 62
     0
  6
CONTINUOUS
 10
2.205280
 20
5.461720
  0
VERTEX
  8
0
 62
     0
  6
CONTINUOUS
 10
2.207040
 20
5.461720
  0
SEQEND
  8
0
  0
POLYLINE
  8
0
 62
     0
  6
CONTINUOUS
 66
     1
 40
0.002200
 41
0.002200
  0
VERTEX
  8
0
 62
     0
  6
CONTINUOUS
 10
2.207040
 20
5.461720
  0
VERTEX
  8
0
 62
     0
  6
CONTINUOUS
 10
2.205280
 20
5.459520
  0
SEQEND
  8
0
  0
POLYLINE
  8
0
 62
     0
  6
CONTINUOUS
 66
     1
 40
0.002200
 41
0.002200
  0
VERTEX
  8
0
 62
     0
  6
CONTINUOUS
 10
2.205280
 20
5.459520
  0
VERTEX
  8
0
 62
     0
  6
CONTINUOUS
 10
2.205280
 20
5.457760
  0
SEQEND
  8
0
  0
POLYLINE
  8
0
 62
     0
  6
CONTINUOUS
 66
     1
 40
0.002200
 41
0.002200
  0
VERTEX
  8
0
 62
     0
  6
CONTINUOUS
 10
2.205280
 20
5.457760
  0
VERTEX
  8
0
 62
     0
  6
CONTINUOUS
 10
2.208800
 20
5.459520
  0
SEQEND
  8
0
  0
POLYLINE
  8
0
 62
     0
  6
CONTINUOUS
 66
     1
 40
0.002200
 41
0.002200
  0
VERTEX
  8
0
 62
     0
  6
CONTINUOUS
 10
2.208800
 20
5.459520
  0
VERTEX
  8
0
 62
     0
  6
CONTINUOUS
 10
2.208800
 20
5.456000
  0
SEQEND
  8
0
  0
POLYLINE
  8
0
 62
     0
  6
CONTINUOUS
 66
     1
 40
0.002200
 41
0.002200
  0
VERTEX
  8
0
 62
     0
  6
CONTINUOUS
 10
2.208800
 20
5.456000
  0
VERTEX
  8
0
 62
     0
  6
CONTINUOUS
 10
2.205280
 20
5.456000
  0
SEQEND
  8
0
  0
POLYLINE
  8
0
 62
     0
  6
CONTINUOUS
 66
     1
 40
0.002200
 41
0.002200
  0
VERTEX
  8
0
 62
     0
  6
CONTINUOUS
 10
2.205280
 20
5.456000
  0
VERTEX
  8
0
 62
     0
  6
CONTINUOUS
 10
2.207040
 20
5.452480
  0
SEQEND
  8
0
  0
POLYLINE
  8
0
 62
     0
  6
CONTINUOUS
 66
     1
 40
0.002200
 41
0.002200
  0
VERTEX
  8
0
 62
     0
  6
CONTINUOUS
 10
2.207040
 20
5.452480
  0
VERTEX
  8
0
 62
     0
  6
CONTINUOUS
 10
2.208800
 20
5.452480
  0
SEQEND
  8
0
  0
POLYLINE
  8
0
 62
     0
  6
CONTINUOUS
 66
     1
 40
0.002200
 41
0.002200
  0
VERTEX
  8
0
 62
     0
  6
CONTINUOUS
 10
2.208800
 20
5.452480
  0
VERTEX
  8
0
 62
     0
  6
CONTINUOUS
 10
2.208800
 20
5.450280
  0
SEQEND
  8
0
  0
POLYLINE
  8
0
 62
     0
  6
CONTINUOUS
 66
     1
 40
0.002200
 41
0.002200
  0
VERTEX
  8
0
 62
     0
  6
CONTINUOUS
 10
2.208800
 20
5.450280
  0
VERTEX
  8
0
 62
     0
  6
CONTINUOUS
 10
2.207040
 20
5.450280
  0
SEQEND
  8
0
  0
POLYLINE
  8
0
 62
     0
  6
CONTINUOUS
 66
     1
 40
0.002200
 41
0.002200
  0
VERTEX
  8
0
 62
     0
  6
CONTINUOUS
 10
2.207040
 20
5.450280
  0
VERTEX
  8
0
 62
     0
  6
CONTINUOUS
 10
2.207040
 20
5.448520
  0
SEQEND
  8
0
  0
POLYLINE
  8
0
 62
     0
  6
CONTINUOUS
 66
     1
 40
0.002200
 41
0.002200
  0
VERTEX
  8
0
 62
     0
  6
CONTINUOUS
 10
2.207040
 20
5.448520
  0
VERTEX
  8
0
 62
     0
  6
CONTINUOUS
 10
2.208800
 20
5.448520
  0
SEQEND
  8
0
  0
POLYLINE
  8
0
 62
     0
  6
CONTINUOUS
 66
     1
 40
0.002200
 41
0.002200
  0
VERTEX
  8
0
 62
     0
  6
CONTINUOUS
 10
2.208800
 20
5.448520
  0
VERTEX
  8
0
 62
     0
  6
CONTINUOUS
 10
2.208800
 20
5.446760
  0
SEQEND
  8
0
  0
POLYLINE
  8
0
 62
     0
  6
CONTINUOUS
 66
     1
 40
0.002200
 41
0.002200
  0
VERTEX
  8
0
 62
     0
  6
CONTINUOUS
 10
2.208800
 20
5.446760
  0
VERTEX
  8
0
 62
     0
  6
CONTINUOUS
 10
2.205280
 20
5.448520
  0
SEQEND
  8
0
  0
POLYLINE
  8
0
 62
     0
  6
CONTINUOUS
 66
     1
 40
0.002200
 41
0.002200
  0
VERTEX
  8
0
 62
     0
  6
CONTINUOUS
 10
2.205280
 20
5.448520
  0
VERTEX
  8
0
 62
     0
  6
CONTINUOUS
 10
2.205280
 20
5.445000
  0
SEQEND
  8
0
  0
POLYLINE
  8
0
 62
     0
  6
CONTINUOUS
 66
     1
 40
0.002200
 41
0.002200
  0
VERTEX
  8
0
 62
     0
  6
CONTINUOUS
 10
2.205280
 20
5.445000
  0
VERTEX
  8
0
 62
     0
  6
CONTINUOUS
 10
2.207040
 20
5.443240
  0
SEQEND
  8
0
  0
POLYLINE
  8
0
 62
     0
  6
CONTINUOUS
 66
     1
 40
0.002200
 41
0.002200
  0
VERTEX
  8
0
 62
     0
  6
CONTINUOUS
 10
2.207040
 20
5.443240
  0
VERTEX
  8
0
 62
     0
  6
CONTINUOUS
 10
2.207040
 20
5.441040
  0
SEQEND
  8
0
  0
POLYLINE
  8
0
 62
     0
  6
CONTINUOUS
 66
     1
 40
0.002200
 41
0.002200
  0
VERTEX
  8
0
 62
     0
  6
CONTINUOUS
 10
2.207040
 20
5.441040
  0
VERTEX
  8
0
 62
     0
  6
CONTINUOUS
 10
2.205280
 20
5.443240
  0
SEQEND
  8
0
  0
POLYLINE
  8
0
 62
     0
  6
CONTINUOUS
 66
     1
 40
0.002200
 41
0.002200
  0
VERTEX
  8
0
 62
     0
  6
CONTINUOUS
 10
2.205280
 20
5.443240
  0
VERTEX
  8
0
 62
     0
  6
CONTINUOUS
 10
2.203520
 20
5.441040
  0
SEQEND
  8
0
  0
POLYLINE
  8
0
 62
     0
  6
CONTINUOUS
 66
     1
 40
0.002200
 41
0.002200
  0
VERTEX
  8
0
 62
     0
  6
CONTINUOUS
 10
2.203520
 20
5.441040
  0
VERTEX
  8
0
 62
     0
  6
CONTINUOUS
 10
2.207040
 20
5.439280
  0
SEQEND
  8
0
  0
POLYLINE
  8
0
 62
     0
  6
CONTINUOUS
 66
     1
 40
0.002200
 41
0.002200
  0
VERTEX
  8
0
 62
     0
  6
CONTINUOUS
 10
2.207040
 20
5.439280
  0
VERTEX
  8
0
 62
     0
  6
CONTINUOUS
 10
2.205280
 20
5.437520
  0
SEQEND
  8
0
  0
POLYLINE
  8
0
 62
     0
  6
CONTINUOUS
 66
     1
 40
0.002200
 41
0.002200
  0
VERTEX
  8
0
 62
     0
  6
CONTINUOUS
 10
2.205280
 20
5.437520
  0
VERTEX
  8
0
 62
     0
  6
CONTINUOUS
 10
2.201760
 20
5.439280
  0
SEQEND
  8
0
  0
POLYLINE
  8
0
 62
     0
  6
CONTINUOUS
 66
     1
 40
0.002200
 41
0.002200
  0
VERTEX
  8
0
 62
     0
  6
CONTINUOUS
 10
2.201760
 20
5.439280
  0
VERTEX
  8
0
 62
     0
  6
CONTINUOUS
 10
2.199560
 20
5.437520
  0
SEQEND
  8
0
  0
POLYLINE
  8
0
 62
     0
  6
CONTINUOUS
 66
     1
 40
0.002200
 41
0.002200
  0
VERTEX
  8
0
 62
     0
  6
CONTINUOUS
 10
2.199560
 20
5.437520
  0
VERTEX
  8
0
 62
     0
  6
CONTINUOUS
 10
2.203520
 20
5.434000
  0
SEQEND
  8
0
  0
POLYLINE
  8
0
 62
     0
  6
CONTINUOUS
 66
     1
 40
0.002200
 41
0.002200
  0
VERTEX
  8
0
 62
     0
  6
CONTINUOUS
 10
2.203520
 20
5.434000
  0
VERTEX
  8
0
 62
     0
  6
CONTINUOUS
 10
2.201760
 20
5.431800
  0
SEQEND
  8
0
  0
POLYLINE
  8
0
 62
     0
  6
CONTINUOUS
 66
     1
 40
0.002200
 41
0.002200
  0
VERTEX
  8
0
 62
     0
  6
CONTINUOUS
 10
2.201760
 20
5.431800
  0
VERTEX
  8
0
 62
     0
  6
CONTINUOUS
 10
2.199560
 20
5.434000
  0
SEQEND
  8
0
  0
POLYLINE
  8
0
 62
     0
  6
CONTINUOUS
 66
     1
 40
0.002200
 41
0.002200
  0
VERTEX
  8
0
 62
     0
  6
CONTINUOUS
 10
2.199560
 20
5.434000
  0
VERTEX
  8
0
 62
     0
  6
CONTINUOUS
 10
2.197800
 20
5.431800
  0
SEQEND
  8
0
  0
POLYLINE
  8
0
 62
     0
  6
CONTINUOUS
 66
     1
 40
0.002200
 41
0.002200
  0
VERTEX
  8
0
 62
     0
  6
CONTINUOUS
 10
2.197800
 20
5.431800
  0
VERTEX
  8
0
 62
     0
  6
CONTINUOUS
 10
2.199560
 20
5.430040
  0
SEQEND
  8
0
  0
POLYLINE
  8
0
 62
     0
  6
CONTINUOUS
 66
     1
 40
0.002200
 41
0.002200
  0
VERTEX
  8
0
 62
     0
  6
CONTINUOUS
 10
2.199560
 20
5.430040
  0
VERTEX
  8
0
 62
     0
  6
CONTINUOUS
 10
2.197800
 20
5.428280
  0
SEQEND
  8
0
  0
POLYLINE
  8
0
 62
     0
  6
CONTINUOUS
 66
     1
 40
0.002200
 41
0.002200
  0
VERTEX
  8
0
 62
     0
  6
CONTINUOUS
 10
2.197800
 20
5.428280
  0
VERTEX
  8
0
 62
     0
  6
CONTINUOUS
 10
2.194280
 20
5.430040
  0
SEQEND
  8
0
  0
POLYLINE
  8
0
 62
     0
  6
CONTINUOUS
 66
     1
 40
0.002200
 41
0.002200
  0
VERTEX
  8
0
 62
     0
  6
CONTINUOUS
 10
2.194280
 20
5.430040
  0
VERTEX
  8
0
 62
     0
  6
CONTINUOUS
 10
2.194280
 20
5.428280
  0
SEQEND
  8
0
  0
POLYLINE
  8
0
 62
     0
  6
CONTINUOUS
 66
     1
 40
0.002200
 41
0.002200
  0
VERTEX
  8
0
 62
     0
  6
CONTINUOUS
 10
2.194280
 20
5.428280
  0
VERTEX
  8
0
 62
     0
  6
CONTINUOUS
 10
2.194280
 20
5.424760
  0
SEQEND
  8
0
  0
POLYLINE
  8
0
 62
     0
  6
CONTINUOUS
 66
     1
 40
0.002200
 41
0.002200
  0
VERTEX
  8
0
 62
     0
  6
CONTINUOUS
 10
2.194280
 20
5.424760
  0
VERTEX
  8
0
 62
     0
  6
CONTINUOUS
 10
2.192520
 20
5.422560
  0
SEQEND
  8
0
  0
POLYLINE
  8
0
 62
     0
  6
CONTINUOUS
 66
     1
 40
0.002200
 41
0.002200
  0
VERTEX
  8
0
 62
     0
  6
CONTINUOUS
 10
2.192520
 20
5.422560
  0
VERTEX
  8
0
 62
     0
  6
CONTINUOUS
 10
2.190320
 20
5.426520
  0
SEQEND
  8
0
  0
POLYLINE
  8
0
 62
     0
  6
CONTINUOUS
 66
     1
 40
0.002200
 41
0.002200
  0
VERTEX
  8
0
 62
     0
  6
CONTINUOUS
 10
2.190320
 20
5.426520
  0
VERTEX
  8
0
 62
     0
  6
CONTINUOUS
 10
2.188560
 20
5.424760
  0
SEQEND
  8
0
  0
POLYLINE
  8
0
 62
     0
  6
CONTINUOUS
 66
     1
 40
0.002200
 41
0.002200
  0
VERTEX
  8
0
 62
     0
  6
CONTINUOUS
 10
2.188560
 20
5.424760
  0
VERTEX
  8
0
 62
     0
  6
CONTINUOUS
 10
2.190320
 20
5.422560
  0
SEQEND
  8
0
  0
POLYLINE
  8
0
 62
     0
  6
CONTINUOUS
 66
     1
 40
0.002200
 41
0.002200
  0
VERTEX
  8
0
 62
     0
  6
CONTINUOUS
 10
2.190320
 20
5.422560
  0
VERTEX
  8
0
 62
     0
  6
CONTINUOUS
 10
2.186800
 20
5.420800
  0
SEQEND
  8
0
  0
POLYLINE
  8
0
 62
     0
  6
CONTINUOUS
 66
     1
 40
0.002200
 41
0.002200
  0
VERTEX
  8
0
 62
     0
  6
CONTINUOUS
 10
2.186800
 20
5.420800
  0
VERTEX
  8
0
 62
     0
  6
CONTINUOUS
 10
2.185040
 20
5.422560
  0
SEQEND
  8
0
  0
POLYLINE
  8
0
 62
     0
  6
CONTINUOUS
 66
     1
 40
0.002200
 41
0.002200
  0
VERTEX
  8
0
 62
     0
  6
CONTINUOUS
 10
2.185040
 20
5.422560
  0
VERTEX
  8
0
 62
     0
  6
CONTINUOUS
 10
2.181080
 20
5.422560
  0
SEQEND
  8
0
  0
POLYLINE
  8
0
 62
     0
  6
CONTINUOUS
 66
     1
 40
0.002200
 41
0.002200
  0
VERTEX
  8
0
 62
     0
  6
CONTINUOUS
 10
2.181080
 20
5.422560
  0
VERTEX
  8
0
 62
     0
  6
CONTINUOUS
 10
2.181080
 20
5.419040
  0
SEQEND
  8
0
  0
POLYLINE
  8
0
 62
     0
  6
CONTINUOUS
 66
     1
 40
0.002200
 41
0.002200
  0
VERTEX
  8
0
 62
     0
  6
CONTINUOUS
 10
2.181080
 20
5.419040
  0
VERTEX
  8
0
 62
     0
  6
CONTINUOUS
 10
2.179320
 20
5.419040
  0
SEQEND
  8
0
  0
POLYLINE
  8
0
 62
     0
  6
CONTINUOUS
 66
     1
 40
0.002200
 41
0.002200
  0
VERTEX
  8
0
 62
     0
  6
CONTINUOUS
 10
2.179320
 20
5.419040
  0
VERTEX
  8
0
 62
     0
  6
CONTINUOUS
 10
2.179320
 20
5.422560
  0
SEQEND
  8
0
  0
POLYLINE
  8
0
 62
     0
  6
CONTINUOUS
 66
     1
 40
0.002200
 41
0.002200
  0
VERTEX
  8
0
 62
     0
  6
CONTINUOUS
 10
2.179320
 20
5.422560
  0
VERTEX
  8
0
 62
     0
  6
CONTINUOUS
 10
2.175800
 20
5.420800
  0
SEQEND
  8
0
  0
POLYLINE
  8
0
 62
     0
  6
CONTINUOUS
 66
     1
 40
0.002200
 41
0.002200
  0
VERTEX
  8
0
 62
     0
  6
CONTINUOUS
 10
2.175800
 20
5.420800
  0
VERTEX
  8
0
 62
     0
  6
CONTINUOUS
 10
2.175800
 20
5.415520
  0
SEQEND
  8
0
  0
POLYLINE
  8
0
 62
     0
  6
CONTINUOUS
 66
     1
 40
0.002200
 41
0.002200
  0
VERTEX
  8
0
 62
     0
  6
CONTINUOUS
 10
2.175800
 20
5.415520
  0
VERTEX
  8
0
 62
     0
  6
CONTINUOUS
 10
2.173600
 20
5.415520
  0
SEQEND
  8
0
  0
POLYLINE
  8
0
 62
     0
  6
CONTINUOUS
 66
     1
 40
0.002200
 41
0.002200
  0
VERTEX
  8
0
 62
     0
  6
CONTINUOUS
 10
2.173600
 20
5.415520
  0
VERTEX
  8
0
 62
     0
  6
CONTINUOUS
 10
2.173600
 20
5.420800
  0
SEQEND
  8
0
  0
POLYLINE
  8
0
 62
     0
  6
CONTINUOUS
 66
     1
 40
0.002200
 41
0.002200
  0
VERTEX
  8
0
 62
     0
  6
CONTINUOUS
 10
2.173600
 20
5.420800
  0
VERTEX
  8
0
 62
     0
  6
CONTINUOUS
 10
2.171840
 20
5.419040
  0
SEQEND
  8
0
  0
POLYLINE
  8
0
 62
     0
  6
CONTINUOUS
 66
     1
 40
0.002200
 41
0.002200
  0
VERTEX
  8
0
 62
     0
  6
CONTINUOUS
 10
2.171840
 20
5.419040
  0
VERTEX
  8
0
 62
     0
  6
CONTINUOUS
 10
2.171840
 20
5.415520
  0
SEQEND
  8
0
  0
POLYLINE
  8
0
 62
     0
  6
CONTINUOUS
 66
     1
 40
0.002200
 41
0.002200
  0
VERTEX
  8
0
 62
     0
  6
CONTINUOUS
 10
2.171840
 20
5.415520
  0
VERTEX
  8
0
 62
     0
  6
CONTINUOUS
 10
2.168320
 20
5.415520
  0
SEQEND
  8
0
  0
POLYLINE
  8
0
 62
     0
  6
CONTINUOUS
 66
     1
 40
0.002200
 41
0.002200
  0
VERTEX
  8
0
 62
     0
  6
CONTINUOUS
 10
2.168320
 20
5.415520
  0
VERTEX
  8
0
 62
     0
  6
CONTINUOUS
 10
2.168320
 20
5.419040
  0
SEQEND
  8
0
  0
POLYLINE
  8
0
 62
     0
  6
CONTINUOUS
 66
     1
 40
0.002200
 41
0.002200
  0
VERTEX
  8
0
 62
     0
  6
CONTINUOUS
 10
2.168320
 20
5.419040
  0
VERTEX
  8
0
 62
     0
  6
CONTINUOUS
 10
2.164360
 20
5.419040
  0
SEQEND
  8
0
  0
POLYLINE
  8
0
 62
     0
  6
CONTINUOUS
 66
     1
 40
0.002200
 41
0.002200
  0
VERTEX
  8
0
 62
     0
  6
CONTINUOUS
 10
2.164360
 20
5.419040
  0
VERTEX
  8
0
 62
     0
  6
CONTINUOUS
 10
2.164360
 20
5.415520
  0
SEQEND
  8
0
  0
POLYLINE
  8
0
 62
     0
  6
CONTINUOUS
 66
     1
 40
0.002200
 41
0.002200
  0
VERTEX
  8
0
 62
     0
  6
CONTINUOUS
 10
2.164360
 20
5.415520
  0
VERTEX
  8
0
 62
     0
  6
CONTINUOUS
 10
2.162600
 20
5.419040
  0
SEQEND
  8
0
  0
POLYLINE
  8
0
 62
     0
  6
CONTINUOUS
 66
     1
 40
0.002200
 41
0.002200
  0
VERTEX
  8
0
 62
     0
  6
CONTINUOUS
 10
2.162600
 20
5.419040
  0
VERTEX
  8
0
 62
     0
  6
CONTINUOUS
 10
2.160840
 20
5.419040
  0
SEQEND
  8
0
  0
POLYLINE
  8
0
 62
     0
  6
CONTINUOUS
 66
     1
 40
0.002200
 41
0.002200
  0
VERTEX
  8
0
 62
     0
  6
CONTINUOUS
 10
2.160840
 20
5.419040
  0
VERTEX
  8
0
 62
     0
  6
CONTINUOUS
 10
2.162600
 20
5.415520
  0
SEQEND
  8
0
  0
POLYLINE
  8
0
 62
     0
  6
CONTINUOUS
 66
     1
 40
0.002200
 41
0.002200
  0
VERTEX
  8
0
 62
     0
  6
CONTINUOUS
 10
2.162600
 20
5.415520
  0
VERTEX
  8
0
 62
     0
  6
CONTINUOUS
 10
2.159080
 20
5.415520
  0
SEQEND
  8
0
  0
POLYLINE
  8
0
 62
     0
  6
CONTINUOUS
 66
     1
 40
0.002200
 41
0.002200
  0
VERTEX
  8
0
 62
     0
  6
CONTINUOUS
 10
2.159080
 20
5.415520
  0
VERTEX
  8
0
 62
     0
  6
CONTINUOUS
 10
2.159080
 20
5.419040
  0
SEQEND
  8
0
  0
POLYLINE
  8
0
 62
     0
  6
CONTINUOUS
 66
     1
 40
0.002200
 41
0.002200
  0
VERTEX
  8
0
 62
     0
  6
CONTINUOUS
 10
2.159080
 20
5.419040
  0
VERTEX
  8
0
 62
     0
  6
CONTINUOUS
 10
2.155120
 20
5.417280
  0
SEQEND
  8
0
  0
POLYLINE
  8
0
 62
     0
  6
CONTINUOUS
 66
     1
 40
0.002200
 41
0.002200
  0
VERTEX
  8
0
 62
     0
  6
CONTINUOUS
 10
2.155120
 20
5.417280
  0
VERTEX
  8
0
 62
     0
  6
CONTINUOUS
 10
2.155120
 20
5.415520
  0
SEQEND
  8
0
  0
POLYLINE
  8
0
 62
     0
  6
CONTINUOUS
 66
     1
 40
0.002200
 41
0.002200
  0
VERTEX
  8
0
 62
     0
  6
CONTINUOUS
 10
2.155120
 20
5.415520
  0
VERTEX
  8
0
 62
     0
  6
CONTINUOUS
 10
2.155120
 20
5.413320
  0
SEQEND
  8
0
  0
POLYLINE
  8
0
 62
     0
  6
CONTINUOUS
 66
     1
 40
0.002200
 41
0.002200
  0
VERTEX
  8
0
 62
     0
  6
CONTINUOUS
 10
2.155120
 20
5.413320
  0
VERTEX
  8
0
 62
     0
  6
CONTINUOUS
 10
2.155120
 20
5.417280
  0
SEQEND
  8
0
  0
POLYLINE
  8
0
 62
     0
  6
CONTINUOUS
 66
     1
 40
0.002200
 41
0.002200
  0
VERTEX
  8
0
 62
     0
  6
CONTINUOUS
 10
2.155120
 20
5.417280
  0
VERTEX
  8
0
 62
     0
  6
CONTINUOUS
 10
2.153360
 20
5.415520
  0
SEQEND
  8
0
  0
POLYLINE
  8
0
 62
     0
  6
CONTINUOUS
 66
     1
 40
0.002200
 41
0.002200
  0
VERTEX
  8
0
 62
     0
  6
CONTINUOUS
 10
2.153360
 20
5.415520
  0
VERTEX
  8
0
 62
     0
  6
CONTINUOUS
 10
2.155120
 20
5.413320
  0
SEQEND
  8
0
  0
POLYLINE
  8
0
 62
     0
  6
CONTINUOUS
 66
     1
 40
0.002200
 41
0.002200
  0
VERTEX
  8
0
 62
     0
  6
CONTINUOUS
 10
2.155120
 20
5.413320
  0
VERTEX
  8
0
 62
     0
  6
CONTINUOUS
 10
2.153360
 20
5.413320
  0
SEQEND
  8
0
  0
POLYLINE
  8
0
 62
     0
  6
CONTINUOUS
 66
     1
 40
0.002200
 41
0.002200
  0
VERTEX
  8
0
 62
     0
  6
CONTINUOUS
 10
2.153360
 20
5.413320
  0
VERTEX
  8
0
 62
     0
  6
CONTINUOUS
 10
2.153360
 20
5.415520
  0
SEQEND
  8
0
  0
POLYLINE
  8
0
 62
     0
  6
CONTINUOUS
 66
     1
 40
0.002200
 41
0.002200
  0
VERTEX
  8
0
 62
     0
  6
CONTINUOUS
 10
2.153360
 20
5.415520
  0
VERTEX
  8
0
 62
     0
  6
CONTINUOUS
 10
2.149840
 20
5.415520
  0
SEQEND
  8
0
  0
POLYLINE
  8
0
 62
     0
  6
CONTINUOUS
 66
     1
 40
0.002200
 41
0.002200
  0
VERTEX
  8
0
 62
     0
  6
CONTINUOUS
 10
2.149840
 20
5.415520
  0
VERTEX
  8
0
 62
     0
  6
CONTINUOUS
 10
2.153360
 20
5.413320
  0
SEQEND
  8
0
  0
POLYLINE
  8
0
 62
     0
  6
CONTINUOUS
 66
     1
 40
0.002200
 41
0.002200
  0
VERTEX
  8
0
 62
     0
  6
CONTINUOUS
 10
2.153360
 20
5.413320
  0
VERTEX
  8
0
 62
     0
  6
CONTINUOUS
 10
2.149840
 20
5.411560
  0
SEQEND
  8
0
  0
POLYLINE
  8
0
 62
     0
  6
CONTINUOUS
 66
     1
 40
0.002200
 41
0.002200
  0
VERTEX
  8
0
 62
     0
  6
CONTINUOUS
 10
2.149840
 20
5.411560
  0
VERTEX
  8
0
 62
     0
  6
CONTINUOUS
 10
2.149840
 20
5.415520
  0
SEQEND
  8
0
  0
POLYLINE
  8
0
 62
     0
  6
CONTINUOUS
 66
     1
 40
0.002200
 41
0.002200
  0
VERTEX
  8
0
 62
     0
  6
CONTINUOUS
 10
2.149840
 20
5.415520
  0
VERTEX
  8
0
 62
     0
  6
CONTINUOUS
 10
2.148080
 20
5.415520
  0
SEQEND
  8
0
  0
POLYLINE
  8
0
 62
     0
  6
CONTINUOUS
 66
     1
 40
0.002200
 41
0.002200
  0
VERTEX
  8
0
 62
     0
  6
CONTINUOUS
 10
2.148080
 20
5.415520
  0
VERTEX
  8
0
 62
     0
  6
CONTINUOUS
 10
2.149840
 20
5.411560
  0
SEQEND
  8
0
  0
POLYLINE
  8
0
 62
     0
  6
CONTINUOUS
 66
     1
 40
0.002200
 41
0.002200
  0
VERTEX
  8
0
 62
     0
  6
CONTINUOUS
 10
2.149840
 20
5.411560
  0
VERTEX
  8
0
 62
     0
  6
CONTINUOUS
 10
2.148080
 20
5.411560
  0
SEQEND
  8
0
  0
POLYLINE
  8
0
 62
     0
  6
CONTINUOUS
 66
     1
 40
0.002200
 41
0.002200
  0
VERTEX
  8
0
 62
     0
  6
CONTINUOUS
 10
2.148080
 20
5.411560
  0
VERTEX
  8
0
 62
     0
  6
CONTINUOUS
 10
2.145880
 20
5.413320
  0
SEQEND
  8
0
  0
POLYLINE
  8
0
 62
     0
  6
CONTINUOUS
 66
     1
 40
0.002200
 41
0.002200
  0
VERTEX
  8
0
 62
     0
  6
CONTINUOUS
 10
2.145880
 20
5.413320
  0
VERTEX
  8
0
 62
     0
  6
CONTINUOUS
 10
2.145880
 20
5.411560
  0
SEQEND
  8
0
  0
POLYLINE
  8
0
 62
     0
  6
CONTINUOUS
 66
     1
 40
0.002200
 41
0.002200
  0
VERTEX
  8
0
 62
     0
  6
CONTINUOUS
 10
2.145880
 20
5.411560
  0
VERTEX
  8
0
 62
     0
  6
CONTINUOUS
 10
2.145880
 20
5.408040
  0
SEQEND
  8
0
  0
POLYLINE
  8
0
 62
     0
  6
CONTINUOUS
 66
     1
 40
0.002200
 41
0.002200
  0
VERTEX
  8
0
 62
     0
  6
CONTINUOUS
 10
2.145880
 20
5.408040
  0
VERTEX
  8
0
 62
     0
  6
CONTINUOUS
 10
2.142360
 20
5.411560
  0
SEQEND
  8
0
  0
POLYLINE
  8
0
 62
     0
  6
CONTINUOUS
 66
     1
 40
0.002200
 41
0.002200
  0
VERTEX
  8
0
 62
     0
  6
CONTINUOUS
 10
2.142360
 20
5.411560
  0
VERTEX
  8
0
 62
     0
  6
CONTINUOUS
 10
2.138840
 20
5.408040
  0
SEQEND
  8
0
  0
POLYLINE
  8
0
 62
     0
  6
CONTINUOUS
 66
     1
 40
0.002200
 41
0.002200
  0
VERTEX
  8
0
 62
     0
  6
CONTINUOUS
 10
2.138840
 20
5.408040
  0
VERTEX
  8
0
 62
     0
  6
CONTINUOUS
 10
2.142360
 20
5.406280
  0
SEQEND
  8
0
  0
POLYLINE
  8
0
 62
     0
  6
CONTINUOUS
 66
     1
 40
0.002200
 41
0.002200
  0
VERTEX
  8
0
 62
     0
  6
CONTINUOUS
 10
2.142360
 20
5.406280
  0
VERTEX
  8
0
 62
     0
  6
CONTINUOUS
 10
2.138840
 20
5.408040
  0
SEQEND
  8
0
  0
POLYLINE
  8
0
 62
     0
  6
CONTINUOUS
 66
     1
 40
0.002200
 41
0.002200
  0
VERTEX
  8
0
 62
     0
  6
CONTINUOUS
 10
2.138840
 20
5.408040
  0
VERTEX
  8
0
 62
     0
  6
CONTINUOUS
 10
2.136640
 20
5.404080
  0
SEQEND
  8
0
  0
POLYLINE
  8
0
 62
     0
  6
CONTINUOUS
 66
     1
 40
0.002200
 41
0.002200
  0
VERTEX
  8
0
 62
     0
  6
CONTINUOUS
 10
2.136640
 20
5.404080
  0
VERTEX
  8
0
 62
     0
  6
CONTINUOUS
 10
2.131360
 20
5.404080
  0
SEQEND
  8
0
  0
POLYLINE
  8
0
 62
     0
  6
CONTINUOUS
 66
     1
 40
0.002200
 41
0.002200
  0
VERTEX
  8
0
 62
     0
  6
CONTINUOUS
 10
2.131360
 20
5.404080
  0
VERTEX
  8
0
 62
     0
  6
CONTINUOUS
 10
2.127400
 20
5.400560
  0
SEQEND
  8
0
  0
POLYLINE
  8
0
 62
     0
  6
CONTINUOUS
 66
     1
 40
0.002200
 41
0.002200
  0
VERTEX
  8
0
 62
     0
  6
CONTINUOUS
 10
2.127400
 20
5.400560
  0
VERTEX
  8
0
 62
     0
  6
CONTINUOUS
 10
2.123880
 20
5.397040
  0
SEQEND
  8
0
  0
POLYLINE
  8
0
 62
     0
  6
CONTINUOUS
 66
     1
 40
0.002200
 41
0.002200
  0
VERTEX
  8
0
 62
     0
  6
CONTINUOUS
 10
2.123880
 20
5.397040
  0
VERTEX
  8
0
 62
     0
  6
CONTINUOUS
 10
2.120360
 20
5.397040
  0
SEQEND
  8
0
  0
POLYLINE
  8
0
 62
     0
  6
CONTINUOUS
 66
     1
 40
0.002200
 41
0.002200
  0
VERTEX
  8
0
 62
     0
  6
CONTINUOUS
 10
2.120360
 20
5.397040
  0
VERTEX
  8
0
 62
     0
  6
CONTINUOUS
 10
2.118160
 20
5.393080
  0
SEQEND
  8
0
  0
POLYLINE
  8
0
 62
     0
  6
CONTINUOUS
 66
     1
 40
0.002200
 41
0.002200
  0
VERTEX
  8
0
 62
     0
  6
CONTINUOUS
 10
2.118160
 20
5.393080
  0
VERTEX
  8
0
 62
     0
  6
CONTINUOUS
 10
2.114640
 20
5.389560
  0
SEQEND
  8
0
  0
POLYLINE
  8
0
 62
     0
  6
CONTINUOUS
 66
     1
 40
0.002200
 41
0.002200
  0
VERTEX
  8
0
 62
     0
  6
CONTINUOUS
 10
2.114640
 20
5.389560
  0
VERTEX
  8
0
 62
     0
  6
CONTINUOUS
 10
2.111120
 20
5.387360
  0
SEQEND
  8
0
  0
POLYLINE
  8
0
 62
     0
  6
CONTINUOUS
 66
     1
 40
0.002200
 41
0.002200
  0
VERTEX
  8
0
 62
     0
  6
CONTINUOUS
 10
2.111120
 20
5.387360
  0
VERTEX
  8
0
 62
     0
  6
CONTINUOUS
 10
2.112880
 20
5.385600
  0
SEQEND
  8
0
  0
POLYLINE
  8
0
 62
     0
  6
CONTINUOUS
 66
     1
 40
0.002200
 41
0.002200
  0
VERTEX
  8
0
 62
     0
  6
CONTINUOUS
 10
2.112880
 20
5.385600
  0
VERTEX
  8
0
 62
     0
  6
CONTINUOUS
 10
2.112880
 20
5.383840
  0
SEQEND
  8
0
  0
POLYLINE
  8
0
 62
     0
  6
CONTINUOUS
 66
     1
 40
0.002200
 41
0.002200
  0
VERTEX
  8
0
 62
     0
  6
CONTINUOUS
 10
2.112880
 20
5.383840
  0
VERTEX
  8
0
 62
     0
  6
CONTINUOUS
 10
2.108920
 20
5.385600
  0
SEQEND
  8
0
  0
POLYLINE
  8
0
 62
     0
  6
CONTINUOUS
 66
     1
 40
0.002200
 41
0.002200
  0
VERTEX
  8
0
 62
     0
  6
CONTINUOUS
 10
2.108920
 20
5.385600
  0
VERTEX
  8
0
 62
     0
  6
CONTINUOUS
 10
2.108920
 20
5.382080
  0
SEQEND
  8
0
  0
POLYLINE
  8
0
 62
     0
  6
CONTINUOUS
 66
     1
 40
0.002200
 41
0.002200
  0
VERTEX
  8
0
 62
     0
  6
CONTINUOUS
 10
2.108920
 20
5.382080
  0
VERTEX
  8
0
 62
     0
  6
CONTINUOUS
 10
2.111120
 20
5.382080
  0
SEQEND
  8
0
  0
POLYLINE
  8
0
 62
     0
  6
CONTINUOUS
 66
     1
 40
0.002200
 41
0.002200
  0
VERTEX
  8
0
 62
     0
  6
CONTINUOUS
 10
2.111120
 20
5.382080
  0
VERTEX
  8
0
 62
     0
  6
CONTINUOUS
 10
2.112880
 20
5.378120
  0
SEQEND
  8
0
  0
POLYLINE
  8
0
 62
     0
  6
CONTINUOUS
 66
     1
 40
0.002200
 41
0.002200
  0
VERTEX
  8
0
 62
     0
  6
CONTINUOUS
 10
2.112880
 20
5.378120
  0
VERTEX
  8
0
 62
     0
  6
CONTINUOUS
 10
2.108920
 20
5.378120
  0
SEQEND
  8
0
  0
POLYLINE
  8
0
 62
     0
  6
CONTINUOUS
 66
     1
 40
0.002200
 41
0.002200
  0
VERTEX
  8
0
 62
     0
  6
CONTINUOUS
 10
2.108920
 20
5.378120
  0
VERTEX
  8
0
 62
     0
  6
CONTINUOUS
 10
2.111120
 20
5.376360
  0
SEQEND
  8
0
  0
POLYLINE
  8
0
 62
     0
  6
CONTINUOUS
 66
     1
 40
0.002200
 41
0.002200
  0
VERTEX
  8
0
 62
     0
  6
CONTINUOUS
 10
2.111120
 20
5.376360
  0
VERTEX
  8
0
 62
     0
  6
CONTINUOUS
 10
2.112880
 20
5.378120
  0
SEQEND
  8
0
  0
POLYLINE
  8
0
 62
     0
  6
CONTINUOUS
 66
     1
 40
0.002200
 41
0.002200
  0
VERTEX
  8
0
 62
     0
  6
CONTINUOUS
 10
2.112880
 20
5.378120
  0
VERTEX
  8
0
 62
     0
  6
CONTINUOUS
 10
2.114640
 20
5.374600
  0
SEQEND
  8
0
  0
POLYLINE
  8
0
 62
     0
  6
CONTINUOUS
 66
     1
 40
0.002200
 41
0.002200
  0
VERTEX
  8
0
 62
     0
  6
CONTINUOUS
 10
2.114640
 20
5.374600
  0
VERTEX
  8
0
 62
     0
  6
CONTINUOUS
 10
2.111120
 20
5.372840
  0
SEQEND
  8
0
  0
POLYLINE
  8
0
 62
     0
  6
CONTINUOUS
 66
     1
 40
0.002200
 41
0.002200
  0
VERTEX
  8
0
 62
     0
  6
CONTINUOUS
 10
2.111120
 20
5.372840
  0
VERTEX
  8
0
 62
     0
  6
CONTINUOUS
 10
2.112880
 20
5.371080
  0
SEQEND
  8
0
  0
POLYLINE
  8
0
 62
     0
  6
CONTINUOUS
 66
     1
 40
0.002200
 41
0.002200
  0
VERTEX
  8
0
 62
     0
  6
CONTINUOUS
 10
2.112880
 20
5.371080
  0
VERTEX
  8
0
 62
     0
  6
CONTINUOUS
 10
2.116400
 20
5.372840
  0
SEQEND
  8
0
  0
POLYLINE
  8
0
 62
     0
  6
CONTINUOUS
 66
     1
 40
0.002200
 41
0.002200
  0
VERTEX
  8
0
 62
     0
  6
CONTINUOUS
 10
2.116400
 20
5.372840
  0
VERTEX
  8
0
 62
     0
  6
CONTINUOUS
 10
2.118160
 20
5.371080
  0
SEQEND
  8
0
  0
POLYLINE
  8
0
 62
     0
  6
CONTINUOUS
 66
     1
 40
0.002200
 41
0.002200
  0
VERTEX
  8
0
 62
     0
  6
CONTINUOUS
 10
2.118160
 20
5.371080
  0
VERTEX
  8
0
 62
     0
  6
CONTINUOUS
 10
2.116400
 20
5.368880
  0
SEQEND
  8
0
  0
POLYLINE
  8
0
 62
     0
  6
CONTINUOUS
 66
     1
 40
0.002200
 41
0.002200
  0
VERTEX
  8
0
 62
     0
  6
CONTINUOUS
 10
2.116400
 20
5.368880
  0
VERTEX
  8
0
 62
     0
  6
CONTINUOUS
 10
2.118160
 20
5.367120
  0
SEQEND
  8
0
  0
POLYLINE
  8
0
 62
     0
  6
CONTINUOUS
 66
     1
 40
0.002200
 41
0.002200
  0
VERTEX
  8
0
 62
     0
  6
CONTINUOUS
 10
2.118160
 20
5.367120
  0
VERTEX
  8
0
 62
     0
  6
CONTINUOUS
 10
2.120360
 20
5.371080
  0
SEQEND
  8
0
  0
POLYLINE
  8
0
 62
     0
  6
CONTINUOUS
 66
     1
 40
0.002200
 41
0.002200
  0
VERTEX
  8
0
 62
     0
  6
CONTINUOUS
 10
2.120360
 20
5.371080
  0
VERTEX
  8
0
 62
     0
  6
CONTINUOUS
 10
2.122120
 20
5.368880
  0
SEQEND
  8
0
  0
POLYLINE
  8
0
 62
     0
  6
CONTINUOUS
 66
     1
 40
0.002200
 41
0.002200
  0
VERTEX
  8
0
 62
     0
  6
CONTINUOUS
 10
2.122120
 20
5.368880
  0
VERTEX
  8
0
 62
     0
  6
CONTINUOUS
 10
2.120360
 20
5.363600
  0
SEQEND
  8
0
  0
POLYLINE
  8
0
 62
     0
  6
CONTINUOUS
 66
     1
 40
0.002200
 41
0.002200
  0
VERTEX
  8
0
 62
     0
  6
CONTINUOUS
 10
2.120360
 20
5.363600
  0
VERTEX
  8
0
 62
     0
  6
CONTINUOUS
 10
2.122120
 20
5.363600
  0
SEQEND
  8
0
  0
POLYLINE
  8
0
 62
     0
  6
CONTINUOUS
 66
     1
 40
0.002200
 41
0.002200
  0
VERTEX
  8
0
 62
     0
  6
CONTINUOUS
 10
2.122120
 20
5.363600
  0
VERTEX
  8
0
 62
     0
  6
CONTINUOUS
 10
2.123880
 20
5.367120
  0
SEQEND
  8
0
  0
POLYLINE
  8
0
 62
     0
  6
CONTINUOUS
 66
     1
 40
0.002200
 41
0.002200
  0
VERTEX
  8
0
 62
     0
  6
CONTINUOUS
 10
2.123880
 20
5.367120
  0
VERTEX
  8
0
 62
     0
  6
CONTINUOUS
 10
2.127400
 20
5.367120
  0
SEQEND
  8
0
  0
POLYLINE
  8
0
 62
     0
  6
CONTINUOUS
 66
     1
 40
0.002200
 41
0.002200
  0
VERTEX
  8
0
 62
     0
  6
CONTINUOUS
 10
2.127400
 20
5.367120
  0
VERTEX
  8
0
 62
     0
  6
CONTINUOUS
 10
2.123880
 20
5.361840
  0
SEQEND
  8
0
  0
POLYLINE
  8
0
 62
     0
  6
CONTINUOUS
 66
     1
 40
0.002200
 41
0.002200
  0
VERTEX
  8
0
 62
     0
  6
CONTINUOUS
 10
2.123880
 20
5.361840
  0
VERTEX
  8
0
 62
     0
  6
CONTINUOUS
 10
2.127400
 20
5.361840
  0
SEQEND
  8
0
  0
POLYLINE
  8
0
 62
     0
  6
CONTINUOUS
 66
     1
 40
0.002200
 41
0.002200
  0
VERTEX
  8
0
 62
     0
  6
CONTINUOUS
 10
2.127400
 20
5.361840
  0
VERTEX
  8
0
 62
     0
  6
CONTINUOUS
 10
2.129600
 20
5.363600
  0
SEQEND
  8
0
  0
POLYLINE
  8
0
 62
     0
  6
CONTINUOUS
 66
     1
 40
0.002200
 41
0.002200
  0
VERTEX
  8
0
 62
     0
  6
CONTINUOUS
 10
2.129600
 20
5.363600
  0
VERTEX
  8
0
 62
     0
  6
CONTINUOUS
 10
2.131360
 20
5.363600
  0
SEQEND
  8
0
  0
POLYLINE
  8
0
 62
     0
  6
CONTINUOUS
 66
     1
 40
0.002200
 41
0.002200
  0
VERTEX
  8
0
 62
     0
  6
CONTINUOUS
 10
2.131360
 20
5.363600
  0
VERTEX
  8
0
 62
     0
  6
CONTINUOUS
 10
2.131360
 20
5.359640
  0
SEQEND
  8
0
  0
POLYLINE
  8
0
 62
     0
  6
CONTINUOUS
 66
     1
 40
0.002200
 41
0.002200
  0
VERTEX
  8
0
 62
     0
  6
CONTINUOUS
 10
2.131360
 20
5.359640
  0
VERTEX
  8
0
 62
     0
  6
CONTINUOUS
 10
2.133120
 20
5.361840
  0
SEQEND
  8
0
  0
POLYLINE
  8
0
 62
     0
  6
CONTINUOUS
 66
     1
 40
0.002200
 41
0.002200
  0
VERTEX
  8
0
 62
     0
  6
CONTINUOUS
 10
2.133120
 20
5.361840
  0
VERTEX
  8
0
 62
     0
  6
CONTINUOUS
 10
2.136640
 20
5.361840
  0
SEQEND
  8
0
  0
POLYLINE
  8
0
 62
     0
  6
CONTINUOUS
 66
     1
 40
0.002200
 41
0.002200
  0
VERTEX
  8
0
 62
     0
  6
CONTINUOUS
 10
2.136640
 20
5.361840
  0
VERTEX
  8
0
 62
     0
  6
CONTINUOUS
 10
2.133120
 20
5.359640
  0
SEQEND
  8
0
  0
POLYLINE
  8
0
 62
     0
  6
CONTINUOUS
 66
     1
 40
0.002200
 41
0.002200
  0
VERTEX
  8
0
 62
     0
  6
CONTINUOUS
 10
2.133120
 20
5.359640
  0
VERTEX
  8
0
 62
     0
  6
CONTINUOUS
 10
2.136640
 20
5.357880
  0
SEQEND
  8
0
  0
POLYLINE
  8
0
 62
     0
  6
CONTINUOUS
 66
     1
 40
0.002200
 41
0.002200
  0
VERTEX
  8
0
 62
     0
  6
CONTINUOUS
 10
2.136640
 20
5.357880
  0
VERTEX
  8
0
 62
     0
  6
CONTINUOUS
 10
2.136640
 20
5.361840
  0
SEQEND
  8
0
  0
POLYLINE
  8
0
 62
     0
  6
CONTINUOUS
 66
     1
 40
0.002200
 41
0.002200
  0
VERTEX
  8
0
 62
     0
  6
CONTINUOUS
 10
2.136640
 20
5.361840
  0
VERTEX
  8
0
 62
     0
  6
CONTINUOUS
 10
2.138840
 20
5.359640
  0
SEQEND
  8
0
  0
POLYLINE
  8
0
 62
     0
  6
CONTINUOUS
 66
     1
 40
0.002200
 41
0.002200
  0
VERTEX
  8
0
 62
     0
  6
CONTINUOUS
 10
2.138840
 20
5.359640
  0
VERTEX
  8
0
 62
     0
  6
CONTINUOUS
 10
2.136640
 20
5.357880
  0
SEQEND
  8
0
  0
POLYLINE
  8
0
 62
     0
  6
CONTINUOUS
 66
     1
 40
0.002200
 41
0.002200
  0
VERTEX
  8
0
 62
     0
  6
CONTINUOUS
 10
2.136640
 20
5.357880
  0
VERTEX
  8
0
 62
     0
  6
CONTINUOUS
 10
2.138840
 20
5.356120
  0
SEQEND
  8
0
  0
POLYLINE
  8
0
 62
     0
  6
CONTINUOUS
 66
     1
 40
0.002200
 41
0.002200
  0
VERTEX
  8
0
 62
     0
  6
CONTINUOUS
 10
2.138840
 20
5.356120
  0
VERTEX
  8
0
 62
     0
  6
CONTINUOUS
 10
2.140600
 20
5.359640
  0
SEQEND
  8
0
  0
POLYLINE
  8
0
 62
     0
  6
CONTINUOUS
 66
     1
 40
0.002200
 41
0.002200
  0
VERTEX
  8
0
 62
     0
  6
CONTINUOUS
 10
2.140600
 20
5.359640
  0
VERTEX
  8
0
 62
     0
  6
CONTINUOUS
 10
2.142360
 20
5.359640
  0
SEQEND
  8
0
  0
POLYLINE
  8
0
 62
     0
  6
CONTINUOUS
 66
     1
 40
0.002200
 41
0.002200
  0
VERTEX
  8
0
 62
     0
  6
CONTINUOUS
 10
2.142360
 20
5.359640
  0
VERTEX
  8
0
 62
     0
  6
CONTINUOUS
 10
2.140600
 20
5.354360
  0
SEQEND
  8
0
  0
POLYLINE
  8
0
 62
     0
  6
CONTINUOUS
 66
     1
 40
0.002200
 41
0.002200
  0
VERTEX
  8
0
 62
     0
  6
CONTINUOUS
 10
2.140600
 20
5.354360
  0
VERTEX
  8
0
 62
     0
  6
CONTINUOUS
 10
2.142360
 20
5.354360
  0
SEQEND
  8
0
  0
POLYLINE
  8
0
 62
     0
  6
CONTINUOUS
 66
     1
 40
0.002200
 41
0.002200
  0
VERTEX
  8
0
 62
     0
  6
CONTINUOUS
 10
2.142360
 20
5.354360
  0
VERTEX
  8
0
 62
     0
  6
CONTINUOUS
 10
2.144120
 20
5.357880
  0
SEQEND
  8
0
  0
POLYLINE
  8
0
 62
     0
  6
CONTINUOUS
 66
     1
 40
0.002200
 41
0.002200
  0
VERTEX
  8
0
 62
     0
  6
CONTINUOUS
 10
2.144120
 20
5.357880
  0
VERTEX
  8
0
 62
     0
  6
CONTINUOUS
 10
2.145880
 20
5.356120
  0
SEQEND
  8
0
  0
POLYLINE
  8
0
 62
     0
  6
CONTINUOUS
 66
     1
 40
0.002200
 41
0.002200
  0
VERTEX
  8
0
 62
     0
  6
CONTINUOUS
 10
2.145880
 20
5.356120
  0
VERTEX
  8
0
 62
     0
  6
CONTINUOUS
 10
2.145880
 20
5.352600
  0
SEQEND
  8
0
  0
POLYLINE
  8
0
 62
     0
  6
CONTINUOUS
 66
     1
 40
0.002200
 41
0.002200
  0
VERTEX
  8
0
 62
     0
  6
CONTINUOUS
 10
2.145880
 20
5.352600
  0
VERTEX
  8
0
 62
     0
  6
CONTINUOUS
 10
2.148080
 20
5.356120
  0
SEQEND
  8
0
  0
POLYLINE
  8
0
 62
     0
  6
CONTINUOUS
 66
     1
 40
0.002200
 41
0.002200
  0
VERTEX
  8
0
 62
     0
  6
CONTINUOUS
 10
2.148080
 20
5.356120
  0
VERTEX
  8
0
 62
     0
  6
CONTINUOUS
 10
2.149840
 20
5.354360
  0
SEQEND
  8
0
  0
POLYLINE
  8
0
 62
     0
  6
CONTINUOUS
 66
     1
 40
0.002200
 41
0.002200
  0
VERTEX
  8
0
 62
     0
  6
CONTINUOUS
 10
2.149840
 20
5.354360
  0
VERTEX
  8
0
 62
     0
  6
CONTINUOUS
 10
2.149840
 20
5.350400
  0
SEQEND
  8
0
  0
POLYLINE
  8
0
 62
     0
  6
CONTINUOUS
 66
     1
 40
0.002200
 41
0.002200
  0
VERTEX
  8
0
 62
     0
  6
CONTINUOUS
 10
2.149840
 20
5.350400
  0
VERTEX
  8
0
 62
     0
  6
CONTINUOUS
 10
2.153360
 20
5.350400
  0
SEQEND
  8
0
  0
POLYLINE
  8
0
 62
     0
  6
CONTINUOUS
 66
     1
 40
0.002200
 41
0.002200
  0
VERTEX
  8
0
 62
     0
  6
CONTINUOUS
 10
2.153360
 20
5.350400
  0
VERTEX
  8
0
 62
     0
  6
CONTINUOUS
 10
2.153360
 20
5.352600
  0
SEQEND
  8
0
  0
POLYLINE
  8
0
 62
     0
  6
CONTINUOUS
 66
     1
 40
0.002200
 41
0.002200
  0
VERTEX
  8
0
 62
     0
  6
CONTINUOUS
 10
2.153360
 20
5.352600
  0
VERTEX
  8
0
 62
     0
  6
CONTINUOUS
 10
2.155120
 20
5.352600
  0
SEQEND
  8
0
  0
POLYLINE
  8
0
 62
     0
  6
CONTINUOUS
 66
     1
 40
0.002200
 41
0.002200
  0
VERTEX
  8
0
 62
     0
  6
CONTINUOUS
 10
2.155120
 20
5.352600
  0
VERTEX
  8
0
 62
     0
  6
CONTINUOUS
 10
2.159080
 20
5.350400
  0
SEQEND
  8
0
  0
POLYLINE
  8
0
 62
     0
  6
CONTINUOUS
 66
     1
 40
0.002200
 41
0.002200
  0
VERTEX
  8
0
 62
     0
  6
CONTINUOUS
 10
2.159080
 20
5.350400
  0
VERTEX
  8
0
 62
     0
  6
CONTINUOUS
 10
2.162600
 20
5.350400
  0
SEQEND
  8
0
  0
POLYLINE
  8
0
 62
     0
  6
CONTINUOUS
 66
     1
 40
0.002200
 41
0.002200
  0
VERTEX
  8
0
 62
     0
  6
CONTINUOUS
 10
2.162600
 20
5.350400
  0
VERTEX
  8
0
 62
     0
  6
CONTINUOUS
 10
2.166560
 20
5.348640
  0
SEQEND
  8
0
  0
POLYLINE
  8
0
 62
     0
  6
CONTINUOUS
 66
     1
 40
0.002200
 41
0.002200
  0
VERTEX
  8
0
 62
     0
  6
CONTINUOUS
 10
2.166560
 20
5.348640
  0
VERTEX
  8
0
 62
     0
  6
CONTINUOUS
 10
2.171840
 20
5.348640
  0
SEQEND
  8
0
  0
POLYLINE
  8
0
 62
     0
  6
CONTINUOUS
 66
     1
 40
0.002200
 41
0.002200
  0
VERTEX
  8
0
 62
     0
  6
CONTINUOUS
 10
2.171840
 20
5.348640
  0
VERTEX
  8
0
 62
     0
  6
CONTINUOUS
 10
2.175800
 20
5.348640
  0
SEQEND
  8
0
  0
POLYLINE
  8
0
 62
     0
  6
CONTINUOUS
 66
     1
 40
0.002200
 41
0.002200
  0
VERTEX
  8
0
 62
     0
  6
CONTINUOUS
 10
2.175800
 20
5.348640
  0
VERTEX
  8
0
 62
     0
  6
CONTINUOUS
 10
2.179320
 20
5.345120
  0
SEQEND
  8
0
  0
POLYLINE
  8
0
 62
     0
  6
CONTINUOUS
 66
     1
 40
0.002200
 41
0.002200
  0
VERTEX
  8
0
 62
     0
  6
CONTINUOUS
 10
2.179320
 20
5.345120
  0
VERTEX
  8
0
 62
     0
  6
CONTINUOUS
 10
2.181080
 20
5.345120
  0
SEQEND
  8
0
  0
POLYLINE
  8
0
 62
     0
  6
CONTINUOUS
 66
     1
 40
0.002200
 41
0.002200
  0
VERTEX
  8
0
 62
     0
  6
CONTINUOUS
 10
2.181080
 20
5.345120
  0
VERTEX
  8
0
 62
     0
  6
CONTINUOUS
 10
2.185040
 20
5.343360
  0
SEQEND
  8
0
  0
POLYLINE
  8
0
 62
     0
  6
CONTINUOUS
 66
     1
 40
0.002200
 41
0.002200
  0
VERTEX
  8
0
 62
     0
  6
CONTINUOUS
 10
2.185040
 20
5.343360
  0
VERTEX
  8
0
 62
     0
  6
CONTINUOUS
 10
2.185040
 20
5.348640
  0
SEQEND
  8
0
  0
POLYLINE
  8
0
 62
     0
  6
CONTINUOUS
 66
     1
 40
0.002200
 41
0.002200
  0
VERTEX
  8
0
 62
     0
  6
CONTINUOUS
 10
2.185040
 20
5.348640
  0
VERTEX
  8
0
 62
     0
  6
CONTINUOUS
 10
2.188560
 20
5.345120
  0
SEQEND
  8
0
  0
POLYLINE
  8
0
 62
     0
  6
CONTINUOUS
 66
     1
 40
0.002200
 41
0.002200
  0
VERTEX
  8
0
 62
     0
  6
CONTINUOUS
 10
2.188560
 20
5.345120
  0
VERTEX
  8
0
 62
     0
  6
CONTINUOUS
 10
2.188560
 20
5.341160
  0
SEQEND
  8
0
  0
POLYLINE
  8
0
 62
     0
  6
CONTINUOUS
 66
     1
 40
0.002200
 41
0.002200
  0
VERTEX
  8
0
 62
     0
  6
CONTINUOUS
 10
2.188560
 20
5.341160
  0
VERTEX
  8
0
 62
     0
  6
CONTINUOUS
 10
2.190320
 20
5.341160
  0
SEQEND
  8
0
  0
POLYLINE
  8
0
 62
     0
  6
CONTINUOUS
 66
     1
 40
0.002200
 41
0.002200
  0
VERTEX
  8
0
 62
     0
  6
CONTINUOUS
 10
2.190320
 20
5.341160
  0
VERTEX
  8
0
 62
     0
  6
CONTINUOUS
 10
2.190320
 20
5.345120
  0
SEQEND
  8
0
  0
POLYLINE
  8
0
 62
     0
  6
CONTINUOUS
 66
     1
 40
0.002200
 41
0.002200
  0
VERTEX
  8
0
 62
     0
  6
CONTINUOUS
 10
2.190320
 20
5.345120
  0
VERTEX
  8
0
 62
     0
  6
CONTINUOUS
 10
2.194280
 20
5.343360
  0
SEQEND
  8
0
  0
POLYLINE
  8
0
 62
     0
  6
CONTINUOUS
 66
     1
 40
0.002200
 41
0.002200
  0
VERTEX
  8
0
 62
     0
  6
CONTINUOUS
 10
2.194280
 20
5.343360
  0
VERTEX
  8
0
 62
     0
  6
CONTINUOUS
 10
2.192520
 20
5.341160
  0
SEQEND
  8
0
  0
POLYLINE
  8
0
 62
     0
  6
CONTINUOUS
 66
     1
 40
0.002200
 41
0.002200
  0
VERTEX
  8
0
 62
     0
  6
CONTINUOUS
 10
2.192520
 20
5.341160
  0
VERTEX
  8
0
 62
     0
  6
CONTINUOUS
 10
2.194280
 20
5.339400
  0
SEQEND
  8
0
  0
POLYLINE
  8
0
 62
     0
  6
CONTINUOUS
 66
     1
 40
0.002200
 41
0.002200
  0
VERTEX
  8
0
 62
     0
  6
CONTINUOUS
 10
2.194280
 20
5.339400
  0
VERTEX
  8
0
 62
     0
  6
CONTINUOUS
 10
2.197800
 20
5.341160
  0
SEQEND
  8
0
  0
POLYLINE
  8
0
 62
     0
  6
CONTINUOUS
 66
     1
 40
0.002200
 41
0.002200
  0
VERTEX
  8
0
 62
     0
  6
CONTINUOUS
 10
2.197800
 20
5.341160
  0
VERTEX
  8
0
 62
     0
  6
CONTINUOUS
 10
2.197800
 20
5.337640
  0
SEQEND
  8
0
  0
POLYLINE
  8
0
 62
     0
  6
CONTINUOUS
 66
     1
 40
0.002200
 41
0.002200
  0
VERTEX
  8
0
 62
     0
  6
CONTINUOUS
 10
2.197800
 20
5.337640
  0
VERTEX
  8
0
 62
     0
  6
CONTINUOUS
 10
2.199560
 20
5.341160
  0
SEQEND
  8
0
  0
POLYLINE
  8
0
 62
     0
  6
CONTINUOUS
 66
     1
 40
0.002200
 41
0.002200
  0
VERTEX
  8
0
 62
     0
  6
CONTINUOUS
 10
2.199560
 20
5.341160
  0
VERTEX
  8
0
 62
     0
  6
CONTINUOUS
 10
2.199560
 20
5.337640
  0
SEQEND
  8
0
  0
POLYLINE
  8
0
 62
     0
  6
CONTINUOUS
 66
     1
 40
0.002200
 41
0.002200
  0
VERTEX
  8
0
 62
     0
  6
CONTINUOUS
 10
2.199560
 20
5.337640
  0
VERTEX
  8
0
 62
     0
  6
CONTINUOUS
 10
2.197800
 20
5.335880
  0
SEQEND
  8
0
  0
POLYLINE
  8
0
 62
     0
  6
CONTINUOUS
 66
     1
 40
0.002200
 41
0.002200
  0
VERTEX
  8
0
 62
     0
  6
CONTINUOUS
 10
2.197800
 20
5.335880
  0
VERTEX
  8
0
 62
     0
  6
CONTINUOUS
 10
2.199560
 20
5.335880
  0
SEQEND
  8
0
  0
POLYLINE
  8
0
 62
     0
  6
CONTINUOUS
 66
     1
 40
0.002200
 41
0.002200
  0
VERTEX
  8
0
 62
     0
  6
CONTINUOUS
 10
2.199560
 20
5.335880
  0
VERTEX
  8
0
 62
     0
  6
CONTINUOUS
 10
2.201760
 20
5.334120
  0
SEQEND
  8
0
  0
POLYLINE
  8
0
 62
     0
  6
CONTINUOUS
 66
     1
 40
0.002200
 41
0.002200
  0
VERTEX
  8
0
 62
     0
  6
CONTINUOUS
 10
2.201760
 20
5.334120
  0
VERTEX
  8
0
 62
     0
  6
CONTINUOUS
 10
2.205280
 20
5.328400
  0
SEQEND
  8
0
  0
POLYLINE
  8
0
 62
     0
  6
CONTINUOUS
 66
     1
 40
0.002200
 41
0.002200
  0
VERTEX
  8
0
 62
     0
  6
CONTINUOUS
 10
2.205280
 20
5.328400
  0
VERTEX
  8
0
 62
     0
  6
CONTINUOUS
 10
2.207040
 20
5.324880
  0
SEQEND
  8
0
  0
POLYLINE
  8
0
 62
     0
  6
CONTINUOUS
 66
     1
 40
0.002200
 41
0.002200
  0
VERTEX
  8
0
 62
     0
  6
CONTINUOUS
 10
2.207040
 20
5.324880
  0
VERTEX
  8
0
 62
     0
  6
CONTINUOUS
 10
2.208800
 20
5.322680
  0
SEQEND
  8
0
  0
POLYLINE
  8
0
 62
     0
  6
CONTINUOUS
 66
     1
 40
0.002200
 41
0.002200
  0
VERTEX
  8
0
 62
     0
  6
CONTINUOUS
 10
2.208800
 20
5.322680
  0
VERTEX
  8
0
 62
     0
  6
CONTINUOUS
 10
2.212760
 20
5.315640
  0
SEQEND
  8
0
  0
POLYLINE
  8
0
 62
     0
  6
CONTINUOUS
 66
     1
 40
0.002200
 41
0.002200
  0
VERTEX
  8
0
 62
     0
  6
CONTINUOUS
 10
2.212760
 20
5.315640
  0
VERTEX
  8
0
 62
     0
  6
CONTINUOUS
 10
2.212760
 20
5.311680
  0
SEQEND
  8
0
  0
POLYLINE
  8
0
 62
     0
  6
CONTINUOUS
 66
     1
 40
0.002200
 41
0.002200
  0
VERTEX
  8
0
 62
     0
  6
CONTINUOUS
 10
2.212760
 20
5.311680
  0
VERTEX
  8
0
 62
     0
  6
CONTINUOUS
 10
2.216280
 20
5.308160
  0
SEQEND
  8
0
  0
POLYLINE
  8
0
 62
     0
  6
CONTINUOUS
 66
     1
 40
0.002200
 41
0.002200
  0
VERTEX
  8
0
 62
     0
  6
CONTINUOUS
 10
2.216280
 20
5.308160
  0
VERTEX
  8
0
 62
     0
  6
CONTINUOUS
 10
2.218040
 20
5.304200
  0
SEQEND
  8
0
  0
POLYLINE
  8
0
 62
     0
  6
CONTINUOUS
 66
     1
 40
0.002200
 41
0.002200
  0
VERTEX
  8
0
 62
     0
  6
CONTINUOUS
 10
2.218040
 20
5.304200
  0
VERTEX
  8
0
 62
     0
  6
CONTINUOUS
 10
2.220240
 20
5.298920
  0
SEQEND
  8
0
  0
POLYLINE
  8
0
 62
     0
  6
CONTINUOUS
 66
     1
 40
0.002200
 41
0.002200
  0
VERTEX
  8
0
 62
     0
  6
CONTINUOUS
 10
2.220240
 20
5.298920
  0
VERTEX
  8
0
 62
     0
  6
CONTINUOUS
 10
2.220240
 20
5.294960
  0
SEQEND
  8
0
  0
POLYLINE
  8
0
 62
     0
  6
CONTINUOUS
 66
     1
 40
0.002200
 41
0.002200
  0
VERTEX
  8
0
 62
     0
  6
CONTINUOUS
 10
2.220240
 20
5.294960
  0
VERTEX
  8
0
 62
     0
  6
CONTINUOUS
 10
2.222000
 20
5.289680
  0
SEQEND
  8
0
  0
POLYLINE
  8
0
 62
     0
  6
CONTINUOUS
 66
     1
 40
0.002200
 41
0.002200
  0
VERTEX
  8
0
 62
     0
  6
CONTINUOUS
 10
2.222000
 20
5.289680
  0
VERTEX
  8
0
 62
     0
  6
CONTINUOUS
 10
2.222000
 20
5.285720
  0
SEQEND
  8
0
  0
POLYLINE
  8
0
 62
     0
  6
CONTINUOUS
 66
     1
 40
0.002200
 41
0.002200
  0
VERTEX
  8
0
 62
     0
  6
CONTINUOUS
 10
2.222000
 20
5.285720
  0
VERTEX
  8
0
 62
     0
  6
CONTINUOUS
 10
2.222000
 20
5.282200
  0
SEQEND
  8
0
  0
POLYLINE
  8
0
 62
     0
  6
CONTINUOUS
 66
     1
 40
0.002200
 41
0.002200
  0
VERTEX
  8
0
 62
     0
  6
CONTINUOUS
 10
2.222000
 20
5.282200
  0
VERTEX
  8
0
 62
     0
  6
CONTINUOUS
 10
2.220240
 20
5.282200
  0
SEQEND
  8
0
  0
POLYLINE
  8
0
 62
     0
  6
CONTINUOUS
 66
     1
 40
0.002200
 41
0.002200
  0
VERTEX
  8
0
 62
     0
  6
CONTINUOUS
 10
2.220240
 20
5.282200
  0
VERTEX
  8
0
 62
     0
  6
CONTINUOUS
 10
2.225520
 20
5.282200
  0
SEQEND
  8
0
  0
POLYLINE
  8
0
 62
     0
  6
CONTINUOUS
 66
     1
 40
0.002200
 41
0.002200
  0
VERTEX
  8
0
 62
     0
  6
CONTINUOUS
 10
1.245200
 20
4.444000
  0
VERTEX
  8
0
 62
     0
  6
CONTINUOUS
 10
1.245200
 20
6.251520
  0
VERTEX
  8
0
 62
     0
  6
CONTINUOUS
 10
2.133120
 20
6.251520
  0
VERTEX
  8
0
 62
     0
  6
CONTINUOUS
 10
2.133120
 20
6.138440
  0
SEQEND
  8
0
  0
POLYLINE
  8
0
 62
     0
  6
CONTINUOUS
 66
     1
 40
0.002200
 41
0.002200
  0
VERTEX
  8
0
 62
     0
  6
CONTINUOUS
 10
1.906080
 20
5.540920
  0
VERTEX
  8
0
 62
     0
  6
CONTINUOUS
 10
1.526800
 20
5.918440
  0
SEQEND
  8
0
  0
POLYLINE
  8
0
 62
     0
  6
CONTINUOUS
 66
     1
 40
0.002200
 41
0.002200
  0
VERTEX
  8
0
 62
     0
  6
CONTINUOUS
 10
2.612720
 20
5.740680
  0
VERTEX
  8
0
 62
     0
  6
CONTINUOUS
 10
2.333320
 20
5.875760
  0
SEQEND
  8
0
  0
POLYLINE
  8
0
 62
     0
  6
CONTINUOUS
 66
     1
 40
0.002200
 41
0.002200
  0
VERTEX
  8
0
 62
     0
  6
CONTINUOUS
 10
2.333320
 20
5.757400
  0
VERTEX
  8
0
 62
     0
  6
CONTINUOUS
 10
2.612720
 20
5.622320
  0
SEQEND
  8
0
  0
POLYLINE
  8
0
 62
     0
  6
CONTINUOUS
 66
     1
 40
0.002200
 41
0.002200
  0
VERTEX
  8
0
 62
     0
  6
CONTINUOUS
 10
2.612720
 20
5.483720
  0
VERTEX
  8
0
 62
     0
  6
CONTINUOUS
 10
2.333320
 20
5.618800
  0
SEQEND
  8
0
  0
POLYLINE
  8
0
 62
     0
  6
CONTINUOUS
 66
     1
 40
0.002200
 41
0.002200
  0
VERTEX
  8
0
 62
     0
  6
CONTINUOUS
 10
2.333320
 20
5.474480
  0
VERTEX
  8
0
 62
     0
  6
CONTINUOUS
 10
2.612720
 20
5.339400
  0
SEQEND
  8
0
  0
POLYLINE
  8
0
 62
     0
  6
CONTINUOUS
 66
     1
 40
0.002200
 41
0.002200
  0
VERTEX
  8
0
 62
     0
  6
CONTINUOUS
 10
2.612720
 20
5.211800
  0
VERTEX
  8
0
 62
     0
  6
CONTINUOUS
 10
2.333320
 20
5.348640
  0
SEQEND
  8
0
  0
POLYLINE
  8
0
 62
     0
  6
CONTINUOUS
 66
     1
 40
0.002200
 41
0.002200
  0
VERTEX
  8
0
 62
     0
  6
CONTINUOUS
 10
2.468400
 20
5.382080
  0
VERTEX
  8
0
 62
     0
  6
CONTINUOUS
 10
2.485120
 20
5.396600
  0
SEQEND
  8
0
  0
POLYLINE
  8
0
 62
     0
  6
CONTINUOUS
 66
     1
 40
0.002200
 41
0.002200
  0
VERTEX
  8
0
 62
     0
  6
CONTINUOUS
 10
2.485120
 20
5.396600
  0
VERTEX
  8
0
 62
     0
  6
CONTINUOUS
 10
2.486880
 20
5.376360
  0
SEQEND
  8
0
  0
POLYLINE
  8
0
 62
     0
  6
CONTINUOUS
 66
     1
 40
0.002200
 41
0.002200
  0
VERTEX
  8
0
 62
     0
  6
CONTINUOUS
 10
2.486880
 20
5.376360
  0
VERTEX
  8
0
 62
     0
  6
CONTINUOUS
 10
2.481160
 20
5.376360
  0
SEQEND
  8
0
  0
POLYLINE
  8
0
 62
     0
  6
CONTINUOUS
 66
     1
 40
0.002200
 41
0.002200
  0
VERTEX
  8
0
 62
     0
  6
CONTINUOUS
 10
2.481160
 20
5.376360
  0
VERTEX
  8
0
 62
     0
  6
CONTINUOUS
 10
2.485120
 20
5.396600
  0
SEQEND
  8
0
  0
POLYLINE
  8
0
 62
     0
  6
CONTINUOUS
 66
     1
 40
0.002200
 41
0.002200
  0
VERTEX
  8
0
 62
     0
  6
CONTINUOUS
 10
2.485120
 20
5.396600
  0
VERTEX
  8
0
 62
     0
  6
CONTINUOUS
 10
2.497880
 20
5.382080
  0
SEQEND
  8
0
  0
POLYLINE
  8
0
 62
     0
  6
CONTINUOUS
 66
     1
 40
0.002200
 41
0.002200
  0
VERTEX
  8
0
 62
     0
  6
CONTINUOUS
 10
2.492600
 20
5.378120
  0
VERTEX
  8
0
 62
     0
  6
CONTINUOUS
 10
2.485120
 20
5.396600
  0
SEQEND
  8
0
  0
POLYLINE
  8
0
 62
     0
  6
CONTINUOUS
 66
     1
 40
0.002200
 41
0.002200
  0
VERTEX
  8
0
 62
     0
  6
CONTINUOUS
 10
2.485120
 20
5.396600
  0
VERTEX
  8
0
 62
     0
  6
CONTINUOUS
 10
2.503600
 20
5.393080
  0
SEQEND
  8
0
  0
POLYLINE
  8
0
 62
     0
  6
CONTINUOUS
 66
     1
 40
0.002200
 41
0.002200
  0
VERTEX
  8
0
 62
     0
  6
CONTINUOUS
 10
2.503600
 20
5.393080
  0
VERTEX
  8
0
 62
     0
  6
CONTINUOUS
 10
2.503600
 20
5.400560
  0
SEQEND
  8
0
  0
POLYLINE
  8
0
 62
     0
  6
CONTINUOUS
 66
     1
 40
0.002200
 41
0.002200
  0
VERTEX
  8
0
 62
     0
  6
CONTINUOUS
 10
2.503600
 20
5.400560
  0
VERTEX
  8
0
 62
     0
  6
CONTINUOUS
 10
2.485120
 20
5.396600
  0
SEQEND
  8
0
  0
POLYLINE
  8
0
 62
     0
  6
CONTINUOUS
 66
     1
 40
0.002200
 41
0.002200
  0
VERTEX
  8
0
 62
     0
  6
CONTINUOUS
 10
2.485120
 20
5.396600
  0
VERTEX
  8
0
 62
     0
  6
CONTINUOUS
 10
2.503600
 20
5.408040
  0
SEQEND
  8
0
  0
POLYLINE
  8
0
 62
     0
  6
CONTINUOUS
 66
     1
 40
0.002200
 41
0.002200
  0
VERTEX
  8
0
 62
     0
  6
CONTINUOUS
 10
2.497880
 20
5.411560
  0
VERTEX
  8
0
 62
     0
  6
CONTINUOUS
 10
2.485120
 20
5.396600
  0
SEQEND
  8
0
  0
POLYLINE
  8
0
 62
     0
  6
CONTINUOUS
 66
     1
 40
0.002200
 41
0.002200
  0
VERTEX
  8
0
 62
     0
  6
CONTINUOUS
 10
2.485120
 20
5.396600
  0
VERTEX
  8
0
 62
     0
  6
CONTINUOUS
 10
2.481160
 20
5.419040
  0
SEQEND
  8
0
  0
POLYLINE
  8
0
 62
     0
  6
CONTINUOUS
 66
     1
 40
0.002200
 41
0.002200
  0
VERTEX
  8
0
 62
     0
  6
CONTINUOUS
 10
2.481160
 20
5.419040
  0
VERTEX
  8
0
 62
     0
  6
CONTINUOUS
 10
2.486880
 20
5.419040
  0
SEQEND
  8
0
  0
POLYLINE
  8
0
 62
     0
  6
CONTINUOUS
 66
     1
 40
0.002200
 41
0.002200
  0
VERTEX
  8
0
 62
     0
  6
CONTINUOUS
 10
2.486880
 20
5.419040
  0
VERTEX
  8
0
 62
     0
  6
CONTINUOUS
 10
2.485120
 20
5.396600
  0
SEQEND
  8
0
  0
POLYLINE
  8
0
 62
     0
  6
CONTINUOUS
 66
     1
 40
0.002200
 41
0.002200
  0
VERTEX
  8
0
 62
     0
  6
CONTINUOUS
 10
2.485120
 20
5.396600
  0
VERTEX
  8
0
 62
     0
  6
CONTINUOUS
 10
2.468400
 20
5.411560
  0
SEQEND
  8
0
  0
POLYLINE
  8
0
 62
     0
  6
CONTINUOUS
 66
     1
 40
0.002200
 41
0.002200
  0
VERTEX
  8
0
 62
     0
  6
CONTINUOUS
 10
2.466640
 20
5.408040
  0
VERTEX
  8
0
 62
     0
  6
CONTINUOUS
 10
2.485120
 20
5.396600
  0
SEQEND
  8
0
  0
POLYLINE
  8
0
 62
     0
  6
CONTINUOUS
 66
     1
 40
0.002200
 41
0.002200
  0
VERTEX
  8
0
 62
     0
  6
CONTINUOUS
 10
2.485120
 20
5.396600
  0
VERTEX
  8
0
 62
     0
  6
CONTINUOUS
 10
2.462680
 20
5.400560
  0
SEQEND
  8
0
  0
POLYLINE
  8
0
 62
     0
  6
CONTINUOUS
 66
     1
 40
0.002200
 41
0.002200
  0
VERTEX
  8
0
 62
     0
  6
CONTINUOUS
 10
2.462680
 20
5.400560
  0
VERTEX
  8
0
 62
     0
  6
CONTINUOUS
 10
2.462680
 20
5.393080
  0
SEQEND
  8
0
  0
POLYLINE
  8
0
 62
     0
  6
CONTINUOUS
 66
     1
 40
0.002200
 41
0.002200
  0
VERTEX
  8
0
 62
     0
  6
CONTINUOUS
 10
2.462680
 20
5.393080
  0
VERTEX
  8
0
 62
     0
  6
CONTINUOUS
 10
2.485120
 20
5.396600
  0
SEQEND
  8
0
  0
POLYLINE
  8
0
 62
     0
  6
CONTINUOUS
 66
     1
 40
0.002200
 41
0.002200
  0
VERTEX
  8
0
 62
     0
  6
CONTINUOUS
 10
2.485120
 20
5.396600
  0
VERTEX
  8
0
 62
     0
  6
CONTINUOUS
 10
2.466640
 20
5.387360
  0
SEQEND
  8
0
  0
POLYLINE
  8
0
 62
     0
  6
CONTINUOUS
 66
     1
 40
0.002200
 41
0.002200
  0
VERTEX
  8
0
 62
     0
  6
CONTINUOUS
 10
2.474120
 20
5.378120
  0
VERTEX
  8
0
 62
     0
  6
CONTINUOUS
 10
2.485120
 20
5.396600
  0
SEQEND
  8
0
  0
POLYLINE
  8
0
 62
     0
  6
CONTINUOUS
 66
     1
 40
0.002200
 41
0.002200
  0
VERTEX
  8
0
 62
     0
  6
CONTINUOUS
 10
2.485120
 20
5.396600
  0
VERTEX
  8
0
 62
     0
  6
CONTINUOUS
 10
2.503600
 20
5.387360
  0
SEQEND
  8
0
  0
POLYLINE
  8
0
 62
     0
  6
CONTINUOUS
 66
     1
 40
0.002200
 41
0.002200
  0
VERTEX
  8
0
 62
     0
  6
CONTINUOUS
 10
2.485120
 20
5.396600
  0
VERTEX
  8
0
 62
     0
  6
CONTINUOUS
 10
2.492600
 20
5.415080
  0
SEQEND
  8
0
  0
POLYLINE
  8
0
 62
     0
  6
CONTINUOUS
 66
     1
 40
0.002200
 41
0.002200
  0
VERTEX
  8
0
 62
     0
  6
CONTINUOUS
 10
2.474120
 20
5.415080
  0
VERTEX
  8
0
 62
     0
  6
CONTINUOUS
 10
2.485120
 20
5.396600
  0
SEQEND
  8
0
  0
POLYLINE
  8
0
 62
     0
  6
CONTINUOUS
 66
     1
 40
0.002200
 41
0.002200
  0
VERTEX
  8
0
 62
     0
  6
CONTINUOUS
 10
2.486880
 20
5.293200
  0
VERTEX
  8
0
 62
     0
  6
CONTINUOUS
 10
2.485120
 20
5.272960
  0
SEQEND
  8
0
  0
POLYLINE
  8
0
 62
     0
  6
CONTINUOUS
 66
     1
 40
0.002200
 41
0.002200
  0
VERTEX
  8
0
 62
     0
  6
CONTINUOUS
 10
2.485120
 20
5.272960
  0
VERTEX
  8
0
 62
     0
  6
CONTINUOUS
 10
2.481160
 20
5.293200
  0
SEQEND
  8
0
  0
POLYLINE
  8
0
 62
     0
  6
CONTINUOUS
 66
     1
 40
0.002200
 41
0.002200
  0
VERTEX
  8
0
 62
     0
  6
CONTINUOUS
 10
2.474120
 20
5.289680
  0
VERTEX
  8
0
 62
     0
  6
CONTINUOUS
 10
2.485120
 20
5.272960
  0
SEQEND
  8
0
  0
POLYLINE
  8
0
 62
     0
  6
CONTINUOUS
 66
     1
 40
0.002200
 41
0.002200
  0
VERTEX
  8
0
 62
     0
  6
CONTINUOUS
 10
2.485120
 20
5.272960
  0
VERTEX
  8
0
 62
     0
  6
CONTINUOUS
 10
2.468400
 20
5.285720
  0
SEQEND
  8
0
  0
POLYLINE
  8
0
 62
     0
  6
CONTINUOUS
 66
     1
 40
0.002200
 41
0.002200
  0
VERTEX
  8
0
 62
     0
  6
CONTINUOUS
 10
2.466640
 20
5.282200
  0
VERTEX
  8
0
 62
     0
  6
CONTINUOUS
 10
2.485120
 20
5.272960
  0
SEQEND
  8
0
  0
POLYLINE
  8
0
 62
     0
  6
CONTINUOUS
 66
     1
 40
0.002200
 41
0.002200
  0
VERTEX
  8
0
 62
     0
  6
CONTINUOUS
 10
2.485120
 20
5.272960
  0
VERTEX
  8
0
 62
     0
  6
CONTINUOUS
 10
2.462680
 20
5.274720
  0
SEQEND
  8
0
  0
POLYLINE
  8
0
 62
     0
  6
CONTINUOUS
 66
     1
 40
0.002200
 41
0.002200
  0
VERTEX
  8
0
 62
     0
  6
CONTINUOUS
 10
2.462680
 20
5.274720
  0
VERTEX
  8
0
 62
     0
  6
CONTINUOUS
 10
2.462680
 20
5.267240
  0
SEQEND
  8
0
  0
POLYLINE
  8
0
 62
     0
  6
CONTINUOUS
 66
     1
 40
0.002200
 41
0.002200
  0
VERTEX
  8
0
 62
     0
  6
CONTINUOUS
 10
2.462680
 20
5.267240
  0
VERTEX
  8
0
 62
     0
  6
CONTINUOUS
 10
2.485120
 20
5.272960
  0
SEQEND
  8
0
  0
POLYLINE
  8
0
 62
     0
  6
CONTINUOUS
 66
     1
 40
0.002200
 41
0.002200
  0
VERTEX
  8
0
 62
     0
  6
CONTINUOUS
 10
2.485120
 20
5.272960
  0
VERTEX
  8
0
 62
     0
  6
CONTINUOUS
 10
2.466640
 20
5.261520
  0
SEQEND
  8
0
  0
POLYLINE
  8
0
 62
     0
  6
CONTINUOUS
 66
     1
 40
0.002200
 41
0.002200
  0
VERTEX
  8
0
 62
     0
  6
CONTINUOUS
 10
2.468400
 20
5.256240
  0
VERTEX
  8
0
 62
     0
  6
CONTINUOUS
 10
2.485120
 20
5.272960
  0
SEQEND
  8
0
  0
POLYLINE
  8
0
 62
     0
  6
CONTINUOUS
 66
     1
 40
0.002200
 41
0.002200
  0
VERTEX
  8
0
 62
     0
  6
CONTINUOUS
 10
2.485120
 20
5.272960
  0
VERTEX
  8
0
 62
     0
  6
CONTINUOUS
 10
2.486880
 20
5.250520
  0
SEQEND
  8
0
  0
POLYLINE
  8
0
 62
     0
  6
CONTINUOUS
 66
     1
 40
0.002200
 41
0.002200
  0
VERTEX
  8
0
 62
     0
  6
CONTINUOUS
 10
2.486880
 20
5.250520
  0
VERTEX
  8
0
 62
     0
  6
CONTINUOUS
 10
2.481160
 20
5.250520
  0
SEQEND
  8
0
  0
POLYLINE
  8
0
 62
     0
  6
CONTINUOUS
 66
     1
 40
0.002200
 41
0.002200
  0
VERTEX
  8
0
 62
     0
  6
CONTINUOUS
 10
2.481160
 20
5.250520
  0
VERTEX
  8
0
 62
     0
  6
CONTINUOUS
 10
2.485120
 20
5.272960
  0
SEQEND
  8
0
  0
POLYLINE
  8
0
 62
     0
  6
CONTINUOUS
 66
     1
 40
0.002200
 41
0.002200
  0
VERTEX
  8
0
 62
     0
  6
CONTINUOUS
 10
2.485120
 20
5.272960
  0
VERTEX
  8
0
 62
     0
  6
CONTINUOUS
 10
2.497880
 20
5.256240
  0
SEQEND
  8
0
  0
POLYLINE
  8
0
 62
     0
  6
CONTINUOUS
 66
     1
 40
0.002200
 41
0.002200
  0
VERTEX
  8
0
 62
     0
  6
CONTINUOUS
 10
2.503600
 20
5.261520
  0
VERTEX
  8
0
 62
     0
  6
CONTINUOUS
 10
2.485120
 20
5.272960
  0
SEQEND
  8
0
  0
POLYLINE
  8
0
 62
     0
  6
CONTINUOUS
 66
     1
 40
0.002200
 41
0.002200
  0
VERTEX
  8
0
 62
     0
  6
CONTINUOUS
 10
2.485120
 20
5.272960
  0
VERTEX
  8
0
 62
     0
  6
CONTINUOUS
 10
2.503600
 20
5.267240
  0
SEQEND
  8
0
  0
POLYLINE
  8
0
 62
     0
  6
CONTINUOUS
 66
     1
 40
0.002200
 41
0.002200
  0
VERTEX
  8
0
 62
     0
  6
CONTINUOUS
 10
2.503600
 20
5.267240
  0
VERTEX
  8
0
 62
     0
  6
CONTINUOUS
 10
2.503600
 20
5.274720
  0
SEQEND
  8
0
  0
POLYLINE
  8
0
 62
     0
  6
CONTINUOUS
 66
     1
 40
0.002200
 41
0.002200
  0
VERTEX
  8
0
 62
     0
  6
CONTINUOUS
 10
2.503600
 20
5.274720
  0
VERTEX
  8
0
 62
     0
  6
CONTINUOUS
 10
2.485120
 20
5.272960
  0
SEQEND
  8
0
  0
POLYLINE
  8
0
 62
     0
  6
CONTINUOUS
 66
     1
 40
0.002200
 41
0.002200
  0
VERTEX
  8
0
 62
     0
  6
CONTINUOUS
 10
2.485120
 20
5.272960
  0
VERTEX
  8
0
 62
     0
  6
CONTINUOUS
 10
2.503600
 20
5.282200
  0
SEQEND
  8
0
  0
POLYLINE
  8
0
 62
     0
  6
CONTINUOUS
 66
     1
 40
0.002200
 41
0.002200
  0
VERTEX
  8
0
 62
     0
  6
CONTINUOUS
 10
2.497880
 20
5.285720
  0
VERTEX
  8
0
 62
     0
  6
CONTINUOUS
 10
2.485120
 20
5.272960
  0
SEQEND
  8
0
  0
POLYLINE
  8
0
 62
     0
  6
CONTINUOUS
 66
     1
 40
0.002200
 41
0.002200
  0
VERTEX
  8
0
 62
     0
  6
CONTINUOUS
 10
2.485120
 20
5.272960
  0
VERTEX
  8
0
 62
     0
  6
CONTINUOUS
 10
2.492600
 20
5.289680
  0
SEQEND
  8
0
  0
POLYLINE
  8
0
 62
     0
  6
CONTINUOUS
 66
     1
 40
0.002200
 41
0.002200
  0
VERTEX
  8
0
 62
     0
  6
CONTINUOUS
 10
2.485120
 20
5.272960
  0
VERTEX
  8
0
 62
     0
  6
CONTINUOUS
 10
2.474120
 20
5.252280
  0
SEQEND
  8
0
  0
POLYLINE
  8
0
 62
     0
  6
CONTINUOUS
 66
     1
 40
0.002200
 41
0.002200
  0
VERTEX
  8
0
 62
     0
  6
CONTINUOUS
 10
2.492600
 20
5.252280
  0
VERTEX
  8
0
 62
     0
  6
CONTINUOUS
 10
2.485120
 20
5.272960
  0
SEQEND
  8
0
  0
POLYLINE
  8
0
 62
     0
  6
CONTINUOUS
 66
     1
 40
0.002200
 41
0.002200
  0
VERTEX
  8
0
 62
     0
  6
CONTINUOUS
 10
2.481160
 20
5.520680
  0
VERTEX
  8
0
 62
     0
  6
CONTINUOUS
 10
2.485120
 20
5.540920
  0
SEQEND
  8
0
  0
POLYLINE
  8
0
 62
     0
  6
CONTINUOUS
 66
     1
 40
0.002200
 41
0.002200
  0
VERTEX
  8
0
 62
     0
  6
CONTINUOUS
 10
2.485120
 20
5.540920
  0
VERTEX
  8
0
 62
     0
  6
CONTINUOUS
 10
2.486880
 20
5.520680
  0
SEQEND
  8
0
  0
POLYLINE
  8
0
 62
     0
  6
CONTINUOUS
 66
     1
 40
0.002200
 41
0.002200
  0
VERTEX
  8
0
 62
     0
  6
CONTINUOUS
 10
2.492600
 20
5.522440
  0
VERTEX
  8
0
 62
     0
  6
CONTINUOUS
 10
2.485120
 20
5.540920
  0
SEQEND
  8
0
  0
POLYLINE
  8
0
 62
     0
  6
CONTINUOUS
 66
     1
 40
0.002200
 41
0.002200
  0
VERTEX
  8
0
 62
     0
  6
CONTINUOUS
 10
2.485120
 20
5.540920
  0
VERTEX
  8
0
 62
     0
  6
CONTINUOUS
 10
2.497880
 20
5.526400
  0
SEQEND
  8
0
  0
POLYLINE
  8
0
 62
     0
  6
CONTINUOUS
 66
     1
 40
0.002200
 41
0.002200
  0
VERTEX
  8
0
 62
     0
  6
CONTINUOUS
 10
2.503600
 20
5.531680
  0
VERTEX
  8
0
 62
     0
  6
CONTINUOUS
 10
2.485120
 20
5.540920
  0
SEQEND
  8
0
  0
POLYLINE
  8
0
 62
     0
  6
CONTINUOUS
 66
     1
 40
0.002200
 41
0.002200
  0
VERTEX
  8
0
 62
     0
  6
CONTINUOUS
 10
2.485120
 20
5.540920
  0
VERTEX
  8
0
 62
     0
  6
CONTINUOUS
 10
2.503600
 20
5.539160
  0
SEQEND
  8
0
  0
POLYLINE
  8
0
 62
     0
  6
CONTINUOUS
 66
     1
 40
0.002200
 41
0.002200
  0
VERTEX
  8
0
 62
     0
  6
CONTINUOUS
 10
2.503600
 20
5.539160
  0
VERTEX
  8
0
 62
     0
  6
CONTINUOUS
 10
2.503600
 20
5.544880
  0
SEQEND
  8
0
  0
POLYLINE
  8
0
 62
     0
  6
CONTINUOUS
 66
     1
 40
0.002200
 41
0.002200
  0
VERTEX
  8
0
 62
     0
  6
CONTINUOUS
 10
2.503600
 20
5.544880
  0
VERTEX
  8
0
 62
     0
  6
CONTINUOUS
 10
2.485120
 20
5.540920
  0
SEQEND
  8
0
  0
POLYLINE
  8
0
 62
     0
  6
CONTINUOUS
 66
     1
 40
0.002200
 41
0.002200
  0
VERTEX
  8
0
 62
     0
  6
CONTINUOUS
 10
2.485120
 20
5.540920
  0
VERTEX
  8
0
 62
     0
  6
CONTINUOUS
 10
2.503600
 20
5.551920
  0
SEQEND
  8
0
  0
POLYLINE
  8
0
 62
     0
  6
CONTINUOUS
 66
     1
 40
0.002200
 41
0.002200
  0
VERTEX
  8
0
 62
     0
  6
CONTINUOUS
 10
2.497880
 20
5.555880
  0
VERTEX
  8
0
 62
     0
  6
CONTINUOUS
 10
2.485120
 20
5.540920
  0
SEQEND
  8
0
  0
POLYLINE
  8
0
 62
     0
  6
CONTINUOUS
 66
     1
 40
0.002200
 41
0.002200
  0
VERTEX
  8
0
 62
     0
  6
CONTINUOUS
 10
2.485120
 20
5.540920
  0
VERTEX
  8
0
 62
     0
  6
CONTINUOUS
 10
2.486880
 20
5.563360
  0
SEQEND
  8
0
  0
POLYLINE
  8
0
 62
     0
  6
CONTINUOUS
 66
     1
 40
0.002200
 41
0.002200
  0
VERTEX
  8
0
 62
     0
  6
CONTINUOUS
 10
2.486880
 20
5.563360
  0
VERTEX
  8
0
 62
     0
  6
CONTINUOUS
 10
2.481160
 20
5.563360
  0
SEQEND
  8
0
  0
POLYLINE
  8
0
 62
     0
  6
CONTINUOUS
 66
     1
 40
0.002200
 41
0.002200
  0
VERTEX
  8
0
 62
     0
  6
CONTINUOUS
 10
2.481160
 20
5.563360
  0
VERTEX
  8
0
 62
     0
  6
CONTINUOUS
 10
2.485120
 20
5.540920
  0
SEQEND
  8
0
  0
POLYLINE
  8
0
 62
     0
  6
CONTINUOUS
 66
     1
 40
0.002200
 41
0.002200
  0
VERTEX
  8
0
 62
     0
  6
CONTINUOUS
 10
2.485120
 20
5.540920
  0
VERTEX
  8
0
 62
     0
  6
CONTINUOUS
 10
2.468400
 20
5.555880
  0
SEQEND
  8
0
  0
POLYLINE
  8
0
 62
     0
  6
CONTINUOUS
 66
     1
 40
0.002200
 41
0.002200
  0
VERTEX
  8
0
 62
     0
  6
CONTINUOUS
 10
2.466640
 20
5.551920
  0
VERTEX
  8
0
 62
     0
  6
CONTINUOUS
 10
2.485120
 20
5.540920
  0
SEQEND
  8
0
  0
POLYLINE
  8
0
 62
     0
  6
CONTINUOUS
 66
     1
 40
0.002200
 41
0.002200
  0
VERTEX
  8
0
 62
     0
  6
CONTINUOUS
 10
2.485120
 20
5.540920
  0
VERTEX
  8
0
 62
     0
  6
CONTINUOUS
 10
2.462680
 20
5.544880
  0
SEQEND
  8
0
  0
POLYLINE
  8
0
 62
     0
  6
CONTINUOUS
 66
     1
 40
0.002200
 41
0.002200
  0
VERTEX
  8
0
 62
     0
  6
CONTINUOUS
 10
2.462680
 20
5.544880
  0
VERTEX
  8
0
 62
     0
  6
CONTINUOUS
 10
2.462680
 20
5.539160
  0
SEQEND
  8
0
  0
POLYLINE
  8
0
 62
     0
  6
CONTINUOUS
 66
     1
 40
0.002200
 41
0.002200
  0
VERTEX
  8
0
 62
     0
  6
CONTINUOUS
 10
2.462680
 20
5.539160
  0
VERTEX
  8
0
 62
     0
  6
CONTINUOUS
 10
2.485120
 20
5.540920
  0
SEQEND
  8
0
  0
POLYLINE
  8
0
 62
     0
  6
CONTINUOUS
 66
     1
 40
0.002200
 41
0.002200
  0
VERTEX
  8
0
 62
     0
  6
CONTINUOUS
 10
2.485120
 20
5.540920
  0
VERTEX
  8
0
 62
     0
  6
CONTINUOUS
 10
2.466640
 20
5.531680
  0
SEQEND
  8
0
  0
POLYLINE
  8
0
 62
     0
  6
CONTINUOUS
 66
     1
 40
0.002200
 41
0.002200
  0
VERTEX
  8
0
 62
     0
  6
CONTINUOUS
 10
2.468400
 20
5.526400
  0
VERTEX
  8
0
 62
     0
  6
CONTINUOUS
 10
2.485120
 20
5.540920
  0
SEQEND
  8
0
  0
POLYLINE
  8
0
 62
     0
  6
CONTINUOUS
 66
     1
 40
0.002200
 41
0.002200
  0
VERTEX
  8
0
 62
     0
  6
CONTINUOUS
 10
2.485120
 20
5.540920
  0
VERTEX
  8
0
 62
     0
  6
CONTINUOUS
 10
2.474120
 20
5.522440
  0
SEQEND
  8
0
  0
POLYLINE
  8
0
 62
     0
  6
CONTINUOUS
 66
     1
 40
0.002200
 41
0.002200
  0
VERTEX
  8
0
 62
     0
  6
CONTINUOUS
 10
2.485120
 20
5.540920
  0
VERTEX
  8
0
 62
     0
  6
CONTINUOUS
 10
2.492600
 20
5.561600
  0
SEQEND
  8
0
  0
POLYLINE
  8
0
 62
     0
  6
CONTINUOUS
 66
     1
 40
0.002200
 41
0.002200
  0
VERTEX
  8
0
 62
     0
  6
CONTINUOUS
 10
2.474120
 20
5.561600
  0
VERTEX
  8
0
 62
     0
  6
CONTINUOUS
 10
2.485120
 20
5.540920
  0
SEQEND
  8
0
  0
POLYLINE
  8
0
 62
     0
  6
CONTINUOUS
 66
     1
 40
0.002200
 41
0.002200
  0
VERTEX
  8
0
 62
     0
  6
CONTINUOUS
 10
2.486880
 20
5.659280
  0
VERTEX
  8
0
 62
     0
  6
CONTINUOUS
 10
2.485120
 20
5.681720
  0
SEQEND
  8
0
  0
POLYLINE
  8
0
 62
     0
  6
CONTINUOUS
 66
     1
 40
0.002200
 41
0.002200
  0
VERTEX
  8
0
 62
     0
  6
CONTINUOUS
 10
2.485120
 20
5.681720
  0
VERTEX
  8
0
 62
     0
  6
CONTINUOUS
 10
2.497880
 20
5.665000
  0
SEQEND
  8
0
  0
POLYLINE
  8
0
 62
     0
  6
CONTINUOUS
 66
     1
 40
0.002200
 41
0.002200
  0
VERTEX
  8
0
 62
     0
  6
CONTINUOUS
 10
2.503600
 20
5.670720
  0
VERTEX
  8
0
 62
     0
  6
CONTINUOUS
 10
2.485120
 20
5.681720
  0
SEQEND
  8
0
  0
POLYLINE
  8
0
 62
     0
  6
CONTINUOUS
 66
     1
 40
0.002200
 41
0.002200
  0
VERTEX
  8
0
 62
     0
  6
CONTINUOUS
 10
2.485120
 20
5.681720
  0
VERTEX
  8
0
 62
     0
  6
CONTINUOUS
 10
2.503600
 20
5.677760
  0
SEQEND
  8
0
  0
POLYLINE
  8
0
 62
     0
  6
CONTINUOUS
 66
     1
 40
0.002200
 41
0.002200
  0
VERTEX
  8
0
 62
     0
  6
CONTINUOUS
 10
2.503600
 20
5.677760
  0
VERTEX
  8
0
 62
     0
  6
CONTINUOUS
 10
2.503600
 20
5.683480
  0
SEQEND
  8
0
  0
POLYLINE
  8
0
 62
     0
  6
CONTINUOUS
 66
     1
 40
0.002200
 41
0.002200
  0
VERTEX
  8
0
 62
     0
  6
CONTINUOUS
 10
2.503600
 20
5.683480
  0
VERTEX
  8
0
 62
     0
  6
CONTINUOUS
 10
2.485120
 20
5.681720
  0
SEQEND
  8
0
  0
POLYLINE
  8
0
 62
     0
  6
CONTINUOUS
 66
     1
 40
0.002200
 41
0.002200
  0
VERTEX
  8
0
 62
     0
  6
CONTINUOUS
 10
2.485120
 20
5.681720
  0
VERTEX
  8
0
 62
     0
  6
CONTINUOUS
 10
2.503600
 20
5.690960
  0
SEQEND
  8
0
  0
POLYLINE
  8
0
 62
     0
  6
CONTINUOUS
 66
     1
 40
0.002200
 41
0.002200
  0
VERTEX
  8
0
 62
     0
  6
CONTINUOUS
 10
2.497880
 20
5.696240
  0
VERTEX
  8
0
 62
     0
  6
CONTINUOUS
 10
2.485120
 20
5.681720
  0
SEQEND
  8
0
  0
POLYLINE
  8
0
 62
     0
  6
CONTINUOUS
 66
     1
 40
0.002200
 41
0.002200
  0
VERTEX
  8
0
 62
     0
  6
CONTINUOUS
 10
2.485120
 20
5.681720
  0
VERTEX
  8
0
 62
     0
  6
CONTINUOUS
 10
2.486880
 20
5.703720
  0
SEQEND
  8
0
  0
POLYLINE
  8
0
 62
     0
  6
CONTINUOUS
 66
     1
 40
0.002200
 41
0.002200
  0
VERTEX
  8
0
 62
     0
  6
CONTINUOUS
 10
2.486880
 20
5.703720
  0
VERTEX
  8
0
 62
     0
  6
CONTINUOUS
 10
2.481160
 20
5.703720
  0
SEQEND
  8
0
  0
POLYLINE
  8
0
 62
     0
  6
CONTINUOUS
 66
     1
 40
0.002200
 41
0.002200
  0
VERTEX
  8
0
 62
     0
  6
CONTINUOUS
 10
2.481160
 20
5.703720
  0
VERTEX
  8
0
 62
     0
  6
CONTINUOUS
 10
2.485120
 20
5.681720
  0
SEQEND
  8
0
  0
POLYLINE
  8
0
 62
     0
  6
CONTINUOUS
 66
     1
 40
0.002200
 41
0.002200
  0
VERTEX
  8
0
 62
     0
  6
CONTINUOUS
 10
2.485120
 20
5.681720
  0
VERTEX
  8
0
 62
     0
  6
CONTINUOUS
 10
2.468400
 20
5.696240
  0
SEQEND
  8
0
  0
POLYLINE
  8
0
 62
     0
  6
CONTINUOUS
 66
     1
 40
0.002200
 41
0.002200
  0
VERTEX
  8
0
 62
     0
  6
CONTINUOUS
 10
2.466640
 20
5.690960
  0
VERTEX
  8
0
 62
     0
  6
CONTINUOUS
 10
2.485120
 20
5.681720
  0
SEQEND
  8
0
  0
POLYLINE
  8
0
 62
     0
  6
CONTINUOUS
 66
     1
 40
0.002200
 41
0.002200
  0
VERTEX
  8
0
 62
     0
  6
CONTINUOUS
 10
2.485120
 20
5.681720
  0
VERTEX
  8
0
 62
     0
  6
CONTINUOUS
 10
2.462680
 20
5.683480
  0
SEQEND
  8
0
  0
POLYLINE
  8
0
 62
     0
  6
CONTINUOUS
 66
     1
 40
0.002200
 41
0.002200
  0
VERTEX
  8
0
 62
     0
  6
CONTINUOUS
 10
2.462680
 20
5.683480
  0
VERTEX
  8
0
 62
     0
  6
CONTINUOUS
 10
2.462680
 20
5.677760
  0
SEQEND
  8
0
  0
POLYLINE
  8
0
 62
     0
  6
CONTINUOUS
 66
     1
 40
0.002200
 41
0.002200
  0
VERTEX
  8
0
 62
     0
  6
CONTINUOUS
 10
2.462680
 20
5.677760
  0
VERTEX
  8
0
 62
     0
  6
CONTINUOUS
 10
2.485120
 20
5.681720
  0
SEQEND
  8
0
  0
POLYLINE
  8
0
 62
     0
  6
CONTINUOUS
 66
     1
 40
0.002200
 41
0.002200
  0
VERTEX
  8
0
 62
     0
  6
CONTINUOUS
 10
2.485120
 20
5.681720
  0
VERTEX
  8
0
 62
     0
  6
CONTINUOUS
 10
2.466640
 20
5.670720
  0
SEQEND
  8
0
  0
POLYLINE
  8
0
 62
     0
  6
CONTINUOUS
 66
     1
 40
0.002200
 41
0.002200
  0
VERTEX
  8
0
 62
     0
  6
CONTINUOUS
 10
2.468400
 20
5.665000
  0
VERTEX
  8
0
 62
     0
  6
CONTINUOUS
 10
2.485120
 20
5.681720
  0
SEQEND
  8
0
  0
POLYLINE
  8
0
 62
     0
  6
CONTINUOUS
 66
     1
 40
0.002200
 41
0.002200
  0
VERTEX
  8
0
 62
     0
  6
CONTINUOUS
 10
2.485120
 20
5.681720
  0
VERTEX
  8
0
 62
     0
  6
CONTINUOUS
 10
2.481160
 20
5.659280
  0
SEQEND
  8
0
  0
POLYLINE
  8
0
 62
     0
  6
CONTINUOUS
 66
     1
 40
0.002200
 41
0.002200
  0
VERTEX
  8
0
 62
     0
  6
CONTINUOUS
 10
2.474120
 20
5.661040
  0
VERTEX
  8
0
 62
     0
  6
CONTINUOUS
 10
2.485120
 20
5.681720
  0
SEQEND
  8
0
  0
POLYLINE
  8
0
 62
     0
  6
CONTINUOUS
 66
     1
 40
0.002200
 41
0.002200
  0
VERTEX
  8
0
 62
     0
  6
CONTINUOUS
 10
2.485120
 20
5.681720
  0
VERTEX
  8
0
 62
     0
  6
CONTINUOUS
 10
2.492600
 20
5.661040
  0
SEQEND
  8
0
  0
POLYLINE
  8
0
 62
     0
  6
CONTINUOUS
 66
     1
 40
0.002200
 41
0.002200
  0
VERTEX
  8
0
 62
     0
  6
CONTINUOUS
 10
2.485120
 20
5.681720
  0
VERTEX
  8
0
 62
     0
  6
CONTINUOUS
 10
2.492600
 20
5.700200
  0
SEQEND
  8
0
  0
POLYLINE
  8
0
 62
     0
  6
CONTINUOUS
 66
     1
 40
0.002200
 41
0.002200
  0
VERTEX
  8
0
 62
     0
  6
CONTINUOUS
 10
2.474120
 20
5.700200
  0
VERTEX
  8
0
 62
     0
  6
CONTINUOUS
 10
2.485120
 20
5.681720
  0
SEQEND
  8
0
  0
POLYLINE
  8
0
 62
     0
  6
CONTINUOUS
 66
     1
 40
0.002200
 41
0.002200
  0
VERTEX
  8
0
 62
     0
  6
CONTINUOUS
 10
2.486880
 20
5.777640
  0
VERTEX
  8
0
 62
     0
  6
CONTINUOUS
 10
2.485120
 20
5.800080
  0
SEQEND
  8
0
  0
POLYLINE
  8
0
 62
     0
  6
CONTINUOUS
 66
     1
 40
0.002200
 41
0.002200
  0
VERTEX
  8
0
 62
     0
  6
CONTINUOUS
 10
2.485120
 20
5.800080
  0
VERTEX
  8
0
 62
     0
  6
CONTINUOUS
 10
2.497880
 20
5.785120
  0
SEQEND
  8
0
  0
POLYLINE
  8
0
 62
     0
  6
CONTINUOUS
 66
     1
 40
0.002200
 41
0.002200
  0
VERTEX
  8
0
 62
     0
  6
CONTINUOUS
 10
2.492600
 20
5.781600
  0
VERTEX
  8
0
 62
     0
  6
CONTINUOUS
 10
2.485120
 20
5.800080
  0
SEQEND
  8
0
  0
POLYLINE
  8
0
 62
     0
  6
CONTINUOUS
 66
     1
 40
0.002200
 41
0.002200
  0
VERTEX
  8
0
 62
     0
  6
CONTINUOUS
 10
2.485120
 20
5.800080
  0
VERTEX
  8
0
 62
     0
  6
CONTINUOUS
 10
2.503600
 20
5.796120
  0
SEQEND
  8
0
  0
POLYLINE
  8
0
 62
     0
  6
CONTINUOUS
 66
     1
 40
0.002200
 41
0.002200
  0
VERTEX
  8
0
 62
     0
  6
CONTINUOUS
 10
2.503600
 20
5.796120
  0
VERTEX
  8
0
 62
     0
  6
CONTINUOUS
 10
2.503600
 20
5.803600
  0
SEQEND
  8
0
  0
POLYLINE
  8
0
 62
     0
  6
CONTINUOUS
 66
     1
 40
0.002200
 41
0.002200
  0
VERTEX
  8
0
 62
     0
  6
CONTINUOUS
 10
2.503600
 20
5.803600
  0
VERTEX
  8
0
 62
     0
  6
CONTINUOUS
 10
2.485120
 20
5.800080
  0
SEQEND
  8
0
  0
POLYLINE
  8
0
 62
     0
  6
CONTINUOUS
 66
     1
 40
0.002200
 41
0.002200
  0
VERTEX
  8
0
 62
     0
  6
CONTINUOUS
 10
2.485120
 20
5.800080
  0
VERTEX
  8
0
 62
     0
  6
CONTINUOUS
 10
2.503600
 20
5.811080
  0
SEQEND
  8
0
  0
POLYLINE
  8
0
 62
     0
  6
CONTINUOUS
 66
     1
 40
0.002200
 41
0.002200
  0
VERTEX
  8
0
 62
     0
  6
CONTINUOUS
 10
2.497880
 20
5.814600
  0
VERTEX
  8
0
 62
     0
  6
CONTINUOUS
 10
2.485120
 20
5.800080
  0
SEQEND
  8
0
  0
POLYLINE
  8
0
 62
     0
  6
CONTINUOUS
 66
     1
 40
0.002200
 41
0.002200
  0
VERTEX
  8
0
 62
     0
  6
CONTINUOUS
 10
2.485120
 20
5.800080
  0
VERTEX
  8
0
 62
     0
  6
CONTINUOUS
 10
2.486880
 20
5.822080
  0
SEQEND
  8
0
  0
POLYLINE
  8
0
 62
     0
  6
CONTINUOUS
 66
     1
 40
0.002200
 41
0.002200
  0
VERTEX
  8
0
 62
     0
  6
CONTINUOUS
 10
2.486880
 20
5.822080
  0
VERTEX
  8
0
 62
     0
  6
CONTINUOUS
 10
2.481160
 20
5.822080
  0
SEQEND
  8
0
  0
POLYLINE
  8
0
 62
     0
  6
CONTINUOUS
 66
     1
 40
0.002200
 41
0.002200
  0
VERTEX
  8
0
 62
     0
  6
CONTINUOUS
 10
2.481160
 20
5.822080
  0
VERTEX
  8
0
 62
     0
  6
CONTINUOUS
 10
2.485120
 20
5.800080
  0
SEQEND
  8
0
  0
POLYLINE
  8
0
 62
     0
  6
CONTINUOUS
 66
     1
 40
0.002200
 41
0.002200
  0
VERTEX
  8
0
 62
     0
  6
CONTINUOUS
 10
2.485120
 20
5.800080
  0
VERTEX
  8
0
 62
     0
  6
CONTINUOUS
 10
2.468400
 20
5.814600
  0
SEQEND
  8
0
  0
POLYLINE
  8
0
 62
     0
  6
CONTINUOUS
 66
     1
 40
0.002200
 41
0.002200
  0
VERTEX
  8
0
 62
     0
  6
CONTINUOUS
 10
2.466640
 20
5.811080
  0
VERTEX
  8
0
 62
     0
  6
CONTINUOUS
 10
2.485120
 20
5.800080
  0
SEQEND
  8
0
  0
POLYLINE
  8
0
 62
     0
  6
CONTINUOUS
 66
     1
 40
0.002200
 41
0.002200
  0
VERTEX
  8
0
 62
     0
  6
CONTINUOUS
 10
2.485120
 20
5.800080
  0
VERTEX
  8
0
 62
     0
  6
CONTINUOUS
 10
2.462680
 20
5.803600
  0
SEQEND
  8
0
  0
POLYLINE
  8
0
 62
     0
  6
CONTINUOUS
 66
     1
 40
0.002200
 41
0.002200
  0
VERTEX
  8
0
 62
     0
  6
CONTINUOUS
 10
2.462680
 20
5.803600
  0
VERTEX
  8
0
 62
     0
  6
CONTINUOUS
 10
2.462680
 20
5.796120
  0
SEQEND
  8
0
  0
POLYLINE
  8
0
 62
     0
  6
CONTINUOUS
 66
     1
 40
0.002200
 41
0.002200
  0
VERTEX
  8
0
 62
     0
  6
CONTINUOUS
 10
2.462680
 20
5.796120
  0
VERTEX
  8
0
 62
     0
  6
CONTINUOUS
 10
2.485120
 20
5.800080
  0
SEQEND
  8
0
  0
POLYLINE
  8
0
 62
     0
  6
CONTINUOUS
 66
     1
 40
0.002200
 41
0.002200
  0
VERTEX
  8
0
 62
     0
  6
CONTINUOUS
 10
2.485120
 20
5.800080
  0
VERTEX
  8
0
 62
     0
  6
CONTINUOUS
 10
2.466640
 20
5.789080
  0
SEQEND
  8
0
  0
POLYLINE
  8
0
 62
     0
  6
CONTINUOUS
 66
     1
 40
0.002200
 41
0.002200
  0
VERTEX
  8
0
 62
     0
  6
CONTINUOUS
 10
2.468400
 20
5.785120
  0
VERTEX
  8
0
 62
     0
  6
CONTINUOUS
 10
2.485120
 20
5.800080
  0
SEQEND
  8
0
  0
POLYLINE
  8
0
 62
     0
  6
CONTINUOUS
 66
     1
 40
0.002200
 41
0.002200
  0
VERTEX
  8
0
 62
     0
  6
CONTINUOUS
 10
2.485120
 20
5.800080
  0
VERTEX
  8
0
 62
     0
  6
CONTINUOUS
 10
2.481160
 20
5.777640
  0
SEQEND
  8
0
  0
POLYLINE
  8
0
 62
     0
  6
CONTINUOUS
 66
     1
 40
0.002200
 41
0.002200
  0
VERTEX
  8
0
 62
     0
  6
CONTINUOUS
 10
2.474120
 20
5.781600
  0
VERTEX
  8
0
 62
     0
  6
CONTINUOUS
 10
2.485120
 20
5.800080
  0
SEQEND
  8
0
  0
POLYLINE
  8
0
 62
     0
  6
CONTINUOUS
 66
     1
 40
0.002200
 41
0.002200
  0
VERTEX
  8
0
 62
     0
  6
CONTINUOUS
 10
2.485120
 20
5.800080
  0
VERTEX
  8
0
 62
     0
  6
CONTINUOUS
 10
2.503600
 20
5.789080
  0
SEQEND
  8
0
  0
POLYLINE
  8
0
 62
     0
  6
CONTINUOUS
 66
     1
 40
0.002200
 41
0.002200
  0
VERTEX
  8
0
 62
     0
  6
CONTINUOUS
 10
2.485120
 20
5.800080
  0
VERTEX
  8
0
 62
     0
  6
CONTINUOUS
 10
2.492600
 20
5.820320
  0
SEQEND
  8
0
  0
POLYLINE
  8
0
 62
     0
  6
CONTINUOUS
 66
     1
 40
0.002200
 41
0.002200
  0
VERTEX
  8
0
 62
     0
  6
CONTINUOUS
 10
2.474120
 20
5.820320
  0
VERTEX
  8
0
 62
     0
  6
CONTINUOUS
 10
2.485120
 20
5.800080
  0
SEQEND
  8
0
  0
POLYLINE
  8
0
 62
     0
  6
CONTINUOUS
 66
     1
 40
0.002200
 41
0.002200
  0
VERTEX
  8
0
 62
     0
  6
CONTINUOUS
 10
3.541560
 20
5.187160
  0
VERTEX
  8
0
 62
     0
  6
CONTINUOUS
 10
1.527680
 20
5.187160
  0
SEQEND
  8
0
  0
POLYLINE
  8
0
 62
     0
  6
CONTINUOUS
 66
     1
 40
0.002200
 41
0.002200
  0
VERTEX
  8
0
 62
     0
  6
CONTINUOUS
 10
1.526800
 20
5.189800
  0
VERTEX
  8
0
 62
     0
  6
CONTINUOUS
 10
1.906080
 20
5.540920
  0
SEQEND
  8
0
  0
POLYLINE
  8
0
 62
     0
  6
CONTINUOUS
 66
     1
 40
0.002200
 41
0.002200
  0
VERTEX
  8
0
 62
     0
  6
CONTINUOUS
 10
3.555640
 20
5.914040
  0
VERTEX
  8
0
 62
     0
  6
CONTINUOUS
 10
1.543080
 20
5.914040
  0
SEQEND
  8
0
  0
POLYLINE
  8
0
 62
     0
  6
CONTINUOUS
 66
     1
 40
0.002200
 41
0.002200
  0
VERTEX
  8
0
 62
     0
  6
CONTINUOUS
 10
2.483360
 20
5.393080
  0
VERTEX
  8
0
 62
     0
  6
CONTINUOUS
 10
2.483360
 20
5.167360
  0
SEQEND
  8
0
  0
POLYLINE
  8
0
 62
     0
  6
CONTINUOUS
 66
     1
 40
0.002200
 41
0.002200
  0
VERTEX
  8
0
 62
     0
  6
CONTINUOUS
 10
2.483360
 20
5.481960
  0
VERTEX
  8
0
 62
     0
  6
CONTINUOUS
 10
2.483360
 20
5.663240
  0
SEQEND
  8
0
  0
POLYLINE
  8
0
 62
     0
  6
CONTINUOUS
 66
     1
 40
0.002200
 41
0.002200
  0
VERTEX
  8
0
 62
     0
  6
CONTINUOUS
 10
2.483360
 20
5.753880
  0
VERTEX
  8
0
 62
     0
  6
CONTINUOUS
 10
2.483360
 20
5.935160
  0
SEQEND
  8
0
  0
POLYLINE
  8
0
 62
     0
  6
CONTINUOUS
 66
     1
 40
0.002200
 41
0.002200
  0
VERTEX
  8
0
 62
     0
  6
CONTINUOUS
 10
3.554320
 20
5.189800
  0
VERTEX
  8
0
 62
     0
  6
CONTINUOUS
 10
3.933600
 20
5.540920
  0
SEQEND
  8
0
  0
POLYLINE
  8
0
 62
     0
  6
CONTINUOUS
 66
     1
 40
0.002200
 41
0.002200
  0
VERTEX
  8
0
 62
     0
  6
CONTINUOUS
 10
3.933600
 20
5.540920
  0
VERTEX
  8
0
 62
     0
  6
CONTINUOUS
 10
3.554320
 20
5.918440
  0
SEQEND
  8
0
  0
POLYLINE
  8
0
 62
     0
  6
CONTINUOUS
 66
     1
 40
0.002200
 41
0.002200
  0
VERTEX
  8
0
 62
     0
  6
CONTINUOUS
 10
3.663440
 20
5.570400
  0
VERTEX
  8
0
 62
     0
  6
CONTINUOUS
 10
3.661680
 20
5.565120
  0
SEQEND
  8
0
  0
POLYLINE
  8
0
 62
     0
  6
CONTINUOUS
 66
     1
 40
0.002200
 41
0.002200
  0
VERTEX
  8
0
 62
     0
  6
CONTINUOUS
 10
3.661680
 20
5.565120
  0
VERTEX
  8
0
 62
     0
  6
CONTINUOUS
 10
3.663440
 20
5.559400
  0
SEQEND
  8
0
  0
POLYLINE
  8
0
 62
     0
  6
CONTINUOUS
 66
     1
 40
0.002200
 41
0.002200
  0
VERTEX
  8
0
 62
     0
  6
CONTINUOUS
 10
3.663440
 20
5.559400
  0
VERTEX
  8
0
 62
     0
  6
CONTINUOUS
 10
3.667400
 20
5.555880
  0
SEQEND
  8
0
  0
POLYLINE
  8
0
 62
     0
  6
CONTINUOUS
 66
     1
 40
0.002200
 41
0.002200
  0
VERTEX
  8
0
 62
     0
  6
CONTINUOUS
 10
3.667400
 20
5.555880
  0
VERTEX
  8
0
 62
     0
  6
CONTINUOUS
 10
3.670920
 20
5.554120
  0
SEQEND
  8
0
  0
POLYLINE
  8
0
 62
     0
  6
CONTINUOUS
 66
     1
 40
0.002200
 41
0.002200
  0
VERTEX
  8
0
 62
     0
  6
CONTINUOUS
 10
3.670920
 20
5.554120
  0
VERTEX
  8
0
 62
     0
  6
CONTINUOUS
 10
3.685880
 20
5.548400
  0
SEQEND
  8
0
  0
POLYLINE
  8
0
 62
     0
  6
CONTINUOUS
 66
     1
 40
0.002200
 41
0.002200
  0
VERTEX
  8
0
 62
     0
  6
CONTINUOUS
 10
3.685880
 20
5.548400
  0
VERTEX
  8
0
 62
     0
  6
CONTINUOUS
 10
3.692920
 20
5.544880
  0
SEQEND
  8
0
  0
POLYLINE
  8
0
 62
     0
  6
CONTINUOUS
 66
     1
 40
0.002200
 41
0.002200
  0
VERTEX
  8
0
 62
     0
  6
CONTINUOUS
 10
3.692920
 20
5.544880
  0
VERTEX
  8
0
 62
     0
  6
CONTINUOUS
 10
3.695120
 20
5.540920
  0
SEQEND
  8
0
  0
POLYLINE
  8
0
 62
     0
  6
CONTINUOUS
 66
     1
 40
0.002200
 41
0.002200
  0
VERTEX
  8
0
 62
     0
  6
CONTINUOUS
 10
3.695120
 20
5.540920
  0
VERTEX
  8
0
 62
     0
  6
CONTINUOUS
 10
3.696880
 20
5.535640
  0
SEQEND
  8
0
  0
POLYLINE
  8
0
 62
     0
  6
CONTINUOUS
 66
     1
 40
0.002200
 41
0.002200
  0
VERTEX
  8
0
 62
     0
  6
CONTINUOUS
 10
3.696880
 20
5.535640
  0
VERTEX
  8
0
 62
     0
  6
CONTINUOUS
 10
3.692920
 20
5.526400
  0
SEQEND
  8
0
  0
POLYLINE
  8
0
 62
     0
  6
CONTINUOUS
 66
     1
 40
0.002200
 41
0.002200
  0
VERTEX
  8
0
 62
     0
  6
CONTINUOUS
 10
3.692920
 20
5.526400
  0
VERTEX
  8
0
 62
     0
  6
CONTINUOUS
 10
3.685880
 20
5.520680
  0
SEQEND
  8
0
  0
POLYLINE
  8
0
 62
     0
  6
CONTINUOUS
 66
     1
 40
0.002200
 41
0.002200
  0
VERTEX
  8
0
 62
     0
  6
CONTINUOUS
 10
3.685880
 20
5.520680
  0
VERTEX
  8
0
 62
     0
  6
CONTINUOUS
 10
3.676200
 20
5.518920
  0
SEQEND
  8
0
  0
POLYLINE
  8
0
 62
     0
  6
CONTINUOUS
 66
     1
 40
0.002200
 41
0.002200
  0
VERTEX
  8
0
 62
     0
  6
CONTINUOUS
 10
3.676200
 20
5.518920
  0
VERTEX
  8
0
 62
     0
  6
CONTINUOUS
 10
3.663440
 20
5.518920
  0
SEQEND
  8
0
  0
POLYLINE
  8
0
 62
     0
  6
CONTINUOUS
 66
     1
 40
0.002200
 41
0.002200
  0
VERTEX
  8
0
 62
     0
  6
CONTINUOUS
 10
3.663440
 20
5.518920
  0
VERTEX
  8
0
 62
     0
  6
CONTINUOUS
 10
3.655960
 20
5.520680
  0
SEQEND
  8
0
  0
POLYLINE
  8
0
 62
     0
  6
CONTINUOUS
 66
     1
 40
0.002200
 41
0.002200
  0
VERTEX
  8
0
 62
     0
  6
CONTINUOUS
 10
3.655960
 20
5.520680
  0
VERTEX
  8
0
 62
     0
  6
CONTINUOUS
 10
3.652440
 20
5.526400
  0
SEQEND
  8
0
  0
POLYLINE
  8
0
 62
     0
  6
CONTINUOUS
 66
     1
 40
0.002200
 41
0.002200
  0
VERTEX
  8
0
 62
     0
  6
CONTINUOUS
 10
3.663440
 20
5.570400
  0
VERTEX
  8
0
 62
     0
  6
CONTINUOUS
 10
3.670920
 20
5.576120
  0
SEQEND
  8
0
  0
POLYLINE
  8
0
 62
     0
  6
CONTINUOUS
 66
     1
 40
0.002200
 41
0.002200
  0
VERTEX
  8
0
 62
     0
  6
CONTINUOUS
 10
3.670920
 20
5.576120
  0
VERTEX
  8
0
 62
     0
  6
CONTINUOUS
 10
3.680160
 20
5.580080
  0
SEQEND
  8
0
  0
POLYLINE
  8
0
 62
     0
  6
CONTINUOUS
 66
     1
 40
0.002200
 41
0.002200
  0
VERTEX
  8
0
 62
     0
  6
CONTINUOUS
 10
3.680160
 20
5.580080
  0
VERTEX
  8
0
 62
     0
  6
CONTINUOUS
 10
3.692920
 20
5.580080
  0
SEQEND
  8
0
  0
POLYLINE
  8
0
 62
     0
  6
CONTINUOUS
 66
     1
 40
0.002200
 41
0.002200
  0
VERTEX
  8
0
 62
     0
  6
CONTINUOUS
 10
3.692920
 20
5.580080
  0
VERTEX
  8
0
 62
     0
  6
CONTINUOUS
 10
3.700400
 20
5.576120
  0
SEQEND
  8
0
  0
POLYLINE
  8
0
 62
     0
  6
CONTINUOUS
 66
     1
 40
0.002200
 41
0.002200
  0
VERTEX
  8
0
 62
     0
  6
CONTINUOUS
 10
3.700400
 20
5.576120
  0
VERTEX
  8
0
 62
     0
  6
CONTINUOUS
 10
3.706120
 20
5.570400
  0
SEQEND
  8
0
  0
POLYLINE
  8
0
 62
     0
  6
CONTINUOUS
 66
     1
 40
0.002200
 41
0.002200
  0
VERTEX
  8
0
 62
     0
  6
CONTINUOUS
 10
3.717120
 20
5.537400
  0
VERTEX
  8
0
 62
     0
  6
CONTINUOUS
 10
3.748360
 20
5.537400
  0
SEQEND
  8
0
  0
POLYLINE
  8
0
 62
     0
  6
CONTINUOUS
 66
     1
 40
0.002200
 41
0.002200
  0
VERTEX
  8
0
 62
     0
  6
CONTINUOUS
 10
3.750560
 20
5.518920
  0
VERTEX
  8
0
 62
     0
  6
CONTINUOUS
 10
3.743080
 20
5.580080
  0
SEQEND
  8
0
  0
POLYLINE
  8
0
 62
     0
  6
CONTINUOUS
 66
     1
 40
0.002200
 41
0.002200
  0
VERTEX
  8
0
 62
     0
  6
CONTINUOUS
 10
3.743080
 20
5.580080
  0
VERTEX
  8
0
 62
     0
  6
CONTINUOUS
 10
3.704360
 20
5.518920
  0
SEQEND
  8
0
  0
POLYLINE
  8
0
 62
     0
  6
CONTINUOUS
 66
     1
 40
0.002200
 41
0.002200
  0
VERTEX
  8
0
 62
     0
  6
CONTINUOUS
 10
2.483800
 20
4.447960
  0
VERTEX
  8
0
 62
     0
  6
CONTINUOUS
 10
2.483800
 20
5.174840
  0
SEQEND
  8
0
  0
POLYLINE
  8
0
 62
     0
  6
CONTINUOUS
 66
     1
 40
0.002200
 41
0.002200
  0
VERTEX
  8
0
 62
     0
  6
CONTINUOUS
 10
2.437160
 20
4.395600
  0
VERTEX
  8
0
 62
     0
  6
CONTINUOUS
 10
2.433200
 20
4.384600
  0
VERTEX
  8
0
 62
     0
  6
CONTINUOUS
 10
2.444200
 20
4.384600
  0
VERTEX
  8
0
 62
     0
  6
CONTINUOUS
 10
2.460920
 20
4.338400
  0
VERTEX
  8
0
 62
     0
  6
CONTINUOUS
 10
2.428360
 20
4.338400
  0
VERTEX
  8
0
 62
     0
  6
CONTINUOUS
 10
2.443320
 20
4.381080
  0
VERTEX
  8
0
 62
     0
  6
CONTINUOUS
 10
2.443760
 20
4.384600
  0
VERTEX
  8
0
 62
     0
  6
CONTINUOUS
 10
2.432760
 20
4.384600
  0
VERTEX
  8
0
 62
     0
  6
CONTINUOUS
 10
2.399760
 20
4.298800
  0
VERTEX
  8
0
 62
     0
  6
CONTINUOUS
 10
2.413840
 20
4.298800
  0
VERTEX
  8
0
 62
     0
  6
CONTINUOUS
 10
2.424400
 20
4.327400
  0
VERTEX
  8
0
 62
     0
  6
CONTINUOUS
 10
2.479400
 20
4.327400
  0
VERTEX
  8
0
 62
     0
  6
CONTINUOUS
 10
2.451680
 20
4.395600
  0
VERTEX
  8
0
 62
     0
  6
CONTINUOUS
 10
2.437160
 20
4.395600
  0
SEQEND
  8
0
  0
SOLID
  8
0
 62
     0
 10
2.464880
 20
4.327400
 11
2.476320
 21
4.298800
 12
2.479400
 22
4.327400
 13
2.491280
 23
4.298800
  0
POLYLINE
  8
0
 62
     0
  6
CONTINUOUS
 66
     1
 40
0.002200
 41
0.002200
  0
VERTEX
  8
0
 62
     0
  6
CONTINUOUS
 10
2.464880
 20
4.327400
  0
VERTEX
  8
0
 62
     0
  6
CONTINUOUS
 10
2.476320
 20
4.298800
  0
VERTEX
  8
0
 62
     0
  6
CONTINUOUS
 10
2.491280
 20
4.298800
  0
VERTEX
  8
0
 62
     0
  6
CONTINUOUS
 10
2.479400
 20
4.327400
  0
VERTEX
  8
0
 62
     0
  6
CONTINUOUS
 10
2.464880
 20
4.327400
  0
SEQEND
  8
0
  0
POLYLINE
  8
0
 62
     0
  6
CONTINUOUS
 66
     1
 40
0.002200
 41
0.002200
  0
VERTEX
  8
0
 62
     0
  6
CONTINUOUS
 10
2.545840
 20
4.385920
  0
VERTEX
  8
0
 62
     0
  6
CONTINUOUS
 10
2.545840
 20
4.385480
  0
VERTEX
  8
0
 62
     0
  6
CONTINUOUS
 10
2.554200
 20
4.384160
  0
VERTEX
  8
0
 62
     0
  6
CONTINUOUS
 10
2.555080
 20
4.383280
  0
VERTEX
  8
0
 62
     0
  6
CONTINUOUS
 10
2.562560
 20
4.379760
  0
VERTEX
  8
0
 62
     0
  6
CONTINUOUS
 10
2.570040
 20
4.371840
  0
VERTEX
  8
0
 62
     0
  6
CONTINUOUS
 10
2.575320
 20
4.358640
  0
VERTEX
  8
0
 62
     0
  6
CONTINUOUS
 10
2.576200
 20
4.342360
  0
VERTEX
  8
0
 62
     0
  6
CONTINUOUS
 10
2.575760
 20
4.342360
  0
VERTEX
  8
0
 62
     0
  6
CONTINUOUS
 10
2.574440
 20
4.331360
  0
VERTEX
  8
0
 62
     0
  6
CONTINUOUS
 10
2.574000
 20
4.331360
  0
VERTEX
  8
0
 62
     0
  6
CONTINUOUS
 10
2.571800
 20
4.325200
  0
VERTEX
  8
0
 62
     0
  6
CONTINUOUS
 10
2.564760
 20
4.315960
  0
VERTEX
  8
0
 62
     0
  6
CONTINUOUS
 10
2.554640
 20
4.309800
  0
VERTEX
  8
0
 62
     0
  6
CONTINUOUS
 10
2.546720
 20
4.308040
  0
VERTEX
  8
0
 62
     0
  6
CONTINUOUS
 10
2.534840
 20
4.308920
  0
VERTEX
  8
0
 62
     0
  6
CONTINUOUS
 10
2.523840
 20
4.313760
  0
VERTEX
  8
0
 62
     0
  6
CONTINUOUS
 10
2.513720
 20
4.326520
  0
VERTEX
  8
0
 62
     0
  6
CONTINUOUS
 10
2.510200
 20
4.341480
  0
VERTEX
  8
0
 62
     0
  6
CONTINUOUS
 10
2.511080
 20
4.358200
  0
VERTEX
  8
0
 62
     0
  6
CONTINUOUS
 10
2.511520
 20
4.358200
  0
VERTEX
  8
0
 62
     0
  6
CONTINUOUS
 10
2.515480
 20
4.370520
  0
VERTEX
  8
0
 62
     0
  6
CONTINUOUS
 10
2.522080
 20
4.378880
  0
VERTEX
  8
0
 62
     0
  6
CONTINUOUS
 10
2.535280
 20
4.385480
  0
VERTEX
  8
0
 62
     0
  6
CONTINUOUS
 10
2.573560
 20
4.385920
  0
VERTEX
  8
0
 62
     0
  6
CONTINUOUS
 10
2.563000
 20
4.393400
  0
VERTEX
  8
0
 62
     0
  6
CONTINUOUS
 10
2.546280
 20
4.397360
  0
VERTEX
  8
0
 62
     0
  6
CONTINUOUS
 10
2.532640
 20
4.396040
  0
VERTEX
  8
0
 62
     0
  6
CONTINUOUS
 10
2.521640
 20
4.392080
  0
VERTEX
  8
0
 62
     0
  6
CONTINUOUS
 10
2.511080
 20
4.384600
  0
VERTEX
  8
0
 62
     0
  6
CONTINUOUS
 10
2.502720
 20
4.373600
  0
VERTEX
  8
0
 62
     0
  6
CONTINUOUS
 10
2.497440
 20
4.357760
  0
VERTEX
  8
0
 62
     0
  6
CONTINUOUS
 10
2.497000
 20
4.337960
  0
VERTEX
  8
0
 62
     0
  6
CONTINUOUS
 10
2.497440
 20
4.337960
  0
VERTEX
  8
0
 62
     0
  6
CONTINUOUS
 10
2.499640
 20
4.326520
  0
VERTEX
  8
0
 62
     0
  6
CONTINUOUS
 10
2.500960
 20
4.324760
  0
VERTEX
  8
0
 62
     0
  6
CONTINUOUS
 10
2.507120
 20
4.314200
  0
VERTEX
  8
0
 62
     0
  6
CONTINUOUS
 10
2.518560
 20
4.303200
  0
VERTEX
  8
0
 62
     0
  6
CONTINUOUS
 10
2.529120
 20
4.298360
  0
VERTEX
  8
0
 62
     0
  6
CONTINUOUS
 10
2.535280
 20
4.297040
  0
VERTEX
  8
0
 62
     0
  6
CONTINUOUS
 10
2.553320
 20
4.297480
  0
VERTEX
  8
0
 62
     0
  6
CONTINUOUS
 10
2.553320
 20
4.297920
  0
VERTEX
  8
0
 62
     0
  6
CONTINUOUS
 10
2.559040
 20
4.299240
  0
VERTEX
  8
0
 62
     0
  6
CONTINUOUS
 10
2.559040
 20
4.299680
  0
VERTEX
  8
0
 62
     0
  6
CONTINUOUS
 10
2.570040
 20
4.304520
  0
VERTEX
  8
0
 62
     0
  6
CONTINUOUS
 10
2.581480
 20
4.315080
  0
VERTEX
  8
0
 62
     0
  6
CONTINUOUS
 10
2.588080
 20
4.330480
  0
VERTEX
  8
0
 62
     0
  6
CONTINUOUS
 10
2.589840
 20
4.350280
  0
VERTEX
  8
0
 62
     0
  6
CONTINUOUS
 10
2.589400
 20
4.350280
  0
VERTEX
  8
0
 62
     0
  6
CONTINUOUS
 10
2.587640
 20
4.364360
  0
VERTEX
  8
0
 62
     0
  6
CONTINUOUS
 10
2.587200
 20
4.364360
  0
VERTEX
  8
0
 62
     0
  6
CONTINUOUS
 10
2.583240
 20
4.374920
  0
VERTEX
  8
0
 62
     0
  6
CONTINUOUS
 10
2.574880
 20
4.385480
  0
VERTEX
  8
0
 62
     0
  6
CONTINUOUS
 10
2.574000
 20
4.385920
  0
VERTEX
  8
0
 62
     0
  6
CONTINUOUS
 10
2.545840
 20
4.385920
  0
SEQEND
  8
0
  0
POLYLINE
  8
0
 62
     0
  6
CONTINUOUS
 66
     1
 40
0.014080
 41
0.014080
  0
VERTEX
  8
0
 62
     0
  6
CONTINUOUS
 10
2.353560
 20
4.431680
  0
VERTEX
  8
0
 62
     0
  6
CONTINUOUS
 10
2.637360
 20
4.431680
  0
VERTEX
  8
0
 62
     0
  6
CONTINUOUS
 10
2.637360
 20
4.238960
  0
VERTEX
  8
0
 62
     0
  6
CONTINUOUS
 10
2.353560
 20
4.238960
  0
VERTEX
  8
0
 62
     0
  6
CONTINUOUS
 10
2.353560
 20
4.431680
  0
SEQEND
  8
0
  0
POLYLINE
  8
0
 62
     0
  6
CONTINUOUS
 66
     1
 40
0.014080
 41
0.014080
  0
VERTEX
  8
0
 62
     0
  6
CONTINUOUS
 10
1.156320
 20
4.383720
  0
VERTEX
  8
0
 62
     0
  6
CONTINUOUS
 10
1.156320
 20
4.298800
  0
VERTEX
  8
0
 62
     0
  6
CONTINUOUS
 10
1.204280
 20
4.299240
  0
VERTEX
  8
0
 62
     0
  6
CONTINUOUS
 10
1.204280
 20
4.299680
  0
VERTEX
  8
0
 62
     0
  6
CONTINUOUS
 10
1.210880
 20
4.301000
  0
VERTEX
  8
0
 62
     0
  6
CONTINUOUS
 10
1.211760
 20
4.301880
  0
VERTEX
  8
0
 62
     0
  6
CONTINUOUS
 10
1.215280
 20
4.303200
  0
VERTEX
  8
0
 62
     0
  6
CONTINUOUS
 10
1.224520
 20
4.310240
  0
VERTEX
  8
0
 62
     0
  6
CONTINUOUS
 10
1.230680
 20
4.319040
  0
VERTEX
  8
0
 62
     0
  6
CONTINUOUS
 10
1.236400
 20
4.335760
  0
VERTEX
  8
0
 62
     0
  6
CONTINUOUS
 10
1.236400
 20
4.356440
  0
VERTEX
  8
0
 62
     0
  6
CONTINUOUS
 10
1.235960
 20
4.356440
  0
VERTEX
  8
0
 62
     0
  6
CONTINUOUS
 10
1.235080
 20
4.364360
  0
VERTEX
  8
0
 62
     0
  6
CONTINUOUS
 10
1.234640
 20
4.364360
  0
VERTEX
  8
0
 62
     0
  6
CONTINUOUS
 10
1.231560
 20
4.374920
  0
VERTEX
  8
0
 62
     0
  6
CONTINUOUS
 10
1.230240
 20
4.376680
  0
VERTEX
  8
0
 62
     0
  6
CONTINUOUS
 10
1.224960
 20
4.384160
  0
VERTEX
  8
0
 62
     0
  6
CONTINUOUS
 10
1.211320
 20
4.392960
  0
VERTEX
  8
0
 62
     0
  6
CONTINUOUS
 10
1.197240
 20
4.395600
  0
VERTEX
  8
0
 62
     0
  6
CONTINUOUS
 10
1.156320
 20
4.395600
  0
VERTEX
  8
0
 62
     0
  6
CONTINUOUS
 10
1.156320
 20
4.383720
  0
VERTEX
  8
0
 62
     0
  6
CONTINUOUS
 10
1.201640
 20
4.383280
  0
VERTEX
  8
0
 62
     0
  6
CONTINUOUS
 10
1.201640
 20
4.382840
  0
VERTEX
  8
0
 62
     0
  6
CONTINUOUS
 10
1.207800
 20
4.381520
  0
VERTEX
  8
0
 62
     0
  6
CONTINUOUS
 10
1.216600
 20
4.374040
  0
VERTEX
  8
0
 62
     0
  6
CONTINUOUS
 10
1.221880
 20
4.362160
  0
VERTEX
  8
0
 62
     0
  6
CONTINUOUS
 10
1.223200
 20
4.342360
  0
VERTEX
  8
0
 62
     0
  6
CONTINUOUS
 10
1.222760
 20
4.342360
  0
VERTEX
  8
0
 62
     0
  6
CONTINUOUS
 10
1.221880
 20
4.333120
  0
VERTEX
  8
0
 62
     0
  6
CONTINUOUS
 10
1.221440
 20
4.333120
  0
VERTEX
  8
0
 62
     0
  6
CONTINUOUS
 10
1.217040
 20
4.320800
  0
VERTEX
  8
0
 62
     0
  6
CONTINUOUS
 10
1.209120
 20
4.313320
  0
VERTEX
  8
0
 62
     0
  6
CONTINUOUS
 10
1.196800
 20
4.309800
  0
VERTEX
  8
0
 62
     0
  6
CONTINUOUS
 10
1.169520
 20
4.309800
  0
VERTEX
  8
0
 62
     0
  6
CONTINUOUS
 10
1.169520
 20
4.383720
  0
VERTEX
  8
0
 62
     0
  6
CONTINUOUS
 10
1.156320
 20
4.383720
  0
SEQEND
  8
0
  0
POLYLINE
  8
0
 62
     0
  6
CONTINUOUS
 66
     1
 40
0.014080
 41
0.014080
  0
VERTEX
  8
0
 62
     0
  6
CONTINUOUS
 10
1.255760
 20
4.298800
  0
VERTEX
  8
0
 62
     0
  6
CONTINUOUS
 10
1.255760
 20
4.302760
  0
VERTEX
  8
0
 62
     0
  6
CONTINUOUS
 10
1.255760
 20
4.313760
  0
VERTEX
  8
0
 62
     0
  6
CONTINUOUS
 10
1.255760
 20
4.329160
  0
VERTEX
  8
0
 62
     0
  6
CONTINUOUS
 10
1.255760
 20
4.347200
  0
VERTEX
  8
0
 62
     0
  6
CONTINUOUS
 10
1.255760
 20
4.364800
  0
VERTEX
  8
0
 62
     0
  6
CONTINUOUS
 10
1.255760
 20
4.380200
  0
VERTEX
  8
0
 62
     0
  6
CONTINUOUS
 10
1.255760
 20
4.391200
  0
VERTEX
  8
0
 62
     0
  6
CONTINUOUS
 10
1.255760
 20
4.395600
  0
SEQEND
  8
0
  0
POLYLINE
  8
0
 62
     0
  6
CONTINUOUS
 66
     1
 40
0.014080
 41
0.014080
  0
VERTEX
  8
0
 62
     0
  6
CONTINUOUS
 10
1.255760
 20
4.395600
  0
VERTEX
  8
0
 62
     0
  6
CONTINUOUS
 10
1.256200
 20
4.395600
  0
VERTEX
  8
0
 62
     0
  6
CONTINUOUS
 10
1.257520
 20
4.395600
  0
VERTEX
  8
0
 62
     0
  6
CONTINUOUS
 10
1.259720
 20
4.395600
  0
VERTEX
  8
0
 62
     0
  6
CONTINUOUS
 10
1.262360
 20
4.395600
  0
VERTEX
  8
0
 62
     0
  6
CONTINUOUS
 10
1.264560
 20
4.395600
  0
VERTEX
  8
0
 62
     0
  6
CONTINUOUS
 10
1.266760
 20
4.395600
  0
VERTEX
  8
0
 62
     0
  6
CONTINUOUS
 10
1.268080
 20
4.395600
  0
VERTEX
  8
0
 62
     0
  6
CONTINUOUS
 10
1.268960
 20
4.395600
  0
SEQEND
  8
0
  0
POLYLINE
  8
0
 62
     0
  6
CONTINUOUS
 66
     1
 40
0.014080
 41
0.014080
  0
VERTEX
  8
0
 62
     0
  6
CONTINUOUS
 10
1.268960
 20
4.395600
  0
VERTEX
  8
0
 62
     0
  6
CONTINUOUS
 10
1.268960
 20
4.391200
  0
VERTEX
  8
0
 62
     0
  6
CONTINUOUS
 10
1.268960
 20
4.380200
  0
VERTEX
  8
0
 62
     0
  6
CONTINUOUS
 10
1.268960
 20
4.364800
  0
VERTEX
  8
0
 62
     0
  6
CONTINUOUS
 10
1.268960
 20
4.347200
  0
VERTEX
  8
0
 62
     0
  6
CONTINUOUS
 10
1.268960
 20
4.329160
  0
VERTEX
  8
0
 62
     0
  6
CONTINUOUS
 10
1.268960
 20
4.313760
  0
VERTEX
  8
0
 62
     0
  6
CONTINUOUS
 10
1.268960
 20
4.302760
  0
VERTEX
  8
0
 62
     0
  6
CONTINUOUS
 10
1.268960
 20
4.298800
  0
SEQEND
  8
0
  0
POLYLINE
  8
0
 62
     0
  6
CONTINUOUS
 66
     1
 40
0.014080
 41
0.014080
  0
VERTEX
  8
0
 62
     0
  6
CONTINUOUS
 10
1.268960
 20
4.298800
  0
VERTEX
  8
0
 62
     0
  6
CONTINUOUS
 10
1.268080
 20
4.298800
  0
VERTEX
  8
0
 62
     0
  6
CONTINUOUS
 10
1.266760
 20
4.298800
  0
VERTEX
  8
0
 62
     0
  6
CONTINUOUS
 10
1.264560
 20
4.298800
  0
VERTEX
  8
0
 62
     0
  6
CONTINUOUS
 10
1.262360
 20
4.298800
  0
VERTEX
  8
0
 62
     0
  6
CONTINUOUS
 10
1.259720
 20
4.298800
  0
VERTEX
  8
0
 62
     0
  6
CONTINUOUS
 10
1.257520
 20
4.298800
  0
VERTEX
  8
0
 62
     0
  6
CONTINUOUS
 10
1.256200
 20
4.298800
  0
VERTEX
  8
0
 62
     0
  6
CONTINUOUS
 10
1.255760
 20
4.298800
  0
SEQEND
  8
0
  0
POLYLINE
  8
0
 62
     0
  6
CONTINUOUS
 66
     1
 40
0.014080
 41
0.014080
  0
VERTEX
  8
0
 62
     0
  6
CONTINUOUS
 10
1.099120
 20
4.431680
  0
VERTEX
  8
0
 62
     0
  6
CONTINUOUS
 10
1.382920
 20
4.431680
  0
VERTEX
  8
0
 62
     0
  6
CONTINUOUS
 10
1.382920
 20
4.238960
  0
VERTEX
  8
0
 62
     0
  6
CONTINUOUS
 10
1.099120
 20
4.238960
  0
VERTEX
  8
0
 62
     0
  6
CONTINUOUS
 10
1.099120
 20
4.431680
  0
SEQEND
  8
0
  0
ENDSEC
  0
EOF
