  0
SECTION
  2
HEADER
  9
$EXTMIN
 10
1.109680
 20
6.980600
  9
$EXTMAX
 10
4.111360
 20
9.241760
  9
$LTSCALE
 40
0.044000
  9
$PDMODE
 70
    35
  9
$PDSIZE
 40
0.035200
  0
ENDSEC
  0
SECTION
  2
TABLES
  0
TABLE
  2
LTYPE
 70
     9
  0
LTYPE
  2
CONTINUOUS
 70
    64
  3
Solid line
 72
    65
 73
     0
 40
0.000000
  0
LTYPE
  2
DASHED
 70
    64
  3
__ __ __ __ __ __ __ __ __ __ __ __ __ __ __
 72
    65
 73
     2
 40
0.000330
 49
0.000220
 49
-0.000110
  0
LTYPE
  2
HIDDEN
 70
    64
  3
 _ _ _ _ _ _ _ _ _ _ _ _ _ _ _ _ _ _ _ _ _ _
 72
    65
 73
     2
 40
0.000165
 49
0.000110
 49
-0.000055
  0
LTYPE
  2
CENTER
 70
    64
  3
____ _ ____ _ ____ _ ____ _ ____ _ ____ _ ____
 72
    65
 73
     4
 40
0.000880
 49
0.000550
 49
-0.000110
 49
0.000110
 49
-0.000110
  0
LTYPE
  2
PHANTOM
 70
    64
  3
_____ _ _ _____ _ _ _____ _ _ _____ _ _ ____
 72
    65
 73
     6
 40
0.001100
 49
0.000550
 49
-0.000110
 49
0.000110
 49
-0.000110
 49
0.000110
 49
-0.000110
  0
LTYPE
  2
DOT
 70
    64
  3
...............................................
 72
    65
 73
     2
 40
0.000110
 49
0.000000
 49
-0.000110
  0
LTYPE
  2
DASHDOT
 70
    64
  3
__ . __ . __ . __ . __ . __ . __ . __ . __ . __
 72
    65
 73
     4
 40
0.000440
 49
0.000220
 49
-0.000110
 49
0.000000
 49
-0.000110
  0
LTYPE
  2
BORDER
 70
    64
  3
__ __ . __ __ . __ __ . __ __ . __ __ . __ __
 72
    65
 73
     6
 40
0.000770
 49
0.000220
 49
-0.000110
 49
0.000220
 49
-0.000110
 49
0.000000
 49
-0.000110
  0
LTYPE
  2
DIVIDE
 70
    64
  3
__ . . __ . . __ . . __ . . __ . . __ . . __
 72
    65
 73
     6
 40
0.000550
 49
0.000220
 49
-0.000110
 49
0.000000
 49
-0.000110
 49
0.000000
 49
-0.000110
  0
LTYPE
  2
DOTDOT
 70
    64
  3
 . .  . .  . .  . .  . .  . . 
 72
    65
 73
     5
 40
0.000242
 49
-0.000110
 49
0.000000
 49
-0.000110
 49
0.000000
 49
-0.000110
  0
ENDTAB
  0
TABLE
  2
STYLE
 70
     2
  0
STYLE
 70
     0
  2
SN0
 40
0.000000
 41
0.000440
 50
0.000000
 71
     0
 42
0.000000
  3
ROMANS
  0
STYLE
 70
    68
  2
SV0
 40
0.000000
 41
0.000440
 50
0.000000
 71
     0
 42
0.000000
  3
ROMANS
  0
ENDTAB
  0
TABLE
  2
LAYER
 70
     3
  0
LAYER
  2
FOREGROUND
 70
    64
 62
     7
  6
CONTINUOUS
  0
LAYER
  2
BACKGROUND
 70
    65
 62
    -7
  6
CONTINUOUS
  0
LAYER
  2
0
 70
    64
 62
     7
  6
CONTINUOUS
  0
ENDTAB
  0
ENDSEC
  0
SECTION
  2
ENTITIES
  0
SOLID
  8
0
 62
     7
 10
1.110120
 20
9.243520
 11
2.787840
 21
9.243520
 12
1.110120
 22
6.983680
 13
2.787840
 23
6.983680
  0
POLYLINE
  8
0
 62
     0
  6
CONTINUOUS
 66
     1
 40
0.000000
 41
0.000000
  0
VERTEX
  8
0
 62
     0
  6
CONTINUOUS
 10
1.110120
 20
9.243520
  0
VERTEX
  8
0
 62
     0
  6
CONTINUOUS
 10
2.787840
 20
9.243520
  0
VERTEX
  8
0
 62
     0
  6
CONTINUOUS
 10
2.787840
 20
6.983680
  0
VERTEX
  8
0
 62
     0
  6
CONTINUOUS
 10
1.110120
 20
6.983680
  0
VERTEX
  8
0
 62
     0
  6
CONTINUOUS
 10
1.110120
 20
9.243520
  0
SEQEND
  8
0
  0
POLYLINE
  8
0
 62
     0
  6
CONTINUOUS
 66
     1
 40
0.002200
 41
0.002200
  0
VERTEX
  8
0
 62
     0
  6
CONTINUOUS
 10
1.967240
 20
7.197080
  0
VERTEX
  8
0
 62
     0
  6
CONTINUOUS
 10
1.967240
 20
7.240640
  0
SEQEND
  8
0
  0
POLYLINE
  8
0
 62
     0
  6
CONTINUOUS
 66
     1
 40
0.002200
 41
0.002200
  0
VERTEX
  8
0
 62
     0
  6
CONTINUOUS
 10
1.955800
 20
7.240640
  0
VERTEX
  8
0
 62
     0
  6
CONTINUOUS
 10
1.981320
 20
7.240640
  0
SEQEND
  8
0
  0
POLYLINE
  8
0
 62
     0
  6
CONTINUOUS
 66
     1
 40
0.002200
 41
0.002200
  0
VERTEX
  8
0
 62
     0
  6
CONTINUOUS
 10
1.981320
 20
7.240640
  0
VERTEX
  8
0
 62
     0
  6
CONTINUOUS
 10
2.008600
 20
7.240640
  0
SEQEND
  8
0
  0
POLYLINE
  8
0
 62
     0
  6
CONTINUOUS
 66
     1
 40
0.002200
 41
0.002200
  0
VERTEX
  8
0
 62
     0
  6
CONTINUOUS
 10
2.008600
 20
7.240640
  0
VERTEX
  8
0
 62
     0
  6
CONTINUOUS
 10
2.034120
 20
7.245040
  0
SEQEND
  8
0
  0
POLYLINE
  8
0
 62
     0
  6
CONTINUOUS
 66
     1
 40
0.002200
 41
0.002200
  0
VERTEX
  8
0
 62
     0
  6
CONTINUOUS
 10
2.034120
 20
7.245040
  0
VERTEX
  8
0
 62
     0
  6
CONTINUOUS
 10
2.061400
 20
7.254280
  0
SEQEND
  8
0
  0
POLYLINE
  8
0
 62
     0
  6
CONTINUOUS
 66
     1
 40
0.002200
 41
0.002200
  0
VERTEX
  8
0
 62
     0
  6
CONTINUOUS
 10
2.061400
 20
7.254280
  0
VERTEX
  8
0
 62
     0
  6
CONTINUOUS
 10
2.084280
 20
7.265720
  0
SEQEND
  8
0
  0
POLYLINE
  8
0
 62
     0
  6
CONTINUOUS
 66
     1
 40
0.002200
 41
0.002200
  0
VERTEX
  8
0
 62
     0
  6
CONTINUOUS
 10
2.084280
 20
7.265720
  0
VERTEX
  8
0
 62
     0
  6
CONTINUOUS
 10
2.107160
 20
7.279800
  0
SEQEND
  8
0
  0
POLYLINE
  8
0
 62
     0
  6
CONTINUOUS
 66
     1
 40
0.002200
 41
0.002200
  0
VERTEX
  8
0
 62
     0
  6
CONTINUOUS
 10
2.107160
 20
7.279800
  0
VERTEX
  8
0
 62
     0
  6
CONTINUOUS
 10
2.127840
 20
7.293440
  0
SEQEND
  8
0
  0
POLYLINE
  8
0
 62
     0
  6
CONTINUOUS
 66
     1
 40
0.002200
 41
0.002200
  0
VERTEX
  8
0
 62
     0
  6
CONTINUOUS
 10
2.127840
 20
7.293440
  0
VERTEX
  8
0
 62
     0
  6
CONTINUOUS
 10
2.146320
 20
7.311920
  0
SEQEND
  8
0
  0
POLYLINE
  8
0
 62
     0
  6
CONTINUOUS
 66
     1
 40
0.002200
 41
0.002200
  0
VERTEX
  8
0
 62
     0
  6
CONTINUOUS
 10
2.146320
 20
7.311920
  0
VERTEX
  8
0
 62
     0
  6
CONTINUOUS
 10
2.164800
 20
7.334800
  0
SEQEND
  8
0
  0
POLYLINE
  8
0
 62
     0
  6
CONTINUOUS
 66
     1
 40
0.002200
 41
0.002200
  0
VERTEX
  8
0
 62
     0
  6
CONTINUOUS
 10
2.164800
 20
7.334800
  0
VERTEX
  8
0
 62
     0
  6
CONTINUOUS
 10
2.178440
 20
7.357680
  0
SEQEND
  8
0
  0
POLYLINE
  8
0
 62
     0
  6
CONTINUOUS
 66
     1
 40
0.002200
 41
0.002200
  0
VERTEX
  8
0
 62
     0
  6
CONTINUOUS
 10
2.178440
 20
7.357680
  0
VERTEX
  8
0
 62
     0
  6
CONTINUOUS
 10
2.187680
 20
7.382760
  0
SEQEND
  8
0
  0
POLYLINE
  8
0
 62
     0
  6
CONTINUOUS
 66
     1
 40
0.002200
 41
0.002200
  0
VERTEX
  8
0
 62
     0
  6
CONTINUOUS
 10
2.187680
 20
7.382760
  0
VERTEX
  8
0
 62
     0
  6
CONTINUOUS
 10
2.196920
 20
7.408280
  0
SEQEND
  8
0
  0
POLYLINE
  8
0
 62
     0
  6
CONTINUOUS
 66
     1
 40
0.002200
 41
0.002200
  0
VERTEX
  8
0
 62
     0
  6
CONTINUOUS
 10
2.196920
 20
7.408280
  0
VERTEX
  8
0
 62
     0
  6
CONTINUOUS
 10
2.201320
 20
7.431160
  0
SEQEND
  8
0
  0
POLYLINE
  8
0
 62
     0
  6
CONTINUOUS
 66
     1
 40
0.002200
 41
0.002200
  0
VERTEX
  8
0
 62
     0
  6
CONTINUOUS
 10
2.201320
 20
7.431160
  0
VERTEX
  8
0
 62
     0
  6
CONTINUOUS
 10
2.203520
 20
7.458440
  0
SEQEND
  8
0
  0
POLYLINE
  8
0
 62
     0
  6
CONTINUOUS
 66
     1
 40
0.002200
 41
0.002200
  0
VERTEX
  8
0
 62
     0
  6
CONTINUOUS
 10
2.203520
 20
7.458440
  0
VERTEX
  8
0
 62
     0
  6
CONTINUOUS
 10
2.201320
 20
7.486160
  0
SEQEND
  8
0
  0
POLYLINE
  8
0
 62
     0
  6
CONTINUOUS
 66
     1
 40
0.002200
 41
0.002200
  0
VERTEX
  8
0
 62
     0
  6
CONTINUOUS
 10
2.201320
 20
7.486160
  0
VERTEX
  8
0
 62
     0
  6
CONTINUOUS
 10
2.196920
 20
7.513440
  0
SEQEND
  8
0
  0
POLYLINE
  8
0
 62
     0
  6
CONTINUOUS
 66
     1
 40
0.002200
 41
0.002200
  0
VERTEX
  8
0
 62
     0
  6
CONTINUOUS
 10
2.196920
 20
7.513440
  0
VERTEX
  8
0
 62
     0
  6
CONTINUOUS
 10
2.187680
 20
7.538960
  0
SEQEND
  8
0
  0
POLYLINE
  8
0
 62
     0
  6
CONTINUOUS
 66
     1
 40
0.002200
 41
0.002200
  0
VERTEX
  8
0
 62
     0
  6
CONTINUOUS
 10
2.187680
 20
7.538960
  0
VERTEX
  8
0
 62
     0
  6
CONTINUOUS
 10
2.178440
 20
7.561840
  0
SEQEND
  8
0
  0
POLYLINE
  8
0
 62
     0
  6
CONTINUOUS
 66
     1
 40
0.002200
 41
0.002200
  0
VERTEX
  8
0
 62
     0
  6
CONTINUOUS
 10
2.178440
 20
7.561840
  0
VERTEX
  8
0
 62
     0
  6
CONTINUOUS
 10
2.164800
 20
7.584720
  0
SEQEND
  8
0
  0
POLYLINE
  8
0
 62
     0
  6
CONTINUOUS
 66
     1
 40
0.002200
 41
0.002200
  0
VERTEX
  8
0
 62
     0
  6
CONTINUOUS
 10
2.164800
 20
7.584720
  0
VERTEX
  8
0
 62
     0
  6
CONTINUOUS
 10
2.146320
 20
7.605400
  0
SEQEND
  8
0
  0
POLYLINE
  8
0
 62
     0
  6
CONTINUOUS
 66
     1
 40
0.002200
 41
0.002200
  0
VERTEX
  8
0
 62
     0
  6
CONTINUOUS
 10
2.146320
 20
7.605400
  0
VERTEX
  8
0
 62
     0
  6
CONTINUOUS
 10
2.127840
 20
7.623880
  0
SEQEND
  8
0
  0
POLYLINE
  8
0
 62
     0
  6
CONTINUOUS
 66
     1
 40
0.002200
 41
0.002200
  0
VERTEX
  8
0
 62
     0
  6
CONTINUOUS
 10
2.127840
 20
7.623880
  0
VERTEX
  8
0
 62
     0
  6
CONTINUOUS
 10
2.107160
 20
7.639720
  0
SEQEND
  8
0
  0
POLYLINE
  8
0
 62
     0
  6
CONTINUOUS
 66
     1
 40
0.002200
 41
0.002200
  0
VERTEX
  8
0
 62
     0
  6
CONTINUOUS
 10
2.107160
 20
7.639720
  0
VERTEX
  8
0
 62
     0
  6
CONTINUOUS
 10
2.084280
 20
7.653360
  0
SEQEND
  8
0
  0
POLYLINE
  8
0
 62
     0
  6
CONTINUOUS
 66
     1
 40
0.002200
 41
0.002200
  0
VERTEX
  8
0
 62
     0
  6
CONTINUOUS
 10
2.084280
 20
7.653360
  0
VERTEX
  8
0
 62
     0
  6
CONTINUOUS
 10
2.061400
 20
7.667440
  0
SEQEND
  8
0
  0
POLYLINE
  8
0
 62
     0
  6
CONTINUOUS
 66
     1
 40
0.002200
 41
0.002200
  0
VERTEX
  8
0
 62
     0
  6
CONTINUOUS
 10
2.061400
 20
7.667440
  0
VERTEX
  8
0
 62
     0
  6
CONTINUOUS
 10
2.034120
 20
7.674040
  0
SEQEND
  8
0
  0
POLYLINE
  8
0
 62
     0
  6
CONTINUOUS
 66
     1
 40
0.002200
 41
0.002200
  0
VERTEX
  8
0
 62
     0
  6
CONTINUOUS
 10
2.034120
 20
7.674040
  0
VERTEX
  8
0
 62
     0
  6
CONTINUOUS
 10
2.008600
 20
7.678880
  0
SEQEND
  8
0
  0
POLYLINE
  8
0
 62
     0
  6
CONTINUOUS
 66
     1
 40
0.002200
 41
0.002200
  0
VERTEX
  8
0
 62
     0
  6
CONTINUOUS
 10
2.008600
 20
7.678880
  0
VERTEX
  8
0
 62
     0
  6
CONTINUOUS
 10
1.981320
 20
7.681080
  0
SEQEND
  8
0
  0
POLYLINE
  8
0
 62
     0
  6
CONTINUOUS
 66
     1
 40
0.002200
 41
0.002200
  0
VERTEX
  8
0
 62
     0
  6
CONTINUOUS
 10
1.981320
 20
7.681080
  0
VERTEX
  8
0
 62
     0
  6
CONTINUOUS
 10
1.955800
 20
7.678880
  0
SEQEND
  8
0
  0
POLYLINE
  8
0
 62
     0
  6
CONTINUOUS
 66
     1
 40
0.002200
 41
0.002200
  0
VERTEX
  8
0
 62
     0
  6
CONTINUOUS
 10
1.955800
 20
7.678880
  0
VERTEX
  8
0
 62
     0
  6
CONTINUOUS
 10
1.930720
 20
7.674040
  0
SEQEND
  8
0
  0
POLYLINE
  8
0
 62
     0
  6
CONTINUOUS
 66
     1
 40
0.002200
 41
0.002200
  0
VERTEX
  8
0
 62
     0
  6
CONTINUOUS
 10
1.930720
 20
7.674040
  0
VERTEX
  8
0
 62
     0
  6
CONTINUOUS
 10
1.903000
 20
7.667440
  0
SEQEND
  8
0
  0
POLYLINE
  8
0
 62
     0
  6
CONTINUOUS
 66
     1
 40
0.002200
 41
0.002200
  0
VERTEX
  8
0
 62
     0
  6
CONTINUOUS
 10
1.903000
 20
7.667440
  0
VERTEX
  8
0
 62
     0
  6
CONTINUOUS
 10
1.880120
 20
7.653360
  0
SEQEND
  8
0
  0
POLYLINE
  8
0
 62
     0
  6
CONTINUOUS
 66
     1
 40
0.002200
 41
0.002200
  0
VERTEX
  8
0
 62
     0
  6
CONTINUOUS
 10
1.880120
 20
7.653360
  0
VERTEX
  8
0
 62
     0
  6
CONTINUOUS
 10
1.857240
 20
7.639720
  0
SEQEND
  8
0
  0
POLYLINE
  8
0
 62
     0
  6
CONTINUOUS
 66
     1
 40
0.002200
 41
0.002200
  0
VERTEX
  8
0
 62
     0
  6
CONTINUOUS
 10
1.857240
 20
7.639720
  0
VERTEX
  8
0
 62
     0
  6
CONTINUOUS
 10
1.836560
 20
7.623880
  0
SEQEND
  8
0
  0
POLYLINE
  8
0
 62
     0
  6
CONTINUOUS
 66
     1
 40
0.002200
 41
0.002200
  0
VERTEX
  8
0
 62
     0
  6
CONTINUOUS
 10
1.836560
 20
7.623880
  0
VERTEX
  8
0
 62
     0
  6
CONTINUOUS
 10
1.818520
 20
7.605400
  0
SEQEND
  8
0
  0
POLYLINE
  8
0
 62
     0
  6
CONTINUOUS
 66
     1
 40
0.002200
 41
0.002200
  0
VERTEX
  8
0
 62
     0
  6
CONTINUOUS
 10
1.818520
 20
7.605400
  0
VERTEX
  8
0
 62
     0
  6
CONTINUOUS
 10
1.802240
 20
7.584720
  0
SEQEND
  8
0
  0
POLYLINE
  8
0
 62
     0
  6
CONTINUOUS
 66
     1
 40
0.002200
 41
0.002200
  0
VERTEX
  8
0
 62
     0
  6
CONTINUOUS
 10
1.802240
 20
7.584720
  0
VERTEX
  8
0
 62
     0
  6
CONTINUOUS
 10
1.788600
 20
7.561840
  0
SEQEND
  8
0
  0
POLYLINE
  8
0
 62
     0
  6
CONTINUOUS
 66
     1
 40
0.002200
 41
0.002200
  0
VERTEX
  8
0
 62
     0
  6
CONTINUOUS
 10
1.788600
 20
7.561840
  0
VERTEX
  8
0
 62
     0
  6
CONTINUOUS
 10
1.777160
 20
7.538960
  0
SEQEND
  8
0
  0
POLYLINE
  8
0
 62
     0
  6
CONTINUOUS
 66
     1
 40
0.002200
 41
0.002200
  0
VERTEX
  8
0
 62
     0
  6
CONTINUOUS
 10
1.777160
 20
7.538960
  0
VERTEX
  8
0
 62
     0
  6
CONTINUOUS
 10
1.767920
 20
7.513440
  0
SEQEND
  8
0
  0
POLYLINE
  8
0
 62
     0
  6
CONTINUOUS
 66
     1
 40
0.002200
 41
0.002200
  0
VERTEX
  8
0
 62
     0
  6
CONTINUOUS
 10
1.767920
 20
7.513440
  0
VERTEX
  8
0
 62
     0
  6
CONTINUOUS
 10
1.763080
 20
7.486160
  0
SEQEND
  8
0
  0
POLYLINE
  8
0
 62
     0
  6
CONTINUOUS
 66
     1
 40
0.002200
 41
0.002200
  0
VERTEX
  8
0
 62
     0
  6
CONTINUOUS
 10
1.763080
 20
7.486160
  0
VERTEX
  8
0
 62
     0
  6
CONTINUOUS
 10
1.763080
 20
7.458440
  0
SEQEND
  8
0
  0
POLYLINE
  8
0
 62
     0
  6
CONTINUOUS
 66
     1
 40
0.002200
 41
0.002200
  0
VERTEX
  8
0
 62
     0
  6
CONTINUOUS
 10
1.763080
 20
7.458440
  0
VERTEX
  8
0
 62
     0
  6
CONTINUOUS
 10
1.763080
 20
7.431160
  0
SEQEND
  8
0
  0
POLYLINE
  8
0
 62
     0
  6
CONTINUOUS
 66
     1
 40
0.002200
 41
0.002200
  0
VERTEX
  8
0
 62
     0
  6
CONTINUOUS
 10
1.763080
 20
7.431160
  0
VERTEX
  8
0
 62
     0
  6
CONTINUOUS
 10
1.767920
 20
7.408280
  0
SEQEND
  8
0
  0
POLYLINE
  8
0
 62
     0
  6
CONTINUOUS
 66
     1
 40
0.002200
 41
0.002200
  0
VERTEX
  8
0
 62
     0
  6
CONTINUOUS
 10
1.767920
 20
7.408280
  0
VERTEX
  8
0
 62
     0
  6
CONTINUOUS
 10
1.777160
 20
7.382760
  0
SEQEND
  8
0
  0
POLYLINE
  8
0
 62
     0
  6
CONTINUOUS
 66
     1
 40
0.002200
 41
0.002200
  0
VERTEX
  8
0
 62
     0
  6
CONTINUOUS
 10
1.777160
 20
7.382760
  0
VERTEX
  8
0
 62
     0
  6
CONTINUOUS
 10
1.788600
 20
7.357680
  0
SEQEND
  8
0
  0
POLYLINE
  8
0
 62
     0
  6
CONTINUOUS
 66
     1
 40
0.002200
 41
0.002200
  0
VERTEX
  8
0
 62
     0
  6
CONTINUOUS
 10
1.788600
 20
7.357680
  0
VERTEX
  8
0
 62
     0
  6
CONTINUOUS
 10
1.802240
 20
7.334800
  0
SEQEND
  8
0
  0
POLYLINE
  8
0
 62
     0
  6
CONTINUOUS
 66
     1
 40
0.002200
 41
0.002200
  0
VERTEX
  8
0
 62
     0
  6
CONTINUOUS
 10
1.802240
 20
7.334800
  0
VERTEX
  8
0
 62
     0
  6
CONTINUOUS
 10
1.818520
 20
7.311920
  0
SEQEND
  8
0
  0
POLYLINE
  8
0
 62
     0
  6
CONTINUOUS
 66
     1
 40
0.002200
 41
0.002200
  0
VERTEX
  8
0
 62
     0
  6
CONTINUOUS
 10
1.818520
 20
7.311920
  0
VERTEX
  8
0
 62
     0
  6
CONTINUOUS
 10
1.836560
 20
7.293440
  0
SEQEND
  8
0
  0
POLYLINE
  8
0
 62
     0
  6
CONTINUOUS
 66
     1
 40
0.002200
 41
0.002200
  0
VERTEX
  8
0
 62
     0
  6
CONTINUOUS
 10
1.836560
 20
7.293440
  0
VERTEX
  8
0
 62
     0
  6
CONTINUOUS
 10
1.857240
 20
7.279800
  0
SEQEND
  8
0
  0
POLYLINE
  8
0
 62
     0
  6
CONTINUOUS
 66
     1
 40
0.002200
 41
0.002200
  0
VERTEX
  8
0
 62
     0
  6
CONTINUOUS
 10
1.857240
 20
7.279800
  0
VERTEX
  8
0
 62
     0
  6
CONTINUOUS
 10
1.880120
 20
7.265720
  0
SEQEND
  8
0
  0
POLYLINE
  8
0
 62
     0
  6
CONTINUOUS
 66
     1
 40
0.002200
 41
0.002200
  0
VERTEX
  8
0
 62
     0
  6
CONTINUOUS
 10
1.880120
 20
7.265720
  0
VERTEX
  8
0
 62
     0
  6
CONTINUOUS
 10
1.903000
 20
7.254280
  0
SEQEND
  8
0
  0
POLYLINE
  8
0
 62
     0
  6
CONTINUOUS
 66
     1
 40
0.002200
 41
0.002200
  0
VERTEX
  8
0
 62
     0
  6
CONTINUOUS
 10
1.903000
 20
7.254280
  0
VERTEX
  8
0
 62
     0
  6
CONTINUOUS
 10
1.930720
 20
7.245040
  0
SEQEND
  8
0
  0
POLYLINE
  8
0
 62
     0
  6
CONTINUOUS
 66
     1
 40
0.002200
 41
0.002200
  0
VERTEX
  8
0
 62
     0
  6
CONTINUOUS
 10
1.930720
 20
7.245040
  0
VERTEX
  8
0
 62
     0
  6
CONTINUOUS
 10
1.955800
 20
7.240640
  0
SEQEND
  8
0
  0
POLYLINE
  8
0
 62
     0
  6
CONTINUOUS
 66
     1
 40
0.002200
 41
0.002200
  0
VERTEX
  8
0
 62
     0
  6
CONTINUOUS
 10
1.880120
 20
7.256920
  0
VERTEX
  8
0
 62
     0
  6
CONTINUOUS
 10
1.864280
 20
7.217760
  0
SEQEND
  8
0
  0
POLYLINE
  8
0
 62
     0
  6
CONTINUOUS
 66
     1
 40
0.002200
 41
0.002200
  0
VERTEX
  8
0
 62
     0
  6
CONTINUOUS
 10
1.825120
 20
7.304880
  0
VERTEX
  8
0
 62
     0
  6
CONTINUOUS
 10
1.793000
 20
7.272760
  0
SEQEND
  8
0
  0
POLYLINE
  8
0
 62
     0
  6
CONTINUOUS
 66
     1
 40
0.002200
 41
0.002200
  0
VERTEX
  8
0
 62
     0
  6
CONTINUOUS
 10
1.779360
 20
7.371320
  0
VERTEX
  8
0
 62
     0
  6
CONTINUOUS
 10
1.738000
 20
7.353280
  0
SEQEND
  8
0
  0
POLYLINE
  8
0
 62
     0
  6
CONTINUOUS
 66
     1
 40
0.002200
 41
0.002200
  0
VERTEX
  8
0
 62
     0
  6
CONTINUOUS
 10
1.747240
 20
7.458440
  0
VERTEX
  8
0
 62
     0
  6
CONTINUOUS
 10
1.703680
 20
7.458440
  0
SEQEND
  8
0
  0
POLYLINE
  8
0
 62
     0
  6
CONTINUOUS
 66
     1
 40
0.002200
 41
0.002200
  0
VERTEX
  8
0
 62
     0
  6
CONTINUOUS
 10
1.724360
 20
7.564040
  0
VERTEX
  8
0
 62
     0
  6
CONTINUOUS
 10
1.765720
 20
7.545560
  0
SEQEND
  8
0
  0
POLYLINE
  8
0
 62
     0
  6
CONTINUOUS
 66
     1
 40
0.002200
 41
0.002200
  0
VERTEX
  8
0
 62
     0
  6
CONTINUOUS
 10
1.777160
 20
7.626080
  0
VERTEX
  8
0
 62
     0
  6
CONTINUOUS
 10
2.164800
 20
8.107880
  0
SEQEND
  8
0
  0
POLYLINE
  8
0
 62
     0
  6
CONTINUOUS
 66
     1
 40
0.002200
 41
0.002200
  0
VERTEX
  8
0
 62
     0
  6
CONTINUOUS
 10
2.164800
 20
8.107880
  0
VERTEX
  8
0
 62
     0
  6
CONTINUOUS
 10
2.169200
 20
8.107880
  0
SEQEND
  8
0
  0
POLYLINE
  8
0
 62
     0
  6
CONTINUOUS
 66
     1
 40
0.002200
 41
0.002200
  0
VERTEX
  8
0
 62
     0
  6
CONTINUOUS
 10
2.169200
 20
8.107880
  0
VERTEX
  8
0
 62
     0
  6
CONTINUOUS
 10
2.162160
 20
8.098640
  0
SEQEND
  8
0
  0
POLYLINE
  8
0
 62
     0
  6
CONTINUOUS
 66
     1
 40
0.002200
 41
0.002200
  0
VERTEX
  8
0
 62
     0
  6
CONTINUOUS
 10
2.162160
 20
8.098640
  0
VERTEX
  8
0
 62
     0
  6
CONTINUOUS
 10
2.155560
 20
8.089400
  0
SEQEND
  8
0
  0
POLYLINE
  8
0
 62
     0
  6
CONTINUOUS
 66
     1
 40
0.002200
 41
0.002200
  0
VERTEX
  8
0
 62
     0
  6
CONTINUOUS
 10
2.155560
 20
8.089400
  0
VERTEX
  8
0
 62
     0
  6
CONTINUOUS
 10
2.155560
 20
8.075760
  0
SEQEND
  8
0
  0
POLYLINE
  8
0
 62
     0
  6
CONTINUOUS
 66
     1
 40
0.002200
 41
0.002200
  0
VERTEX
  8
0
 62
     0
  6
CONTINUOUS
 10
2.155560
 20
8.075760
  0
VERTEX
  8
0
 62
     0
  6
CONTINUOUS
 10
2.155560
 20
8.064320
  0
SEQEND
  8
0
  0
POLYLINE
  8
0
 62
     0
  6
CONTINUOUS
 66
     1
 40
0.002200
 41
0.002200
  0
VERTEX
  8
0
 62
     0
  6
CONTINUOUS
 10
2.155560
 20
8.064320
  0
VERTEX
  8
0
 62
     0
  6
CONTINUOUS
 10
2.162160
 20
8.052880
  0
SEQEND
  8
0
  0
POLYLINE
  8
0
 62
     0
  6
CONTINUOUS
 66
     1
 40
0.002200
 41
0.002200
  0
VERTEX
  8
0
 62
     0
  6
CONTINUOUS
 10
2.162160
 20
8.052880
  0
VERTEX
  8
0
 62
     0
  6
CONTINUOUS
 10
2.169200
 20
8.043640
  0
SEQEND
  8
0
  0
POLYLINE
  8
0
 62
     0
  6
CONTINUOUS
 66
     1
 40
0.002200
 41
0.002200
  0
VERTEX
  8
0
 62
     0
  6
CONTINUOUS
 10
2.169200
 20
8.043640
  0
VERTEX
  8
0
 62
     0
  6
CONTINUOUS
 10
2.178440
 20
8.036600
  0
SEQEND
  8
0
  0
POLYLINE
  8
0
 62
     0
  6
CONTINUOUS
 66
     1
 40
0.002200
 41
0.002200
  0
VERTEX
  8
0
 62
     0
  6
CONTINUOUS
 10
2.178440
 20
8.036600
  0
VERTEX
  8
0
 62
     0
  6
CONTINUOUS
 10
2.189880
 20
8.032200
  0
SEQEND
  8
0
  0
POLYLINE
  8
0
 62
     0
  6
CONTINUOUS
 66
     1
 40
0.002200
 41
0.002200
  0
VERTEX
  8
0
 62
     0
  6
CONTINUOUS
 10
2.189880
 20
8.032200
  0
VERTEX
  8
0
 62
     0
  6
CONTINUOUS
 10
2.203520
 20
8.027360
  0
SEQEND
  8
0
  0
POLYLINE
  8
0
 62
     0
  6
CONTINUOUS
 66
     1
 40
0.002200
 41
0.002200
  0
VERTEX
  8
0
 62
     0
  6
CONTINUOUS
 10
2.203520
 20
8.027360
  0
VERTEX
  8
0
 62
     0
  6
CONTINUOUS
 10
2.214960
 20
8.032200
  0
SEQEND
  8
0
  0
POLYLINE
  8
0
 62
     0
  6
CONTINUOUS
 66
     1
 40
0.002200
 41
0.002200
  0
VERTEX
  8
0
 62
     0
  6
CONTINUOUS
 10
2.214960
 20
8.032200
  0
VERTEX
  8
0
 62
     0
  6
CONTINUOUS
 10
2.226840
 20
8.036600
  0
SEQEND
  8
0
  0
POLYLINE
  8
0
 62
     0
  6
CONTINUOUS
 66
     1
 40
0.002200
 41
0.002200
  0
VERTEX
  8
0
 62
     0
  6
CONTINUOUS
 10
2.226840
 20
8.036600
  0
VERTEX
  8
0
 62
     0
  6
CONTINUOUS
 10
2.233440
 20
8.043640
  0
SEQEND
  8
0
  0
POLYLINE
  8
0
 62
     0
  6
CONTINUOUS
 66
     1
 40
0.002200
 41
0.002200
  0
VERTEX
  8
0
 62
     0
  6
CONTINUOUS
 10
2.233440
 20
8.043640
  0
VERTEX
  8
0
 62
     0
  6
CONTINUOUS
 10
2.242680
 20
8.052880
  0
SEQEND
  8
0
  0
POLYLINE
  8
0
 62
     0
  6
CONTINUOUS
 66
     1
 40
0.002200
 41
0.002200
  0
VERTEX
  8
0
 62
     0
  6
CONTINUOUS
 10
2.242680
 20
8.052880
  0
VERTEX
  8
0
 62
     0
  6
CONTINUOUS
 10
2.247080
 20
8.064320
  0
SEQEND
  8
0
  0
POLYLINE
  8
0
 62
     0
  6
CONTINUOUS
 66
     1
 40
0.002200
 41
0.002200
  0
VERTEX
  8
0
 62
     0
  6
CONTINUOUS
 10
2.247080
 20
8.064320
  0
VERTEX
  8
0
 62
     0
  6
CONTINUOUS
 10
2.249720
 20
8.075760
  0
SEQEND
  8
0
  0
POLYLINE
  8
0
 62
     0
  6
CONTINUOUS
 66
     1
 40
0.002200
 41
0.002200
  0
VERTEX
  8
0
 62
     0
  6
CONTINUOUS
 10
2.249720
 20
8.075760
  0
VERTEX
  8
0
 62
     0
  6
CONTINUOUS
 10
2.247080
 20
8.089400
  0
SEQEND
  8
0
  0
POLYLINE
  8
0
 62
     0
  6
CONTINUOUS
 66
     1
 40
0.002200
 41
0.002200
  0
VERTEX
  8
0
 62
     0
  6
CONTINUOUS
 10
2.247080
 20
8.089400
  0
VERTEX
  8
0
 62
     0
  6
CONTINUOUS
 10
2.242680
 20
8.098640
  0
SEQEND
  8
0
  0
POLYLINE
  8
0
 62
     0
  6
CONTINUOUS
 66
     1
 40
0.002200
 41
0.002200
  0
VERTEX
  8
0
 62
     0
  6
CONTINUOUS
 10
2.242680
 20
8.098640
  0
VERTEX
  8
0
 62
     0
  6
CONTINUOUS
 10
2.233440
 20
8.107880
  0
SEQEND
  8
0
  0
POLYLINE
  8
0
 62
     0
  6
CONTINUOUS
 66
     1
 40
0.002200
 41
0.002200
  0
VERTEX
  8
0
 62
     0
  6
CONTINUOUS
 10
2.233440
 20
8.107880
  0
VERTEX
  8
0
 62
     0
  6
CONTINUOUS
 10
2.226840
 20
8.119320
  0
SEQEND
  8
0
  0
POLYLINE
  8
0
 62
     0
  6
CONTINUOUS
 66
     1
 40
0.002200
 41
0.002200
  0
VERTEX
  8
0
 62
     0
  6
CONTINUOUS
 10
2.226840
 20
8.119320
  0
VERTEX
  8
0
 62
     0
  6
CONTINUOUS
 10
2.214960
 20
8.121520
  0
SEQEND
  8
0
  0
POLYLINE
  8
0
 62
     0
  6
CONTINUOUS
 66
     1
 40
0.002200
 41
0.002200
  0
VERTEX
  8
0
 62
     0
  6
CONTINUOUS
 10
2.214960
 20
8.121520
  0
VERTEX
  8
0
 62
     0
  6
CONTINUOUS
 10
2.203520
 20
8.121520
  0
SEQEND
  8
0
  0
POLYLINE
  8
0
 62
     0
  6
CONTINUOUS
 66
     1
 40
0.002200
 41
0.002200
  0
VERTEX
  8
0
 62
     0
  6
CONTINUOUS
 10
2.203520
 20
8.121520
  0
VERTEX
  8
0
 62
     0
  6
CONTINUOUS
 10
2.189880
 20
8.121520
  0
SEQEND
  8
0
  0
POLYLINE
  8
0
 62
     0
  6
CONTINUOUS
 66
     1
 40
0.002200
 41
0.002200
  0
VERTEX
  8
0
 62
     0
  6
CONTINUOUS
 10
2.189880
 20
8.121520
  0
VERTEX
  8
0
 62
     0
  6
CONTINUOUS
 10
2.178440
 20
8.119320
  0
SEQEND
  8
0
  0
POLYLINE
  8
0
 62
     0
  6
CONTINUOUS
 66
     1
 40
0.002200
 41
0.002200
  0
VERTEX
  8
0
 62
     0
  6
CONTINUOUS
 10
2.178440
 20
8.119320
  0
VERTEX
  8
0
 62
     0
  6
CONTINUOUS
 10
2.169200
 20
8.107880
  0
SEQEND
  8
0
  0
POLYLINE
  8
0
 62
     0
  6
CONTINUOUS
 66
     1
 40
0.002200
 41
0.002200
  0
VERTEX
  8
0
 62
     0
  6
CONTINUOUS
 10
2.249720
 20
8.075760
  0
VERTEX
  8
0
 62
     0
  6
CONTINUOUS
 10
2.244880
 20
7.458440
  0
SEQEND
  8
0
  0
POLYLINE
  8
0
 62
     0
  6
CONTINUOUS
 66
     1
 40
0.002200
 41
0.002200
  0
VERTEX
  8
0
 62
     0
  6
CONTINUOUS
 10
2.231240
 20
7.458440
  0
VERTEX
  8
0
 62
     0
  6
CONTINUOUS
 10
2.187680
 20
7.458440
  0
SEQEND
  8
0
  0
POLYLINE
  8
0
 62
     0
  6
CONTINUOUS
 66
     1
 40
0.002200
 41
0.002200
  0
VERTEX
  8
0
 62
     0
  6
CONTINUOUS
 10
2.174040
 20
7.531920
  0
VERTEX
  8
0
 62
     0
  6
CONTINUOUS
 10
2.214960
 20
7.550400
  0
SEQEND
  8
0
  0
POLYLINE
  8
0
 62
     0
  6
CONTINUOUS
 66
     1
 40
0.002200
 41
0.002200
  0
VERTEX
  8
0
 62
     0
  6
CONTINUOUS
 10
2.153360
 20
7.646760
  0
VERTEX
  8
0
 62
     0
  6
CONTINUOUS
 10
2.123440
 20
7.614640
  0
SEQEND
  8
0
  0
POLYLINE
  8
0
 62
     0
  6
CONTINUOUS
 66
     1
 40
0.002200
 41
0.002200
  0
VERTEX
  8
0
 62
     0
  6
CONTINUOUS
 10
2.057000
 20
7.660400
  0
VERTEX
  8
0
 62
     0
  6
CONTINUOUS
 10
2.075040
 20
7.701760
  0
SEQEND
  8
0
  0
POLYLINE
  8
0
 62
     0
  6
CONTINUOUS
 66
     1
 40
0.002200
 41
0.002200
  0
VERTEX
  8
0
 62
     0
  6
CONTINUOUS
 10
1.981320
 20
7.724640
  0
VERTEX
  8
0
 62
     0
  6
CONTINUOUS
 10
1.953600
 20
7.722440
  0
SEQEND
  8
0
  0
POLYLINE
  8
0
 62
     0
  6
CONTINUOUS
 66
     1
 40
0.002200
 41
0.002200
  0
VERTEX
  8
0
 62
     0
  6
CONTINUOUS
 10
1.953600
 20
7.722440
  0
VERTEX
  8
0
 62
     0
  6
CONTINUOUS
 10
1.921480
 20
7.715400
  0
SEQEND
  8
0
  0
POLYLINE
  8
0
 62
     0
  6
CONTINUOUS
 66
     1
 40
0.002200
 41
0.002200
  0
VERTEX
  8
0
 62
     0
  6
CONTINUOUS
 10
1.921480
 20
7.715400
  0
VERTEX
  8
0
 62
     0
  6
CONTINUOUS
 10
1.894200
 20
7.708800
  0
SEQEND
  8
0
  0
POLYLINE
  8
0
 62
     0
  6
CONTINUOUS
 66
     1
 40
0.002200
 41
0.002200
  0
VERTEX
  8
0
 62
     0
  6
CONTINUOUS
 10
1.894200
 20
7.708800
  0
VERTEX
  8
0
 62
     0
  6
CONTINUOUS
 10
1.866480
 20
7.697360
  0
SEQEND
  8
0
  0
POLYLINE
  8
0
 62
     0
  6
CONTINUOUS
 66
     1
 40
0.002200
 41
0.002200
  0
VERTEX
  8
0
 62
     0
  6
CONTINUOUS
 10
1.866480
 20
7.697360
  0
VERTEX
  8
0
 62
     0
  6
CONTINUOUS
 10
1.841400
 20
7.683280
  0
SEQEND
  8
0
  0
POLYLINE
  8
0
 62
     0
  6
CONTINUOUS
 66
     1
 40
0.002200
 41
0.002200
  0
VERTEX
  8
0
 62
     0
  6
CONTINUOUS
 10
1.841400
 20
7.683280
  0
VERTEX
  8
0
 62
     0
  6
CONTINUOUS
 10
1.818520
 20
7.667440
  0
SEQEND
  8
0
  0
POLYLINE
  8
0
 62
     0
  6
CONTINUOUS
 66
     1
 40
0.002200
 41
0.002200
  0
VERTEX
  8
0
 62
     0
  6
CONTINUOUS
 10
1.818520
 20
7.667440
  0
VERTEX
  8
0
 62
     0
  6
CONTINUOUS
 10
1.793000
 20
7.646760
  0
SEQEND
  8
0
  0
POLYLINE
  8
0
 62
     0
  6
CONTINUOUS
 66
     1
 40
0.002200
 41
0.002200
  0
VERTEX
  8
0
 62
     0
  6
CONTINUOUS
 10
1.793000
 20
7.646760
  0
VERTEX
  8
0
 62
     0
  6
CONTINUOUS
 10
1.777160
 20
7.623880
  0
SEQEND
  8
0
  0
POLYLINE
  8
0
 62
     0
  6
CONTINUOUS
 66
     1
 40
0.002200
 41
0.002200
  0
VERTEX
  8
0
 62
     0
  6
CONTINUOUS
 10
1.777160
 20
7.623880
  0
VERTEX
  8
0
 62
     0
  6
CONTINUOUS
 10
1.758680
 20
7.598360
  0
SEQEND
  8
0
  0
POLYLINE
  8
0
 62
     0
  6
CONTINUOUS
 66
     1
 40
0.002200
 41
0.002200
  0
VERTEX
  8
0
 62
     0
  6
CONTINUOUS
 10
1.758680
 20
7.598360
  0
VERTEX
  8
0
 62
     0
  6
CONTINUOUS
 10
1.745040
 20
7.573280
  0
SEQEND
  8
0
  0
POLYLINE
  8
0
 62
     0
  6
CONTINUOUS
 66
     1
 40
0.002200
 41
0.002200
  0
VERTEX
  8
0
 62
     0
  6
CONTINUOUS
 10
1.745040
 20
7.573280
  0
VERTEX
  8
0
 62
     0
  6
CONTINUOUS
 10
1.733600
 20
7.545560
  0
SEQEND
  8
0
  0
POLYLINE
  8
0
 62
     0
  6
CONTINUOUS
 66
     1
 40
0.002200
 41
0.002200
  0
VERTEX
  8
0
 62
     0
  6
CONTINUOUS
 10
1.733600
 20
7.545560
  0
VERTEX
  8
0
 62
     0
  6
CONTINUOUS
 10
1.724360
 20
7.518280
  0
SEQEND
  8
0
  0
POLYLINE
  8
0
 62
     0
  6
CONTINUOUS
 66
     1
 40
0.002200
 41
0.002200
  0
VERTEX
  8
0
 62
     0
  6
CONTINUOUS
 10
1.724360
 20
7.518280
  0
VERTEX
  8
0
 62
     0
  6
CONTINUOUS
 10
1.719520
 20
7.488360
  0
SEQEND
  8
0
  0
POLYLINE
  8
0
 62
     0
  6
CONTINUOUS
 66
     1
 40
0.002200
 41
0.002200
  0
VERTEX
  8
0
 62
     0
  6
CONTINUOUS
 10
1.719520
 20
7.488360
  0
VERTEX
  8
0
 62
     0
  6
CONTINUOUS
 10
1.719520
 20
7.458440
  0
SEQEND
  8
0
  0
POLYLINE
  8
0
 62
     0
  6
CONTINUOUS
 66
     1
 40
0.002200
 41
0.002200
  0
VERTEX
  8
0
 62
     0
  6
CONTINUOUS
 10
1.719520
 20
7.458440
  0
VERTEX
  8
0
 62
     0
  6
CONTINUOUS
 10
1.719520
 20
7.431160
  0
SEQEND
  8
0
  0
POLYLINE
  8
0
 62
     0
  6
CONTINUOUS
 66
     1
 40
0.002200
 41
0.002200
  0
VERTEX
  8
0
 62
     0
  6
CONTINUOUS
 10
1.719520
 20
7.431160
  0
VERTEX
  8
0
 62
     0
  6
CONTINUOUS
 10
1.724360
 20
7.399040
  0
SEQEND
  8
0
  0
POLYLINE
  8
0
 62
     0
  6
CONTINUOUS
 66
     1
 40
0.002200
 41
0.002200
  0
VERTEX
  8
0
 62
     0
  6
CONTINUOUS
 10
1.724360
 20
7.399040
  0
VERTEX
  8
0
 62
     0
  6
CONTINUOUS
 10
1.733600
 20
7.371320
  0
SEQEND
  8
0
  0
POLYLINE
  8
0
 62
     0
  6
CONTINUOUS
 66
     1
 40
0.002200
 41
0.002200
  0
VERTEX
  8
0
 62
     0
  6
CONTINUOUS
 10
1.733600
 20
7.371320
  0
VERTEX
  8
0
 62
     0
  6
CONTINUOUS
 10
1.745040
 20
7.344040
  0
SEQEND
  8
0
  0
POLYLINE
  8
0
 62
     0
  6
CONTINUOUS
 66
     1
 40
0.002200
 41
0.002200
  0
VERTEX
  8
0
 62
     0
  6
CONTINUOUS
 10
1.745040
 20
7.344040
  0
VERTEX
  8
0
 62
     0
  6
CONTINUOUS
 10
1.758680
 20
7.318520
  0
SEQEND
  8
0
  0
POLYLINE
  8
0
 62
     0
  6
CONTINUOUS
 66
     1
 40
0.002200
 41
0.002200
  0
VERTEX
  8
0
 62
     0
  6
CONTINUOUS
 10
1.758680
 20
7.318520
  0
VERTEX
  8
0
 62
     0
  6
CONTINUOUS
 10
1.777160
 20
7.295640
  0
SEQEND
  8
0
  0
POLYLINE
  8
0
 62
     0
  6
CONTINUOUS
 66
     1
 40
0.002200
 41
0.002200
  0
VERTEX
  8
0
 62
     0
  6
CONTINUOUS
 10
1.777160
 20
7.295640
  0
VERTEX
  8
0
 62
     0
  6
CONTINUOUS
 10
1.793000
 20
7.272760
  0
SEQEND
  8
0
  0
POLYLINE
  8
0
 62
     0
  6
CONTINUOUS
 66
     1
 40
0.002200
 41
0.002200
  0
VERTEX
  8
0
 62
     0
  6
CONTINUOUS
 10
1.793000
 20
7.272760
  0
VERTEX
  8
0
 62
     0
  6
CONTINUOUS
 10
1.818520
 20
7.254280
  0
SEQEND
  8
0
  0
POLYLINE
  8
0
 62
     0
  6
CONTINUOUS
 66
     1
 40
0.002200
 41
0.002200
  0
VERTEX
  8
0
 62
     0
  6
CONTINUOUS
 10
1.818520
 20
7.254280
  0
VERTEX
  8
0
 62
     0
  6
CONTINUOUS
 10
1.841400
 20
7.238440
  0
SEQEND
  8
0
  0
POLYLINE
  8
0
 62
     0
  6
CONTINUOUS
 66
     1
 40
0.002200
 41
0.002200
  0
VERTEX
  8
0
 62
     0
  6
CONTINUOUS
 10
1.841400
 20
7.238440
  0
VERTEX
  8
0
 62
     0
  6
CONTINUOUS
 10
1.866480
 20
7.222160
  0
SEQEND
  8
0
  0
POLYLINE
  8
0
 62
     0
  6
CONTINUOUS
 66
     1
 40
0.002200
 41
0.002200
  0
VERTEX
  8
0
 62
     0
  6
CONTINUOUS
 10
1.866480
 20
7.222160
  0
VERTEX
  8
0
 62
     0
  6
CONTINUOUS
 10
1.894200
 20
7.210720
  0
SEQEND
  8
0
  0
POLYLINE
  8
0
 62
     0
  6
CONTINUOUS
 66
     1
 40
0.002200
 41
0.002200
  0
VERTEX
  8
0
 62
     0
  6
CONTINUOUS
 10
1.894200
 20
7.210720
  0
VERTEX
  8
0
 62
     0
  6
CONTINUOUS
 10
1.921480
 20
7.201480
  0
SEQEND
  8
0
  0
POLYLINE
  8
0
 62
     0
  6
CONTINUOUS
 66
     1
 40
0.002200
 41
0.002200
  0
VERTEX
  8
0
 62
     0
  6
CONTINUOUS
 10
1.921480
 20
7.201480
  0
VERTEX
  8
0
 62
     0
  6
CONTINUOUS
 10
1.953600
 20
7.197080
  0
SEQEND
  8
0
  0
POLYLINE
  8
0
 62
     0
  6
CONTINUOUS
 66
     1
 40
0.002200
 41
0.002200
  0
VERTEX
  8
0
 62
     0
  6
CONTINUOUS
 10
1.953600
 20
7.197080
  0
VERTEX
  8
0
 62
     0
  6
CONTINUOUS
 10
1.981320
 20
7.197080
  0
SEQEND
  8
0
  0
POLYLINE
  8
0
 62
     0
  6
CONTINUOUS
 66
     1
 40
0.002200
 41
0.002200
  0
VERTEX
  8
0
 62
     0
  6
CONTINUOUS
 10
1.981320
 20
7.197080
  0
VERTEX
  8
0
 62
     0
  6
CONTINUOUS
 10
2.010800
 20
7.197080
  0
SEQEND
  8
0
  0
POLYLINE
  8
0
 62
     0
  6
CONTINUOUS
 66
     1
 40
0.002200
 41
0.002200
  0
VERTEX
  8
0
 62
     0
  6
CONTINUOUS
 10
2.010800
 20
7.197080
  0
VERTEX
  8
0
 62
     0
  6
CONTINUOUS
 10
2.040720
 20
7.201480
  0
SEQEND
  8
0
  0
POLYLINE
  8
0
 62
     0
  6
CONTINUOUS
 66
     1
 40
0.002200
 41
0.002200
  0
VERTEX
  8
0
 62
     0
  6
CONTINUOUS
 10
2.040720
 20
7.201480
  0
VERTEX
  8
0
 62
     0
  6
CONTINUOUS
 10
2.068440
 20
7.210720
  0
SEQEND
  8
0
  0
POLYLINE
  8
0
 62
     0
  6
CONTINUOUS
 66
     1
 40
0.002200
 41
0.002200
  0
VERTEX
  8
0
 62
     0
  6
CONTINUOUS
 10
2.068440
 20
7.210720
  0
VERTEX
  8
0
 62
     0
  6
CONTINUOUS
 10
2.095720
 20
7.222160
  0
SEQEND
  8
0
  0
POLYLINE
  8
0
 62
     0
  6
CONTINUOUS
 66
     1
 40
0.002200
 41
0.002200
  0
VERTEX
  8
0
 62
     0
  6
CONTINUOUS
 10
2.095720
 20
7.222160
  0
VERTEX
  8
0
 62
     0
  6
CONTINUOUS
 10
2.123440
 20
7.238440
  0
SEQEND
  8
0
  0
POLYLINE
  8
0
 62
     0
  6
CONTINUOUS
 66
     1
 40
0.002200
 41
0.002200
  0
VERTEX
  8
0
 62
     0
  6
CONTINUOUS
 10
2.123440
 20
7.238440
  0
VERTEX
  8
0
 62
     0
  6
CONTINUOUS
 10
2.146320
 20
7.254280
  0
SEQEND
  8
0
  0
POLYLINE
  8
0
 62
     0
  6
CONTINUOUS
 66
     1
 40
0.002200
 41
0.002200
  0
VERTEX
  8
0
 62
     0
  6
CONTINUOUS
 10
2.146320
 20
7.254280
  0
VERTEX
  8
0
 62
     0
  6
CONTINUOUS
 10
2.169200
 20
7.272760
  0
SEQEND
  8
0
  0
POLYLINE
  8
0
 62
     0
  6
CONTINUOUS
 66
     1
 40
0.002200
 41
0.002200
  0
VERTEX
  8
0
 62
     0
  6
CONTINUOUS
 10
2.169200
 20
7.272760
  0
VERTEX
  8
0
 62
     0
  6
CONTINUOUS
 10
2.187680
 20
7.295640
  0
SEQEND
  8
0
  0
POLYLINE
  8
0
 62
     0
  6
CONTINUOUS
 66
     1
 40
0.002200
 41
0.002200
  0
VERTEX
  8
0
 62
     0
  6
CONTINUOUS
 10
2.187680
 20
7.295640
  0
VERTEX
  8
0
 62
     0
  6
CONTINUOUS
 10
2.206160
 20
7.318520
  0
SEQEND
  8
0
  0
POLYLINE
  8
0
 62
     0
  6
CONTINUOUS
 66
     1
 40
0.002200
 41
0.002200
  0
VERTEX
  8
0
 62
     0
  6
CONTINUOUS
 10
2.206160
 20
7.318520
  0
VERTEX
  8
0
 62
     0
  6
CONTINUOUS
 10
2.219800
 20
7.344040
  0
SEQEND
  8
0
  0
POLYLINE
  8
0
 62
     0
  6
CONTINUOUS
 66
     1
 40
0.002200
 41
0.002200
  0
VERTEX
  8
0
 62
     0
  6
CONTINUOUS
 10
2.219800
 20
7.344040
  0
VERTEX
  8
0
 62
     0
  6
CONTINUOUS
 10
2.231240
 20
7.371320
  0
SEQEND
  8
0
  0
POLYLINE
  8
0
 62
     0
  6
CONTINUOUS
 66
     1
 40
0.002200
 41
0.002200
  0
VERTEX
  8
0
 62
     0
  6
CONTINUOUS
 10
2.231240
 20
7.371320
  0
VERTEX
  8
0
 62
     0
  6
CONTINUOUS
 10
2.238280
 20
7.399040
  0
SEQEND
  8
0
  0
POLYLINE
  8
0
 62
     0
  6
CONTINUOUS
 66
     1
 40
0.002200
 41
0.002200
  0
VERTEX
  8
0
 62
     0
  6
CONTINUOUS
 10
2.238280
 20
7.399040
  0
VERTEX
  8
0
 62
     0
  6
CONTINUOUS
 10
2.242680
 20
7.431160
  0
SEQEND
  8
0
  0
POLYLINE
  8
0
 62
     0
  6
CONTINUOUS
 66
     1
 40
0.002200
 41
0.002200
  0
VERTEX
  8
0
 62
     0
  6
CONTINUOUS
 10
2.242680
 20
7.431160
  0
VERTEX
  8
0
 62
     0
  6
CONTINUOUS
 10
2.244880
 20
7.458440
  0
SEQEND
  8
0
  0
POLYLINE
  8
0
 62
     0
  6
CONTINUOUS
 66
     1
 40
0.002200
 41
0.002200
  0
VERTEX
  8
0
 62
     0
  6
CONTINUOUS
 10
2.244880
 20
7.458440
  0
VERTEX
  8
0
 62
     0
  6
CONTINUOUS
 10
2.242680
 20
7.488360
  0
SEQEND
  8
0
  0
POLYLINE
  8
0
 62
     0
  6
CONTINUOUS
 66
     1
 40
0.002200
 41
0.002200
  0
VERTEX
  8
0
 62
     0
  6
CONTINUOUS
 10
2.242680
 20
7.488360
  0
VERTEX
  8
0
 62
     0
  6
CONTINUOUS
 10
2.238280
 20
7.518280
  0
SEQEND
  8
0
  0
POLYLINE
  8
0
 62
     0
  6
CONTINUOUS
 66
     1
 40
0.002200
 41
0.002200
  0
VERTEX
  8
0
 62
     0
  6
CONTINUOUS
 10
2.238280
 20
7.518280
  0
VERTEX
  8
0
 62
     0
  6
CONTINUOUS
 10
2.231240
 20
7.545560
  0
SEQEND
  8
0
  0
POLYLINE
  8
0
 62
     0
  6
CONTINUOUS
 66
     1
 40
0.002200
 41
0.002200
  0
VERTEX
  8
0
 62
     0
  6
CONTINUOUS
 10
2.231240
 20
7.545560
  0
VERTEX
  8
0
 62
     0
  6
CONTINUOUS
 10
2.219800
 20
7.573280
  0
SEQEND
  8
0
  0
POLYLINE
  8
0
 62
     0
  6
CONTINUOUS
 66
     1
 40
0.002200
 41
0.002200
  0
VERTEX
  8
0
 62
     0
  6
CONTINUOUS
 10
2.219800
 20
7.573280
  0
VERTEX
  8
0
 62
     0
  6
CONTINUOUS
 10
2.206160
 20
7.598360
  0
SEQEND
  8
0
  0
POLYLINE
  8
0
 62
     0
  6
CONTINUOUS
 66
     1
 40
0.002200
 41
0.002200
  0
VERTEX
  8
0
 62
     0
  6
CONTINUOUS
 10
2.206160
 20
7.598360
  0
VERTEX
  8
0
 62
     0
  6
CONTINUOUS
 10
2.187680
 20
7.623880
  0
SEQEND
  8
0
  0
POLYLINE
  8
0
 62
     0
  6
CONTINUOUS
 66
     1
 40
0.002200
 41
0.002200
  0
VERTEX
  8
0
 62
     0
  6
CONTINUOUS
 10
2.187680
 20
7.623880
  0
VERTEX
  8
0
 62
     0
  6
CONTINUOUS
 10
2.169200
 20
7.646760
  0
SEQEND
  8
0
  0
POLYLINE
  8
0
 62
     0
  6
CONTINUOUS
 66
     1
 40
0.002200
 41
0.002200
  0
VERTEX
  8
0
 62
     0
  6
CONTINUOUS
 10
2.169200
 20
7.646760
  0
VERTEX
  8
0
 62
     0
  6
CONTINUOUS
 10
2.146320
 20
7.667440
  0
SEQEND
  8
0
  0
POLYLINE
  8
0
 62
     0
  6
CONTINUOUS
 66
     1
 40
0.002200
 41
0.002200
  0
VERTEX
  8
0
 62
     0
  6
CONTINUOUS
 10
2.146320
 20
7.667440
  0
VERTEX
  8
0
 62
     0
  6
CONTINUOUS
 10
2.123440
 20
7.683280
  0
SEQEND
  8
0
  0
POLYLINE
  8
0
 62
     0
  6
CONTINUOUS
 66
     1
 40
0.002200
 41
0.002200
  0
VERTEX
  8
0
 62
     0
  6
CONTINUOUS
 10
2.123440
 20
7.683280
  0
VERTEX
  8
0
 62
     0
  6
CONTINUOUS
 10
2.095720
 20
7.697360
  0
SEQEND
  8
0
  0
POLYLINE
  8
0
 62
     0
  6
CONTINUOUS
 66
     1
 40
0.002200
 41
0.002200
  0
VERTEX
  8
0
 62
     0
  6
CONTINUOUS
 10
2.095720
 20
7.697360
  0
VERTEX
  8
0
 62
     0
  6
CONTINUOUS
 10
2.068440
 20
7.708800
  0
SEQEND
  8
0
  0
POLYLINE
  8
0
 62
     0
  6
CONTINUOUS
 66
     1
 40
0.002200
 41
0.002200
  0
VERTEX
  8
0
 62
     0
  6
CONTINUOUS
 10
2.068440
 20
7.708800
  0
VERTEX
  8
0
 62
     0
  6
CONTINUOUS
 10
2.040720
 20
7.715400
  0
SEQEND
  8
0
  0
POLYLINE
  8
0
 62
     0
  6
CONTINUOUS
 66
     1
 40
0.002200
 41
0.002200
  0
VERTEX
  8
0
 62
     0
  6
CONTINUOUS
 10
2.040720
 20
7.715400
  0
VERTEX
  8
0
 62
     0
  6
CONTINUOUS
 10
2.010800
 20
7.722440
  0
SEQEND
  8
0
  0
POLYLINE
  8
0
 62
     0
  6
CONTINUOUS
 66
     1
 40
0.002200
 41
0.002200
  0
VERTEX
  8
0
 62
     0
  6
CONTINUOUS
 10
2.010800
 20
7.722440
  0
VERTEX
  8
0
 62
     0
  6
CONTINUOUS
 10
1.981320
 20
7.724640
  0
SEQEND
  8
0
  0
POLYLINE
  8
0
 62
     0
  6
CONTINUOUS
 66
     1
 40
0.002200
 41
0.002200
  0
VERTEX
  8
0
 62
     0
  6
CONTINUOUS
 10
1.967240
 20
7.724640
  0
VERTEX
  8
0
 62
     0
  6
CONTINUOUS
 10
1.967240
 20
7.681080
  0
SEQEND
  8
0
  0
POLYLINE
  8
0
 62
     0
  6
CONTINUOUS
 66
     1
 40
0.002200
 41
0.002200
  0
VERTEX
  8
0
 62
     0
  6
CONTINUOUS
 10
1.875720
 20
7.660400
  0
VERTEX
  8
0
 62
     0
  6
CONTINUOUS
 10
1.859440
 20
7.701760
  0
SEQEND
  8
0
  0
POLYLINE
  8
0
 62
     0
  6
CONTINUOUS
 66
     1
 40
0.002200
 41
0.002200
  0
VERTEX
  8
0
 62
     0
  6
CONTINUOUS
 10
1.790800
 20
7.658200
  0
VERTEX
  8
0
 62
     0
  6
CONTINUOUS
 10
1.820720
 20
7.623880
  0
SEQEND
  8
0
  0
POLYLINE
  8
0
 62
     0
  6
CONTINUOUS
 66
     1
 40
0.002200
 41
0.002200
  0
VERTEX
  8
0
 62
     0
  6
CONTINUOUS
 10
1.953600
 20
7.898880
  0
VERTEX
  8
0
 62
     0
  6
CONTINUOUS
 10
1.953600
 20
8.330080
  0
SEQEND
  8
0
  0
POLYLINE
  8
0
 62
     0
  6
CONTINUOUS
 66
     1
 40
0.002200
 41
0.002200
  0
VERTEX
  8
0
 62
     0
  6
CONTINUOUS
 10
1.953600
 20
8.330080
  0
VERTEX
  8
0
 62
     0
  6
CONTINUOUS
 10
1.543080
 20
8.330080
  0
SEQEND
  8
0
  0
POLYLINE
  8
0
 62
     0
  6
CONTINUOUS
 66
     1
 40
0.002200
 41
0.002200
  0
VERTEX
  8
0
 62
     0
  6
CONTINUOUS
 10
1.543080
 20
8.330080
  0
VERTEX
  8
0
 62
     0
  6
CONTINUOUS
 10
1.543080
 20
7.465480
  0
SEQEND
  8
0
  0
POLYLINE
  8
0
 62
     0
  6
CONTINUOUS
 66
     1
 40
0.002200
 41
0.002200
  0
VERTEX
  8
0
 62
     0
  6
CONTINUOUS
 10
1.543080
 20
7.465480
  0
VERTEX
  8
0
 62
     0
  6
CONTINUOUS
 10
1.543080
 20
7.458440
  0
SEQEND
  8
0
  0
POLYLINE
  8
0
 62
     0
  6
CONTINUOUS
 66
     1
 40
0.002200
 41
0.002200
  0
VERTEX
  8
0
 62
     0
  6
CONTINUOUS
 10
1.543080
 20
7.458440
  0
VERTEX
  8
0
 62
     0
  6
CONTINUOUS
 10
1.545280
 20
7.421920
  0
SEQEND
  8
0
  0
POLYLINE
  8
0
 62
     0
  6
CONTINUOUS
 66
     1
 40
0.002200
 41
0.002200
  0
VERTEX
  8
0
 62
     0
  6
CONTINUOUS
 10
1.545280
 20
7.421920
  0
VERTEX
  8
0
 62
     0
  6
CONTINUOUS
 10
1.550120
 20
7.382760
  0
SEQEND
  8
0
  0
POLYLINE
  8
0
 62
     0
  6
CONTINUOUS
 66
     1
 40
0.002200
 41
0.002200
  0
VERTEX
  8
0
 62
     0
  6
CONTINUOUS
 10
1.550120
 20
7.382760
  0
VERTEX
  8
0
 62
     0
  6
CONTINUOUS
 10
1.556720
 20
7.348440
  0
SEQEND
  8
0
  0
POLYLINE
  8
0
 62
     0
  6
CONTINUOUS
 66
     1
 40
0.002200
 41
0.002200
  0
VERTEX
  8
0
 62
     0
  6
CONTINUOUS
 10
1.556720
 20
7.348440
  0
VERTEX
  8
0
 62
     0
  6
CONTINUOUS
 10
1.568160
 20
7.309280
  0
SEQEND
  8
0
  0
POLYLINE
  8
0
 62
     0
  6
CONTINUOUS
 66
     1
 40
0.002200
 41
0.002200
  0
VERTEX
  8
0
 62
     0
  6
CONTINUOUS
 10
1.568160
 20
7.309280
  0
VERTEX
  8
0
 62
     0
  6
CONTINUOUS
 10
1.582240
 20
7.274960
  0
SEQEND
  8
0
  0
POLYLINE
  8
0
 62
     0
  6
CONTINUOUS
 66
     1
 40
0.002200
 41
0.002200
  0
VERTEX
  8
0
 62
     0
  6
CONTINUOUS
 10
1.582240
 20
7.274960
  0
VERTEX
  8
0
 62
     0
  6
CONTINUOUS
 10
1.600280
 20
7.240640
  0
SEQEND
  8
0
  0
POLYLINE
  8
0
 62
     0
  6
CONTINUOUS
 66
     1
 40
0.002200
 41
0.002200
  0
VERTEX
  8
0
 62
     0
  6
CONTINUOUS
 10
1.600280
 20
7.240640
  0
VERTEX
  8
0
 62
     0
  6
CONTINUOUS
 10
1.620960
 20
7.208520
  0
SEQEND
  8
0
  0
POLYLINE
  8
0
 62
     0
  6
CONTINUOUS
 66
     1
 40
0.002200
 41
0.002200
  0
VERTEX
  8
0
 62
     0
  6
CONTINUOUS
 10
1.620960
 20
7.208520
  0
VERTEX
  8
0
 62
     0
  6
CONTINUOUS
 10
1.643840
 20
7.176400
  0
SEQEND
  8
0
  0
POLYLINE
  8
0
 62
     0
  6
CONTINUOUS
 66
     1
 40
0.002200
 41
0.002200
  0
VERTEX
  8
0
 62
     0
  6
CONTINUOUS
 10
1.643840
 20
7.176400
  0
VERTEX
  8
0
 62
     0
  6
CONTINUOUS
 10
1.669360
 20
7.151320
  0
SEQEND
  8
0
  0
POLYLINE
  8
0
 62
     0
  6
CONTINUOUS
 66
     1
 40
0.002200
 41
0.002200
  0
VERTEX
  8
0
 62
     0
  6
CONTINUOUS
 10
1.669360
 20
7.151320
  0
VERTEX
  8
0
 62
     0
  6
CONTINUOUS
 10
1.696640
 20
7.123600
  0
SEQEND
  8
0
  0
POLYLINE
  8
0
 62
     0
  6
CONTINUOUS
 66
     1
 40
0.002200
 41
0.002200
  0
VERTEX
  8
0
 62
     0
  6
CONTINUOUS
 10
1.696640
 20
7.123600
  0
VERTEX
  8
0
 62
     0
  6
CONTINUOUS
 10
1.728760
 20
7.100720
  0
SEQEND
  8
0
  0
POLYLINE
  8
0
 62
     0
  6
CONTINUOUS
 66
     1
 40
0.002200
 41
0.002200
  0
VERTEX
  8
0
 62
     0
  6
CONTINUOUS
 10
1.728760
 20
7.100720
  0
VERTEX
  8
0
 62
     0
  6
CONTINUOUS
 10
1.760880
 20
7.080040
  0
SEQEND
  8
0
  0
POLYLINE
  8
0
 62
     0
  6
CONTINUOUS
 66
     1
 40
0.002200
 41
0.002200
  0
VERTEX
  8
0
 62
     0
  6
CONTINUOUS
 10
1.760880
 20
7.080040
  0
VERTEX
  8
0
 62
     0
  6
CONTINUOUS
 10
1.793000
 20
7.064200
  0
SEQEND
  8
0
  0
POLYLINE
  8
0
 62
     0
  6
CONTINUOUS
 66
     1
 40
0.002200
 41
0.002200
  0
VERTEX
  8
0
 62
     0
  6
CONTINUOUS
 10
1.793000
 20
7.064200
  0
VERTEX
  8
0
 62
     0
  6
CONTINUOUS
 10
1.829960
 20
7.045720
  0
SEQEND
  8
0
  0
POLYLINE
  8
0
 62
     0
  6
CONTINUOUS
 66
     1
 40
0.002200
 41
0.002200
  0
VERTEX
  8
0
 62
     0
  6
CONTINUOUS
 10
1.829960
 20
7.045720
  0
VERTEX
  8
0
 62
     0
  6
CONTINUOUS
 10
1.866480
 20
7.034280
  0
SEQEND
  8
0
  0
POLYLINE
  8
0
 62
     0
  6
CONTINUOUS
 66
     1
 40
0.002200
 41
0.002200
  0
VERTEX
  8
0
 62
     0
  6
CONTINUOUS
 10
1.866480
 20
7.034280
  0
VERTEX
  8
0
 62
     0
  6
CONTINUOUS
 10
1.903000
 20
7.027240
  0
SEQEND
  8
0
  0
POLYLINE
  8
0
 62
     0
  6
CONTINUOUS
 66
     1
 40
0.002200
 41
0.002200
  0
VERTEX
  8
0
 62
     0
  6
CONTINUOUS
 10
1.903000
 20
7.027240
  0
VERTEX
  8
0
 62
     0
  6
CONTINUOUS
 10
1.939960
 20
7.020640
  0
SEQEND
  8
0
  0
POLYLINE
  8
0
 62
     0
  6
CONTINUOUS
 66
     1
 40
0.002200
 41
0.002200
  0
VERTEX
  8
0
 62
     0
  6
CONTINUOUS
 10
1.939960
 20
7.020640
  0
VERTEX
  8
0
 62
     0
  6
CONTINUOUS
 10
1.978680
 20
7.020640
  0
SEQEND
  8
0
  0
POLYLINE
  8
0
 62
     0
  6
CONTINUOUS
 66
     1
 40
0.002200
 41
0.002200
  0
VERTEX
  8
0
 62
     0
  6
CONTINUOUS
 10
1.978680
 20
7.020640
  0
VERTEX
  8
0
 62
     0
  6
CONTINUOUS
 10
2.017840
 20
7.020640
  0
SEQEND
  8
0
  0
POLYLINE
  8
0
 62
     0
  6
CONTINUOUS
 66
     1
 40
0.002200
 41
0.002200
  0
VERTEX
  8
0
 62
     0
  6
CONTINUOUS
 10
2.017840
 20
7.020640
  0
VERTEX
  8
0
 62
     0
  6
CONTINUOUS
 10
2.054360
 20
7.025040
  0
SEQEND
  8
0
  0
POLYLINE
  8
0
 62
     0
  6
CONTINUOUS
 66
     1
 40
0.002200
 41
0.002200
  0
VERTEX
  8
0
 62
     0
  6
CONTINUOUS
 10
2.054360
 20
7.025040
  0
VERTEX
  8
0
 62
     0
  6
CONTINUOUS
 10
2.093520
 20
7.034280
  0
SEQEND
  8
0
  0
POLYLINE
  8
0
 62
     0
  6
CONTINUOUS
 66
     1
 40
0.002200
 41
0.002200
  0
VERTEX
  8
0
 62
     0
  6
CONTINUOUS
 10
2.093520
 20
7.034280
  0
VERTEX
  8
0
 62
     0
  6
CONTINUOUS
 10
2.127840
 20
7.045720
  0
SEQEND
  8
0
  0
POLYLINE
  8
0
 62
     0
  6
CONTINUOUS
 66
     1
 40
0.002200
 41
0.002200
  0
VERTEX
  8
0
 62
     0
  6
CONTINUOUS
 10
2.127840
 20
7.045720
  0
VERTEX
  8
0
 62
     0
  6
CONTINUOUS
 10
2.164800
 20
7.059360
  0
SEQEND
  8
0
  0
POLYLINE
  8
0
 62
     0
  6
CONTINUOUS
 66
     1
 40
0.002200
 41
0.002200
  0
VERTEX
  8
0
 62
     0
  6
CONTINUOUS
 10
2.164800
 20
7.059360
  0
VERTEX
  8
0
 62
     0
  6
CONTINUOUS
 10
2.196920
 20
7.077840
  0
SEQEND
  8
0
  0
POLYLINE
  8
0
 62
     0
  6
CONTINUOUS
 66
     1
 40
0.002200
 41
0.002200
  0
VERTEX
  8
0
 62
     0
  6
CONTINUOUS
 10
2.196920
 20
7.077840
  0
VERTEX
  8
0
 62
     0
  6
CONTINUOUS
 10
2.231240
 20
7.096320
  0
SEQEND
  8
0
  0
POLYLINE
  8
0
 62
     0
  6
CONTINUOUS
 66
     1
 40
0.002200
 41
0.002200
  0
VERTEX
  8
0
 62
     0
  6
CONTINUOUS
 10
2.231240
 20
7.096320
  0
VERTEX
  8
0
 62
     0
  6
CONTINUOUS
 10
2.261160
 20
7.119200
  0
SEQEND
  8
0
  0
POLYLINE
  8
0
 62
     0
  6
CONTINUOUS
 66
     1
 40
0.002200
 41
0.002200
  0
VERTEX
  8
0
 62
     0
  6
CONTINUOUS
 10
2.261160
 20
7.119200
  0
VERTEX
  8
0
 62
     0
  6
CONTINUOUS
 10
2.288440
 20
7.144280
  0
SEQEND
  8
0
  0
POLYLINE
  8
0
 62
     0
  6
CONTINUOUS
 66
     1
 40
0.002200
 41
0.002200
  0
VERTEX
  8
0
 62
     0
  6
CONTINUOUS
 10
2.288440
 20
7.144280
  0
VERTEX
  8
0
 62
     0
  6
CONTINUOUS
 10
2.316160
 20
7.174200
  0
SEQEND
  8
0
  0
POLYLINE
  8
0
 62
     0
  6
CONTINUOUS
 66
     1
 40
0.002200
 41
0.002200
  0
VERTEX
  8
0
 62
     0
  6
CONTINUOUS
 10
2.316160
 20
7.174200
  0
VERTEX
  8
0
 62
     0
  6
CONTINUOUS
 10
2.339040
 20
7.201480
  0
SEQEND
  8
0
  0
POLYLINE
  8
0
 62
     0
  6
CONTINUOUS
 66
     1
 40
0.002200
 41
0.002200
  0
VERTEX
  8
0
 62
     0
  6
CONTINUOUS
 10
2.339040
 20
7.201480
  0
VERTEX
  8
0
 62
     0
  6
CONTINUOUS
 10
2.359720
 20
7.233600
  0
SEQEND
  8
0
  0
POLYLINE
  8
0
 62
     0
  6
CONTINUOUS
 66
     1
 40
0.002200
 41
0.002200
  0
VERTEX
  8
0
 62
     0
  6
CONTINUOUS
 10
2.359720
 20
7.233600
  0
VERTEX
  8
0
 62
     0
  6
CONTINUOUS
 10
2.380400
 20
7.268360
  0
SEQEND
  8
0
  0
POLYLINE
  8
0
 62
     0
  6
CONTINUOUS
 66
     1
 40
0.002200
 41
0.002200
  0
VERTEX
  8
0
 62
     0
  6
CONTINUOUS
 10
2.380400
 20
7.268360
  0
VERTEX
  8
0
 62
     0
  6
CONTINUOUS
 10
2.394040
 20
7.304880
  0
SEQEND
  8
0
  0
POLYLINE
  8
0
 62
     0
  6
CONTINUOUS
 66
     1
 40
0.002200
 41
0.002200
  0
VERTEX
  8
0
 62
     0
  6
CONTINUOUS
 10
2.394040
 20
7.304880
  0
VERTEX
  8
0
 62
     0
  6
CONTINUOUS
 10
2.405480
 20
7.339200
  0
SEQEND
  8
0
  0
POLYLINE
  8
0
 62
     0
  6
CONTINUOUS
 66
     1
 40
0.002200
 41
0.002200
  0
VERTEX
  8
0
 62
     0
  6
CONTINUOUS
 10
2.405480
 20
7.339200
  0
VERTEX
  8
0
 62
     0
  6
CONTINUOUS
 10
2.414720
 20
7.376160
  0
SEQEND
  8
0
  0
POLYLINE
  8
0
 62
     0
  6
CONTINUOUS
 66
     1
 40
0.002200
 41
0.002200
  0
VERTEX
  8
0
 62
     0
  6
CONTINUOUS
 10
2.414720
 20
7.376160
  0
VERTEX
  8
0
 62
     0
  6
CONTINUOUS
 10
2.419120
 20
7.414880
  0
SEQEND
  8
0
  0
POLYLINE
  8
0
 62
     0
  6
CONTINUOUS
 66
     1
 40
0.002200
 41
0.002200
  0
VERTEX
  8
0
 62
     0
  6
CONTINUOUS
 10
2.419120
 20
7.414880
  0
VERTEX
  8
0
 62
     0
  6
CONTINUOUS
 10
2.421760
 20
7.454040
  0
SEQEND
  8
0
  0
POLYLINE
  8
0
 62
     0
  6
CONTINUOUS
 66
     1
 40
0.002200
 41
0.002200
  0
VERTEX
  8
0
 62
     0
  6
CONTINUOUS
 10
2.421760
 20
7.454040
  0
VERTEX
  8
0
 62
     0
  6
CONTINUOUS
 10
2.419120
 20
7.490560
  0
SEQEND
  8
0
  0
POLYLINE
  8
0
 62
     0
  6
CONTINUOUS
 66
     1
 40
0.002200
 41
0.002200
  0
VERTEX
  8
0
 62
     0
  6
CONTINUOUS
 10
2.419120
 20
7.490560
  0
VERTEX
  8
0
 62
     0
  6
CONTINUOUS
 10
2.414720
 20
7.529720
  0
SEQEND
  8
0
  0
POLYLINE
  8
0
 62
     0
  6
CONTINUOUS
 66
     1
 40
0.002200
 41
0.002200
  0
VERTEX
  8
0
 62
     0
  6
CONTINUOUS
 10
2.414720
 20
7.529720
  0
VERTEX
  8
0
 62
     0
  6
CONTINUOUS
 10
2.407680
 20
7.568880
  0
SEQEND
  8
0
  0
POLYLINE
  8
0
 62
     0
  6
CONTINUOUS
 66
     1
 40
0.002200
 41
0.002200
  0
VERTEX
  8
0
 62
     0
  6
CONTINUOUS
 10
2.407680
 20
7.568880
  0
VERTEX
  8
0
 62
     0
  6
CONTINUOUS
 10
2.398880
 20
7.603200
  0
SEQEND
  8
0
  0
POLYLINE
  8
0
 62
     0
  6
CONTINUOUS
 66
     1
 40
0.002200
 41
0.002200
  0
VERTEX
  8
0
 62
     0
  6
CONTINUOUS
 10
2.398880
 20
7.603200
  0
VERTEX
  8
0
 62
     0
  6
CONTINUOUS
 10
2.382600
 20
7.637520
  0
SEQEND
  8
0
  0
POLYLINE
  8
0
 62
     0
  6
CONTINUOUS
 66
     1
 40
0.002200
 41
0.002200
  0
VERTEX
  8
0
 62
     0
  6
CONTINUOUS
 10
2.382600
 20
7.637520
  0
VERTEX
  8
0
 62
     0
  6
CONTINUOUS
 10
2.366760
 20
7.674040
  0
SEQEND
  8
0
  0
POLYLINE
  8
0
 62
     0
  6
CONTINUOUS
 66
     1
 40
0.002200
 41
0.002200
  0
VERTEX
  8
0
 62
     0
  6
CONTINUOUS
 10
2.366760
 20
7.674040
  0
VERTEX
  8
0
 62
     0
  6
CONTINUOUS
 10
2.348280
 20
7.706160
  0
SEQEND
  8
0
  0
POLYLINE
  8
0
 62
     0
  6
CONTINUOUS
 66
     1
 40
0.002200
 41
0.002200
  0
VERTEX
  8
0
 62
     0
  6
CONTINUOUS
 10
2.348280
 20
7.706160
  0
VERTEX
  8
0
 62
     0
  6
CONTINUOUS
 10
2.325400
 20
7.736080
  0
SEQEND
  8
0
  0
POLYLINE
  8
0
 62
     0
  6
CONTINUOUS
 66
     1
 40
0.002200
 41
0.002200
  0
VERTEX
  8
0
 62
     0
  6
CONTINUOUS
 10
2.325400
 20
7.736080
  0
VERTEX
  8
0
 62
     0
  6
CONTINUOUS
 10
2.297680
 20
7.766000
  0
SEQEND
  8
0
  0
POLYLINE
  8
0
 62
     0
  6
CONTINUOUS
 66
     1
 40
0.002200
 41
0.002200
  0
VERTEX
  8
0
 62
     0
  6
CONTINUOUS
 10
2.297680
 20
7.766000
  0
VERTEX
  8
0
 62
     0
  6
CONTINUOUS
 10
2.270400
 20
7.791080
  0
SEQEND
  8
0
  0
POLYLINE
  8
0
 62
     0
  6
CONTINUOUS
 66
     1
 40
0.002200
 41
0.002200
  0
VERTEX
  8
0
 62
     0
  6
CONTINUOUS
 10
2.270400
 20
7.791080
  0
VERTEX
  8
0
 62
     0
  6
CONTINUOUS
 10
2.242680
 20
7.816600
  0
SEQEND
  8
0
  0
POLYLINE
  8
0
 62
     0
  6
CONTINUOUS
 66
     1
 40
0.002200
 41
0.002200
  0
VERTEX
  8
0
 62
     0
  6
CONTINUOUS
 10
2.242680
 20
7.816600
  0
VERTEX
  8
0
 62
     0
  6
CONTINUOUS
 10
2.210560
 20
7.837280
  0
SEQEND
  8
0
  0
POLYLINE
  8
0
 62
     0
  6
CONTINUOUS
 66
     1
 40
0.002200
 41
0.002200
  0
VERTEX
  8
0
 62
     0
  6
CONTINUOUS
 10
2.210560
 20
7.837280
  0
VERTEX
  8
0
 62
     0
  6
CONTINUOUS
 10
2.176240
 20
7.855320
  0
SEQEND
  8
0
  0
POLYLINE
  8
0
 62
     0
  6
CONTINUOUS
 66
     1
 40
0.002200
 41
0.002200
  0
VERTEX
  8
0
 62
     0
  6
CONTINUOUS
 10
2.176240
 20
7.855320
  0
VERTEX
  8
0
 62
     0
  6
CONTINUOUS
 10
2.141920
 20
7.869400
  0
SEQEND
  8
0
  0
POLYLINE
  8
0
 62
     0
  6
CONTINUOUS
 66
     1
 40
0.002200
 41
0.002200
  0
VERTEX
  8
0
 62
     0
  6
CONTINUOUS
 10
2.141920
 20
7.869400
  0
VERTEX
  8
0
 62
     0
  6
CONTINUOUS
 10
2.104960
 20
7.880840
  0
SEQEND
  8
0
  0
POLYLINE
  8
0
 62
     0
  6
CONTINUOUS
 66
     1
 40
0.002200
 41
0.002200
  0
VERTEX
  8
0
 62
     0
  6
CONTINUOUS
 10
2.104960
 20
7.880840
  0
VERTEX
  8
0
 62
     0
  6
CONTINUOUS
 10
2.068440
 20
7.890080
  0
SEQEND
  8
0
  0
POLYLINE
  8
0
 62
     0
  6
CONTINUOUS
 66
     1
 40
0.002200
 41
0.002200
  0
VERTEX
  8
0
 62
     0
  6
CONTINUOUS
 10
2.068440
 20
7.890080
  0
VERTEX
  8
0
 62
     0
  6
CONTINUOUS
 10
2.031480
 20
7.898880
  0
SEQEND
  8
0
  0
POLYLINE
  8
0
 62
     0
  6
CONTINUOUS
 66
     1
 40
0.002200
 41
0.002200
  0
VERTEX
  8
0
 62
     0
  6
CONTINUOUS
 10
2.031480
 20
7.898880
  0
VERTEX
  8
0
 62
     0
  6
CONTINUOUS
 10
1.990560
 20
7.898880
  0
SEQEND
  8
0
  0
POLYLINE
  8
0
 62
     0
  6
CONTINUOUS
 66
     1
 40
0.002200
 41
0.002200
  0
VERTEX
  8
0
 62
     0
  6
CONTINUOUS
 10
1.990560
 20
7.898880
  0
VERTEX
  8
0
 62
     0
  6
CONTINUOUS
 10
1.953600
 20
7.898880
  0
SEQEND
  8
0
  0
POLYLINE
  8
0
 62
     0
  6
CONTINUOUS
 66
     1
 40
0.002200
 41
0.002200
  0
VERTEX
  8
0
 62
     0
  6
CONTINUOUS
 10
2.077680
 20
7.949480
  0
VERTEX
  8
0
 62
     0
  6
CONTINUOUS
 10
2.095720
 20
7.935840
  0
SEQEND
  8
0
  0
POLYLINE
  8
0
 62
     0
  6
CONTINUOUS
 66
     1
 40
0.002200
 41
0.002200
  0
VERTEX
  8
0
 62
     0
  6
CONTINUOUS
 10
2.095720
 20
7.935840
  0
VERTEX
  8
0
 62
     0
  6
CONTINUOUS
 10
2.114200
 20
7.922200
  0
SEQEND
  8
0
  0
POLYLINE
  8
0
 62
     0
  6
CONTINUOUS
 66
     1
 40
0.002200
 41
0.002200
  0
VERTEX
  8
0
 62
     0
  6
CONTINUOUS
 10
2.114200
 20
7.922200
  0
VERTEX
  8
0
 62
     0
  6
CONTINUOUS
 10
2.134880
 20
7.912960
  0
SEQEND
  8
0
  0
POLYLINE
  8
0
 62
     0
  6
CONTINUOUS
 66
     1
 40
0.002200
 41
0.002200
  0
VERTEX
  8
0
 62
     0
  6
CONTINUOUS
 10
2.134880
 20
7.912960
  0
VERTEX
  8
0
 62
     0
  6
CONTINUOUS
 10
2.155560
 20
7.903720
  0
SEQEND
  8
0
  0
POLYLINE
  8
0
 62
     0
  6
CONTINUOUS
 66
     1
 40
0.002200
 41
0.002200
  0
VERTEX
  8
0
 62
     0
  6
CONTINUOUS
 10
2.155560
 20
7.903720
  0
VERTEX
  8
0
 62
     0
  6
CONTINUOUS
 10
2.178440
 20
7.901520
  0
SEQEND
  8
0
  0
POLYLINE
  8
0
 62
     0
  6
CONTINUOUS
 66
     1
 40
0.002200
 41
0.002200
  0
VERTEX
  8
0
 62
     0
  6
CONTINUOUS
 10
2.178440
 20
7.901520
  0
VERTEX
  8
0
 62
     0
  6
CONTINUOUS
 10
2.203520
 20
7.898880
  0
SEQEND
  8
0
  0
POLYLINE
  8
0
 62
     0
  6
CONTINUOUS
 66
     1
 40
0.002200
 41
0.002200
  0
VERTEX
  8
0
 62
     0
  6
CONTINUOUS
 10
2.203520
 20
7.898880
  0
VERTEX
  8
0
 62
     0
  6
CONTINUOUS
 10
2.224200
 20
7.901520
  0
SEQEND
  8
0
  0
POLYLINE
  8
0
 62
     0
  6
CONTINUOUS
 66
     1
 40
0.002200
 41
0.002200
  0
VERTEX
  8
0
 62
     0
  6
CONTINUOUS
 10
2.224200
 20
7.901520
  0
VERTEX
  8
0
 62
     0
  6
CONTINUOUS
 10
2.247080
 20
7.903720
  0
SEQEND
  8
0
  0
POLYLINE
  8
0
 62
     0
  6
CONTINUOUS
 66
     1
 40
0.002200
 41
0.002200
  0
VERTEX
  8
0
 62
     0
  6
CONTINUOUS
 10
2.247080
 20
7.903720
  0
VERTEX
  8
0
 62
     0
  6
CONTINUOUS
 10
2.270400
 20
7.912960
  0
SEQEND
  8
0
  0
POLYLINE
  8
0
 62
     0
  6
CONTINUOUS
 66
     1
 40
0.002200
 41
0.002200
  0
VERTEX
  8
0
 62
     0
  6
CONTINUOUS
 10
2.270400
 20
7.912960
  0
VERTEX
  8
0
 62
     0
  6
CONTINUOUS
 10
2.288440
 20
7.922200
  0
SEQEND
  8
0
  0
POLYLINE
  8
0
 62
     0
  6
CONTINUOUS
 66
     1
 40
0.002200
 41
0.002200
  0
VERTEX
  8
0
 62
     0
  6
CONTINUOUS
 10
2.288440
 20
7.922200
  0
VERTEX
  8
0
 62
     0
  6
CONTINUOUS
 10
2.309120
 20
7.935840
  0
SEQEND
  8
0
  0
POLYLINE
  8
0
 62
     0
  6
CONTINUOUS
 66
     1
 40
0.002200
 41
0.002200
  0
VERTEX
  8
0
 62
     0
  6
CONTINUOUS
 10
2.309120
 20
7.935840
  0
VERTEX
  8
0
 62
     0
  6
CONTINUOUS
 10
2.327600
 20
7.949480
  0
SEQEND
  8
0
  0
POLYLINE
  8
0
 62
     0
  6
CONTINUOUS
 66
     1
 40
0.002200
 41
0.002200
  0
VERTEX
  8
0
 62
     0
  6
CONTINUOUS
 10
2.327600
 20
7.949480
  0
VERTEX
  8
0
 62
     0
  6
CONTINUOUS
 10
2.341240
 20
7.967960
  0
SEQEND
  8
0
  0
POLYLINE
  8
0
 62
     0
  6
CONTINUOUS
 66
     1
 40
0.002200
 41
0.002200
  0
VERTEX
  8
0
 62
     0
  6
CONTINUOUS
 10
2.341240
 20
7.967960
  0
VERTEX
  8
0
 62
     0
  6
CONTINUOUS
 10
2.352680
 20
7.986000
  0
SEQEND
  8
0
  0
POLYLINE
  8
0
 62
     0
  6
CONTINUOUS
 66
     1
 40
0.002200
 41
0.002200
  0
VERTEX
  8
0
 62
     0
  6
CONTINUOUS
 10
2.352680
 20
7.986000
  0
VERTEX
  8
0
 62
     0
  6
CONTINUOUS
 10
2.364120
 20
8.009320
  0
SEQEND
  8
0
  0
POLYLINE
  8
0
 62
     0
  6
CONTINUOUS
 66
     1
 40
0.002200
 41
0.002200
  0
VERTEX
  8
0
 62
     0
  6
CONTINUOUS
 10
2.364120
 20
8.009320
  0
VERTEX
  8
0
 62
     0
  6
CONTINUOUS
 10
2.371160
 20
8.027360
  0
SEQEND
  8
0
  0
POLYLINE
  8
0
 62
     0
  6
CONTINUOUS
 66
     1
 40
0.002200
 41
0.002200
  0
VERTEX
  8
0
 62
     0
  6
CONTINUOUS
 10
2.371160
 20
8.027360
  0
VERTEX
  8
0
 62
     0
  6
CONTINUOUS
 10
2.375560
 20
8.052880
  0
SEQEND
  8
0
  0
POLYLINE
  8
0
 62
     0
  6
CONTINUOUS
 66
     1
 40
0.002200
 41
0.002200
  0
VERTEX
  8
0
 62
     0
  6
CONTINUOUS
 10
2.375560
 20
8.052880
  0
VERTEX
  8
0
 62
     0
  6
CONTINUOUS
 10
2.375560
 20
8.075760
  0
SEQEND
  8
0
  0
POLYLINE
  8
0
 62
     0
  6
CONTINUOUS
 66
     1
 40
0.002200
 41
0.002200
  0
VERTEX
  8
0
 62
     0
  6
CONTINUOUS
 10
2.375560
 20
8.075760
  0
VERTEX
  8
0
 62
     0
  6
CONTINUOUS
 10
2.375560
 20
8.098640
  0
SEQEND
  8
0
  0
POLYLINE
  8
0
 62
     0
  6
CONTINUOUS
 66
     1
 40
0.002200
 41
0.002200
  0
VERTEX
  8
0
 62
     0
  6
CONTINUOUS
 10
2.375560
 20
8.098640
  0
VERTEX
  8
0
 62
     0
  6
CONTINUOUS
 10
2.371160
 20
8.121520
  0
SEQEND
  8
0
  0
POLYLINE
  8
0
 62
     0
  6
CONTINUOUS
 66
     1
 40
0.002200
 41
0.002200
  0
VERTEX
  8
0
 62
     0
  6
CONTINUOUS
 10
2.371160
 20
8.121520
  0
VERTEX
  8
0
 62
     0
  6
CONTINUOUS
 10
2.364120
 20
8.142200
  0
SEQEND
  8
0
  0
POLYLINE
  8
0
 62
     0
  6
CONTINUOUS
 66
     1
 40
0.002200
 41
0.002200
  0
VERTEX
  8
0
 62
     0
  6
CONTINUOUS
 10
2.364120
 20
8.142200
  0
VERTEX
  8
0
 62
     0
  6
CONTINUOUS
 10
2.352680
 20
8.162880
  0
SEQEND
  8
0
  0
POLYLINE
  8
0
 62
     0
  6
CONTINUOUS
 66
     1
 40
0.002200
 41
0.002200
  0
VERTEX
  8
0
 62
     0
  6
CONTINUOUS
 10
2.352680
 20
8.162880
  0
VERTEX
  8
0
 62
     0
  6
CONTINUOUS
 10
2.341240
 20
8.183560
  0
SEQEND
  8
0
  0
POLYLINE
  8
0
 62
     0
  6
CONTINUOUS
 66
     1
 40
0.002200
 41
0.002200
  0
VERTEX
  8
0
 62
     0
  6
CONTINUOUS
 10
2.341240
 20
8.183560
  0
VERTEX
  8
0
 62
     0
  6
CONTINUOUS
 10
2.327600
 20
8.199400
  0
SEQEND
  8
0
  0
POLYLINE
  8
0
 62
     0
  6
CONTINUOUS
 66
     1
 40
0.002200
 41
0.002200
  0
VERTEX
  8
0
 62
     0
  6
CONTINUOUS
 10
2.327600
 20
8.199400
  0
VERTEX
  8
0
 62
     0
  6
CONTINUOUS
 10
2.309120
 20
8.215680
  0
SEQEND
  8
0
  0
POLYLINE
  8
0
 62
     0
  6
CONTINUOUS
 66
     1
 40
0.002200
 41
0.002200
  0
VERTEX
  8
0
 62
     0
  6
CONTINUOUS
 10
2.309120
 20
8.215680
  0
VERTEX
  8
0
 62
     0
  6
CONTINUOUS
 10
2.288440
 20
8.227120
  0
SEQEND
  8
0
  0
POLYLINE
  8
0
 62
     0
  6
CONTINUOUS
 66
     1
 40
0.002200
 41
0.002200
  0
VERTEX
  8
0
 62
     0
  6
CONTINUOUS
 10
2.288440
 20
8.227120
  0
VERTEX
  8
0
 62
     0
  6
CONTINUOUS
 10
2.270400
 20
8.238560
  0
SEQEND
  8
0
  0
POLYLINE
  8
0
 62
     0
  6
CONTINUOUS
 66
     1
 40
0.002200
 41
0.002200
  0
VERTEX
  8
0
 62
     0
  6
CONTINUOUS
 10
2.270400
 20
8.238560
  0
VERTEX
  8
0
 62
     0
  6
CONTINUOUS
 10
2.247080
 20
8.245600
  0
SEQEND
  8
0
  0
POLYLINE
  8
0
 62
     0
  6
CONTINUOUS
 66
     1
 40
0.002200
 41
0.002200
  0
VERTEX
  8
0
 62
     0
  6
CONTINUOUS
 10
2.247080
 20
8.245600
  0
VERTEX
  8
0
 62
     0
  6
CONTINUOUS
 10
2.224200
 20
8.247800
  0
SEQEND
  8
0
  0
POLYLINE
  8
0
 62
     0
  6
CONTINUOUS
 66
     1
 40
0.002200
 41
0.002200
  0
VERTEX
  8
0
 62
     0
  6
CONTINUOUS
 10
2.224200
 20
8.247800
  0
VERTEX
  8
0
 62
     0
  6
CONTINUOUS
 10
2.203520
 20
8.250000
  0
SEQEND
  8
0
  0
POLYLINE
  8
0
 62
     0
  6
CONTINUOUS
 66
     1
 40
0.002200
 41
0.002200
  0
VERTEX
  8
0
 62
     0
  6
CONTINUOUS
 10
2.203520
 20
8.250000
  0
VERTEX
  8
0
 62
     0
  6
CONTINUOUS
 10
2.178440
 20
8.247800
  0
SEQEND
  8
0
  0
POLYLINE
  8
0
 62
     0
  6
CONTINUOUS
 66
     1
 40
0.002200
 41
0.002200
  0
VERTEX
  8
0
 62
     0
  6
CONTINUOUS
 10
2.178440
 20
8.247800
  0
VERTEX
  8
0
 62
     0
  6
CONTINUOUS
 10
2.155560
 20
8.245600
  0
SEQEND
  8
0
  0
POLYLINE
  8
0
 62
     0
  6
CONTINUOUS
 66
     1
 40
0.002200
 41
0.002200
  0
VERTEX
  8
0
 62
     0
  6
CONTINUOUS
 10
2.155560
 20
8.245600
  0
VERTEX
  8
0
 62
     0
  6
CONTINUOUS
 10
2.134880
 20
8.238560
  0
SEQEND
  8
0
  0
POLYLINE
  8
0
 62
     0
  6
CONTINUOUS
 66
     1
 40
0.002200
 41
0.002200
  0
VERTEX
  8
0
 62
     0
  6
CONTINUOUS
 10
2.134880
 20
8.238560
  0
VERTEX
  8
0
 62
     0
  6
CONTINUOUS
 10
2.114200
 20
8.227120
  0
SEQEND
  8
0
  0
POLYLINE
  8
0
 62
     0
  6
CONTINUOUS
 66
     1
 40
0.002200
 41
0.002200
  0
VERTEX
  8
0
 62
     0
  6
CONTINUOUS
 10
2.114200
 20
8.227120
  0
VERTEX
  8
0
 62
     0
  6
CONTINUOUS
 10
2.095720
 20
8.215680
  0
SEQEND
  8
0
  0
POLYLINE
  8
0
 62
     0
  6
CONTINUOUS
 66
     1
 40
0.002200
 41
0.002200
  0
VERTEX
  8
0
 62
     0
  6
CONTINUOUS
 10
2.095720
 20
8.215680
  0
VERTEX
  8
0
 62
     0
  6
CONTINUOUS
 10
2.077680
 20
8.199400
  0
SEQEND
  8
0
  0
POLYLINE
  8
0
 62
     0
  6
CONTINUOUS
 66
     1
 40
0.002200
 41
0.002200
  0
VERTEX
  8
0
 62
     0
  6
CONTINUOUS
 10
2.077680
 20
8.199400
  0
VERTEX
  8
0
 62
     0
  6
CONTINUOUS
 10
2.063600
 20
8.183560
  0
SEQEND
  8
0
  0
POLYLINE
  8
0
 62
     0
  6
CONTINUOUS
 66
     1
 40
0.002200
 41
0.002200
  0
VERTEX
  8
0
 62
     0
  6
CONTINUOUS
 10
2.063600
 20
8.183560
  0
VERTEX
  8
0
 62
     0
  6
CONTINUOUS
 10
2.049960
 20
8.162880
  0
SEQEND
  8
0
  0
POLYLINE
  8
0
 62
     0
  6
CONTINUOUS
 66
     1
 40
0.002200
 41
0.002200
  0
VERTEX
  8
0
 62
     0
  6
CONTINUOUS
 10
2.049960
 20
8.162880
  0
VERTEX
  8
0
 62
     0
  6
CONTINUOUS
 10
2.040720
 20
8.142200
  0
SEQEND
  8
0
  0
POLYLINE
  8
0
 62
     0
  6
CONTINUOUS
 66
     1
 40
0.002200
 41
0.002200
  0
VERTEX
  8
0
 62
     0
  6
CONTINUOUS
 10
2.040720
 20
8.142200
  0
VERTEX
  8
0
 62
     0
  6
CONTINUOUS
 10
2.031480
 20
8.121520
  0
SEQEND
  8
0
  0
POLYLINE
  8
0
 62
     0
  6
CONTINUOUS
 66
     1
 40
0.002200
 41
0.002200
  0
VERTEX
  8
0
 62
     0
  6
CONTINUOUS
 10
2.031480
 20
8.121520
  0
VERTEX
  8
0
 62
     0
  6
CONTINUOUS
 10
2.027080
 20
8.098640
  0
SEQEND
  8
0
  0
POLYLINE
  8
0
 62
     0
  6
CONTINUOUS
 66
     1
 40
0.002200
 41
0.002200
  0
VERTEX
  8
0
 62
     0
  6
CONTINUOUS
 10
2.027080
 20
8.098640
  0
VERTEX
  8
0
 62
     0
  6
CONTINUOUS
 10
2.024880
 20
8.075760
  0
SEQEND
  8
0
  0
POLYLINE
  8
0
 62
     0
  6
CONTINUOUS
 66
     1
 40
0.002200
 41
0.002200
  0
VERTEX
  8
0
 62
     0
  6
CONTINUOUS
 10
2.024880
 20
8.075760
  0
VERTEX
  8
0
 62
     0
  6
CONTINUOUS
 10
2.027080
 20
8.052880
  0
SEQEND
  8
0
  0
POLYLINE
  8
0
 62
     0
  6
CONTINUOUS
 66
     1
 40
0.002200
 41
0.002200
  0
VERTEX
  8
0
 62
     0
  6
CONTINUOUS
 10
2.027080
 20
8.052880
  0
VERTEX
  8
0
 62
     0
  6
CONTINUOUS
 10
2.031480
 20
8.027360
  0
SEQEND
  8
0
  0
POLYLINE
  8
0
 62
     0
  6
CONTINUOUS
 66
     1
 40
0.002200
 41
0.002200
  0
VERTEX
  8
0
 62
     0
  6
CONTINUOUS
 10
2.031480
 20
8.027360
  0
VERTEX
  8
0
 62
     0
  6
CONTINUOUS
 10
2.040720
 20
8.009320
  0
SEQEND
  8
0
  0
POLYLINE
  8
0
 62
     0
  6
CONTINUOUS
 66
     1
 40
0.002200
 41
0.002200
  0
VERTEX
  8
0
 62
     0
  6
CONTINUOUS
 10
2.040720
 20
8.009320
  0
VERTEX
  8
0
 62
     0
  6
CONTINUOUS
 10
2.049960
 20
7.986000
  0
SEQEND
  8
0
  0
POLYLINE
  8
0
 62
     0
  6
CONTINUOUS
 66
     1
 40
0.002200
 41
0.002200
  0
VERTEX
  8
0
 62
     0
  6
CONTINUOUS
 10
2.049960
 20
7.986000
  0
VERTEX
  8
0
 62
     0
  6
CONTINUOUS
 10
2.063600
 20
7.967960
  0
SEQEND
  8
0
  0
POLYLINE
  8
0
 62
     0
  6
CONTINUOUS
 66
     1
 40
0.002200
 41
0.002200
  0
VERTEX
  8
0
 62
     0
  6
CONTINUOUS
 10
2.063600
 20
7.967960
  0
VERTEX
  8
0
 62
     0
  6
CONTINUOUS
 10
2.077680
 20
7.949480
  0
SEQEND
  8
0
  0
POLYLINE
  8
0
 62
     0
  6
CONTINUOUS
 66
     1
 40
0.002200
 41
0.002200
  0
VERTEX
  8
0
 62
     0
  6
CONTINUOUS
 10
2.203520
 20
7.898880
  0
VERTEX
  8
0
 62
     0
  6
CONTINUOUS
 10
2.380400
 20
7.898880
  0
SEQEND
  8
0
  0
POLYLINE
  8
0
 62
     0
  6
CONTINUOUS
 66
     1
 40
0.002200
 41
0.002200
  0
VERTEX
  8
0
 62
     0
  6
CONTINUOUS
 10
2.348280
 20
7.977200
  0
VERTEX
  8
0
 62
     0
  6
CONTINUOUS
 10
2.481160
 20
7.843880
  0
SEQEND
  8
0
  0
POLYLINE
  8
0
 62
     0
  6
CONTINUOUS
 66
     1
 40
0.002200
 41
0.002200
  0
VERTEX
  8
0
 62
     0
  6
CONTINUOUS
 10
2.481160
 20
7.843880
  0
VERTEX
  8
0
 62
     0
  6
CONTINUOUS
 10
2.628120
 20
7.843880
  0
SEQEND
  8
0
  0
POLYLINE
  8
0
 62
     0
  6
CONTINUOUS
 66
     1
 40
0.002200
 41
0.002200
  0
VERTEX
  8
0
 62
     0
  6
CONTINUOUS
 10
2.628120
 20
8.077960
  0
VERTEX
  8
0
 62
     0
  6
CONTINUOUS
 10
2.382600
 20
8.077960
  0
SEQEND
  8
0
  0
POLYLINE
  8
0
 62
     0
  6
CONTINUOUS
 66
     1
 40
0.002200
 41
0.002200
  0
VERTEX
  8
0
 62
     0
  6
CONTINUOUS
 10
2.348280
 20
8.178720
  0
VERTEX
  8
0
 62
     0
  6
CONTINUOUS
 10
2.481160
 20
8.312040
  0
SEQEND
  8
0
  0
POLYLINE
  8
0
 62
     0
  6
CONTINUOUS
 66
     1
 40
0.002200
 41
0.002200
  0
VERTEX
  8
0
 62
     0
  6
CONTINUOUS
 10
2.481160
 20
8.312040
  0
VERTEX
  8
0
 62
     0
  6
CONTINUOUS
 10
2.628120
 20
8.312040
  0
SEQEND
  8
0
  0
POLYLINE
  8
0
 62
     0
  6
CONTINUOUS
 66
     1
 40
0.002200
 41
0.002200
  0
VERTEX
  8
0
 62
     0
  6
CONTINUOUS
 10
2.421760
 20
8.250000
  0
VERTEX
  8
0
 62
     0
  6
CONTINUOUS
 10
2.206160
 20
8.250000
  0
SEQEND
  8
0
  0
POLYLINE
  8
0
 62
     0
  6
CONTINUOUS
 66
     1
 40
0.002200
 41
0.002200
  0
VERTEX
  8
0
 62
     0
  6
CONTINUOUS
 10
2.380400
 20
8.250000
  0
VERTEX
  8
0
 62
     0
  6
CONTINUOUS
 10
2.380400
 20
7.651160
  0
SEQEND
  8
0
  0
POLYLINE
  8
0
 62
     0
  6
CONTINUOUS
 66
     1
 40
0.002200
 41
0.002200
  0
VERTEX
  8
0
 62
     0
  6
CONTINUOUS
 10
2.210560
 20
7.355480
  0
VERTEX
  8
0
 62
     0
  6
CONTINUOUS
 10
2.169200
 20
7.373520
  0
SEQEND
  8
0
  0
POLYLINE
  8
0
 62
     0
  6
CONTINUOUS
 66
     1
 40
0.002200
 41
0.002200
  0
VERTEX
  8
0
 62
     0
  6
CONTINUOUS
 10
2.107160
 20
7.289040
  0
VERTEX
  8
0
 62
     0
  6
CONTINUOUS
 10
2.134880
 20
7.256920
  0
SEQEND
  8
0
  0
POLYLINE
  8
0
 62
     0
  6
CONTINUOUS
 66
     1
 40
0.002200
 41
0.002200
  0
VERTEX
  8
0
 62
     0
  6
CONTINUOUS
 10
2.054360
 20
7.256920
  0
VERTEX
  8
0
 62
     0
  6
CONTINUOUS
 10
2.072840
 20
7.217760
  0
SEQEND
  8
0
  0
POLYLINE
  8
0
 62
     0
  6
CONTINUOUS
 66
     1
 40
0.002200
 41
0.002200
  0
VERTEX
  8
0
 62
     0
  6
CONTINUOUS
 10
1.802240
 20
8.009320
  0
VERTEX
  8
0
 62
     0
  6
CONTINUOUS
 10
1.724360
 20
8.027360
  0
SEQEND
  8
0
  0
POLYLINE
  8
0
 62
     0
  6
CONTINUOUS
 66
     1
 40
0.002200
 41
0.002200
  0
VERTEX
  8
0
 62
     0
  6
CONTINUOUS
 10
1.724360
 20
8.027360
  0
VERTEX
  8
0
 62
     0
  6
CONTINUOUS
 10
1.724360
 20
8.075760
  0
SEQEND
  8
0
  0
POLYLINE
  8
0
 62
     0
  6
CONTINUOUS
 66
     1
 40
0.002200
 41
0.002200
  0
VERTEX
  8
0
 62
     0
  6
CONTINUOUS
 10
1.724360
 20
8.114480
  0
VERTEX
  8
0
 62
     0
  6
CONTINUOUS
 10
1.802240
 20
8.064320
  0
SEQEND
  8
0
  0
POLYLINE
  8
0
 62
     0
  6
CONTINUOUS
 66
     1
 40
0.002200
 41
0.002200
  0
VERTEX
  8
0
 62
     0
  6
CONTINUOUS
 10
1.777160
 20
8.080160
  0
VERTEX
  8
0
 62
     0
  6
CONTINUOUS
 10
1.777160
 20
8.119320
  0
SEQEND
  8
0
  0
POLYLINE
  8
0
 62
     0
  6
CONTINUOUS
 66
     1
 40
0.002200
 41
0.002200
  0
VERTEX
  8
0
 62
     0
  6
CONTINUOUS
 10
1.802240
 20
8.121520
  0
VERTEX
  8
0
 62
     0
  6
CONTINUOUS
 10
1.724360
 20
8.114480
  0
SEQEND
  8
0
  0
POLYLINE
  8
0
 62
     0
  6
CONTINUOUS
 66
     1
 40
0.002200
 41
0.002200
  0
VERTEX
  8
0
 62
     0
  6
CONTINUOUS
 10
1.724360
 20
8.162880
  0
VERTEX
  8
0
 62
     0
  6
CONTINUOUS
 10
1.802240
 20
8.140000
  0
SEQEND
  8
0
  0
POLYLINE
  8
0
 62
     0
  6
CONTINUOUS
 66
     1
 40
0.002200
 41
0.002200
  0
VERTEX
  8
0
 62
     0
  6
CONTINUOUS
 10
1.802240
 20
8.192800
  0
VERTEX
  8
0
 62
     0
  6
CONTINUOUS
 10
1.724360
 20
8.162880
  0
SEQEND
  8
0
  0
POLYLINE
  8
0
 62
     0
  6
CONTINUOUS
 66
     1
 40
0.002200
 41
0.002200
  0
VERTEX
  8
0
 62
     0
  6
CONTINUOUS
 10
1.724360
 20
8.213480
  0
VERTEX
  8
0
 62
     0
  6
CONTINUOUS
 10
1.802240
 20
8.192800
  0
SEQEND
  8
0
  0
POLYLINE
  8
0
 62
     0
  6
CONTINUOUS
 66
     1
 40
0.002200
 41
0.002200
  0
VERTEX
  8
0
 62
     0
  6
CONTINUOUS
 10
1.763080
 20
8.048040
  0
VERTEX
  8
0
 62
     0
  6
CONTINUOUS
 10
1.763080
 20
8.018120
  0
SEQEND
  8
0
  0
LINE
  8
0
 62
     0
  6
CONTINUOUS
 10
3.787960
 20
8.275520
 11
3.789280
 21
8.327880
  0
LINE
  8
0
 62
     0
  6
CONTINUOUS
 10
3.817000
 20
8.327880
 11
3.787960
 21
8.275520
  0
LINE
  8
0
 62
     0
  6
CONTINUOUS
 10
3.815680
 20
8.275520
 11
3.817000
 21
8.327880
  0
LINE
  8
0
 62
     0
  6
CONTINUOUS
 10
3.840760
 20
8.327880
 11
3.815680
 21
8.275520
  0
LINE
  8
0
 62
     0
  6
CONTINUOUS
 10
3.842960
 20
8.275520
 11
3.854400
 21
8.327880
  0
LINE
  8
0
 62
     0
  6
CONTINUOUS
 10
3.854400
 20
8.327880
 11
3.878160
 21
8.327880
  0
LINE
  8
0
 62
     0
  6
CONTINUOUS
 10
3.878160
 20
8.327880
 11
3.884320
 21
8.325680
  0
LINE
  8
0
 62
     0
  6
CONTINUOUS
 10
3.884320
 20
8.325680
 11
3.888280
 21
8.323040
  0
LINE
  8
0
 62
     0
  6
CONTINUOUS
 10
3.888280
 20
8.323040
 11
3.888280
 21
8.318200
  0
LINE
  8
0
 62
     0
  6
CONTINUOUS
 10
3.888280
 20
8.318200
 11
3.888280
 21
8.312920
  0
LINE
  8
0
 62
     0
  6
CONTINUOUS
 10
3.888280
 20
8.312920
 11
3.880800
 21
8.308080
  0
LINE
  8
0
 62
     0
  6
CONTINUOUS
 10
3.880800
 20
8.308080
 11
3.878160
 21
8.305440
  0
LINE
  8
0
 62
     0
  6
CONTINUOUS
 10
3.878160
 20
8.305440
 11
3.870680
 21
8.303240
  0
LINE
  8
0
 62
     0
  6
CONTINUOUS
 10
3.870680
 20
8.303240
 11
3.848240
 21
8.303240
  0
LINE
  8
0
 62
     0
  6
CONTINUOUS
 10
3.865840
 20
8.303240
 11
3.878160
 21
8.275520
  0
LINE
  8
0
 62
     0
  6
CONTINUOUS
 10
3.845600
 20
7.757640
 11
3.840760
 21
7.762480
  0
LINE
  8
0
 62
     0
  6
CONTINUOUS
 10
3.845600
 20
7.759840
 11
3.849560
 21
7.757200
  0
LINE
  8
0
 62
     0
  6
CONTINUOUS
 10
3.849560
 20
7.757200
 11
3.861880
 21
7.757200
  0
LINE
  8
0
 62
     0
  6
CONTINUOUS
 10
3.861880
 20
7.757200
 11
3.869360
 21
7.759840
  0
LINE
  8
0
 62
     0
  6
CONTINUOUS
 10
3.869360
 20
7.759840
 11
3.876840
 21
7.764680
  0
LINE
  8
0
 62
     0
  6
CONTINUOUS
 10
3.876840
 20
7.764680
 11
3.878160
 21
7.772160
  0
LINE
  8
0
 62
     0
  6
CONTINUOUS
 10
3.878160
 20
7.772160
 11
3.878160
 21
7.777440
  0
LINE
  8
0
 62
     0
  6
CONTINUOUS
 10
3.878160
 20
7.777440
 11
3.875520
 21
7.779640
  0
LINE
  8
0
 62
     0
  6
CONTINUOUS
 10
3.875520
 20
7.779640
 11
3.870680
 21
7.782280
  0
LINE
  8
0
 62
     0
  6
CONTINUOUS
 10
3.870680
 20
7.782280
 11
3.858360
 21
7.787560
  0
LINE
  8
0
 62
     0
  6
CONTINUOUS
 10
3.858360
 20
7.787560
 11
3.850440
 21
7.789760
  0
LINE
  8
0
 62
     0
  6
CONTINUOUS
 10
3.850440
 20
7.789760
 11
3.849560
 21
7.792400
  0
LINE
  8
0
 62
     0
  6
CONTINUOUS
 10
3.849560
 20
7.792400
 11
3.848240
 21
7.797240
  0
LINE
  8
0
 62
     0
  6
CONTINUOUS
 10
3.848240
 20
7.797240
 11
3.849560
 21
7.802520
  0
LINE
  8
0
 62
     0
  6
CONTINUOUS
 10
3.849560
 20
7.802520
 11
3.858360
 21
7.807360
  0
LINE
  8
0
 62
     0
  6
CONTINUOUS
 10
3.858360
 20
7.807360
 11
3.863200
 21
7.810000
  0
LINE
  8
0
 62
     0
  6
CONTINUOUS
 10
3.863200
 20
7.810000
 11
3.875520
 21
7.810000
  0
LINE
  8
0
 62
     0
  6
CONTINUOUS
 10
3.875520
 20
7.810000
 11
3.880800
 21
7.807360
  0
LINE
  8
0
 62
     0
  6
CONTINUOUS
 10
3.880800
 20
7.807360
 11
3.885640
 21
7.802520
  0
LINE
  8
0
 62
     0
  6
CONTINUOUS
 10
3.408680
 20
8.216560
 11
3.401200
 21
8.213040
  0
LINE
  8
0
 62
     0
  6
CONTINUOUS
 10
3.401200
 20
8.213040
 11
3.399000
 21
8.207760
  0
LINE
  8
0
 62
     0
  6
CONTINUOUS
 10
3.399000
 20
8.207760
 11
3.399000
 21
8.201600
  0
LINE
  8
0
 62
     0
  6
CONTINUOUS
 10
3.399000
 20
8.201600
 11
3.399000
 21
7.970160
  0
LINE
  8
0
 62
     0
  6
CONTINUOUS
 10
3.399000
 20
7.970160
 11
3.596560
 21
7.970160
  0
LINE
  8
0
 62
     0
  6
CONTINUOUS
 10
3.596560
 20
7.970160
 11
3.596560
 21
7.977640
  0
LINE
  8
0
 62
     0
  6
CONTINUOUS
 10
3.596560
 20
7.977640
 11
3.399000
 21
7.977640
  0
LINE
  8
0
 62
     0
  6
CONTINUOUS
 10
3.450040
 20
7.970160
 11
3.458840
 21
7.957840
  0
LINE
  8
0
 62
     0
  6
CONTINUOUS
 10
3.458840
 20
7.957840
 11
3.458840
 21
7.956520
  0
LINE
  8
0
 62
     0
  6
CONTINUOUS
 10
3.458840
 20
7.956520
 11
3.559160
 21
7.956520
  0
LINE
  8
0
 62
     0
  6
CONTINUOUS
 10
3.559160
 20
7.956520
 11
3.562680
 21
7.957840
  0
LINE
  8
0
 62
     0
  6
CONTINUOUS
 10
3.562680
 20
7.957840
 11
3.566640
 21
7.970160
  0
LINE
  8
0
 62
     0
  6
CONTINUOUS
 10
3.551680
 20
7.956520
 11
3.549040
 21
7.947720
  0
LINE
  8
0
 62
     0
  6
CONTINUOUS
 10
3.549040
 20
7.947720
 11
3.549040
 21
7.945080
  0
LINE
  8
0
 62
     0
  6
CONTINUOUS
 10
3.549040
 20
7.945080
 11
3.472920
 21
7.945080
  0
LINE
  8
0
 62
     0
  6
CONTINUOUS
 10
3.472920
 20
7.945080
 11
3.470280
 21
7.945080
  0
LINE
  8
0
 62
     0
  6
CONTINUOUS
 10
3.470280
 20
7.945080
 11
3.468960
 21
7.947720
  0
LINE
  8
0
 62
     0
  6
CONTINUOUS
 10
3.468960
 20
7.947720
 11
3.465000
 21
7.956520
  0
LINE
  8
0
 62
     0
  6
CONTINUOUS
 10
3.470280
 20
7.945080
 11
3.549040
 21
7.945080
  0
LINE
  8
0
 62
     0
  6
CONTINUOUS
 10
3.532760
 20
7.926160
 11
3.489200
 21
7.926160
  0
LINE
  8
0
 62
     0
  6
CONTINUOUS
 10
3.489200
 20
7.885240
 11
3.489200
 21
7.833760
  0
LINE
  8
0
 62
     0
  6
CONTINUOUS
 10
3.489200
 20
7.833760
 11
3.504160
 21
7.831120
  0
LINE
  8
0
 62
     0
  6
CONTINUOUS
 10
3.504160
 20
7.831120
 11
3.519120
 21
7.831120
  0
LINE
  8
0
 62
     0
  6
CONTINUOUS
 10
3.519120
 20
7.831120
 11
3.532760
 21
7.833760
  0
LINE
  8
0
 62
     0
  6
CONTINUOUS
 10
3.532760
 20
7.833760
 11
3.532760
 21
7.886120
  0
LINE
  8
0
 62
     0
  6
CONTINUOUS
 10
3.532760
 20
7.886120
 11
3.538920
 21
7.886120
  0
LINE
  8
0
 62
     0
  6
CONTINUOUS
 10
3.538920
 20
7.886120
 11
3.555200
 21
7.888760
  0
LINE
  8
0
 62
     0
  6
CONTINUOUS
 10
3.547720
 20
7.888760
 11
3.473800
 21
7.888760
  0
LINE
  8
0
 62
     0
  6
CONTINUOUS
 10
3.473800
 20
7.896240
 11
3.547720
 21
7.896240
  0
LINE
  8
0
 62
     0
  6
CONTINUOUS
 10
3.538920
 20
7.886120
 11
3.538920
 21
7.833760
  0
LINE
  8
0
 62
     0
  6
CONTINUOUS
 10
3.538920
 20
7.833760
 11
3.549040
 21
7.831120
  0
LINE
  8
0
 62
     0
  6
CONTINUOUS
 10
3.549040
 20
7.831120
 11
3.562680
 21
7.830240
  0
LINE
  8
0
 62
     0
  6
CONTINUOUS
 10
3.569280
 20
7.830240
 11
3.451360
 21
7.830240
  0
LINE
  8
0
 62
     0
  6
CONTINUOUS
 10
3.458840
 20
7.830240
 11
3.470280
 21
7.831120
  0
LINE
  8
0
 62
     0
  6
CONTINUOUS
 10
3.470280
 20
7.831120
 11
3.480400
 21
7.833760
  0
LINE
  8
0
 62
     0
  6
CONTINUOUS
 10
3.480400
 20
7.833760
 11
3.480400
 21
7.885240
  0
LINE
  8
0
 62
     0
  6
CONTINUOUS
 10
3.480400
 20
7.885240
 11
3.465000
 21
7.888760
  0
LINE
  8
0
 62
     0
  6
CONTINUOUS
 10
3.480400
 20
7.885240
 11
3.489200
 21
7.885240
  0
LINE
  8
0
 62
     0
  6
CONTINUOUS
 10
3.489200
 20
7.885240
 11
3.504160
 21
7.888760
  0
LINE
  8
0
 62
     0
  6
CONTINUOUS
 10
3.504160
 20
7.888760
 11
3.519120
 21
7.888760
  0
LINE
  8
0
 62
     0
  6
CONTINUOUS
 10
3.519120
 20
7.888760
 11
3.532760
 21
7.886120
  0
LINE
  8
0
 62
     0
  6
CONTINUOUS
 10
3.532760
 20
7.886120
 11
3.532760
 21
7.833760
  0
LINE
  8
0
 62
     0
  6
CONTINUOUS
 10
3.532760
 20
7.833760
 11
3.538920
 21
7.833760
  0
LINE
  8
0
 62
     0
  6
CONTINUOUS
 10
3.530120
 20
7.816160
 11
3.526600
 21
7.817480
  0
LINE
  8
0
 62
     0
  6
CONTINUOUS
 10
3.526600
 20
7.817480
 11
3.491400
 21
7.817480
  0
LINE
  8
0
 62
     0
  6
CONTINUOUS
 10
3.491400
 20
7.817480
 11
3.489200
 21
7.816160
  0
LINE
  8
0
 62
     0
  6
CONTINUOUS
 10
3.489200
 20
7.816160
 11
3.489200
 21
7.813960
  0
LINE
  8
0
 62
     0
  6
CONTINUOUS
 10
3.489200
 20
7.813960
 11
3.489200
 21
7.769960
  0
LINE
  8
0
 62
     0
  6
CONTINUOUS
 10
3.489200
 20
7.769960
 11
3.489200
 21
7.768640
  0
LINE
  8
0
 62
     0
  6
CONTINUOUS
 10
3.489200
 20
7.768640
 11
3.532760
 21
7.768640
  0
LINE
  8
0
 62
     0
  6
CONTINUOUS
 10
3.532760
 20
7.768640
 11
3.578960
 21
7.768640
  0
LINE
  8
0
 62
     0
  6
CONTINUOUS
 10
3.578960
 20
7.768640
 11
3.596560
 21
7.768640
  0
LINE
  8
0
 62
     0
  6
CONTINUOUS
 10
3.596560
 20
7.768640
 11
3.596560
 21
7.797680
  0
LINE
  8
0
 62
     0
  6
CONTINUOUS
 10
3.596560
 20
7.797680
 11
3.578960
 21
7.797680
  0
LINE
  8
0
 62
     0
  6
CONTINUOUS
 10
3.578960
 20
7.797680
 11
3.578960
 21
7.768640
  0
LINE
  8
0
 62
     0
  6
CONTINUOUS
 10
3.581600
 20
7.765120
 11
3.581600
 21
7.801200
  0
LINE
  8
0
 62
     0
  6
CONTINUOUS
 10
3.593920
 20
7.801200
 11
3.593920
 21
7.765120
  0
LINE
  8
0
 62
     0
  6
CONTINUOUS
 10
3.561360
 20
7.781400
 11
3.561360
 21
7.783600
  0
LINE
  8
0
 62
     0
  6
CONTINUOUS
 10
3.561360
 20
7.783600
 11
3.561360
 21
7.797680
  0
LINE
  8
0
 62
     0
  6
CONTINUOUS
 10
3.561360
 20
7.781400
 11
3.559160
 21
7.780080
  0
LINE
  8
0
 62
     0
  6
CONTINUOUS
 10
3.559160
 20
7.780080
 11
3.531440
 21
7.777440
  0
LINE
  8
0
 62
     0
  6
CONTINUOUS
 10
3.531440
 20
7.768640
 11
3.531440
 21
7.813960
  0
LINE
  8
0
 62
     0
  6
CONTINUOUS
 10
3.531440
 20
7.813960
 11
3.530120
 21
7.816160
  0
LINE
  8
0
 62
     0
  6
CONTINUOUS
 10
3.562680
 20
7.822320
 11
3.458840
 21
7.822320
  0
LINE
  8
0
 62
     0
  6
CONTINUOUS
 10
3.458840
 20
7.822320
 11
3.451360
 21
7.822320
  0
LINE
  8
0
 62
     0
  6
CONTINUOUS
 10
3.451360
 20
7.822320
 11
3.451360
 21
7.830240
  0
LINE
  8
0
 62
     0
  6
CONTINUOUS
 10
3.451360
 20
7.830240
 11
3.436400
 21
7.837720
  0
LINE
  8
0
 62
     0
  6
CONTINUOUS
 10
3.436400
 20
7.837720
 11
3.436400
 21
7.873800
  0
LINE
  8
0
 62
     0
  6
CONTINUOUS
 10
3.436400
 20
7.873800
 11
3.465000
 21
7.888760
  0
LINE
  8
0
 62
     0
  6
CONTINUOUS
 10
3.465000
 20
7.888760
 11
3.473800
 21
7.888760
  0
LINE
  8
0
 62
     0
  6
CONTINUOUS
 10
3.473800
 20
7.888760
 11
3.473800
 21
7.896240
  0
LINE
  8
0
 62
     0
  6
CONTINUOUS
 10
3.473800
 20
7.896240
 11
3.465000
 21
7.896240
  0
LINE
  8
0
 62
     0
  6
CONTINUOUS
 10
3.465000
 20
7.896240
 11
3.465000
 21
7.917800
  0
LINE
  8
0
 62
     0
  6
CONTINUOUS
 10
3.465000
 20
7.917800
 11
3.468960
 21
7.922640
  0
LINE
  8
0
 62
     0
  6
CONTINUOUS
 10
3.468960
 20
7.922640
 11
3.470280
 21
7.925280
  0
LINE
  8
0
 62
     0
  6
CONTINUOUS
 10
3.470280
 20
7.925280
 11
3.473800
 21
7.925280
  0
LINE
  8
0
 62
     0
  6
CONTINUOUS
 10
3.473800
 20
7.925280
 11
3.489200
 21
7.925280
  0
LINE
  8
0
 62
     0
  6
CONTINUOUS
 10
3.489200
 20
7.925280
 11
3.489200
 21
7.926160
  0
LINE
  8
0
 62
     0
  6
CONTINUOUS
 10
3.489200
 20
7.926160
 11
3.489200
 21
7.945080
  0
LINE
  8
0
 62
     0
  6
CONTINUOUS
 10
3.532760
 20
7.945080
 11
3.532760
 21
7.925280
  0
LINE
  8
0
 62
     0
  6
CONTINUOUS
 10
3.532760
 20
7.925280
 11
3.531440
 21
7.925280
  0
LINE
  8
0
 62
     0
  6
CONTINUOUS
 10
3.531440
 20
7.925280
 11
3.546400
 21
7.925280
  0
LINE
  8
0
 62
     0
  6
CONTINUOUS
 10
3.546400
 20
7.925280
 11
3.549040
 21
7.925280
  0
LINE
  8
0
 62
     0
  6
CONTINUOUS
 10
3.549040
 20
7.925280
 11
3.551680
 21
7.922640
  0
LINE
  8
0
 62
     0
  6
CONTINUOUS
 10
3.551680
 20
7.922640
 11
3.551680
 21
7.917800
  0
LINE
  8
0
 62
     0
  6
CONTINUOUS
 10
3.551680
 20
7.917800
 11
3.551680
 21
7.896240
  0
LINE
  8
0
 62
     0
  6
CONTINUOUS
 10
3.551680
 20
7.896240
 11
3.546400
 21
7.896240
  0
LINE
  8
0
 62
     0
  6
CONTINUOUS
 10
3.546400
 20
7.896240
 11
3.546400
 21
7.888760
  0
LINE
  8
0
 62
     0
  6
CONTINUOUS
 10
3.546400
 20
7.888760
 11
3.551680
 21
7.888760
  0
LINE
  8
0
 62
     0
  6
CONTINUOUS
 10
3.551680
 20
7.888760
 11
3.581600
 21
7.873800
  0
LINE
  8
0
 62
     0
  6
CONTINUOUS
 10
3.581600
 20
7.873800
 11
3.581600
 21
7.837720
  0
LINE
  8
0
 62
     0
  6
CONTINUOUS
 10
3.581600
 20
7.837720
 11
3.566640
 21
7.830240
  0
LINE
  8
0
 62
     0
  6
CONTINUOUS
 10
3.566640
 20
7.830240
 11
3.566640
 21
7.822320
  0
LINE
  8
0
 62
     0
  6
CONTINUOUS
 10
3.566640
 20
7.822320
 11
3.561360
 21
7.822320
  0
LINE
  8
0
 62
     0
  6
CONTINUOUS
 10
3.561360
 20
7.822320
 11
3.561360
 21
7.805160
  0
LINE
  8
0
 62
     0
  6
CONTINUOUS
 10
3.561360
 20
7.805160
 11
3.561360
 21
7.797680
  0
LINE
  8
0
 62
     0
  6
CONTINUOUS
 10
3.561360
 20
7.797680
 11
3.578960
 21
7.797680
  0
LINE
  8
0
 62
     0
  6
CONTINUOUS
 10
3.578960
 20
7.797680
 11
3.581600
 21
7.801200
  0
LINE
  8
0
 62
     0
  6
CONTINUOUS
 10
3.581600
 20
7.801200
 11
3.593920
 21
7.801200
  0
LINE
  8
0
 62
     0
  6
CONTINUOUS
 10
3.593920
 20
7.801200
 11
3.596560
 21
7.797680
  0
LINE
  8
0
 62
     0
  6
CONTINUOUS
 10
3.596560
 20
7.797680
 11
3.596560
 21
7.768640
  0
LINE
  8
0
 62
     0
  6
CONTINUOUS
 10
3.596560
 20
7.768640
 11
3.593920
 21
7.765120
  0
LINE
  8
0
 62
     0
  6
CONTINUOUS
 10
3.593920
 20
7.765120
 11
3.581600
 21
7.765120
  0
LINE
  8
0
 62
     0
  6
CONTINUOUS
 10
3.581600
 20
7.765120
 11
3.578960
 21
7.768640
  0
LINE
  8
0
 62
     0
  6
CONTINUOUS
 10
3.596560
 20
7.777440
 11
3.724160
 21
7.777440
  0
LINE
  8
0
 62
     0
  6
CONTINUOUS
 10
3.724160
 20
7.777440
 11
3.724160
 21
7.783600
  0
LINE
  8
0
 62
     0
  6
CONTINUOUS
 10
3.724160
 20
7.783600
 11
3.596560
 21
7.783600
  0
LINE
  8
0
 62
     0
  6
CONTINUOUS
 10
3.596560
 20
7.783600
 11
3.596560
 21
7.789760
  0
LINE
  8
0
 62
     0
  6
CONTINUOUS
 10
3.596560
 20
7.789760
 11
3.724160
 21
7.789760
  0
LINE
  8
0
 62
     0
  6
CONTINUOUS
 10
3.724160
 20
7.789760
 11
3.724160
 21
7.774800
  0
LINE
  8
0
 62
     0
  6
CONTINUOUS
 10
3.724160
 20
7.774800
 11
3.596560
 21
7.774800
  0
LINE
  8
0
 62
     0
  6
CONTINUOUS
 10
3.596560
 20
7.774800
 11
3.596560
 21
7.789760
  0
LINE
  8
0
 62
     0
  6
CONTINUOUS
 10
3.596560
 20
7.789760
 11
3.724160
 21
7.789760
  0
LINE
  8
0
 62
     0
  6
CONTINUOUS
 10
3.489200
 20
7.777440
 11
3.460160
 21
7.780080
  0
LINE
  8
0
 62
     0
  6
CONTINUOUS
 10
3.460160
 20
7.780080
 11
3.458840
 21
7.781400
  0
LINE
  8
0
 62
     0
  6
CONTINUOUS
 10
3.458840
 20
7.781400
 11
3.458840
 21
7.783600
  0
LINE
  8
0
 62
     0
  6
CONTINUOUS
 10
3.458840
 20
7.783600
 11
3.458840
 21
7.797680
  0
LINE
  8
0
 62
     0
  6
CONTINUOUS
 10
3.458840
 20
7.797680
 11
3.458840
 21
7.805160
  0
LINE
  8
0
 62
     0
  6
CONTINUOUS
 10
3.458840
 20
7.805160
 11
3.458840
 21
7.822320
  0
LINE
  8
0
 62
     0
  6
CONTINUOUS
 10
3.458840
 20
7.797680
 11
3.441240
 21
7.797680
  0
LINE
  8
0
 62
     0
  6
CONTINUOUS
 10
3.441240
 20
7.797680
 11
3.441240
 21
7.768640
  0
LINE
  8
0
 62
     0
  6
CONTINUOUS
 10
3.441240
 20
7.768640
 11
3.489200
 21
7.768640
  0
LINE
  8
0
 62
     0
  6
CONTINUOUS
 10
3.441240
 20
7.768640
 11
3.436400
 21
7.765120
  0
LINE
  8
0
 62
     0
  6
CONTINUOUS
 10
3.436400
 20
7.765120
 11
3.436400
 21
7.801200
  0
LINE
  8
0
 62
     0
  6
CONTINUOUS
 10
3.436400
 20
7.801200
 11
3.441240
 21
7.797680
  0
LINE
  8
0
 62
     0
  6
CONTINUOUS
 10
3.441240
 20
7.797680
 11
3.421440
 21
7.797680
  0
LINE
  8
0
 62
     0
  6
CONTINUOUS
 10
3.421440
 20
7.797680
 11
3.426280
 21
7.801200
  0
LINE
  8
0
 62
     0
  6
CONTINUOUS
 10
3.426280
 20
7.801200
 11
3.426280
 21
7.765120
  0
LINE
  8
0
 62
     0
  6
CONTINUOUS
 10
3.426280
 20
7.765120
 11
3.436400
 21
7.765120
  0
LINE
  8
0
 62
     0
  6
CONTINUOUS
 10
3.441240
 20
7.768640
 11
3.421440
 21
7.768640
  0
LINE
  8
0
 62
     0
  6
CONTINUOUS
 10
3.421440
 20
7.768640
 11
3.421440
 21
7.797680
  0
LINE
  8
0
 62
     0
  6
CONTINUOUS
 10
3.421440
 20
7.797680
 11
3.421440
 21
7.768640
  0
LINE
  8
0
 62
     0
  6
CONTINUOUS
 10
3.421440
 20
7.768640
 11
3.426280
 21
7.765120
  0
LINE
  8
0
 62
     0
  6
CONTINUOUS
 10
3.421440
 20
7.774800
 11
3.233560
 21
7.774800
  0
LINE
  8
0
 62
     0
  6
CONTINUOUS
 10
3.233560
 20
7.774800
 11
3.248520
 21
7.789760
  0
LINE
  8
0
 62
     0
  6
CONTINUOUS
 10
3.248520
 20
7.789760
 11
3.421440
 21
7.789760
  0
LINE
  8
0
 62
     0
  6
CONTINUOUS
 10
3.421440
 20
7.789760
 11
3.421440
 21
7.774800
  0
LINE
  8
0
 62
     0
  6
CONTINUOUS
 10
3.421440
 20
7.774800
 11
3.421440
 21
7.777440
  0
LINE
  8
0
 62
     0
  6
CONTINUOUS
 10
3.421440
 20
7.777440
 11
3.233560
 21
7.777440
  0
LINE
  8
0
 62
     0
  6
CONTINUOUS
 10
3.233560
 20
7.777440
 11
3.233560
 21
7.774800
  0
POLYLINE
  8
0
 62
     0
  6
CONTINUOUS
 66
     1
 40
0.000000
 41
0.000000
  0
VERTEX
  8
0
 62
     0
  6
CONTINUOUS
 10
3.237520
 20
7.774800
  0
VERTEX
  8
0
 62
     0
  6
CONTINUOUS
 10
3.237520
 20
8.340640
  0
VERTEX
  8
0
 62
     0
  6
CONTINUOUS
 10
2.879800
 20
8.340640
  0
VERTEX
  8
0
 62
     0
  6
CONTINUOUS
 10
2.787400
 20
8.340640
  0
SEQEND
  8
0
  0
POLYLINE
  8
0
 62
     0
  6
CONTINUOUS
 66
     1
 40
0.000000
 41
0.000000
  0
VERTEX
  8
0
 62
     0
  6
CONTINUOUS
 10
2.786520
 20
8.346800
  0
VERTEX
  8
0
 62
     0
  6
CONTINUOUS
 10
2.882000
 20
8.346800
  0
VERTEX
  8
0
 62
     0
  6
CONTINUOUS
 10
3.248520
 20
8.346800
  0
VERTEX
  8
0
 62
     0
  6
CONTINUOUS
 10
3.248520
 20
7.789320
  0
SEQEND
  8
0
  0
LINE
  8
0
 62
     0
  6
CONTINUOUS
 10
3.248520
 20
7.789760
 11
3.233560
 21
7.774800
  0
POLYLINE
  8
0
 62
     0
  6
CONTINUOUS
 66
     1
 40
0.000000
 41
0.000000
  0
VERTEX
  8
0
 62
     0
  6
CONTINUOUS
 10
2.787400
 20
8.343280
  0
VERTEX
  8
0
 62
     0
  6
CONTINUOUS
 10
2.880680
 20
8.343280
  0
VERTEX
  8
0
 62
     0
  6
CONTINUOUS
 10
3.245000
 20
8.343280
  0
VERTEX
  8
0
 62
     0
  6
CONTINUOUS
 10
3.245000
 20
7.786240
  0
SEQEND
  8
0
  0
LINE
  8
0
 62
     0
  6
CONTINUOUS
 10
3.245000
 20
7.786240
 11
3.236200
 21
7.780080
  0
LINE
  8
0
 62
     0
  6
CONTINUOUS
 10
3.236200
 20
7.780080
 11
3.241040
 21
7.783600
  0
LINE
  8
0
 62
     0
  6
CONTINUOUS
 10
3.241040
 20
7.783600
 11
3.421440
 21
7.783600
  0
LINE
  8
0
 62
     0
  6
CONTINUOUS
 10
3.421440
 20
7.783600
 11
3.421440
 21
7.777440
  0
LINE
  8
0
 62
     0
  6
CONTINUOUS
 10
3.421440
 20
7.789760
 11
3.248520
 21
7.789760
  0
LINE
  8
0
 62
     0
  6
CONTINUOUS
 10
3.248520
 20
7.789760
 11
3.241040
 21
7.783600
  0
LINE
  8
0
 62
     0
  6
CONTINUOUS
 10
3.426280
 20
7.801200
 11
3.436400
 21
7.801200
  0
LINE
  8
0
 62
     0
  6
CONTINUOUS
 10
3.480400
 20
7.833760
 11
3.489200
 21
7.833760
  0
LINE
  8
0
 62
     0
  6
CONTINUOUS
 10
3.473800
 20
7.980280
 11
3.476440
 21
7.982480
  0
LINE
  8
0
 62
     0
  6
CONTINUOUS
 10
3.476440
 20
7.982480
 11
3.479080
 21
7.985120
  0
LINE
  8
0
 62
     0
  6
CONTINUOUS
 10
3.479080
 20
7.985120
 11
3.476440
 21
7.989080
  0
LINE
  8
0
 62
     0
  6
CONTINUOUS
 10
3.476440
 20
7.989080
 11
3.473800
 21
7.991280
  0
LINE
  8
0
 62
     0
  6
CONTINUOUS
 10
3.473800
 20
7.991280
 11
3.470280
 21
7.991280
  0
LINE
  8
0
 62
     0
  6
CONTINUOUS
 10
3.470280
 20
7.991280
 11
3.468960
 21
7.989080
  0
LINE
  8
0
 62
     0
  6
CONTINUOUS
 10
3.468960
 20
7.989080
 11
3.466320
 21
7.985120
  0
LINE
  8
0
 62
     0
  6
CONTINUOUS
 10
3.466320
 20
7.985120
 11
3.468960
 21
7.982480
  0
LINE
  8
0
 62
     0
  6
CONTINUOUS
 10
3.468960
 20
7.982480
 11
3.470280
 21
7.980280
  0
LINE
  8
0
 62
     0
  6
CONTINUOUS
 10
3.470280
 20
7.980280
 11
3.473800
 21
7.978960
  0
LINE
  8
0
 62
     0
  6
CONTINUOUS
 10
3.473800
 20
7.978960
 11
3.473800
 21
7.980280
  0
LINE
  8
0
 62
     0
  6
CONTINUOUS
 10
3.473800
 20
7.980280
 11
3.473800
 21
7.981600
  0
LINE
  8
0
 62
     0
  6
CONTINUOUS
 10
3.473800
 20
7.981600
 11
3.473800
 21
7.985120
  0
LINE
  8
0
 62
     0
  6
CONTINUOUS
 10
3.473800
 20
7.985120
 11
3.475120
 21
7.985120
  0
LINE
  8
0
 62
     0
  6
CONTINUOUS
 10
3.475120
 20
7.985120
 11
3.475120
 21
7.986440
  0
LINE
  8
0
 62
     0
  6
CONTINUOUS
 10
3.475120
 20
7.986440
 11
3.473800
 21
7.986440
  0
LINE
  8
0
 62
     0
  6
CONTINUOUS
 10
3.473800
 20
7.986440
 11
3.473800
 21
7.990400
  0
LINE
  8
0
 62
     0
  6
CONTINUOUS
 10
3.473800
 20
7.990400
 11
3.472920
 21
7.990400
  0
LINE
  8
0
 62
     0
  6
CONTINUOUS
 10
3.472920
 20
7.990400
 11
3.472920
 21
7.986440
  0
LINE
  8
0
 62
     0
  6
CONTINUOUS
 10
3.472920
 20
7.986440
 11
3.470280
 21
7.986440
  0
LINE
  8
0
 62
     0
  6
CONTINUOUS
 10
3.470280
 20
7.986440
 11
3.470280
 21
7.985120
  0
LINE
  8
0
 62
     0
  6
CONTINUOUS
 10
3.470280
 20
7.985120
 11
3.472920
 21
7.985120
  0
LINE
  8
0
 62
     0
  6
CONTINUOUS
 10
3.472920
 20
7.985120
 11
3.472920
 21
7.981600
  0
LINE
  8
0
 62
     0
  6
CONTINUOUS
 10
3.472920
 20
7.981600
 11
3.473800
 21
7.981600
  0
LINE
  8
0
 62
     0
  6
CONTINUOUS
 10
3.551680
 20
8.007560
 11
3.596560
 21
8.007560
  0
LINE
  8
0
 62
     0
  6
CONTINUOUS
 10
3.596560
 20
8.007560
 11
3.596560
 21
8.032640
  0
LINE
  8
0
 62
     0
  6
CONTINUOUS
 10
3.596560
 20
8.032640
 11
3.576760
 21
8.032640
  0
LINE
  8
0
 62
     0
  6
CONTINUOUS
 10
3.576760
 20
8.032640
 11
3.576760
 21
8.030440
  0
LINE
  8
0
 62
     0
  6
CONTINUOUS
 10
3.576760
 20
8.030440
 11
3.596560
 21
8.030440
  0
LINE
  8
0
 62
     0
  6
CONTINUOUS
 10
3.596560
 20
8.030440
 11
3.596560
 21
8.025160
  0
LINE
  8
0
 62
     0
  6
CONTINUOUS
 10
3.596560
 20
8.025160
 11
3.576760
 21
8.025160
  0
LINE
  8
0
 62
     0
  6
CONTINUOUS
 10
3.576760
 20
8.025160
 11
3.576760
 21
8.022520
  0
LINE
  8
0
 62
     0
  6
CONTINUOUS
 10
3.576760
 20
8.022520
 11
3.596560
 21
8.022520
  0
LINE
  8
0
 62
     0
  6
CONTINUOUS
 10
3.596560
 20
8.022520
 11
3.596560
 21
8.017680
  0
LINE
  8
0
 62
     0
  6
CONTINUOUS
 10
3.596560
 20
8.017680
 11
3.604040
 21
8.017680
  0
LINE
  8
0
 62
     0
  6
CONTINUOUS
 10
3.604040
 20
8.017680
 11
3.606680
 21
8.010200
  0
LINE
  8
0
 62
     0
  6
CONTINUOUS
 10
3.606680
 20
8.010200
 11
3.606680
 21
7.991280
  0
LINE
  8
0
 62
     0
  6
CONTINUOUS
 10
3.606680
 20
7.991280
 11
3.604040
 21
8.000080
  0
LINE
  8
0
 62
     0
  6
CONTINUOUS
 10
3.604040
 20
8.000080
 11
3.596560
 21
8.000080
  0
LINE
  8
0
 62
     0
  6
CONTINUOUS
 10
3.604040
 20
8.000080
 11
3.606680
 21
8.010200
  0
LINE
  8
0
 62
     0
  6
CONTINUOUS
 10
3.596560
 20
8.011520
 11
3.576760
 21
8.011520
  0
LINE
  8
0
 62
     0
  6
CONTINUOUS
 10
3.576760
 20
8.011520
 11
3.576760
 21
8.015040
  0
LINE
  8
0
 62
     0
  6
CONTINUOUS
 10
3.576760
 20
8.015040
 11
3.596560
 21
8.015040
  0
LINE
  8
0
 62
     0
  6
CONTINUOUS
 10
3.596560
 20
8.015040
 11
3.596560
 21
8.017680
  0
LINE
  8
0
 62
     0
  6
CONTINUOUS
 10
3.596560
 20
8.017680
 11
3.576760
 21
8.017680
  0
LINE
  8
0
 62
     0
  6
CONTINUOUS
 10
3.576760
 20
8.007560
 11
3.576760
 21
8.201600
  0
LINE
  8
0
 62
     0
  6
CONTINUOUS
 10
3.576760
 20
8.201600
 11
3.575440
 21
8.207760
  0
LINE
  8
0
 62
     0
  6
CONTINUOUS
 10
3.575440
 20
8.207760
 11
3.571480
 21
8.213040
  0
LINE
  8
0
 62
     0
  6
CONTINUOUS
 10
3.571480
 20
8.213040
 11
3.566640
 21
8.216560
  0
LINE
  8
0
 62
     0
  6
CONTINUOUS
 10
3.566640
 20
8.216560
 11
3.564000
 21
8.219200
  0
LINE
  8
0
 62
     0
  6
CONTINUOUS
 10
3.564000
 20
8.219200
 11
3.559160
 21
8.220520
  0
LINE
  8
0
 62
     0
  6
CONTINUOUS
 10
3.559160
 20
8.220520
 11
3.416600
 21
8.220520
  0
LINE
  8
0
 62
     0
  6
CONTINUOUS
 10
3.416600
 20
8.220520
 11
3.413960
 21
8.219200
  0
LINE
  8
0
 62
     0
  6
CONTINUOUS
 10
3.413960
 20
8.219200
 11
3.408680
 21
8.216560
  0
LINE
  8
0
 62
     0
  6
CONTINUOUS
 10
3.344000
 20
8.301920
 11
3.724160
 21
8.301920
  0
LINE
  8
0
 62
     0
  6
CONTINUOUS
 10
3.724160
 20
8.301920
 11
3.724160
 21
8.295320
  0
LINE
  8
0
 62
     0
  6
CONTINUOUS
 10
3.724160
 20
8.295320
 11
3.338720
 21
8.295320
  0
LINE
  8
0
 62
     0
  6
CONTINUOUS
 10
3.338720
 20
8.295320
 11
3.353680
 21
8.311600
  0
LINE
  8
0
 62
     0
  6
CONTINUOUS
 10
3.353680
 20
8.311600
 11
3.724160
 21
8.311600
  0
LINE
  8
0
 62
     0
  6
CONTINUOUS
 10
3.724160
 20
8.311600
 11
3.724160
 21
8.295320
  0
LINE
  8
0
 62
     0
  6
CONTINUOUS
 10
3.724160
 20
8.308080
 11
3.350160
 21
8.308080
  0
LINE
  8
0
 62
     0
  6
CONTINUOUS
 10
3.350160
 20
8.308080
 11
3.344000
 21
8.301920
  0
POLYLINE
  8
0
 62
     0
  6
CONTINUOUS
 66
     1
 40
0.000000
 41
0.000000
  0
VERTEX
  8
0
 62
     0
  6
CONTINUOUS
 10
3.344000
 20
8.301920
  0
VERTEX
  8
0
 62
     0
  6
CONTINUOUS
 10
3.344000
 20
8.428200
  0
VERTEX
  8
0
 62
     0
  6
CONTINUOUS
 10
2.789160
 20
8.428200
  0
SEQEND
  8
0
  0
POLYLINE
  8
0
 62
     0
  6
CONTINUOUS
 66
     1
 40
0.000000
 41
0.000000
  0
VERTEX
  8
0
 62
     0
  6
CONTINUOUS
 10
2.787840
 20
8.440520
  0
VERTEX
  8
0
 62
     0
  6
CONTINUOUS
 10
3.353680
 20
8.440520
  0
VERTEX
  8
0
 62
     0
  6
CONTINUOUS
 10
3.353680
 20
8.311600
  0
SEQEND
  8
0
  0
LINE
  8
0
 62
     0
  6
CONTINUOUS
 10
3.353680
 20
8.311600
 11
3.338720
 21
8.295320
  0
POLYLINE
  8
0
 62
     0
  6
CONTINUOUS
 66
     1
 40
0.000000
 41
0.000000
  0
VERTEX
  8
0
 62
     0
  6
CONTINUOUS
 10
3.338720
 20
8.295320
  0
VERTEX
  8
0
 62
     0
  6
CONTINUOUS
 10
3.338720
 20
8.423800
  0
VERTEX
  8
0
 62
     0
  6
CONTINUOUS
 10
3.338720
 20
8.404000
  0
SEQEND
  8
0
  0
POLYLINE
  8
0
 62
     0
  6
CONTINUOUS
 66
     1
 40
0.000000
 41
0.000000
  0
VERTEX
  8
0
 62
     0
  6
CONTINUOUS
 10
2.789160
 20
8.440520
  0
VERTEX
  8
0
 62
     0
  6
CONTINUOUS
 10
3.351480
 20
8.440520
  0
VERTEX
  8
0
 62
     0
  6
CONTINUOUS
 10
3.351480
 20
8.308080
  0
SEQEND
  8
0
  0
LINE
  8
0
 62
     0
  6
CONTINUOUS
 10
3.351480
 20
8.308080
 11
3.344000
 21
8.301920
  0
LINE
  8
0
 62
     0
  6
CONTINUOUS
 10
3.955600
 20
8.303240
 11
3.992120
 21
8.303240
  0
LINE
  8
0
 62
     0
  6
CONTINUOUS
 10
3.995640
 20
8.327880
 11
3.982000
 21
8.275520
  0
LINE
  8
0
 62
     0
  6
CONTINUOUS
 10
4.009720
 20
8.275520
 11
4.010600
 21
8.327880
  0
LINE
  8
0
 62
     0
  6
CONTINUOUS
 10
4.038320
 20
8.327880
 11
4.009720
 21
8.275520
  0
LINE
  8
0
 62
     0
  6
CONTINUOUS
 10
4.037000
 20
8.275520
 11
4.038320
 21
8.327880
  0
LINE
  8
0
 62
     0
  6
CONTINUOUS
 10
4.062080
 20
8.327880
 11
4.037000
 21
8.275520
  0
LINE
  8
0
 62
     0
  6
CONTINUOUS
 10
4.064720
 20
8.275520
 11
4.075720
 21
8.327880
  0
LINE
  8
0
 62
     0
  6
CONTINUOUS
 10
4.075720
 20
8.327880
 11
4.099480
 21
8.327880
  0
LINE
  8
0
 62
     0
  6
CONTINUOUS
 10
4.099480
 20
8.327880
 11
4.106080
 21
8.325680
  0
LINE
  8
0
 62
     0
  6
CONTINUOUS
 10
4.106080
 20
8.325680
 11
4.109600
 21
8.323040
  0
LINE
  8
0
 62
     0
  6
CONTINUOUS
 10
4.109600
 20
8.323040
 11
4.109600
 21
8.318200
  0
LINE
  8
0
 62
     0
  6
CONTINUOUS
 10
4.109600
 20
8.318200
 11
4.109600
 21
8.312920
  0
LINE
  8
0
 62
     0
  6
CONTINUOUS
 10
4.109600
 20
8.312920
 11
4.102120
 21
8.308080
  0
LINE
  8
0
 62
     0
  6
CONTINUOUS
 10
4.102120
 20
8.308080
 11
4.099480
 21
8.305440
  0
LINE
  8
0
 62
     0
  6
CONTINUOUS
 10
4.099480
 20
8.305440
 11
4.092000
 21
8.303240
  0
LINE
  8
0
 62
     0
  6
CONTINUOUS
 10
4.092000
 20
8.303240
 11
4.069560
 21
8.303240
  0
LINE
  8
0
 62
     0
  6
CONTINUOUS
 10
4.087160
 20
8.303240
 11
4.099480
 21
8.275520
  0
LINE
  8
0
 62
     0
  6
CONTINUOUS
 10
3.949440
 20
8.275520
 11
3.963080
 21
8.327880
  0
LINE
  8
0
 62
     0
  6
CONTINUOUS
 10
3.586440
 20
8.069160
 11
3.581600
 21
8.070480
  0
LINE
  8
0
 62
     0
  6
CONTINUOUS
 10
3.581600
 20
8.070480
 11
3.576760
 21
8.070480
  0
LINE
  8
0
 62
     0
  6
CONTINUOUS
 10
3.586440
 20
8.069160
 11
3.590400
 21
8.065200
  0
LINE
  8
0
 62
     0
  6
CONTINUOUS
 10
3.590400
 20
8.065200
 11
3.591720
 21
8.062560
  0
LINE
  8
0
 62
     0
  6
CONTINUOUS
 10
3.591720
 20
8.062560
 11
3.591720
 21
8.032640
  0
LINE
  8
0
 62
     0
  6
CONTINUOUS
 10
3.596560
 20
8.007560
 11
3.596560
 21
7.977640
  0
LINE
  8
0
 62
     0
  6
CONTINUOUS
 10
3.596560
 20
7.977640
 11
3.596560
 21
7.981600
  0
LINE
  8
0
 62
     0
  6
CONTINUOUS
 10
3.596560
 20
7.981600
 11
3.604040
 21
7.981600
  0
LINE
  8
0
 62
     0
  6
CONTINUOUS
 10
3.604040
 20
7.981600
 11
3.606680
 21
7.991280
  0
LINE
  8
0
 62
     0
  6
CONTINUOUS
 10
3.963080
 20
7.807360
 11
3.949440
 21
7.755000
  0
LINE
  8
0
 62
     0
  6
CONTINUOUS
 10
3.955600
 20
7.782280
 11
3.992120
 21
7.782280
  0
LINE
  8
0
 62
     0
  6
CONTINUOUS
 10
3.995640
 20
7.807360
 11
3.982000
 21
7.755000
  0
LINE
  8
0
 62
     0
  6
CONTINUOUS
 10
4.009720
 20
7.755000
 11
4.010600
 21
7.807360
  0
LINE
  8
0
 62
     0
  6
CONTINUOUS
 10
4.038320
 20
7.807360
 11
4.009720
 21
7.755000
  0
LINE
  8
0
 62
     0
  6
CONTINUOUS
 10
4.037000
 20
7.755000
 11
4.038320
 21
7.807360
  0
LINE
  8
0
 62
     0
  6
CONTINUOUS
 10
4.062080
 20
7.807360
 11
4.037000
 21
7.755000
  0
LINE
  8
0
 62
     0
  6
CONTINUOUS
 10
4.066920
 20
7.757640
 11
4.062080
 21
7.762480
  0
LINE
  8
0
 62
     0
  6
CONTINUOUS
 10
4.066920
 20
7.757640
 11
4.070880
 21
7.755000
  0
LINE
  8
0
 62
     0
  6
CONTINUOUS
 10
4.070880
 20
7.755000
 11
4.083200
 21
7.755000
  0
LINE
  8
0
 62
     0
  6
CONTINUOUS
 10
4.083200
 20
7.755000
 11
4.090680
 21
7.757640
  0
LINE
  8
0
 62
     0
  6
CONTINUOUS
 10
4.090680
 20
7.757640
 11
4.098600
 21
7.762480
  0
LINE
  8
0
 62
     0
  6
CONTINUOUS
 10
4.098600
 20
7.762480
 11
4.099480
 21
7.769960
  0
LINE
  8
0
 62
     0
  6
CONTINUOUS
 10
4.099480
 20
7.769960
 11
4.099480
 21
7.774800
  0
LINE
  8
0
 62
     0
  6
CONTINUOUS
 10
4.099480
 20
7.774800
 11
4.097280
 21
7.777440
  0
LINE
  8
0
 62
     0
  6
CONTINUOUS
 10
4.097280
 20
7.777440
 11
4.092000
 21
7.780080
  0
LINE
  8
0
 62
     0
  6
CONTINUOUS
 10
4.092000
 20
7.780080
 11
4.079680
 21
7.784920
  0
LINE
  8
0
 62
     0
  6
CONTINUOUS
 10
4.079680
 20
7.784920
 11
4.072200
 21
7.787560
  0
LINE
  8
0
 62
     0
  6
CONTINUOUS
 10
4.072200
 20
7.787560
 11
4.070880
 21
7.789760
  0
LINE
  8
0
 62
     0
  6
CONTINUOUS
 10
4.070880
 20
7.789760
 11
4.069560
 21
7.795040
  0
LINE
  8
0
 62
     0
  6
CONTINUOUS
 10
4.069560
 20
7.795040
 11
4.070880
 21
7.799880
  0
LINE
  8
0
 62
     0
  6
CONTINUOUS
 10
4.070880
 20
7.799880
 11
4.079680
 21
7.805160
  0
LINE
  8
0
 62
     0
  6
CONTINUOUS
 10
4.079680
 20
7.805160
 11
4.084520
 21
7.807360
  0
LINE
  8
0
 62
     0
  6
CONTINUOUS
 10
4.084520
 20
7.807360
 11
4.097280
 21
7.807360
  0
LINE
  8
0
 62
     0
  6
CONTINUOUS
 10
4.097280
 20
7.807360
 11
4.102120
 21
7.805160
  0
LINE
  8
0
 62
     0
  6
CONTINUOUS
 10
4.102120
 20
7.805160
 11
4.106960
 21
7.799880
  0
LINE
  8
0
 62
     0
  6
CONTINUOUS
 10
3.510320
 20
7.454480
 11
3.510320
 21
7.740040
  0
POLYLINE
  8
0
 62
     0
  6
CONTINUOUS
 66
     1
 40
0.002200
 41
0.002200
  0
VERTEX
  8
0
 62
     0
  6
CONTINUOUS
 10
3.767720
 20
8.285200
  0
VERTEX
  8
0
 62
     0
  6
CONTINUOUS
 10
3.771680
 20
8.289160
  0
SEQEND
  8
0
  0
POLYLINE
  8
0
 62
     0
  6
CONTINUOUS
 66
     1
 40
0.002200
 41
0.002200
  0
VERTEX
  8
0
 62
     0
  6
CONTINUOUS
 10
3.767720
 20
8.285200
  0
VERTEX
  8
0
 62
     0
  6
CONTINUOUS
 10
3.761560
 20
8.280360
  0
SEQEND
  8
0
  0
POLYLINE
  8
0
 62
     0
  6
CONTINUOUS
 66
     1
 40
0.002200
 41
0.002200
  0
VERTEX
  8
0
 62
     0
  6
CONTINUOUS
 10
3.761560
 20
8.280360
  0
VERTEX
  8
0
 62
     0
  6
CONTINUOUS
 10
3.756720
 20
8.279040
  0
SEQEND
  8
0
  0
POLYLINE
  8
0
 62
     0
  6
CONTINUOUS
 66
     1
 40
0.002200
 41
0.002200
  0
VERTEX
  8
0
 62
     0
  6
CONTINUOUS
 10
3.756720
 20
8.279040
  0
VERTEX
  8
0
 62
     0
  6
CONTINUOUS
 10
3.746600
 20
8.279040
  0
SEQEND
  8
0
  0
POLYLINE
  8
0
 62
     0
  6
CONTINUOUS
 66
     1
 40
0.002200
 41
0.002200
  0
VERTEX
  8
0
 62
     0
  6
CONTINUOUS
 10
3.746600
 20
8.279040
  0
VERTEX
  8
0
 62
     0
  6
CONTINUOUS
 10
3.742640
 20
8.280360
  0
SEQEND
  8
0
  0
POLYLINE
  8
0
 62
     0
  6
CONTINUOUS
 66
     1
 40
0.002200
 41
0.002200
  0
VERTEX
  8
0
 62
     0
  6
CONTINUOUS
 10
3.742640
 20
8.280360
  0
VERTEX
  8
0
 62
     0
  6
CONTINUOUS
 10
3.740000
 20
8.285200
  0
SEQEND
  8
0
  0
POLYLINE
  8
0
 62
     0
  6
CONTINUOUS
 66
     1
 40
0.002200
 41
0.002200
  0
VERTEX
  8
0
 62
     0
  6
CONTINUOUS
 10
3.740000
 20
8.285200
  0
VERTEX
  8
0
 62
     0
  6
CONTINUOUS
 10
3.740000
 20
8.289160
  0
SEQEND
  8
0
  0
POLYLINE
  8
0
 62
     0
  6
CONTINUOUS
 66
     1
 40
0.002200
 41
0.002200
  0
VERTEX
  8
0
 62
     0
  6
CONTINUOUS
 10
3.740000
 20
8.289160
  0
VERTEX
  8
0
 62
     0
  6
CONTINUOUS
 10
3.738680
 20
8.296640
  0
SEQEND
  8
0
  0
POLYLINE
  8
0
 62
     0
  6
CONTINUOUS
 66
     1
 40
0.002200
 41
0.002200
  0
VERTEX
  8
0
 62
     0
  6
CONTINUOUS
 10
3.738680
 20
8.296640
  0
VERTEX
  8
0
 62
     0
  6
CONTINUOUS
 10
3.741320
 20
8.308080
  0
SEQEND
  8
0
  0
POLYLINE
  8
0
 62
     0
  6
CONTINUOUS
 66
     1
 40
0.002200
 41
0.002200
  0
VERTEX
  8
0
 62
     0
  6
CONTINUOUS
 10
3.741320
 20
8.308080
  0
VERTEX
  8
0
 62
     0
  6
CONTINUOUS
 10
3.745280
 20
8.314240
  0
SEQEND
  8
0
  0
POLYLINE
  8
0
 62
     0
  6
CONTINUOUS
 66
     1
 40
0.002200
 41
0.002200
  0
VERTEX
  8
0
 62
     0
  6
CONTINUOUS
 10
3.745280
 20
8.314240
  0
VERTEX
  8
0
 62
     0
  6
CONTINUOUS
 10
3.748800
 20
8.319080
  0
SEQEND
  8
0
  0
POLYLINE
  8
0
 62
     0
  6
CONTINUOUS
 66
     1
 40
0.002200
 41
0.002200
  0
VERTEX
  8
0
 62
     0
  6
CONTINUOUS
 10
3.748800
 20
8.319080
  0
VERTEX
  8
0
 62
     0
  6
CONTINUOUS
 10
3.755400
 20
8.324360
  0
SEQEND
  8
0
  0
POLYLINE
  8
0
 62
     0
  6
CONTINUOUS
 66
     1
 40
0.002200
 41
0.002200
  0
VERTEX
  8
0
 62
     0
  6
CONTINUOUS
 10
3.755400
 20
8.324360
  0
VERTEX
  8
0
 62
     0
  6
CONTINUOUS
 10
3.758920
 20
8.327000
  0
SEQEND
  8
0
  0
POLYLINE
  8
0
 62
     0
  6
CONTINUOUS
 66
     1
 40
0.002200
 41
0.002200
  0
VERTEX
  8
0
 62
     0
  6
CONTINUOUS
 10
3.758920
 20
8.327000
  0
VERTEX
  8
0
 62
     0
  6
CONTINUOUS
 10
3.770360
 20
8.327000
  0
SEQEND
  8
0
  0
POLYLINE
  8
0
 62
     0
  6
CONTINUOUS
 66
     1
 40
0.002200
 41
0.002200
  0
VERTEX
  8
0
 62
     0
  6
CONTINUOUS
 10
3.770360
 20
8.327000
  0
VERTEX
  8
0
 62
     0
  6
CONTINUOUS
 10
3.771680
 20
8.324360
  0
SEQEND
  8
0
  0
POLYLINE
  8
0
 62
     0
  6
CONTINUOUS
 66
     1
 40
0.002200
 41
0.002200
  0
VERTEX
  8
0
 62
     0
  6
CONTINUOUS
 10
3.771680
 20
8.324360
  0
VERTEX
  8
0
 62
     0
  6
CONTINUOUS
 10
3.775200
 20
8.319080
  0
SEQEND
  8
0
  0
POLYLINE
  8
0
 62
     0
  6
CONTINUOUS
 66
     1
 40
0.002200
 41
0.002200
  0
VERTEX
  8
0
 62
     0
  6
CONTINUOUS
 10
3.775200
 20
8.319080
  0
VERTEX
  8
0
 62
     0
  6
CONTINUOUS
 10
3.776520
 20
8.314240
  0
SEQEND
  8
0
  0
LINE
  8
0
 62
     0
  6
CONTINUOUS
 10
3.787960
 20
7.758520
 11
3.789280
 21
7.811320
  0
LINE
  8
0
 62
     0
  6
CONTINUOUS
 10
3.817000
 20
7.811320
 11
3.787960
 21
7.758520
  0
LINE
  8
0
 62
     0
  6
CONTINUOUS
 10
3.815680
 20
7.758520
 11
3.817000
 21
7.811320
  0
LINE
  8
0
 62
     0
  6
CONTINUOUS
 10
3.840760
 20
7.811320
 11
3.815680
 21
7.758520
  0
POLYLINE
  8
0
 62
     0
  6
CONTINUOUS
 66
     1
 40
0.002200
 41
0.002200
  0
VERTEX
  8
0
 62
     0
  6
CONTINUOUS
 10
3.767720
 20
7.768200
  0
VERTEX
  8
0
 62
     0
  6
CONTINUOUS
 10
3.771680
 20
7.772160
  0
SEQEND
  8
0
  0
POLYLINE
  8
0
 62
     0
  6
CONTINUOUS
 66
     1
 40
0.002200
 41
0.002200
  0
VERTEX
  8
0
 62
     0
  6
CONTINUOUS
 10
3.767720
 20
7.768200
  0
VERTEX
  8
0
 62
     0
  6
CONTINUOUS
 10
3.761560
 20
7.763360
  0
SEQEND
  8
0
  0
POLYLINE
  8
0
 62
     0
  6
CONTINUOUS
 66
     1
 40
0.002200
 41
0.002200
  0
VERTEX
  8
0
 62
     0
  6
CONTINUOUS
 10
3.761560
 20
7.763360
  0
VERTEX
  8
0
 62
     0
  6
CONTINUOUS
 10
3.756720
 20
7.762040
  0
SEQEND
  8
0
  0
POLYLINE
  8
0
 62
     0
  6
CONTINUOUS
 66
     1
 40
0.002200
 41
0.002200
  0
VERTEX
  8
0
 62
     0
  6
CONTINUOUS
 10
3.756720
 20
7.762040
  0
VERTEX
  8
0
 62
     0
  6
CONTINUOUS
 10
3.746600
 20
7.762040
  0
SEQEND
  8
0
  0
POLYLINE
  8
0
 62
     0
  6
CONTINUOUS
 66
     1
 40
0.002200
 41
0.002200
  0
VERTEX
  8
0
 62
     0
  6
CONTINUOUS
 10
3.746600
 20
7.762040
  0
VERTEX
  8
0
 62
     0
  6
CONTINUOUS
 10
3.742640
 20
7.763360
  0
SEQEND
  8
0
  0
POLYLINE
  8
0
 62
     0
  6
CONTINUOUS
 66
     1
 40
0.002200
 41
0.002200
  0
VERTEX
  8
0
 62
     0
  6
CONTINUOUS
 10
3.742640
 20
7.763360
  0
VERTEX
  8
0
 62
     0
  6
CONTINUOUS
 10
3.740000
 20
7.768200
  0
SEQEND
  8
0
  0
POLYLINE
  8
0
 62
     0
  6
CONTINUOUS
 66
     1
 40
0.002200
 41
0.002200
  0
VERTEX
  8
0
 62
     0
  6
CONTINUOUS
 10
3.740000
 20
7.768200
  0
VERTEX
  8
0
 62
     0
  6
CONTINUOUS
 10
3.740000
 20
7.772160
  0
SEQEND
  8
0
  0
POLYLINE
  8
0
 62
     0
  6
CONTINUOUS
 66
     1
 40
0.002200
 41
0.002200
  0
VERTEX
  8
0
 62
     0
  6
CONTINUOUS
 10
3.740000
 20
7.772160
  0
VERTEX
  8
0
 62
     0
  6
CONTINUOUS
 10
3.738680
 20
7.779640
  0
SEQEND
  8
0
  0
POLYLINE
  8
0
 62
     0
  6
CONTINUOUS
 66
     1
 40
0.002200
 41
0.002200
  0
VERTEX
  8
0
 62
     0
  6
CONTINUOUS
 10
3.738680
 20
7.779640
  0
VERTEX
  8
0
 62
     0
  6
CONTINUOUS
 10
3.741320
 20
7.791080
  0
SEQEND
  8
0
  0
POLYLINE
  8
0
 62
     0
  6
CONTINUOUS
 66
     1
 40
0.002200
 41
0.002200
  0
VERTEX
  8
0
 62
     0
  6
CONTINUOUS
 10
3.741320
 20
7.791080
  0
VERTEX
  8
0
 62
     0
  6
CONTINUOUS
 10
3.745280
 20
7.797240
  0
SEQEND
  8
0
  0
POLYLINE
  8
0
 62
     0
  6
CONTINUOUS
 66
     1
 40
0.002200
 41
0.002200
  0
VERTEX
  8
0
 62
     0
  6
CONTINUOUS
 10
3.745280
 20
7.797240
  0
VERTEX
  8
0
 62
     0
  6
CONTINUOUS
 10
3.748800
 20
7.802520
  0
SEQEND
  8
0
  0
POLYLINE
  8
0
 62
     0
  6
CONTINUOUS
 66
     1
 40
0.002200
 41
0.002200
  0
VERTEX
  8
0
 62
     0
  6
CONTINUOUS
 10
3.748800
 20
7.802520
  0
VERTEX
  8
0
 62
     0
  6
CONTINUOUS
 10
3.755400
 20
7.807360
  0
SEQEND
  8
0
  0
POLYLINE
  8
0
 62
     0
  6
CONTINUOUS
 66
     1
 40
0.002200
 41
0.002200
  0
VERTEX
  8
0
 62
     0
  6
CONTINUOUS
 10
3.755400
 20
7.807360
  0
VERTEX
  8
0
 62
     0
  6
CONTINUOUS
 10
3.758920
 20
7.810000
  0
SEQEND
  8
0
  0
POLYLINE
  8
0
 62
     0
  6
CONTINUOUS
 66
     1
 40
0.002200
 41
0.002200
  0
VERTEX
  8
0
 62
     0
  6
CONTINUOUS
 10
3.758920
 20
7.810000
  0
VERTEX
  8
0
 62
     0
  6
CONTINUOUS
 10
3.770360
 20
7.810000
  0
SEQEND
  8
0
  0
POLYLINE
  8
0
 62
     0
  6
CONTINUOUS
 66
     1
 40
0.002200
 41
0.002200
  0
VERTEX
  8
0
 62
     0
  6
CONTINUOUS
 10
3.770360
 20
7.810000
  0
VERTEX
  8
0
 62
     0
  6
CONTINUOUS
 10
3.771680
 20
7.807360
  0
SEQEND
  8
0
  0
POLYLINE
  8
0
 62
     0
  6
CONTINUOUS
 66
     1
 40
0.002200
 41
0.002200
  0
VERTEX
  8
0
 62
     0
  6
CONTINUOUS
 10
3.771680
 20
7.807360
  0
VERTEX
  8
0
 62
     0
  6
CONTINUOUS
 10
3.775200
 20
7.802520
  0
SEQEND
  8
0
  0
POLYLINE
  8
0
 62
     0
  6
CONTINUOUS
 66
     1
 40
0.002200
 41
0.002200
  0
VERTEX
  8
0
 62
     0
  6
CONTINUOUS
 10
3.775200
 20
7.802520
  0
VERTEX
  8
0
 62
     0
  6
CONTINUOUS
 10
3.776520
 20
7.797240
  0
SEQEND
  8
0
  0
POLYLINE
  8
0
 62
     0
  6
CONTINUOUS
 66
     1
 40
0.002200
 41
0.002200
  0
VERTEX
  8
0
 62
     0
  6
CONTINUOUS
 10
3.897960
 20
8.281240
  0
VERTEX
  8
0
 62
     0
  6
CONTINUOUS
 10
3.898840
 20
8.285200
  0
VERTEX
  8
0
 62
     0
  6
CONTINUOUS
 10
3.901920
 20
8.296200
  0
VERTEX
  8
0
 62
     0
  6
CONTINUOUS
 10
3.906320
 20
8.312040
  0
VERTEX
  8
0
 62
     0
  6
CONTINUOUS
 10
3.911600
 20
8.330080
  0
VERTEX
  8
0
 62
     0
  6
CONTINUOUS
 10
3.916440
 20
8.347680
  0
VERTEX
  8
0
 62
     0
  6
CONTINUOUS
 10
3.920840
 20
8.363520
  0
VERTEX
  8
0
 62
     0
  6
CONTINUOUS
 10
3.923920
 20
8.374520
  0
VERTEX
  8
0
 62
     0
  6
CONTINUOUS
 10
3.925240
 20
8.378920
  0
SEQEND
  8
0
  0
POLYLINE
  8
0
 62
     0
  6
CONTINUOUS
 66
     1
 40
0.002200
 41
0.002200
  0
VERTEX
  8
0
 62
     0
  6
CONTINUOUS
 10
3.925240
 20
8.378920
  0
VERTEX
  8
0
 62
     0
  6
CONTINUOUS
 10
3.926560
 20
8.378920
  0
VERTEX
  8
0
 62
     0
  6
CONTINUOUS
 10
3.927880
 20
8.378920
  0
VERTEX
  8
0
 62
     0
  6
CONTINUOUS
 10
3.929640
 20
8.378920
  0
VERTEX
  8
0
 62
     0
  6
CONTINUOUS
 10
3.931400
 20
8.378920
  0
VERTEX
  8
0
 62
     0
  6
CONTINUOUS
 10
3.932720
 20
8.378920
  0
VERTEX
  8
0
 62
     0
  6
CONTINUOUS
 10
3.934040
 20
8.378920
  0
VERTEX
  8
0
 62
     0
  6
CONTINUOUS
 10
3.934480
 20
8.378920
  0
SEQEND
  8
0
  0
POLYLINE
  8
0
 62
     0
  6
CONTINUOUS
 66
     1
 40
0.002200
 41
0.002200
  0
VERTEX
  8
0
 62
     0
  6
CONTINUOUS
 10
3.934480
 20
8.378920
  0
VERTEX
  8
0
 62
     0
  6
CONTINUOUS
 10
3.933160
 20
8.374520
  0
VERTEX
  8
0
 62
     0
  6
CONTINUOUS
 10
3.930080
 20
8.363520
  0
VERTEX
  8
0
 62
     0
  6
CONTINUOUS
 10
3.925680
 20
8.347680
  0
VERTEX
  8
0
 62
     0
  6
CONTINUOUS
 10
3.920840
 20
8.330080
  0
VERTEX
  8
0
 62
     0
  6
CONTINUOUS
 10
3.915560
 20
8.312040
  0
VERTEX
  8
0
 62
     0
  6
CONTINUOUS
 10
3.911160
 20
8.296200
  0
VERTEX
  8
0
 62
     0
  6
CONTINUOUS
 10
3.908080
 20
8.285200
  0
VERTEX
  8
0
 62
     0
  6
CONTINUOUS
 10
3.907200
 20
8.281240
  0
SEQEND
  8
0
  0
POLYLINE
  8
0
 62
     0
  6
CONTINUOUS
 66
     1
 40
0.002200
 41
0.002200
  0
VERTEX
  8
0
 62
     0
  6
CONTINUOUS
 10
3.907200
 20
8.281240
  0
VERTEX
  8
0
 62
     0
  6
CONTINUOUS
 10
3.906760
 20
8.281240
  0
VERTEX
  8
0
 62
     0
  6
CONTINUOUS
 10
3.905440
 20
8.281240
  0
VERTEX
  8
0
 62
     0
  6
CONTINUOUS
 10
3.904120
 20
8.281240
  0
VERTEX
  8
0
 62
     0
  6
CONTINUOUS
 10
3.902360
 20
8.281240
  0
VERTEX
  8
0
 62
     0
  6
CONTINUOUS
 10
3.900600
 20
8.281240
  0
VERTEX
  8
0
 62
     0
  6
CONTINUOUS
 10
3.899280
 20
8.281240
  0
VERTEX
  8
0
 62
     0
  6
CONTINUOUS
 10
3.897960
 20
8.281240
  0
SEQEND
  8
0
  0
POLYLINE
  8
0
 62
     0
  6
CONTINUOUS
 66
     1
 40
0.002200
 41
0.002200
  0
VERTEX
  8
0
 62
     0
  6
CONTINUOUS
 10
3.897960
 20
7.747960
  0
VERTEX
  8
0
 62
     0
  6
CONTINUOUS
 10
3.898840
 20
7.751920
  0
VERTEX
  8
0
 62
     0
  6
CONTINUOUS
 10
3.901920
 20
7.762920
  0
VERTEX
  8
0
 62
     0
  6
CONTINUOUS
 10
3.906320
 20
7.778760
  0
VERTEX
  8
0
 62
     0
  6
CONTINUOUS
 10
3.911600
 20
7.796800
  0
VERTEX
  8
0
 62
     0
  6
CONTINUOUS
 10
3.916440
 20
7.814400
  0
VERTEX
  8
0
 62
     0
  6
CONTINUOUS
 10
3.920840
 20
7.830240
  0
VERTEX
  8
0
 62
     0
  6
CONTINUOUS
 10
3.923920
 20
7.841240
  0
VERTEX
  8
0
 62
     0
  6
CONTINUOUS
 10
3.925240
 20
7.845640
  0
SEQEND
  8
0
  0
POLYLINE
  8
0
 62
     0
  6
CONTINUOUS
 66
     1
 40
0.002200
 41
0.002200
  0
VERTEX
  8
0
 62
     0
  6
CONTINUOUS
 10
3.925240
 20
7.845640
  0
VERTEX
  8
0
 62
     0
  6
CONTINUOUS
 10
3.926560
 20
7.845640
  0
VERTEX
  8
0
 62
     0
  6
CONTINUOUS
 10
3.927880
 20
7.845640
  0
VERTEX
  8
0
 62
     0
  6
CONTINUOUS
 10
3.929640
 20
7.845640
  0
VERTEX
  8
0
 62
     0
  6
CONTINUOUS
 10
3.931400
 20
7.845640
  0
VERTEX
  8
0
 62
     0
  6
CONTINUOUS
 10
3.932720
 20
7.845640
  0
VERTEX
  8
0
 62
     0
  6
CONTINUOUS
 10
3.934040
 20
7.845640
  0
VERTEX
  8
0
 62
     0
  6
CONTINUOUS
 10
3.934480
 20
7.845640
  0
SEQEND
  8
0
  0
POLYLINE
  8
0
 62
     0
  6
CONTINUOUS
 66
     1
 40
0.002200
 41
0.002200
  0
VERTEX
  8
0
 62
     0
  6
CONTINUOUS
 10
3.934480
 20
7.845640
  0
VERTEX
  8
0
 62
     0
  6
CONTINUOUS
 10
3.933160
 20
7.841240
  0
VERTEX
  8
0
 62
     0
  6
CONTINUOUS
 10
3.930080
 20
7.830240
  0
VERTEX
  8
0
 62
     0
  6
CONTINUOUS
 10
3.925680
 20
7.814400
  0
VERTEX
  8
0
 62
     0
  6
CONTINUOUS
 10
3.920840
 20
7.796800
  0
VERTEX
  8
0
 62
     0
  6
CONTINUOUS
 10
3.915560
 20
7.778760
  0
VERTEX
  8
0
 62
     0
  6
CONTINUOUS
 10
3.911160
 20
7.762920
  0
VERTEX
  8
0
 62
     0
  6
CONTINUOUS
 10
3.908080
 20
7.751920
  0
VERTEX
  8
0
 62
     0
  6
CONTINUOUS
 10
3.907200
 20
7.747960
  0
SEQEND
  8
0
  0
POLYLINE
  8
0
 62
     0
  6
CONTINUOUS
 66
     1
 40
0.002200
 41
0.002200
  0
VERTEX
  8
0
 62
     0
  6
CONTINUOUS
 10
3.907200
 20
7.747960
  0
VERTEX
  8
0
 62
     0
  6
CONTINUOUS
 10
3.906760
 20
7.747960
  0
VERTEX
  8
0
 62
     0
  6
CONTINUOUS
 10
3.905440
 20
7.747960
  0
VERTEX
  8
0
 62
     0
  6
CONTINUOUS
 10
3.904120
 20
7.747960
  0
VERTEX
  8
0
 62
     0
  6
CONTINUOUS
 10
3.902360
 20
7.747960
  0
VERTEX
  8
0
 62
     0
  6
CONTINUOUS
 10
3.900600
 20
7.747960
  0
VERTEX
  8
0
 62
     0
  6
CONTINUOUS
 10
3.899280
 20
7.747960
  0
VERTEX
  8
0
 62
     0
  6
CONTINUOUS
 10
3.897960
 20
7.747960
  0
SEQEND
  8
0
  0
SOLID
  8
0
 62
     7
 10
3.206280
 20
8.065640
 11
3.281080
 21
8.065640
 12
3.206280
 22
8.044080
 13
3.281080
 23
8.044080
  0
POLYLINE
  8
0
 62
     0
  6
CONTINUOUS
 66
     1
 40
0.000000
 41
0.000000
  0
VERTEX
  8
0
 62
     0
  6
CONTINUOUS
 10
3.206280
 20
8.065640
  0
VERTEX
  8
0
 62
     0
  6
CONTINUOUS
 10
3.281080
 20
8.065640
  0
VERTEX
  8
0
 62
     0
  6
CONTINUOUS
 10
3.281080
 20
8.044080
  0
VERTEX
  8
0
 62
     0
  6
CONTINUOUS
 10
3.206280
 20
8.044080
  0
VERTEX
  8
0
 62
     0
  6
CONTINUOUS
 10
3.206280
 20
8.065640
  0
SEQEND
  8
0
  0
POLYLINE
  8
0
 62
     0
  6
CONTINUOUS
 66
     1
 40
0.000000
 41
0.000000
  0
VERTEX
  8
0
 62
     0
  6
CONTINUOUS
 10
3.206280
 20
8.065640
  0
VERTEX
  8
0
 62
     0
  6
CONTINUOUS
 10
2.989800
 20
8.065640
  0
VERTEX
  8
0
 62
     0
  6
CONTINUOUS
 10
2.989800
 20
7.832440
  0
SEQEND
  8
0
  0
LINE
  8
0
 62
     0
  6
CONTINUOUS
 10
1.663640
 20
8.762160
 11
1.285240
 21
8.900320
  0
LINE
  8
0
 62
     0
  6
CONTINUOUS
 10
1.354320
 20
8.961920
 11
1.362240
 21
8.962800
  0
LINE
  8
0
 62
     0
  6
CONTINUOUS
 10
1.362240
 20
8.962800
 11
1.369720
 21
8.961480
  0
LINE
  8
0
 62
     0
  6
CONTINUOUS
 10
1.354320
 20
8.961920
 11
1.347720
 21
8.962800
  0
LINE
  8
0
 62
     0
  6
CONTINUOUS
 10
1.347720
 20
8.962800
 11
1.340240
 21
8.956200
  0
LINE
  8
0
 62
     0
  6
CONTINUOUS
 10
1.340240
 20
8.956200
 11
1.335400
 21
8.951360
  0
LINE
  8
0
 62
     0
  6
CONTINUOUS
 10
1.335400
 20
8.951360
 11
1.331880
 21
8.944760
  0
LINE
  8
0
 62
     0
  6
CONTINUOUS
 10
1.331880
 20
8.944760
 11
1.330560
 21
8.937280
  0
LINE
  8
0
 62
     0
  6
CONTINUOUS
 10
1.330560
 20
8.937280
 11
1.330120
 21
8.929360
  0
LINE
  8
0
 62
     0
  6
CONTINUOUS
 10
1.330120
 20
8.929360
 11
1.332320
 21
8.920560
  0
LINE
  8
0
 62
     0
  6
CONTINUOUS
 10
1.332320
 20
8.920560
 11
1.337160
 21
8.916160
  0
LINE
  8
0
 62
     0
  6
CONTINUOUS
 10
1.337160
 20
8.916160
 11
1.343320
 21
8.910880
  0
LINE
  8
0
 62
     0
  6
CONTINUOUS
 10
1.343320
 20
8.910880
 11
1.349920
 21
8.906040
  0
LINE
  8
0
 62
     0
  6
CONTINUOUS
 10
1.349920
 20
8.906040
 11
1.357400
 21
8.906040
  0
LINE
  8
0
 62
     0
  6
CONTINUOUS
 10
1.357400
 20
8.906040
 11
1.364440
 21
8.906040
  0
LINE
  8
0
 62
     0
  6
CONTINUOUS
 10
1.364440
 20
8.906040
 11
1.372360
 21
8.906040
  0
LINE
  8
0
 62
     0
  6
CONTINUOUS
 10
1.372360
 20
8.906040
 11
1.379400
 21
8.911320
  0
LINE
  8
0
 62
     0
  6
CONTINUOUS
 10
1.379400
 20
8.911320
 11
1.384680
 21
8.917480
  0
LINE
  8
0
 62
     0
  6
CONTINUOUS
 10
1.384680
 20
8.917480
 11
1.386880
 21
8.924520
  0
LINE
  8
0
 62
     0
  6
CONTINUOUS
 10
1.386880
 20
8.924520
 11
1.389520
 21
8.931560
  0
LINE
  8
0
 62
     0
  6
CONTINUOUS
 10
1.389520
 20
8.931560
 11
1.389520
 21
8.938160
  0
LINE
  8
0
 62
     0
  6
CONTINUOUS
 10
1.389520
 20
8.938160
 11
1.387760
 21
8.948280
  0
LINE
  8
0
 62
     0
  6
CONTINUOUS
 10
1.387760
 20
8.948280
 11
1.381160
 21
8.951800
  0
LINE
  8
0
 62
     0
  6
CONTINUOUS
 10
1.381160
 20
8.951800
 11
1.376320
 21
8.957520
  0
LINE
  8
0
 62
     0
  6
CONTINUOUS
 10
1.376320
 20
8.957520
 11
1.369720
 21
8.961480
  0
LINE
  8
0
 62
     0
  6
CONTINUOUS
 10
1.418560
 20
8.952680
 11
1.422520
 21
8.948720
  0
LINE
  8
0
 62
     0
  6
CONTINUOUS
 10
1.422520
 20
8.948720
 11
1.427800
 21
8.941240
  0
LINE
  8
0
 62
     0
  6
CONTINUOUS
 10
1.427800
 20
8.941240
 11
1.434400
 21
8.937720
  0
LINE
  8
0
 62
     0
  6
CONTINUOUS
 10
1.434400
 20
8.937720
 11
1.441880
 21
8.936400
  0
LINE
  8
0
 62
     0
  6
CONTINUOUS
 10
1.441880
 20
8.936400
 11
1.450680
 21
8.938600
  0
LINE
  8
0
 62
     0
  6
CONTINUOUS
 10
1.450680
 20
8.938600
 11
1.457720
 21
8.938600
  0
LINE
  8
0
 62
     0
  6
CONTINUOUS
 10
1.457720
 20
8.938600
 11
1.463440
 21
8.943000
  0
LINE
  8
0
 62
     0
  6
CONTINUOUS
 10
1.463440
 20
8.943000
 11
1.469600
 21
8.950040
  0
LINE
  8
0
 62
     0
  6
CONTINUOUS
 10
1.469600
 20
8.950040
 11
1.473120
 21
8.955760
  0
LINE
  8
0
 62
     0
  6
CONTINUOUS
 10
1.473120
 20
8.955760
 11
1.474880
 21
8.964120
  0
LINE
  8
0
 62
     0
  6
CONTINUOUS
 10
1.474880
 20
8.964120
 11
1.473560
 21
8.971600
  0
LINE
  8
0
 62
     0
  6
CONTINUOUS
 10
1.473560
 20
8.971600
 11
1.472680
 21
8.979960
  0
LINE
  8
0
 62
     0
  6
CONTINUOUS
 10
1.472680
 20
8.979960
 11
1.466960
 21
8.983040
  0
LINE
  8
0
 62
     0
  6
CONTINUOUS
 10
1.466960
 20
8.983040
 11
1.461680
 21
8.990520
  0
LINE
  8
0
 62
     0
  6
CONTINUOUS
 10
1.461680
 20
8.990520
 11
1.455080
 21
8.994040
  0
LINE
  8
0
 62
     0
  6
CONTINUOUS
 10
1.455080
 20
8.994040
 11
1.447600
 21
8.995360
  0
LINE
  8
0
 62
     0
  6
CONTINUOUS
 10
1.447600
 20
8.995360
 11
1.438800
 21
8.993600
  0
LINE
  8
0
 62
     0
  6
CONTINUOUS
 10
1.438800
 20
8.993600
 11
1.433960
 21
8.994040
  0
LINE
  8
0
 62
     0
  6
CONTINUOUS
 10
1.433960
 20
8.994040
 11
1.426480
 21
8.988760
  0
LINE
  8
0
 62
     0
  6
CONTINUOUS
 10
1.426480
 20
8.988760
 11
1.420760
 21
8.983920
  0
LINE
  8
0
 62
     0
  6
CONTINUOUS
 10
1.420760
 20
8.983920
 11
1.416800
 21
8.976000
  0
LINE
  8
0
 62
     0
  6
CONTINUOUS
 10
1.416800
 20
8.976000
 11
1.415920
 21
8.969840
  0
LINE
  8
0
 62
     0
  6
CONTINUOUS
 10
1.415920
 20
8.969840
 11
1.416360
 21
8.960600
  0
LINE
  8
0
 62
     0
  6
CONTINUOUS
 10
1.416360
 20
8.960600
 11
1.418560
 21
8.952680
  0
LINE
  8
0
 62
     0
  6
CONTINUOUS
 10
1.335400
 20
8.983480
 11
1.342000
 21
8.987440
  0
LINE
  8
0
 62
     0
  6
CONTINUOUS
 10
1.342000
 20
8.987440
 11
1.348600
 21
8.994480
  0
LINE
  8
0
 62
     0
  6
CONTINUOUS
 10
1.348600
 20
8.994480
 11
1.350800
 21
9.000200
  0
LINE
  8
0
 62
     0
  6
CONTINUOUS
 10
1.350800
 20
9.000200
 11
1.353880
 21
9.008560
  0
LINE
  8
0
 62
     0
  6
CONTINUOUS
 10
1.353880
 20
9.008560
 11
1.352560
 21
9.015600
  0
LINE
  8
0
 62
     0
  6
CONTINUOUS
 10
1.352560
 20
9.015600
 11
1.350360
 21
9.024400
  0
LINE
  8
0
 62
     0
  6
CONTINUOUS
 10
1.350360
 20
9.024400
 11
1.345080
 21
9.027920
  0
LINE
  8
0
 62
     0
  6
CONTINUOUS
 10
1.345080
 20
9.027920
 11
1.340680
 21
9.034520
  0
LINE
  8
0
 62
     0
  6
CONTINUOUS
 10
1.340680
 20
9.034520
 11
1.334080
 21
9.038480
  0
LINE
  8
0
 62
     0
  6
CONTINUOUS
 10
1.334080
 20
9.038480
 11
1.326600
 21
9.039800
  0
LINE
  8
0
 62
     0
  6
CONTINUOUS
 10
1.326600
 20
9.039800
 11
1.317800
 21
9.037600
  0
LINE
  8
0
 62
     0
  6
CONTINUOUS
 10
1.317800
 20
9.037600
 11
1.311640
 21
9.038480
  0
LINE
  8
0
 62
     0
  6
CONTINUOUS
 10
1.311640
 20
9.038480
 11
1.304160
 21
9.033200
  0
LINE
  8
0
 62
     0
  6
CONTINUOUS
 10
1.304160
 20
9.033200
 11
1.299760
 21
9.028360
  0
LINE
  8
0
 62
     0
  6
CONTINUOUS
 10
1.299760
 20
9.028360
 11
1.295800
 21
9.020440
  0
LINE
  8
0
 62
     0
  6
CONTINUOUS
 10
1.295800
 20
9.020440
 11
1.294480
 21
9.014280
  0
LINE
  8
0
 62
     0
  6
CONTINUOUS
 10
1.294480
 20
9.014280
 11
1.294040
 21
9.005040
  0
LINE
  8
0
 62
     0
  6
CONTINUOUS
 10
1.294040
 20
9.005040
 11
1.296680
 21
8.997560
  0
LINE
  8
0
 62
     0
  6
CONTINUOUS
 10
1.296680
 20
8.997560
 11
1.301520
 21
8.993160
  0
LINE
  8
0
 62
     0
  6
CONTINUOUS
 10
1.301520
 20
8.993160
 11
1.306800
 21
8.985680
  0
LINE
  8
0
 62
     0
  6
CONTINUOUS
 10
1.306800
 20
8.985680
 11
1.313400
 21
8.982160
  0
LINE
  8
0
 62
     0
  6
CONTINUOUS
 10
1.313400
 20
8.982160
 11
1.320880
 21
8.980400
  0
LINE
  8
0
 62
     0
  6
CONTINUOUS
 10
1.320880
 20
8.980400
 11
1.328800
 21
8.983040
  0
LINE
  8
0
 62
     0
  6
CONTINUOUS
 10
1.328800
 20
8.983040
 11
1.335400
 21
8.983480
  0
LINE
  8
0
 62
     0
  6
CONTINUOUS
 10
1.338480
 20
9.046400
 11
1.716880
 21
8.907800
  0
LINE
  8
0
 62
     0
  6
CONTINUOUS
 10
1.655720
 20
8.850160
 11
1.650440
 21
8.853240
  0
LINE
  8
0
 62
     0
  6
CONTINUOUS
 10
1.650440
 20
8.853240
 11
1.644280
 21
8.859400
  0
LINE
  8
0
 62
     0
  6
CONTINUOUS
 10
1.644280
 20
8.859400
 11
1.637680
 21
8.863360
  0
LINE
  8
0
 62
     0
  6
CONTINUOUS
 10
1.637680
 20
8.863360
 11
1.630200
 21
8.864680
  0
LINE
  8
0
 62
     0
  6
CONTINUOUS
 10
1.630200
 20
8.864680
 11
1.621840
 21
8.863800
  0
LINE
  8
0
 62
     0
  6
CONTINUOUS
 10
1.621840
 20
8.863800
 11
1.615680
 21
8.864680
  0
LINE
  8
0
 62
     0
  6
CONTINUOUS
 10
1.615680
 20
8.864680
 11
1.609080
 21
8.857640
  0
LINE
  8
0
 62
     0
  6
CONTINUOUS
 10
1.609080
 20
8.857640
 11
1.603360
 21
8.853240
  0
LINE
  8
0
 62
     0
  6
CONTINUOUS
 10
1.603360
 20
8.853240
 11
1.601160
 21
8.846200
  0
LINE
  8
0
 62
     0
  6
CONTINUOUS
 10
1.601160
 20
8.846200
 11
1.598520
 21
8.839160
  0
LINE
  8
0
 62
     0
  6
CONTINUOUS
 10
1.598520
 20
8.839160
 11
1.599400
 21
8.830800
  0
LINE
  8
0
 62
     0
  6
CONTINUOUS
 10
1.599400
 20
8.830800
 11
1.600280
 21
8.822440
  0
LINE
  8
0
 62
     0
  6
CONTINUOUS
 10
1.600280
 20
8.822440
 11
1.605120
 21
8.818040
  0
LINE
  8
0
 62
     0
  6
CONTINUOUS
 10
1.605120
 20
8.818040
 11
1.611280
 21
8.813200
  0
LINE
  8
0
 62
     0
  6
CONTINUOUS
 10
1.611280
 20
8.813200
 11
1.617440
 21
8.807920
  0
LINE
  8
0
 62
     0
  6
CONTINUOUS
 10
1.617440
 20
8.807920
 11
1.625360
 21
8.807920
  0
LINE
  8
0
 62
     0
  6
CONTINUOUS
 10
1.625360
 20
8.807920
 11
1.633280
 21
8.807480
  0
LINE
  8
0
 62
     0
  6
CONTINUOUS
 10
1.633280
 20
8.807480
 11
1.640320
 21
8.807920
  0
LINE
  8
0
 62
     0
  6
CONTINUOUS
 10
1.640320
 20
8.807920
 11
1.647360
 21
8.813200
  0
LINE
  8
0
 62
     0
  6
CONTINUOUS
 10
1.647360
 20
8.813200
 11
1.652640
 21
8.819360
  0
LINE
  8
0
 62
     0
  6
CONTINUOUS
 10
1.652640
 20
8.819360
 11
1.654840
 21
8.826400
  0
LINE
  8
0
 62
     0
  6
CONTINUOUS
 10
1.654840
 20
8.826400
 11
1.657480
 21
8.833440
  0
LINE
  8
0
 62
     0
  6
CONTINUOUS
 10
1.657480
 20
8.833440
 11
1.657480
 21
8.840040
  0
LINE
  8
0
 62
     0
  6
CONTINUOUS
 10
1.657480
 20
8.840040
 11
1.655720
 21
8.850160
  0
LINE
  8
0
 62
     0
  6
CONTINUOUS
 10
1.586640
 20
8.891520
 11
1.593680
 21
8.895480
  0
LINE
  8
0
 62
     0
  6
CONTINUOUS
 10
1.593680
 20
8.895480
 11
1.598960
 21
8.902960
  0
LINE
  8
0
 62
     0
  6
CONTINUOUS
 10
1.598960
 20
8.902960
 11
1.602480
 21
8.908240
  0
LINE
  8
0
 62
     0
  6
CONTINUOUS
 10
1.602480
 20
8.908240
 11
1.604240
 21
8.917040
  0
LINE
  8
0
 62
     0
  6
CONTINUOUS
 10
1.604240
 20
8.917040
 11
1.603800
 21
8.923640
  0
LINE
  8
0
 62
     0
  6
CONTINUOUS
 10
1.603800
 20
8.923640
 11
1.602040
 21
8.932440
  0
LINE
  8
0
 62
     0
  6
CONTINUOUS
 10
1.602040
 20
8.932440
 11
1.596320
 21
8.935960
  0
LINE
  8
0
 62
     0
  6
CONTINUOUS
 10
1.596320
 20
8.935960
 11
1.591040
 21
8.943000
  0
LINE
  8
0
 62
     0
  6
CONTINUOUS
 10
1.591040
 20
8.943000
 11
1.584440
 21
8.946960
  0
LINE
  8
0
 62
     0
  6
CONTINUOUS
 10
1.584440
 20
8.946960
 11
1.576960
 21
8.948280
  0
LINE
  8
0
 62
     0
  6
CONTINUOUS
 10
1.576960
 20
8.948280
 11
1.568160
 21
8.946080
  0
LINE
  8
0
 62
     0
  6
CONTINUOUS
 10
1.568160
 20
8.946080
 11
1.562880
 21
8.946520
  0
LINE
  8
0
 62
     0
  6
CONTINUOUS
 10
1.562880
 20
8.946520
 11
1.555840
 21
8.941240
  0
LINE
  8
0
 62
     0
  6
CONTINUOUS
 10
1.555840
 20
8.941240
 11
1.551440
 21
8.936400
  0
LINE
  8
0
 62
     0
  6
CONTINUOUS
 10
1.551440
 20
8.936400
 11
1.546160
 21
8.928920
  0
LINE
  8
0
 62
     0
  6
CONTINUOUS
 10
1.546160
 20
8.928920
 11
1.546160
 21
8.922320
  0
LINE
  8
0
 62
     0
  6
CONTINUOUS
 10
1.546160
 20
8.922320
 11
1.545280
 21
8.913080
  0
LINE
  8
0
 62
     0
  6
CONTINUOUS
 10
1.545280
 20
8.913080
 11
1.547920
 21
8.905600
  0
LINE
  8
0
 62
     0
  6
CONTINUOUS
 10
1.547920
 20
8.905600
 11
1.551880
 21
8.901640
  0
LINE
  8
0
 62
     0
  6
CONTINUOUS
 10
1.551880
 20
8.901640
 11
1.557160
 21
8.894160
  0
LINE
  8
0
 62
     0
  6
CONTINUOUS
 10
1.557160
 20
8.894160
 11
1.563760
 21
8.890200
  0
LINE
  8
0
 62
     0
  6
CONTINUOUS
 10
1.563760
 20
8.890200
 11
1.571240
 21
8.888880
  0
LINE
  8
0
 62
     0
  6
CONTINUOUS
 10
1.571240
 20
8.888880
 11
1.580040
 21
8.891080
  0
LINE
  8
0
 62
     0
  6
CONTINUOUS
 10
1.580040
 20
8.891080
 11
1.586640
 21
8.891520
  0
LINE
  8
0
 62
     0
  6
CONTINUOUS
 10
1.526360
 20
8.897240
 11
1.521080
 21
8.900760
  0
LINE
  8
0
 62
     0
  6
CONTINUOUS
 10
1.521080
 20
8.900760
 11
1.515360
 21
8.906920
  0
LINE
  8
0
 62
     0
  6
CONTINUOUS
 10
1.515360
 20
8.906920
 11
1.508760
 21
8.910440
  0
LINE
  8
0
 62
     0
  6
CONTINUOUS
 10
1.508760
 20
8.910440
 11
1.501280
 21
8.912200
  0
LINE
  8
0
 62
     0
  6
CONTINUOUS
 10
1.501280
 20
8.912200
 11
1.492920
 21
8.910880
  0
LINE
  8
0
 62
     0
  6
CONTINUOUS
 10
1.492920
 20
8.910880
 11
1.486320
 21
8.912200
  0
LINE
  8
0
 62
     0
  6
CONTINUOUS
 10
1.486320
 20
8.912200
 11
1.479720
 21
8.905160
  0
LINE
  8
0
 62
     0
  6
CONTINUOUS
 10
1.479720
 20
8.905160
 11
1.474440
 21
8.900320
  0
LINE
  8
0
 62
     0
  6
CONTINUOUS
 10
1.474440
 20
8.900320
 11
1.471800
 21
8.893280
  0
LINE
  8
0
 62
     0
  6
CONTINUOUS
 10
1.471800
 20
8.893280
 11
1.469160
 21
8.886240
  0
LINE
  8
0
 62
     0
  6
CONTINUOUS
 10
1.469160
 20
8.886240
 11
1.470040
 21
8.877880
  0
LINE
  8
0
 62
     0
  6
CONTINUOUS
 10
1.470040
 20
8.877880
 11
1.470920
 21
8.869960
  0
LINE
  8
0
 62
     0
  6
CONTINUOUS
 10
1.470920
 20
8.869960
 11
1.476200
 21
8.865120
  0
LINE
  8
0
 62
     0
  6
CONTINUOUS
 10
1.476200
 20
8.865120
 11
1.482360
 21
8.860280
  0
LINE
  8
0
 62
     0
  6
CONTINUOUS
 10
1.482360
 20
8.860280
 11
1.488520
 21
8.855440
  0
LINE
  8
0
 62
     0
  6
CONTINUOUS
 10
1.488520
 20
8.855440
 11
1.496440
 21
8.855000
  0
LINE
  8
0
 62
     0
  6
CONTINUOUS
 10
1.496440
 20
8.855000
 11
1.504360
 21
8.855000
  0
LINE
  8
0
 62
     0
  6
CONTINUOUS
 10
1.504360
 20
8.855000
 11
1.510960
 21
8.855000
  0
LINE
  8
0
 62
     0
  6
CONTINUOUS
 10
1.510960
 20
8.855000
 11
1.518000
 21
8.860280
  0
LINE
  8
0
 62
     0
  6
CONTINUOUS
 10
1.518000
 20
8.860280
 11
1.523280
 21
8.866440
  0
LINE
  8
0
 62
     0
  6
CONTINUOUS
 10
1.523280
 20
8.866440
 11
1.525920
 21
8.873480
  0
LINE
  8
0
 62
     0
  6
CONTINUOUS
 10
1.525920
 20
8.873480
 11
1.528120
 21
8.880960
  0
LINE
  8
0
 62
     0
  6
CONTINUOUS
 10
1.528120
 20
8.880960
 11
1.528120
 21
8.887560
  0
LINE
  8
0
 62
     0
  6
CONTINUOUS
 10
1.528120
 20
8.887560
 11
1.526360
 21
8.897240
  0
LINE
  8
0
 62
     0
  6
CONTINUOUS
 10
1.285240
 20
8.900320
 11
1.113640
 21
8.963240
  0
LINE
  8
0
 62
     0
  6
CONTINUOUS
 10
1.113640
 20
8.963240
 11
1.166880
 21
9.108880
  0
LINE
  8
0
 62
     0
  6
CONTINUOUS
 10
1.166880
 20
9.108880
 11
1.338480
 21
9.046400
  0
LINE
  8
0
 62
     0
  6
CONTINUOUS
 10
1.276000
 20
8.989200
 11
1.270720
 21
8.992280
  0
LINE
  8
0
 62
     0
  6
CONTINUOUS
 10
1.270720
 20
8.992280
 11
1.265000
 21
8.998440
  0
LINE
  8
0
 62
     0
  6
CONTINUOUS
 10
1.265000
 20
8.998440
 11
1.258400
 21
9.002400
  0
LINE
  8
0
 62
     0
  6
CONTINUOUS
 10
1.258400
 20
9.002400
 11
1.250920
 21
9.003720
  0
LINE
  8
0
 62
     0
  6
CONTINUOUS
 10
1.250920
 20
9.003720
 11
1.242560
 21
9.002840
  0
LINE
  8
0
 62
     0
  6
CONTINUOUS
 10
1.242560
 20
9.002840
 11
1.235960
 21
9.003720
  0
LINE
  8
0
 62
     0
  6
CONTINUOUS
 10
1.235960
 20
9.003720
 11
1.229800
 21
8.996680
  0
LINE
  8
0
 62
     0
  6
CONTINUOUS
 10
1.229800
 20
8.996680
 11
1.224080
 21
8.992280
  0
LINE
  8
0
 62
     0
  6
CONTINUOUS
 10
1.224080
 20
8.992280
 11
1.220120
 21
8.985680
  0
LINE
  8
0
 62
     0
  6
CONTINUOUS
 10
1.220120
 20
8.985680
 11
1.218800
 21
8.978200
  0
LINE
  8
0
 62
     0
  6
CONTINUOUS
 10
1.218800
 20
8.978200
 11
1.219680
 21
8.969840
  0
LINE
  8
0
 62
     0
  6
CONTINUOUS
 10
1.219680
 20
8.969840
 11
1.220560
 21
8.961480
  0
LINE
  8
0
 62
     0
  6
CONTINUOUS
 10
1.220560
 20
8.961480
 11
1.225840
 21
8.956640
  0
LINE
  8
0
 62
     0
  6
CONTINUOUS
 10
1.225840
 20
8.956640
 11
1.232000
 21
8.951800
  0
LINE
  8
0
 62
     0
  6
CONTINUOUS
 10
1.232000
 20
8.951800
 11
1.238160
 21
8.946960
  0
LINE
  8
0
 62
     0
  6
CONTINUOUS
 10
1.238160
 20
8.946960
 11
1.246080
 21
8.946960
  0
LINE
  8
0
 62
     0
  6
CONTINUOUS
 10
1.246080
 20
8.946960
 11
1.254000
 21
8.946520
  0
LINE
  8
0
 62
     0
  6
CONTINUOUS
 10
1.254000
 20
8.946520
 11
1.260600
 21
8.946520
  0
LINE
  8
0
 62
     0
  6
CONTINUOUS
 10
1.260600
 20
8.946520
 11
1.266760
 21
8.952680
  0
LINE
  8
0
 62
     0
  6
CONTINUOUS
 10
1.266760
 20
8.952680
 11
1.272920
 21
8.958400
  0
LINE
  8
0
 62
     0
  6
CONTINUOUS
 10
1.272920
 20
8.958400
 11
1.276440
 21
8.965000
  0
LINE
  8
0
 62
     0
  6
CONTINUOUS
 10
1.276440
 20
8.965000
 11
1.278200
 21
8.972480
  0
LINE
  8
0
 62
     0
  6
CONTINUOUS
 10
1.278200
 20
8.972480
 11
1.276440
 21
8.979520
  0
LINE
  8
0
 62
     0
  6
CONTINUOUS
 10
1.276440
 20
8.979520
 11
1.276000
 21
8.989200
  0
LINE
  8
0
 62
     0
  6
CONTINUOUS
 10
1.214400
 20
9.027480
 11
1.221000
 21
9.031880
  0
LINE
  8
0
 62
     0
  6
CONTINUOUS
 10
1.221000
 20
9.031880
 11
1.226720
 21
9.039360
  0
LINE
  8
0
 62
     0
  6
CONTINUOUS
 10
1.226720
 20
9.039360
 11
1.229800
 21
9.044640
  0
LINE
  8
0
 62
     0
  6
CONTINUOUS
 10
1.229800
 20
9.044640
 11
1.231560
 21
9.053440
  0
LINE
  8
0
 62
     0
  6
CONTINUOUS
 10
1.231560
 20
9.053440
 11
1.231560
 21
9.060040
  0
LINE
  8
0
 62
     0
  6
CONTINUOUS
 10
1.231560
 20
9.060040
 11
1.229360
 21
9.068840
  0
LINE
  8
0
 62
     0
  6
CONTINUOUS
 10
1.229360
 20
9.068840
 11
1.224080
 21
9.071920
  0
LINE
  8
0
 62
     0
  6
CONTINUOUS
 10
1.224080
 20
9.071920
 11
1.219680
 21
9.078960
  0
LINE
  8
0
 62
     0
  6
CONTINUOUS
 10
1.219680
 20
9.078960
 11
1.211760
 21
9.082920
  0
LINE
  8
0
 62
     0
  6
CONTINUOUS
 10
1.211760
 20
9.082920
 11
1.204280
 21
9.084680
  0
LINE
  8
0
 62
     0
  6
CONTINUOUS
 10
1.204280
 20
9.084680
 11
1.196800
 21
9.082040
  0
LINE
  8
0
 62
     0
  6
CONTINUOUS
 10
1.196800
 20
9.082040
 11
1.189320
 21
9.083360
  0
LINE
  8
0
 62
     0
  6
CONTINUOUS
 10
1.189320
 20
9.083360
 11
1.182280
 21
9.078080
  0
LINE
  8
0
 62
     0
  6
CONTINUOUS
 10
1.182280
 20
9.078080
 11
1.177440
 21
9.073240
  0
LINE
  8
0
 62
     0
  6
CONTINUOUS
 10
1.177440
 20
9.073240
 11
1.174800
 21
9.064880
  0
LINE
  8
0
 62
     0
  6
CONTINUOUS
 10
1.174800
 20
9.064880
 11
1.172600
 21
9.059160
  0
LINE
  8
0
 62
     0
  6
CONTINUOUS
 10
1.172600
 20
9.059160
 11
1.171720
 21
9.049920
  0
LINE
  8
0
 62
     0
  6
CONTINUOUS
 10
1.171720
 20
9.049920
 11
1.174360
 21
9.042440
  0
LINE
  8
0
 62
     0
  6
CONTINUOUS
 10
1.174360
 20
9.042440
 11
1.180520
 21
9.037160
  0
LINE
  8
0
 62
     0
  6
CONTINUOUS
 10
1.180520
 20
9.037160
 11
1.184480
 21
9.030560
  0
LINE
  8
0
 62
     0
  6
CONTINUOUS
 10
1.184480
 20
9.030560
 11
1.191080
 21
9.026600
  0
LINE
  8
0
 62
     0
  6
CONTINUOUS
 10
1.191080
 20
9.026600
 11
1.199880
 21
9.024840
  0
LINE
  8
0
 62
     0
  6
CONTINUOUS
 10
1.199880
 20
9.024840
 11
1.207360
 21
9.027480
  0
LINE
  8
0
 62
     0
  6
CONTINUOUS
 10
1.207360
 20
9.027480
 11
1.214400
 21
9.027480
  0
LINE
  8
0
 62
     0
  6
CONTINUOUS
 10
1.708080
 20
8.884040
 11
1.706320
 21
8.879640
  0
LINE
  8
0
 62
     0
  6
CONTINUOUS
 10
1.706320
 20
8.879640
 11
1.711600
 21
8.893720
  0
LINE
  8
0
 62
     0
  6
CONTINUOUS
 10
2.185920
 20
8.575600
 11
1.807520
 21
8.714200
  0
LINE
  8
0
 62
     0
  6
CONTINUOUS
 10
1.876600
 20
8.775360
 11
1.884960
 21
8.776680
  0
LINE
  8
0
 62
     0
  6
CONTINUOUS
 10
1.884960
 20
8.776680
 11
1.892440
 21
8.774920
  0
LINE
  8
0
 62
     0
  6
CONTINUOUS
 10
1.876600
 20
8.775360
 11
1.870440
 21
8.776680
  0
LINE
  8
0
 62
     0
  6
CONTINUOUS
 10
1.870440
 20
8.776680
 11
1.862960
 21
8.770080
  0
LINE
  8
0
 62
     0
  6
CONTINUOUS
 10
1.862960
 20
8.770080
 11
1.858120
 21
8.764800
  0
LINE
  8
0
 62
     0
  6
CONTINUOUS
 10
1.858120
 20
8.764800
 11
1.854600
 21
8.758200
  0
LINE
  8
0
 62
     0
  6
CONTINUOUS
 10
1.854600
 20
8.758200
 11
1.853280
 21
8.750720
  0
LINE
  8
0
 62
     0
  6
CONTINUOUS
 10
1.853280
 20
8.750720
 11
1.852840
 21
8.742800
  0
LINE
  8
0
 62
     0
  6
CONTINUOUS
 10
1.852840
 20
8.742800
 11
1.855040
 21
8.734000
  0
LINE
  8
0
 62
     0
  6
CONTINUOUS
 10
1.855040
 20
8.734000
 11
1.859880
 21
8.729600
  0
LINE
  8
0
 62
     0
  6
CONTINUOUS
 10
1.859880
 20
8.729600
 11
1.866040
 21
8.724760
  0
LINE
  8
0
 62
     0
  6
CONTINUOUS
 10
1.866040
 20
8.724760
 11
1.872640
 21
8.719920
  0
LINE
  8
0
 62
     0
  6
CONTINUOUS
 10
1.872640
 20
8.719920
 11
1.880120
 21
8.719480
  0
LINE
  8
0
 62
     0
  6
CONTINUOUS
 10
1.880120
 20
8.719480
 11
1.887160
 21
8.719920
  0
LINE
  8
0
 62
     0
  6
CONTINUOUS
 10
1.887160
 20
8.719920
 11
1.895080
 21
8.719480
  0
LINE
  8
0
 62
     0
  6
CONTINUOUS
 10
1.895080
 20
8.719480
 11
1.902120
 21
8.724760
  0
LINE
  8
0
 62
     0
  6
CONTINUOUS
 10
1.902120
 20
8.724760
 11
1.907400
 21
8.730920
  0
LINE
  8
0
 62
     0
  6
CONTINUOUS
 10
1.907400
 20
8.730920
 11
1.909600
 21
8.737960
  0
LINE
  8
0
 62
     0
  6
CONTINUOUS
 10
1.909600
 20
8.737960
 11
1.912240
 21
8.745000
  0
LINE
  8
0
 62
     0
  6
CONTINUOUS
 10
1.912240
 20
8.745000
 11
1.912240
 21
8.752040
  0
LINE
  8
0
 62
     0
  6
CONTINUOUS
 10
1.912240
 20
8.752040
 11
1.910480
 21
8.761720
  0
LINE
  8
0
 62
     0
  6
CONTINUOUS
 10
1.910480
 20
8.761720
 11
1.903880
 21
8.765680
  0
LINE
  8
0
 62
     0
  6
CONTINUOUS
 10
1.903880
 20
8.765680
 11
1.899040
 21
8.771400
  0
LINE
  8
0
 62
     0
  6
CONTINUOUS
 10
1.899040
 20
8.771400
 11
1.892440
 21
8.774920
  0
LINE
  8
0
 62
     0
  6
CONTINUOUS
 10
1.941280
 20
8.766560
 11
1.945240
 21
8.762600
  0
LINE
  8
0
 62
     0
  6
CONTINUOUS
 10
1.945240
 20
8.762600
 11
1.950520
 21
8.755120
  0
LINE
  8
0
 62
     0
  6
CONTINUOUS
 10
1.950520
 20
8.755120
 11
1.957120
 21
8.751600
  0
LINE
  8
0
 62
     0
  6
CONTINUOUS
 10
1.957120
 20
8.751600
 11
1.964600
 21
8.749840
  0
LINE
  8
0
 62
     0
  6
CONTINUOUS
 10
1.964600
 20
8.749840
 11
1.973400
 21
8.752040
  0
LINE
  8
0
 62
     0
  6
CONTINUOUS
 10
1.973400
 20
8.752040
 11
1.980440
 21
8.752480
  0
LINE
  8
0
 62
     0
  6
CONTINUOUS
 10
1.980440
 20
8.752480
 11
1.985720
 21
8.756880
  0
LINE
  8
0
 62
     0
  6
CONTINUOUS
 10
1.985720
 20
8.756880
 11
1.992320
 21
8.763920
  0
LINE
  8
0
 62
     0
  6
CONTINUOUS
 10
1.992320
 20
8.763920
 11
1.995840
 21
8.769200
  0
LINE
  8
0
 62
     0
  6
CONTINUOUS
 10
1.995840
 20
8.769200
 11
1.997600
 21
8.778000
  0
LINE
  8
0
 62
     0
  6
CONTINUOUS
 10
1.997600
 20
8.778000
 11
1.996280
 21
8.785040
  0
LINE
  8
0
 62
     0
  6
CONTINUOUS
 10
1.996280
 20
8.785040
 11
1.995400
 21
8.793400
  0
LINE
  8
0
 62
     0
  6
CONTINUOUS
 10
1.995400
 20
8.793400
 11
1.989680
 21
8.796920
  0
LINE
  8
0
 62
     0
  6
CONTINUOUS
 10
1.989680
 20
8.796920
 11
1.984400
 21
8.803960
  0
LINE
  8
0
 62
     0
  6
CONTINUOUS
 10
1.984400
 20
8.803960
 11
1.977800
 21
8.807920
  0
LINE
  8
0
 62
     0
  6
CONTINUOUS
 10
1.977800
 20
8.807920
 11
1.970320
 21
8.809240
  0
LINE
  8
0
 62
     0
  6
CONTINUOUS
 10
1.970320
 20
8.809240
 11
1.961520
 21
8.807040
  0
LINE
  8
0
 62
     0
  6
CONTINUOUS
 10
1.961520
 20
8.807040
 11
1.956680
 21
8.807480
  0
LINE
  8
0
 62
     0
  6
CONTINUOUS
 10
1.956680
 20
8.807480
 11
1.949200
 21
8.802200
  0
LINE
  8
0
 62
     0
  6
CONTINUOUS
 10
1.949200
 20
8.802200
 11
1.943480
 21
8.797800
  0
LINE
  8
0
 62
     0
  6
CONTINUOUS
 10
1.943480
 20
8.797800
 11
1.939520
 21
8.789880
  0
LINE
  8
0
 62
     0
  6
CONTINUOUS
 10
1.939520
 20
8.789880
 11
1.938200
 21
8.783720
  0
LINE
  8
0
 62
     0
  6
CONTINUOUS
 10
1.938200
 20
8.783720
 11
1.939080
 21
8.774040
  0
LINE
  8
0
 62
     0
  6
CONTINUOUS
 10
1.939080
 20
8.774040
 11
1.941280
 21
8.766560
  0
LINE
  8
0
 62
     0
  6
CONTINUOUS
 10
1.858120
 20
8.796920
 11
1.864720
 21
8.801320
  0
LINE
  8
0
 62
     0
  6
CONTINUOUS
 10
1.864720
 20
8.801320
 11
1.871320
 21
8.808360
  0
LINE
  8
0
 62
     0
  6
CONTINUOUS
 10
1.871320
 20
8.808360
 11
1.873520
 21
8.814080
  0
LINE
  8
0
 62
     0
  6
CONTINUOUS
 10
1.873520
 20
8.814080
 11
1.876600
 21
8.822440
  0
LINE
  8
0
 62
     0
  6
CONTINUOUS
 10
1.876600
 20
8.822440
 11
1.875280
 21
8.829480
  0
LINE
  8
0
 62
     0
  6
CONTINUOUS
 10
1.875280
 20
8.829480
 11
1.873080
 21
8.838280
  0
LINE
  8
0
 62
     0
  6
CONTINUOUS
 10
1.873080
 20
8.838280
 11
1.867800
 21
8.841360
  0
LINE
  8
0
 62
     0
  6
CONTINUOUS
 10
1.867800
 20
8.841360
 11
1.863400
 21
8.848400
  0
LINE
  8
0
 62
     0
  6
CONTINUOUS
 10
1.863400
 20
8.848400
 11
1.856800
 21
8.851920
  0
LINE
  8
0
 62
     0
  6
CONTINUOUS
 10
1.856800
 20
8.851920
 11
1.849320
 21
8.853680
  0
LINE
  8
0
 62
     0
  6
CONTINUOUS
 10
1.849320
 20
8.853680
 11
1.840520
 21
8.851480
  0
LINE
  8
0
 62
     0
  6
CONTINUOUS
 10
1.840520
 20
8.851480
 11
1.834360
 21
8.852360
  0
LINE
  8
0
 62
     0
  6
CONTINUOUS
 10
1.834360
 20
8.852360
 11
1.826880
 21
8.847080
  0
LINE
  8
0
 62
     0
  6
CONTINUOUS
 10
1.826880
 20
8.847080
 11
1.822480
 21
8.842240
  0
LINE
  8
0
 62
     0
  6
CONTINUOUS
 10
1.822480
 20
8.842240
 11
1.818520
 21
8.834320
  0
LINE
  8
0
 62
     0
  6
CONTINUOUS
 10
1.818520
 20
8.834320
 11
1.817200
 21
8.827720
  0
LINE
  8
0
 62
     0
  6
CONTINUOUS
 10
1.817200
 20
8.827720
 11
1.816760
 21
8.818920
  0
LINE
  8
0
 62
     0
  6
CONTINUOUS
 10
1.816760
 20
8.818920
 11
1.819400
 21
8.811440
  0
LINE
  8
0
 62
     0
  6
CONTINUOUS
 10
1.819400
 20
8.811440
 11
1.824240
 21
8.806600
  0
LINE
  8
0
 62
     0
  6
CONTINUOUS
 10
1.824240
 20
8.806600
 11
1.829520
 21
8.799560
  0
LINE
  8
0
 62
     0
  6
CONTINUOUS
 10
1.829520
 20
8.799560
 11
1.836120
 21
8.795600
  0
LINE
  8
0
 62
     0
  6
CONTINUOUS
 10
1.836120
 20
8.795600
 11
1.843600
 21
8.794280
  0
LINE
  8
0
 62
     0
  6
CONTINUOUS
 10
1.843600
 20
8.794280
 11
1.851520
 21
8.796920
  0
LINE
  8
0
 62
     0
  6
CONTINUOUS
 10
1.851520
 20
8.796920
 11
1.858120
 21
8.796920
  0
LINE
  8
0
 62
     0
  6
CONTINUOUS
 10
1.861200
 20
8.859840
 11
2.239600
 21
8.721240
  0
LINE
  8
0
 62
     0
  6
CONTINUOUS
 10
2.178440
 20
8.664040
 11
2.173160
 21
8.667120
  0
LINE
  8
0
 62
     0
  6
CONTINUOUS
 10
2.173160
 20
8.667120
 11
2.167000
 21
8.673280
  0
LINE
  8
0
 62
     0
  6
CONTINUOUS
 10
2.167000
 20
8.673280
 11
2.160400
 21
8.676800
  0
LINE
  8
0
 62
     0
  6
CONTINUOUS
 10
2.160400
 20
8.676800
 11
2.152920
 21
8.678560
  0
LINE
  8
0
 62
     0
  6
CONTINUOUS
 10
2.152920
 20
8.678560
 11
2.144560
 21
8.677680
  0
LINE
  8
0
 62
     0
  6
CONTINUOUS
 10
2.144560
 20
8.677680
 11
2.138400
 21
8.678560
  0
LINE
  8
0
 62
     0
  6
CONTINUOUS
 10
2.138400
 20
8.678560
 11
2.131800
 21
8.671520
  0
LINE
  8
0
 62
     0
  6
CONTINUOUS
 10
2.131800
 20
8.671520
 11
2.126080
 21
8.667120
  0
LINE
  8
0
 62
     0
  6
CONTINUOUS
 10
2.126080
 20
8.667120
 11
2.123440
 21
8.660080
  0
LINE
  8
0
 62
     0
  6
CONTINUOUS
 10
2.123440
 20
8.660080
 11
2.121240
 21
8.653040
  0
LINE
  8
0
 62
     0
  6
CONTINUOUS
 10
2.121240
 20
8.653040
 11
2.122120
 21
8.644680
  0
LINE
  8
0
 62
     0
  6
CONTINUOUS
 10
2.122120
 20
8.644680
 11
2.123000
 21
8.636320
  0
LINE
  8
0
 62
     0
  6
CONTINUOUS
 10
2.123000
 20
8.636320
 11
2.127840
 21
8.631480
  0
LINE
  8
0
 62
     0
  6
CONTINUOUS
 10
2.127840
 20
8.631480
 11
2.134000
 21
8.626640
  0
LINE
  8
0
 62
     0
  6
CONTINUOUS
 10
2.134000
 20
8.626640
 11
2.140160
 21
8.621800
  0
LINE
  8
0
 62
     0
  6
CONTINUOUS
 10
2.140160
 20
8.621800
 11
2.148080
 21
8.621360
  0
LINE
  8
0
 62
     0
  6
CONTINUOUS
 10
2.148080
 20
8.621360
 11
2.156000
 21
8.621360
  0
LINE
  8
0
 62
     0
  6
CONTINUOUS
 10
2.156000
 20
8.621360
 11
2.163040
 21
8.621360
  0
LINE
  8
0
 62
     0
  6
CONTINUOUS
 10
2.163040
 20
8.621360
 11
2.170080
 21
8.626640
  0
LINE
  8
0
 62
     0
  6
CONTINUOUS
 10
2.170080
 20
8.626640
 11
2.174920
 21
8.633240
  0
LINE
  8
0
 62
     0
  6
CONTINUOUS
 10
2.174920
 20
8.633240
 11
2.177560
 21
8.640280
  0
LINE
  8
0
 62
     0
  6
CONTINUOUS
 10
2.177560
 20
8.640280
 11
2.180200
 21
8.647320
  0
LINE
  8
0
 62
     0
  6
CONTINUOUS
 10
2.180200
 20
8.647320
 11
2.180200
 21
8.653920
  0
LINE
  8
0
 62
     0
  6
CONTINUOUS
 10
2.180200
 20
8.653920
 11
2.178440
 21
8.664040
  0
LINE
  8
0
 62
     0
  6
CONTINUOUS
 10
2.109360
 20
8.704960
 11
2.116400
 21
8.709360
  0
LINE
  8
0
 62
     0
  6
CONTINUOUS
 10
2.116400
 20
8.709360
 11
2.121680
 21
8.716400
  0
LINE
  8
0
 62
     0
  6
CONTINUOUS
 10
2.121680
 20
8.716400
 11
2.125200
 21
8.722120
  0
LINE
  8
0
 62
     0
  6
CONTINUOUS
 10
2.125200
 20
8.722120
 11
2.126960
 21
8.730480
  0
LINE
  8
0
 62
     0
  6
CONTINUOUS
 10
2.126960
 20
8.730480
 11
2.126520
 21
8.737520
  0
LINE
  8
0
 62
     0
  6
CONTINUOUS
 10
2.126520
 20
8.737520
 11
2.124760
 21
8.746320
  0
LINE
  8
0
 62
     0
  6
CONTINUOUS
 10
2.124760
 20
8.746320
 11
2.119040
 21
8.749400
  0
LINE
  8
0
 62
     0
  6
CONTINUOUS
 10
2.119040
 20
8.749400
 11
2.113760
 21
8.756880
  0
LINE
  8
0
 62
     0
  6
CONTINUOUS
 10
2.113760
 20
8.756880
 11
2.107160
 21
8.760400
  0
LINE
  8
0
 62
     0
  6
CONTINUOUS
 10
2.107160
 20
8.760400
 11
2.099680
 21
8.761720
  0
LINE
  8
0
 62
     0
  6
CONTINUOUS
 10
2.099680
 20
8.761720
 11
2.090880
 21
8.759960
  0
LINE
  8
0
 62
     0
  6
CONTINUOUS
 10
2.090880
 20
8.759960
 11
2.085600
 21
8.760400
  0
LINE
  8
0
 62
     0
  6
CONTINUOUS
 10
2.085600
 20
8.760400
 11
2.078560
 21
8.755120
  0
LINE
  8
0
 62
     0
  6
CONTINUOUS
 10
2.078560
 20
8.755120
 11
2.074160
 21
8.749840
  0
LINE
  8
0
 62
     0
  6
CONTINUOUS
 10
2.074160
 20
8.749840
 11
2.068440
 21
8.742800
  0
LINE
  8
0
 62
     0
  6
CONTINUOUS
 10
2.068440
 20
8.742800
 11
2.068880
 21
8.735760
  0
LINE
  8
0
 62
     0
  6
CONTINUOUS
 10
2.068880
 20
8.735760
 11
2.068000
 21
8.726960
  0
LINE
  8
0
 62
     0
  6
CONTINUOUS
 10
2.068000
 20
8.726960
 11
2.070640
 21
8.719040
  0
LINE
  8
0
 62
     0
  6
CONTINUOUS
 10
2.070640
 20
8.719040
 11
2.074600
 21
8.715080
  0
LINE
  8
0
 62
     0
  6
CONTINUOUS
 10
2.074600
 20
8.715080
 11
2.079880
 21
8.708040
  0
LINE
  8
0
 62
     0
  6
CONTINUOUS
 10
2.079880
 20
8.708040
 11
2.086480
 21
8.704080
  0
LINE
  8
0
 62
     0
  6
CONTINUOUS
 10
2.086480
 20
8.704080
 11
2.093960
 21
8.702760
  0
LINE
  8
0
 62
     0
  6
CONTINUOUS
 10
2.093960
 20
8.702760
 11
2.102760
 21
8.704960
  0
LINE
  8
0
 62
     0
  6
CONTINUOUS
 10
2.102760
 20
8.704960
 11
2.109360
 21
8.704960
  0
LINE
  8
0
 62
     0
  6
CONTINUOUS
 10
2.049080
 20
8.711120
 11
2.043800
 21
8.714640
  0
LINE
  8
0
 62
     0
  6
CONTINUOUS
 10
2.043800
 20
8.714640
 11
2.038080
 21
8.720360
  0
LINE
  8
0
 62
     0
  6
CONTINUOUS
 10
2.038080
 20
8.720360
 11
2.031480
 21
8.724320
  0
LINE
  8
0
 62
     0
  6
CONTINUOUS
 10
2.031480
 20
8.724320
 11
2.024000
 21
8.725640
  0
LINE
  8
0
 62
     0
  6
CONTINUOUS
 10
2.024000
 20
8.725640
 11
2.015640
 21
8.724760
  0
LINE
  8
0
 62
     0
  6
CONTINUOUS
 10
2.015640
 20
8.724760
 11
2.009040
 21
8.725640
  0
LINE
  8
0
 62
     0
  6
CONTINUOUS
 10
2.009040
 20
8.725640
 11
2.002440
 21
8.718600
  0
LINE
  8
0
 62
     0
  6
CONTINUOUS
 10
2.002440
 20
8.718600
 11
1.997160
 21
8.714200
  0
LINE
  8
0
 62
     0
  6
CONTINUOUS
 10
1.997160
 20
8.714200
 11
1.994520
 21
8.707160
  0
LINE
  8
0
 62
     0
  6
CONTINUOUS
 10
1.994520
 20
8.707160
 11
1.991880
 21
8.700120
  0
LINE
  8
0
 62
     0
  6
CONTINUOUS
 10
1.991880
 20
8.700120
 11
1.992760
 21
8.691760
  0
LINE
  8
0
 62
     0
  6
CONTINUOUS
 10
1.992760
 20
8.691760
 11
1.993640
 21
8.683400
  0
LINE
  8
0
 62
     0
  6
CONTINUOUS
 10
1.993640
 20
8.683400
 11
1.998920
 21
8.679000
  0
LINE
  8
0
 62
     0
  6
CONTINUOUS
 10
1.998920
 20
8.679000
 11
2.005080
 21
8.674160
  0
LINE
  8
0
 62
     0
  6
CONTINUOUS
 10
2.005080
 20
8.674160
 11
2.011240
 21
8.668880
  0
LINE
  8
0
 62
     0
  6
CONTINUOUS
 10
2.011240
 20
8.668880
 11
2.019160
 21
8.668880
  0
LINE
  8
0
 62
     0
  6
CONTINUOUS
 10
2.019160
 20
8.668880
 11
2.027080
 21
8.668440
  0
LINE
  8
0
 62
     0
  6
CONTINUOUS
 10
2.027080
 20
8.668440
 11
2.033680
 21
8.668880
  0
LINE
  8
0
 62
     0
  6
CONTINUOUS
 10
2.033680
 20
8.668880
 11
2.040720
 21
8.674160
  0
LINE
  8
0
 62
     0
  6
CONTINUOUS
 10
2.040720
 20
8.674160
 11
2.046000
 21
8.680320
  0
LINE
  8
0
 62
     0
  6
CONTINUOUS
 10
2.046000
 20
8.680320
 11
2.048640
 21
8.687360
  0
LINE
  8
0
 62
     0
  6
CONTINUOUS
 10
2.048640
 20
8.687360
 11
2.050840
 21
8.694400
  0
LINE
  8
0
 62
     0
  6
CONTINUOUS
 10
2.050840
 20
8.694400
 11
2.050840
 21
8.701000
  0
LINE
  8
0
 62
     0
  6
CONTINUOUS
 10
2.050840
 20
8.701000
 11
2.049080
 21
8.711120
  0
LINE
  8
0
 62
     0
  6
CONTINUOUS
 10
1.807520
 20
8.712440
 11
1.636360
 21
8.775360
  0
LINE
  8
0
 62
     0
  6
CONTINUOUS
 10
1.689600
 20
8.921000
 11
1.861200
 21
8.858520
  0
LINE
  8
0
 62
     0
  6
CONTINUOUS
 10
1.798720
 20
8.802640
 11
1.793440
 21
8.806160
  0
LINE
  8
0
 62
     0
  6
CONTINUOUS
 10
1.793440
 20
8.806160
 11
1.787720
 21
8.812320
  0
LINE
  8
0
 62
     0
  6
CONTINUOUS
 10
1.787720
 20
8.812320
 11
1.781120
 21
8.815840
  0
LINE
  8
0
 62
     0
  6
CONTINUOUS
 10
1.781120
 20
8.815840
 11
1.773640
 21
8.817160
  0
LINE
  8
0
 62
     0
  6
CONTINUOUS
 10
1.773640
 20
8.817160
 11
1.765280
 21
8.816280
  0
LINE
  8
0
 62
     0
  6
CONTINUOUS
 10
1.765280
 20
8.816280
 11
1.758680
 21
8.817160
  0
LINE
  8
0
 62
     0
  6
CONTINUOUS
 10
1.758680
 20
8.817160
 11
1.752520
 21
8.810560
  0
LINE
  8
0
 62
     0
  6
CONTINUOUS
 10
1.752520
 20
8.810560
 11
1.746800
 21
8.805720
  0
LINE
  8
0
 62
     0
  6
CONTINUOUS
 10
1.746800
 20
8.805720
 11
1.742840
 21
8.799120
  0
LINE
  8
0
 62
     0
  6
CONTINUOUS
 10
1.742840
 20
8.799120
 11
1.741520
 21
8.791640
  0
LINE
  8
0
 62
     0
  6
CONTINUOUS
 10
1.741520
 20
8.791640
 11
1.742400
 21
8.783280
  0
LINE
  8
0
 62
     0
  6
CONTINUOUS
 10
1.742400
 20
8.783280
 11
1.743280
 21
8.774920
  0
LINE
  8
0
 62
     0
  6
CONTINUOUS
 10
1.743280
 20
8.774920
 11
1.748560
 21
8.770520
  0
LINE
  8
0
 62
     0
  6
CONTINUOUS
 10
1.748560
 20
8.770520
 11
1.754720
 21
8.765680
  0
LINE
  8
0
 62
     0
  6
CONTINUOUS
 10
1.754720
 20
8.765680
 11
1.760880
 21
8.760840
  0
LINE
  8
0
 62
     0
  6
CONTINUOUS
 10
1.760880
 20
8.760840
 11
1.768800
 21
8.760400
  0
LINE
  8
0
 62
     0
  6
CONTINUOUS
 10
1.768800
 20
8.760400
 11
1.776720
 21
8.760400
  0
LINE
  8
0
 62
     0
  6
CONTINUOUS
 10
1.776720
 20
8.760400
 11
1.783320
 21
8.760400
  0
LINE
  8
0
 62
     0
  6
CONTINUOUS
 10
1.783320
 20
8.760400
 11
1.789480
 21
8.766120
  0
LINE
  8
0
 62
     0
  6
CONTINUOUS
 10
1.789480
 20
8.766120
 11
1.795640
 21
8.771840
  0
LINE
  8
0
 62
     0
  6
CONTINUOUS
 10
1.795640
 20
8.771840
 11
1.799160
 21
8.778440
  0
LINE
  8
0
 62
     0
  6
CONTINUOUS
 10
1.799160
 20
8.778440
 11
1.800920
 21
8.785920
  0
LINE
  8
0
 62
     0
  6
CONTINUOUS
 10
1.800920
 20
8.785920
 11
1.799160
 21
8.793400
  0
LINE
  8
0
 62
     0
  6
CONTINUOUS
 10
1.799160
 20
8.793400
 11
1.798720
 21
8.802640
  0
LINE
  8
0
 62
     0
  6
CONTINUOUS
 10
1.737120
 20
8.841360
 11
1.743720
 21
8.845320
  0
LINE
  8
0
 62
     0
  6
CONTINUOUS
 10
1.743720
 20
8.845320
 11
1.749000
 21
8.852800
  0
LINE
  8
0
 62
     0
  6
CONTINUOUS
 10
1.749000
 20
8.852800
 11
1.752520
 21
8.858520
  0
LINE
  8
0
 62
     0
  6
CONTINUOUS
 10
1.752520
 20
8.858520
 11
1.754280
 21
8.866880
  0
LINE
  8
0
 62
     0
  6
CONTINUOUS
 10
1.754280
 20
8.866880
 11
1.754280
 21
8.873920
  0
LINE
  8
0
 62
     0
  6
CONTINUOUS
 10
1.754280
 20
8.873920
 11
1.752080
 21
8.882280
  0
LINE
  8
0
 62
     0
  6
CONTINUOUS
 10
1.752080
 20
8.882280
 11
1.746800
 21
8.885800
  0
LINE
  8
0
 62
     0
  6
CONTINUOUS
 10
1.746800
 20
8.885800
 11
1.742400
 21
8.892840
  0
LINE
  8
0
 62
     0
  6
CONTINUOUS
 10
1.742400
 20
8.892840
 11
1.734480
 21
8.896800
  0
LINE
  8
0
 62
     0
  6
CONTINUOUS
 10
1.734480
 20
8.896800
 11
1.727000
 21
8.898120
  0
LINE
  8
0
 62
     0
  6
CONTINUOUS
 10
1.727000
 20
8.898120
 11
1.719520
 21
8.895920
  0
LINE
  8
0
 62
     0
  6
CONTINUOUS
 10
1.719520
 20
8.895920
 11
1.712040
 21
8.897240
  0
LINE
  8
0
 62
     0
  6
CONTINUOUS
 10
1.712040
 20
8.897240
 11
1.705000
 21
8.891960
  0
LINE
  8
0
 62
     0
  6
CONTINUOUS
 10
1.705000
 20
8.891960
 11
1.700160
 21
8.886680
  0
LINE
  8
0
 62
     0
  6
CONTINUOUS
 10
1.700160
 20
8.886680
 11
1.697080
 21
8.878320
  0
LINE
  8
0
 62
     0
  6
CONTINUOUS
 10
1.697080
 20
8.878320
 11
1.695320
 21
8.872600
  0
LINE
  8
0
 62
     0
  6
CONTINUOUS
 10
1.695320
 20
8.872600
 11
1.694440
 21
8.863360
  0
LINE
  8
0
 62
     0
  6
CONTINUOUS
 10
1.694440
 20
8.863360
 11
1.697080
 21
8.855880
  0
LINE
  8
0
 62
     0
  6
CONTINUOUS
 10
1.697080
 20
8.855880
 11
1.703240
 21
8.851040
  0
LINE
  8
0
 62
     0
  6
CONTINUOUS
 10
1.703240
 20
8.851040
 11
1.707200
 21
8.844000
  0
LINE
  8
0
 62
     0
  6
CONTINUOUS
 10
1.707200
 20
8.844000
 11
1.713800
 21
8.840480
  0
LINE
  8
0
 62
     0
  6
CONTINUOUS
 10
1.713800
 20
8.840480
 11
1.722600
 21
8.838720
  0
LINE
  8
0
 62
     0
  6
CONTINUOUS
 10
1.722600
 20
8.838720
 11
1.730080
 21
8.841360
  0
LINE
  8
0
 62
     0
  6
CONTINUOUS
 10
1.730080
 20
8.841360
 11
1.737120
 21
8.841360
  0
LINE
  8
0
 62
     0
  6
CONTINUOUS
 10
2.230800
 20
8.697920
 11
2.229040
 21
8.693080
  0
LINE
  8
0
 62
     0
  6
CONTINUOUS
 10
2.714360
 20
8.378040
 11
2.335960
 21
8.516640
  0
LINE
  8
0
 62
     0
  6
CONTINUOUS
 10
2.405040
 20
8.577800
 11
2.413400
 21
8.578680
  0
LINE
  8
0
 62
     0
  6
CONTINUOUS
 10
2.413400
 20
8.578680
 11
2.420880
 21
8.577360
  0
LINE
  8
0
 62
     0
  6
CONTINUOUS
 10
2.405040
 20
8.577800
 11
2.398880
 21
8.579120
  0
LINE
  8
0
 62
     0
  6
CONTINUOUS
 10
2.398880
 20
8.579120
 11
2.390960
 21
8.572520
  0
LINE
  8
0
 62
     0
  6
CONTINUOUS
 10
2.390960
 20
8.572520
 11
2.386560
 21
8.567240
  0
LINE
  8
0
 62
     0
  6
CONTINUOUS
 10
2.386560
 20
8.567240
 11
2.383040
 21
8.560640
  0
LINE
  8
0
 62
     0
  6
CONTINUOUS
 10
2.383040
 20
8.560640
 11
2.381280
 21
8.553160
  0
LINE
  8
0
 62
     0
  6
CONTINUOUS
 10
2.381280
 20
8.553160
 11
2.381280
 21
8.545240
  0
LINE
  8
0
 62
     0
  6
CONTINUOUS
 10
2.381280
 20
8.545240
 11
2.383480
 21
8.536440
  0
LINE
  8
0
 62
     0
  6
CONTINUOUS
 10
2.383480
 20
8.536440
 11
2.388320
 21
8.532040
  0
LINE
  8
0
 62
     0
  6
CONTINUOUS
 10
2.388320
 20
8.532040
 11
2.394480
 21
8.527200
  0
LINE
  8
0
 62
     0
  6
CONTINUOUS
 10
2.394480
 20
8.527200
 11
2.400640
 21
8.522360
  0
LINE
  8
0
 62
     0
  6
CONTINUOUS
 10
2.400640
 20
8.522360
 11
2.408560
 21
8.521920
  0
LINE
  8
0
 62
     0
  6
CONTINUOUS
 10
2.408560
 20
8.521920
 11
2.415600
 21
8.522360
  0
LINE
  8
0
 62
     0
  6
CONTINUOUS
 10
2.415600
 20
8.522360
 11
2.423520
 21
8.521920
  0
LINE
  8
0
 62
     0
  6
CONTINUOUS
 10
2.423520
 20
8.521920
 11
2.430560
 21
8.527200
  0
LINE
  8
0
 62
     0
  6
CONTINUOUS
 10
2.430560
 20
8.527200
 11
2.435400
 21
8.533360
  0
LINE
  8
0
 62
     0
  6
CONTINUOUS
 10
2.435400
 20
8.533360
 11
2.438040
 21
8.540400
  0
LINE
  8
0
 62
     0
  6
CONTINUOUS
 10
2.438040
 20
8.540400
 11
2.440680
 21
8.547440
  0
LINE
  8
0
 62
     0
  6
CONTINUOUS
 10
2.440680
 20
8.547440
 11
2.440680
 21
8.554480
  0
LINE
  8
0
 62
     0
  6
CONTINUOUS
 10
2.440680
 20
8.554480
 11
2.438920
 21
8.564160
  0
LINE
  8
0
 62
     0
  6
CONTINUOUS
 10
2.438920
 20
8.564160
 11
2.432320
 21
8.568120
  0
LINE
  8
0
 62
     0
  6
CONTINUOUS
 10
2.432320
 20
8.568120
 11
2.427480
 21
8.573840
  0
LINE
  8
0
 62
     0
  6
CONTINUOUS
 10
2.427480
 20
8.573840
 11
2.420880
 21
8.577360
  0
LINE
  8
0
 62
     0
  6
CONTINUOUS
 10
2.469720
 20
8.569000
 11
2.473680
 21
8.565040
  0
LINE
  8
0
 62
     0
  6
CONTINUOUS
 10
2.473680
 20
8.565040
 11
2.478960
 21
8.557560
  0
LINE
  8
0
 62
     0
  6
CONTINUOUS
 10
2.478960
 20
8.557560
 11
2.485560
 21
8.553600
  0
LINE
  8
0
 62
     0
  6
CONTINUOUS
 10
2.485560
 20
8.553600
 11
2.493040
 21
8.552280
  0
LINE
  8
0
 62
     0
  6
CONTINUOUS
 10
2.493040
 20
8.552280
 11
2.501840
 21
8.554480
  0
LINE
  8
0
 62
     0
  6
CONTINUOUS
 10
2.501840
 20
8.554480
 11
2.508440
 21
8.554920
  0
LINE
  8
0
 62
     0
  6
CONTINUOUS
 10
2.508440
 20
8.554920
 11
2.514160
 21
8.559320
  0
LINE
  8
0
 62
     0
  6
CONTINUOUS
 10
2.514160
 20
8.559320
 11
2.520760
 21
8.566360
  0
LINE
  8
0
 62
     0
  6
CONTINUOUS
 10
2.520760
 20
8.566360
 11
2.524280
 21
8.571640
  0
LINE
  8
0
 62
     0
  6
CONTINUOUS
 10
2.524280
 20
8.571640
 11
2.526040
 21
8.580440
  0
LINE
  8
0
 62
     0
  6
CONTINUOUS
 10
2.526040
 20
8.580440
 11
2.524720
 21
8.587480
  0
LINE
  8
0
 62
     0
  6
CONTINUOUS
 10
2.524720
 20
8.587480
 11
2.523840
 21
8.595840
  0
LINE
  8
0
 62
     0
  6
CONTINUOUS
 10
2.523840
 20
8.595840
 11
2.518120
 21
8.599360
  0
LINE
  8
0
 62
     0
  6
CONTINUOUS
 10
2.518120
 20
8.599360
 11
2.512840
 21
8.606400
  0
LINE
  8
0
 62
     0
  6
CONTINUOUS
 10
2.512840
 20
8.606400
 11
2.506240
 21
8.610360
  0
LINE
  8
0
 62
     0
  6
CONTINUOUS
 10
2.506240
 20
8.610360
 11
2.498760
 21
8.611680
  0
LINE
  8
0
 62
     0
  6
CONTINUOUS
 10
2.498760
 20
8.611680
 11
2.489960
 21
8.609480
  0
LINE
  8
0
 62
     0
  6
CONTINUOUS
 10
2.489960
 20
8.609480
 11
2.484680
 21
8.609920
  0
LINE
  8
0
 62
     0
  6
CONTINUOUS
 10
2.484680
 20
8.609920
 11
2.477640
 21
8.604640
  0
LINE
  8
0
 62
     0
  6
CONTINUOUS
 10
2.477640
 20
8.604640
 11
2.471920
 21
8.600240
  0
LINE
  8
0
 62
     0
  6
CONTINUOUS
 10
2.471920
 20
8.600240
 11
2.467520
 21
8.592320
  0
LINE
  8
0
 62
     0
  6
CONTINUOUS
 10
2.467520
 20
8.592320
 11
2.466640
 21
8.586160
  0
LINE
  8
0
 62
     0
  6
CONTINUOUS
 10
2.466640
 20
8.586160
 11
2.467080
 21
8.576480
  0
LINE
  8
0
 62
     0
  6
CONTINUOUS
 10
2.467080
 20
8.576480
 11
2.469720
 21
8.569000
  0
LINE
  8
0
 62
     0
  6
CONTINUOUS
 10
2.386560
 20
8.599360
 11
2.393160
 21
8.603760
  0
LINE
  8
0
 62
     0
  6
CONTINUOUS
 10
2.393160
 20
8.603760
 11
2.399760
 21
8.610360
  0
LINE
  8
0
 62
     0
  6
CONTINUOUS
 10
2.399760
 20
8.610360
 11
2.401960
 21
8.616520
  0
LINE
  8
0
 62
     0
  6
CONTINUOUS
 10
2.401960
 20
8.616520
 11
2.405040
 21
8.624440
  0
LINE
  8
0
 62
     0
  6
CONTINUOUS
 10
2.405040
 20
8.624440
 11
2.403720
 21
8.631920
  0
LINE
  8
0
 62
     0
  6
CONTINUOUS
 10
2.403720
 20
8.631920
 11
2.401520
 21
8.640720
  0
LINE
  8
0
 62
     0
  6
CONTINUOUS
 10
2.401520
 20
8.640720
 11
2.395800
 21
8.643800
  0
LINE
  8
0
 62
     0
  6
CONTINUOUS
 10
2.395800
 20
8.643800
 11
2.391840
 21
8.650840
  0
LINE
  8
0
 62
     0
  6
CONTINUOUS
 10
2.391840
 20
8.650840
 11
2.385240
 21
8.654360
  0
LINE
  8
0
 62
     0
  6
CONTINUOUS
 10
2.385240
 20
8.654360
 11
2.377760
 21
8.656120
  0
LINE
  8
0
 62
     0
  6
CONTINUOUS
 10
2.377760
 20
8.656120
 11
2.368960
 21
8.653920
  0
LINE
  8
0
 62
     0
  6
CONTINUOUS
 10
2.368960
 20
8.653920
 11
2.362800
 21
8.654800
  0
LINE
  8
0
 62
     0
  6
CONTINUOUS
 10
2.362800
 20
8.654800
 11
2.355320
 21
8.649520
  0
LINE
  8
0
 62
     0
  6
CONTINUOUS
 10
2.355320
 20
8.649520
 11
2.350920
 21
8.644240
  0
LINE
  8
0
 62
     0
  6
CONTINUOUS
 10
2.350920
 20
8.644240
 11
2.346520
 21
8.636760
  0
LINE
  8
0
 62
     0
  6
CONTINUOUS
 10
2.346520
 20
8.636760
 11
2.345640
 21
8.630160
  0
LINE
  8
0
 62
     0
  6
CONTINUOUS
 10
2.345640
 20
8.630160
 11
2.345200
 21
8.621360
  0
LINE
  8
0
 62
     0
  6
CONTINUOUS
 10
2.345200
 20
8.621360
 11
2.347400
 21
8.613440
  0
LINE
  8
0
 62
     0
  6
CONTINUOUS
 10
2.347400
 20
8.613440
 11
2.352680
 21
8.609040
  0
LINE
  8
0
 62
     0
  6
CONTINUOUS
 10
2.352680
 20
8.609040
 11
2.357960
 21
8.602000
  0
LINE
  8
0
 62
     0
  6
CONTINUOUS
 10
2.357960
 20
8.602000
 11
2.364560
 21
8.598040
  0
LINE
  8
0
 62
     0
  6
CONTINUOUS
 10
2.364560
 20
8.598040
 11
2.372040
 21
8.596720
  0
LINE
  8
0
 62
     0
  6
CONTINUOUS
 10
2.372040
 20
8.596720
 11
2.379520
 21
8.599360
  0
LINE
  8
0
 62
     0
  6
CONTINUOUS
 10
2.379520
 20
8.599360
 11
2.386560
 21
8.599360
  0
LINE
  8
0
 62
     0
  6
CONTINUOUS
 10
2.389200
 20
8.662280
 11
2.767600
 21
8.523680
  0
LINE
  8
0
 62
     0
  6
CONTINUOUS
 10
2.706880
 20
8.466040
 11
2.701160
 21
8.469560
  0
LINE
  8
0
 62
     0
  6
CONTINUOUS
 10
2.701160
 20
8.469560
 11
2.695440
 21
8.475720
  0
LINE
  8
0
 62
     0
  6
CONTINUOUS
 10
2.695440
 20
8.475720
 11
2.688840
 21
8.479240
  0
LINE
  8
0
 62
     0
  6
CONTINUOUS
 10
2.688840
 20
8.479240
 11
2.681360
 21
8.481000
  0
LINE
  8
0
 62
     0
  6
CONTINUOUS
 10
2.681360
 20
8.481000
 11
2.673000
 21
8.479680
  0
LINE
  8
0
 62
     0
  6
CONTINUOUS
 10
2.673000
 20
8.479680
 11
2.666840
 21
8.481000
  0
LINE
  8
0
 62
     0
  6
CONTINUOUS
 10
2.666840
 20
8.481000
 11
2.660240
 21
8.473960
  0
LINE
  8
0
 62
     0
  6
CONTINUOUS
 10
2.660240
 20
8.473960
 11
2.654520
 21
8.469120
  0
LINE
  8
0
 62
     0
  6
CONTINUOUS
 10
2.654520
 20
8.469120
 11
2.651880
 21
8.462080
  0
LINE
  8
0
 62
     0
  6
CONTINUOUS
 10
2.651880
 20
8.462080
 11
2.649240
 21
8.455040
  0
LINE
  8
0
 62
     0
  6
CONTINUOUS
 10
2.649240
 20
8.455040
 11
2.650120
 21
8.446680
  0
LINE
  8
0
 62
     0
  6
CONTINUOUS
 10
2.650120
 20
8.446680
 11
2.651440
 21
8.438760
  0
LINE
  8
0
 62
     0
  6
CONTINUOUS
 10
2.651440
 20
8.438760
 11
2.656280
 21
8.433920
  0
LINE
  8
0
 62
     0
  6
CONTINUOUS
 10
2.656280
 20
8.433920
 11
2.662440
 21
8.429080
  0
LINE
  8
0
 62
     0
  6
CONTINUOUS
 10
2.662440
 20
8.429080
 11
2.668600
 21
8.424240
  0
LINE
  8
0
 62
     0
  6
CONTINUOUS
 10
2.668600
 20
8.424240
 11
2.676520
 21
8.423800
  0
LINE
  8
0
 62
     0
  6
CONTINUOUS
 10
2.676520
 20
8.423800
 11
2.684440
 21
8.423800
  0
LINE
  8
0
 62
     0
  6
CONTINUOUS
 10
2.684440
 20
8.423800
 11
2.691040
 21
8.423800
  0
LINE
  8
0
 62
     0
  6
CONTINUOUS
 10
2.691040
 20
8.423800
 11
2.698520
 21
8.429080
  0
LINE
  8
0
 62
     0
  6
CONTINUOUS
 10
2.698520
 20
8.429080
 11
2.703360
 21
8.435240
  0
LINE
  8
0
 62
     0
  6
CONTINUOUS
 10
2.703360
 20
8.435240
 11
2.706000
 21
8.442280
  0
LINE
  8
0
 62
     0
  6
CONTINUOUS
 10
2.706000
 20
8.442280
 11
2.708640
 21
8.449760
  0
LINE
  8
0
 62
     0
  6
CONTINUOUS
 10
2.708640
 20
8.449760
 11
2.708640
 21
8.456360
  0
LINE
  8
0
 62
     0
  6
CONTINUOUS
 10
2.708640
 20
8.456360
 11
2.706880
 21
8.466040
  0
LINE
  8
0
 62
     0
  6
CONTINUOUS
 10
2.637800
 20
8.507400
 11
2.644840
 21
8.511360
  0
LINE
  8
0
 62
     0
  6
CONTINUOUS
 10
2.644840
 20
8.511360
 11
2.650120
 21
8.518840
  0
LINE
  8
0
 62
     0
  6
CONTINUOUS
 10
2.650120
 20
8.518840
 11
2.653200
 21
8.524560
  0
LINE
  8
0
 62
     0
  6
CONTINUOUS
 10
2.653200
 20
8.524560
 11
2.655400
 21
8.532920
  0
LINE
  8
0
 62
     0
  6
CONTINUOUS
 10
2.655400
 20
8.532920
 11
2.654960
 21
8.539960
  0
LINE
  8
0
 62
     0
  6
CONTINUOUS
 10
2.654960
 20
8.539960
 11
2.652760
 21
8.548760
  0
LINE
  8
0
 62
     0
  6
CONTINUOUS
 10
2.652760
 20
8.548760
 11
2.647480
 21
8.551840
  0
LINE
  8
0
 62
     0
  6
CONTINUOUS
 10
2.647480
 20
8.551840
 11
2.642200
 21
8.559320
  0
LINE
  8
0
 62
     0
  6
CONTINUOUS
 10
2.642200
 20
8.559320
 11
2.635600
 21
8.562840
  0
LINE
  8
0
 62
     0
  6
CONTINUOUS
 10
2.635600
 20
8.562840
 11
2.628120
 21
8.564160
  0
LINE
  8
0
 62
     0
  6
CONTINUOUS
 10
2.628120
 20
8.564160
 11
2.619320
 21
8.562400
  0
LINE
  8
0
 62
     0
  6
CONTINUOUS
 10
2.619320
 20
8.562400
 11
2.614040
 21
8.562840
  0
LINE
  8
0
 62
     0
  6
CONTINUOUS
 10
2.614040
 20
8.562840
 11
2.607000
 21
8.557560
  0
LINE
  8
0
 62
     0
  6
CONTINUOUS
 10
2.607000
 20
8.557560
 11
2.602160
 21
8.552280
  0
LINE
  8
0
 62
     0
  6
CONTINUOUS
 10
2.602160
 20
8.552280
 11
2.596880
 21
8.544800
  0
LINE
  8
0
 62
     0
  6
CONTINUOUS
 10
2.596880
 20
8.544800
 11
2.597320
 21
8.538200
  0
LINE
  8
0
 62
     0
  6
CONTINUOUS
 10
2.597320
 20
8.538200
 11
2.596440
 21
8.529400
  0
LINE
  8
0
 62
     0
  6
CONTINUOUS
 10
2.596440
 20
8.529400
 11
2.599080
 21
8.521480
  0
LINE
  8
0
 62
     0
  6
CONTINUOUS
 10
2.599080
 20
8.521480
 11
2.603040
 21
8.517520
  0
LINE
  8
0
 62
     0
  6
CONTINUOUS
 10
2.603040
 20
8.517520
 11
2.608320
 21
8.510040
  0
LINE
  8
0
 62
     0
  6
CONTINUOUS
 10
2.608320
 20
8.510040
 11
2.614920
 21
8.506520
  0
LINE
  8
0
 62
     0
  6
CONTINUOUS
 10
2.614920
 20
8.506520
 11
2.622400
 21
8.505200
  0
LINE
  8
0
 62
     0
  6
CONTINUOUS
 10
2.622400
 20
8.505200
 11
2.631200
 21
8.507400
  0
LINE
  8
0
 62
     0
  6
CONTINUOUS
 10
2.631200
 20
8.507400
 11
2.637800
 21
8.507400
  0
LINE
  8
0
 62
     0
  6
CONTINUOUS
 10
2.577520
 20
8.513560
 11
2.571800
 21
8.516640
  0
LINE
  8
0
 62
     0
  6
CONTINUOUS
 10
2.571800
 20
8.516640
 11
2.566080
 21
8.522800
  0
LINE
  8
0
 62
     0
  6
CONTINUOUS
 10
2.566080
 20
8.522800
 11
2.559480
 21
8.526760
  0
LINE
  8
0
 62
     0
  6
CONTINUOUS
 10
2.559480
 20
8.526760
 11
2.552000
 21
8.528080
  0
LINE
  8
0
 62
     0
  6
CONTINUOUS
 10
2.552000
 20
8.528080
 11
2.543640
 21
8.527200
  0
LINE
  8
0
 62
     0
  6
CONTINUOUS
 10
2.543640
 20
8.527200
 11
2.537480
 21
8.528080
  0
LINE
  8
0
 62
     0
  6
CONTINUOUS
 10
2.537480
 20
8.528080
 11
2.530880
 21
8.521040
  0
LINE
  8
0
 62
     0
  6
CONTINUOUS
 10
2.530880
 20
8.521040
 11
2.525160
 21
8.516640
  0
LINE
  8
0
 62
     0
  6
CONTINUOUS
 10
2.525160
 20
8.516640
 11
2.522520
 21
8.509600
  0
LINE
  8
0
 62
     0
  6
CONTINUOUS
 10
2.522520
 20
8.509600
 11
2.520320
 21
8.502560
  0
LINE
  8
0
 62
     0
  6
CONTINUOUS
 10
2.520320
 20
8.502560
 11
2.521200
 21
8.494200
  0
LINE
  8
0
 62
     0
  6
CONTINUOUS
 10
2.521200
 20
8.494200
 11
2.522080
 21
8.485840
  0
LINE
  8
0
 62
     0
  6
CONTINUOUS
 10
2.522080
 20
8.485840
 11
2.526920
 21
8.481440
  0
LINE
  8
0
 62
     0
  6
CONTINUOUS
 10
2.526920
 20
8.481440
 11
2.533080
 21
8.476600
  0
LINE
  8
0
 62
     0
  6
CONTINUOUS
 10
2.533080
 20
8.476600
 11
2.539240
 21
8.471320
  0
LINE
  8
0
 62
     0
  6
CONTINUOUS
 10
2.539240
 20
8.471320
 11
2.547160
 21
8.471320
  0
LINE
  8
0
 62
     0
  6
CONTINUOUS
 10
2.547160
 20
8.471320
 11
2.555080
 21
8.470880
  0
LINE
  8
0
 62
     0
  6
CONTINUOUS
 10
2.555080
 20
8.470880
 11
2.562120
 21
8.471320
  0
LINE
  8
0
 62
     0
  6
CONTINUOUS
 10
2.562120
 20
8.471320
 11
2.569160
 21
8.476600
  0
LINE
  8
0
 62
     0
  6
CONTINUOUS
 10
2.569160
 20
8.476600
 11
2.574000
 21
8.482760
  0
LINE
  8
0
 62
     0
  6
CONTINUOUS
 10
2.574000
 20
8.482760
 11
2.576640
 21
8.489800
  0
LINE
  8
0
 62
     0
  6
CONTINUOUS
 10
2.576640
 20
8.489800
 11
2.579280
 21
8.496840
  0
LINE
  8
0
 62
     0
  6
CONTINUOUS
 10
2.579280
 20
8.496840
 11
2.579280
 21
8.503440
  0
LINE
  8
0
 62
     0
  6
CONTINUOUS
 10
2.579280
 20
8.503440
 11
2.577520
 21
8.513560
  0
LINE
  8
0
 62
     0
  6
CONTINUOUS
 10
2.767600
 20
8.523680
 11
2.714360
 21
8.378040
  0
LINE
  8
0
 62
     0
  6
CONTINUOUS
 10
2.335960
 20
8.516640
 11
2.164360
 21
8.579560
  0
LINE
  8
0
 62
     0
  6
CONTINUOUS
 10
2.217600
 20
8.726520
 11
2.389200
 21
8.664040
  0
LINE
  8
0
 62
     0
  6
CONTINUOUS
 10
2.327160
 20
8.605080
 11
2.321880
 21
8.608600
  0
LINE
  8
0
 62
     0
  6
CONTINUOUS
 10
2.321880
 20
8.608600
 11
2.315720
 21
8.614760
  0
LINE
  8
0
 62
     0
  6
CONTINUOUS
 10
2.315720
 20
8.614760
 11
2.309120
 21
8.618280
  0
LINE
  8
0
 62
     0
  6
CONTINUOUS
 10
2.309120
 20
8.618280
 11
2.301640
 21
8.619600
  0
LINE
  8
0
 62
     0
  6
CONTINUOUS
 10
2.301640
 20
8.619600
 11
2.293720
 21
8.618720
  0
LINE
  8
0
 62
     0
  6
CONTINUOUS
 10
2.293720
 20
8.618720
 11
2.287120
 21
8.619600
  0
LINE
  8
0
 62
     0
  6
CONTINUOUS
 10
2.287120
 20
8.619600
 11
2.280520
 21
8.613000
  0
LINE
  8
0
 62
     0
  6
CONTINUOUS
 10
2.280520
 20
8.613000
 11
2.274800
 21
8.608160
  0
LINE
  8
0
 62
     0
  6
CONTINUOUS
 10
2.274800
 20
8.608160
 11
2.271280
 21
8.601560
  0
LINE
  8
0
 62
     0
  6
CONTINUOUS
 10
2.271280
 20
8.601560
 11
2.269960
 21
8.594080
  0
LINE
  8
0
 62
     0
  6
CONTINUOUS
 10
2.269960
 20
8.594080
 11
2.270840
 21
8.585720
  0
LINE
  8
0
 62
     0
  6
CONTINUOUS
 10
2.270840
 20
8.585720
 11
2.271720
 21
8.577360
  0
LINE
  8
0
 62
     0
  6
CONTINUOUS
 10
2.271720
 20
8.577360
 11
2.276560
 21
8.572960
  0
LINE
  8
0
 62
     0
  6
CONTINUOUS
 10
2.276560
 20
8.572960
 11
2.282720
 21
8.568120
  0
LINE
  8
0
 62
     0
  6
CONTINUOUS
 10
2.282720
 20
8.568120
 11
2.289320
 21
8.563280
  0
LINE
  8
0
 62
     0
  6
CONTINUOUS
 10
2.289320
 20
8.563280
 11
2.296800
 21
8.562840
  0
LINE
  8
0
 62
     0
  6
CONTINUOUS
 10
2.296800
 20
8.562840
 11
2.305160
 21
8.562400
  0
LINE
  8
0
 62
     0
  6
CONTINUOUS
 10
2.305160
 20
8.562400
 11
2.311760
 21
8.562840
  0
LINE
  8
0
 62
     0
  6
CONTINUOUS
 10
2.311760
 20
8.562840
 11
2.317920
 21
8.568560
  0
LINE
  8
0
 62
     0
  6
CONTINUOUS
 10
2.317920
 20
8.568560
 11
2.324080
 21
8.574280
  0
LINE
  8
0
 62
     0
  6
CONTINUOUS
 10
2.324080
 20
8.574280
 11
2.327600
 21
8.580880
  0
LINE
  8
0
 62
     0
  6
CONTINUOUS
 10
2.327600
 20
8.580880
 11
2.328920
 21
8.588360
  0
LINE
  8
0
 62
     0
  6
CONTINUOUS
 10
2.328920
 20
8.588360
 11
2.327600
 21
8.595400
  0
LINE
  8
0
 62
     0
  6
CONTINUOUS
 10
2.327600
 20
8.595400
 11
2.327160
 21
8.605080
  0
LINE
  8
0
 62
     0
  6
CONTINUOUS
 10
2.265120
 20
8.643800
 11
2.272160
 21
8.647760
  0
LINE
  8
0
 62
     0
  6
CONTINUOUS
 10
2.272160
 20
8.647760
 11
2.277440
 21
8.655240
  0
LINE
  8
0
 62
     0
  6
CONTINUOUS
 10
2.277440
 20
8.655240
 11
2.280960
 21
8.660520
  0
LINE
  8
0
 62
     0
  6
CONTINUOUS
 10
2.280960
 20
8.660520
 11
2.282720
 21
8.669320
  0
LINE
  8
0
 62
     0
  6
CONTINUOUS
 10
2.282720
 20
8.669320
 11
2.282720
 21
8.675920
  0
LINE
  8
0
 62
     0
  6
CONTINUOUS
 10
2.282720
 20
8.675920
 11
2.280520
 21
8.684720
  0
LINE
  8
0
 62
     0
  6
CONTINUOUS
 10
2.280520
 20
8.684720
 11
2.274800
 21
8.688240
  0
LINE
  8
0
 62
     0
  6
CONTINUOUS
 10
2.274800
 20
8.688240
 11
2.270840
 21
8.694840
  0
LINE
  8
0
 62
     0
  6
CONTINUOUS
 10
2.270840
 20
8.694840
 11
2.262920
 21
8.699240
  0
LINE
  8
0
 62
     0
  6
CONTINUOUS
 10
2.262920
 20
8.699240
 11
2.255440
 21
8.700560
  0
LINE
  8
0
 62
     0
  6
CONTINUOUS
 10
2.255440
 20
8.700560
 11
2.247960
 21
8.697920
  0
LINE
  8
0
 62
     0
  6
CONTINUOUS
 10
2.247960
 20
8.697920
 11
2.240480
 21
8.699680
  0
LINE
  8
0
 62
     0
  6
CONTINUOUS
 10
2.240480
 20
8.699680
 11
2.233000
 21
8.693960
  0
LINE
  8
0
 62
     0
  6
CONTINUOUS
 10
2.233000
 20
8.693960
 11
2.228600
 21
8.689120
  0
LINE
  8
0
 62
     0
  6
CONTINUOUS
 10
2.228600
 20
8.689120
 11
2.225520
 21
8.680760
  0
LINE
  8
0
 62
     0
  6
CONTINUOUS
 10
2.225520
 20
8.680760
 11
2.223320
 21
8.675040
  0
LINE
  8
0
 62
     0
  6
CONTINUOUS
 10
2.223320
 20
8.675040
 11
2.222880
 21
8.665800
  0
LINE
  8
0
 62
     0
  6
CONTINUOUS
 10
2.222880
 20
8.665800
 11
2.225520
 21
8.658320
  0
LINE
  8
0
 62
     0
  6
CONTINUOUS
 10
2.225520
 20
8.658320
 11
2.231680
 21
8.653480
  0
LINE
  8
0
 62
     0
  6
CONTINUOUS
 10
2.231680
 20
8.653480
 11
2.235640
 21
8.646440
  0
LINE
  8
0
 62
     0
  6
CONTINUOUS
 10
2.235640
 20
8.646440
 11
2.242240
 21
8.642920
  0
LINE
  8
0
 62
     0
  6
CONTINUOUS
 10
2.242240
 20
8.642920
 11
2.251040
 21
8.641160
  0
LINE
  8
0
 62
     0
  6
CONTINUOUS
 10
2.251040
 20
8.641160
 11
2.258520
 21
8.643360
  0
LINE
  8
0
 62
     0
  6
CONTINUOUS
 10
2.258520
 20
8.643360
 11
2.265120
 21
8.643800
  0
LINE
  8
0
 62
     0
  6
CONTINUOUS
 10
2.721400
 20
8.396960
 11
2.726680
 21
8.411040
  0
LINE
  8
0
 62
     0
  6
CONTINUOUS
 10
2.722280
 20
8.399160
 11
2.725360
 21
8.407520
  0
LINE
  8
0
 62
     0
  6
CONTINUOUS
 10
2.759240
 20
8.500360
 11
2.757480
 21
8.495520
  0
LINE
  8
0
 62
     0
  6
CONTINUOUS
 10
2.757480
 20
8.495520
 11
2.762760
 21
8.509600
  0
LINE
  8
0
 62
     0
  6
CONTINUOUS
 10
3.338720
 20
8.421600
 11
2.789160
 21
8.421600
  0
LINE
  8
0
 62
     0
  6
CONTINUOUS
 10
3.350600
 20
8.433920
 11
2.786960
 21
8.433920
  0
POLYLINE
  8
0
 62
     0
  6
CONTINUOUS
 66
     1
 40
0.000000
 41
0.000000
  0
VERTEX
  8
0
 62
     0
  6
CONTINUOUS
 10
2.893440
 20
7.792840
  0
VERTEX
  8
0
 62
     0
  6
CONTINUOUS
 10
2.893440
 20
7.779640
  0
VERTEX
  8
0
 62
     0
  6
CONTINUOUS
 10
2.943600
 20
7.779200
  0
VERTEX
  8
0
 62
     0
  6
CONTINUOUS
 10
2.943600
 20
7.778760
  0
VERTEX
  8
0
 62
     0
  6
CONTINUOUS
 10
2.952840
 20
7.776120
  0
VERTEX
  8
0
 62
     0
  6
CONTINUOUS
 10
2.962520
 20
7.766880
  0
VERTEX
  8
0
 62
     0
  6
CONTINUOUS
 10
2.968240
 20
7.752360
  0
VERTEX
  8
0
 62
     0
  6
CONTINUOUS
 10
2.969120
 20
7.735640
  0
VERTEX
  8
0
 62
     0
  6
CONTINUOUS
 10
2.968680
 20
7.735640
  0
VERTEX
  8
0
 62
     0
  6
CONTINUOUS
 10
2.967360
 20
7.722440
  0
VERTEX
  8
0
 62
     0
  6
CONTINUOUS
 10
2.966920
 20
7.722440
  0
VERTEX
  8
0
 62
     0
  6
CONTINUOUS
 10
2.963400
 20
7.711440
  0
VERTEX
  8
0
 62
     0
  6
CONTINUOUS
 10
2.958560
 20
7.704840
  0
VERTEX
  8
0
 62
     0
  6
CONTINUOUS
 10
2.958560
 20
7.703960
  0
VERTEX
  8
0
 62
     0
  6
CONTINUOUS
 10
2.946240
 20
7.697800
  0
VERTEX
  8
0
 62
     0
  6
CONTINUOUS
 10
2.936560
 20
7.696480
  0
VERTEX
  8
0
 62
     0
  6
CONTINUOUS
 10
2.908400
 20
7.696480
  0
VERTEX
  8
0
 62
     0
  6
CONTINUOUS
 10
2.908400
 20
7.779640
  0
VERTEX
  8
0
 62
     0
  6
CONTINUOUS
 10
2.893440
 20
7.779640
  0
VERTEX
  8
0
 62
     0
  6
CONTINUOUS
 10
2.893440
 20
7.683720
  0
VERTEX
  8
0
 62
     0
  6
CONTINUOUS
 10
2.944040
 20
7.684160
  0
VERTEX
  8
0
 62
     0
  6
CONTINUOUS
 10
2.958120
 20
7.687240
  0
VERTEX
  8
0
 62
     0
  6
CONTINUOUS
 10
2.961640
 20
7.689880
  0
VERTEX
  8
0
 62
     0
  6
CONTINUOUS
 10
2.972640
 20
7.698680
  0
VERTEX
  8
0
 62
     0
  6
CONTINUOUS
 10
2.981440
 20
7.715840
  0
VERTEX
  8
0
 62
     0
  6
CONTINUOUS
 10
2.984520
 20
7.735640
  0
VERTEX
  8
0
 62
     0
  6
CONTINUOUS
 10
2.983200
 20
7.753240
  0
VERTEX
  8
0
 62
     0
  6
CONTINUOUS
 10
2.982760
 20
7.753240
  0
VERTEX
  8
0
 62
     0
  6
CONTINUOUS
 10
2.978360
 20
7.768640
  0
VERTEX
  8
0
 62
     0
  6
CONTINUOUS
 10
2.977040
 20
7.770400
  0
VERTEX
  8
0
 62
     0
  6
CONTINUOUS
 10
2.971320
 20
7.779640
  0
VERTEX
  8
0
 62
     0
  6
CONTINUOUS
 10
2.956360
 20
7.789320
  0
VERTEX
  8
0
 62
     0
  6
CONTINUOUS
 10
2.944480
 20
7.792400
  0
VERTEX
  8
0
 62
     0
  6
CONTINUOUS
 10
2.939200
 20
7.792840
  0
VERTEX
  8
0
 62
     0
  6
CONTINUOUS
 10
2.893440
 20
7.792840
  0
SEQEND
  8
0
  0
POLYLINE
  8
0
 62
     0
  6
CONTINUOUS
 66
     1
 40
0.000000
 41
0.000000
  0
VERTEX
  8
0
 62
     0
  6
CONTINUOUS
 10
3.005640
 20
7.683720
  0
VERTEX
  8
0
 62
     0
  6
CONTINUOUS
 10
3.005640
 20
7.688120
  0
VERTEX
  8
0
 62
     0
  6
CONTINUOUS
 10
3.005640
 20
7.700440
  0
VERTEX
  8
0
 62
     0
  6
CONTINUOUS
 10
3.005640
 20
7.718040
  0
VERTEX
  8
0
 62
     0
  6
CONTINUOUS
 10
3.005640
 20
7.738280
  0
VERTEX
  8
0
 62
     0
  6
CONTINUOUS
 10
3.005640
 20
7.758080
  0
VERTEX
  8
0
 62
     0
  6
CONTINUOUS
 10
3.005640
 20
7.775680
  0
VERTEX
  8
0
 62
     0
  6
CONTINUOUS
 10
3.005640
 20
7.788000
  0
VERTEX
  8
0
 62
     0
  6
CONTINUOUS
 10
3.005640
 20
7.792840
  0
SEQEND
  8
0
  0
POLYLINE
  8
0
 62
     0
  6
CONTINUOUS
 66
     1
 40
0.000000
 41
0.000000
  0
VERTEX
  8
0
 62
     0
  6
CONTINUOUS
 10
3.005640
 20
7.792840
  0
VERTEX
  8
0
 62
     0
  6
CONTINUOUS
 10
3.006080
 20
7.792840
  0
VERTEX
  8
0
 62
     0
  6
CONTINUOUS
 10
3.007840
 20
7.792840
  0
VERTEX
  8
0
 62
     0
  6
CONTINUOUS
 10
3.010040
 20
7.792840
  0
VERTEX
  8
0
 62
     0
  6
CONTINUOUS
 10
3.012680
 20
7.792840
  0
VERTEX
  8
0
 62
     0
  6
CONTINUOUS
 10
3.015320
 20
7.792840
  0
VERTEX
  8
0
 62
     0
  6
CONTINUOUS
 10
3.017520
 20
7.792840
  0
VERTEX
  8
0
 62
     0
  6
CONTINUOUS
 10
3.019280
 20
7.792840
  0
VERTEX
  8
0
 62
     0
  6
CONTINUOUS
 10
3.020160
 20
7.792840
  0
SEQEND
  8
0
  0
POLYLINE
  8
0
 62
     0
  6
CONTINUOUS
 66
     1
 40
0.000000
 41
0.000000
  0
VERTEX
  8
0
 62
     0
  6
CONTINUOUS
 10
3.020160
 20
7.792840
  0
VERTEX
  8
0
 62
     0
  6
CONTINUOUS
 10
3.020160
 20
7.788000
  0
VERTEX
  8
0
 62
     0
  6
CONTINUOUS
 10
3.020160
 20
7.775680
  0
VERTEX
  8
0
 62
     0
  6
CONTINUOUS
 10
3.020160
 20
7.758080
  0
VERTEX
  8
0
 62
     0
  6
CONTINUOUS
 10
3.020160
 20
7.738280
  0
VERTEX
  8
0
 62
     0
  6
CONTINUOUS
 10
3.020160
 20
7.718040
  0
VERTEX
  8
0
 62
     0
  6
CONTINUOUS
 10
3.020160
 20
7.700440
  0
VERTEX
  8
0
 62
     0
  6
CONTINUOUS
 10
3.020160
 20
7.688120
  0
VERTEX
  8
0
 62
     0
  6
CONTINUOUS
 10
3.020160
 20
7.683720
  0
SEQEND
  8
0
  0
POLYLINE
  8
0
 62
     0
  6
CONTINUOUS
 66
     1
 40
0.000000
 41
0.000000
  0
VERTEX
  8
0
 62
     0
  6
CONTINUOUS
 10
3.020160
 20
7.683720
  0
VERTEX
  8
0
 62
     0
  6
CONTINUOUS
 10
3.019280
 20
7.683720
  0
VERTEX
  8
0
 62
     0
  6
CONTINUOUS
 10
3.017520
 20
7.683720
  0
VERTEX
  8
0
 62
     0
  6
CONTINUOUS
 10
3.015320
 20
7.683720
  0
VERTEX
  8
0
 62
     0
  6
CONTINUOUS
 10
3.012680
 20
7.683720
  0
VERTEX
  8
0
 62
     0
  6
CONTINUOUS
 10
3.010040
 20
7.683720
  0
VERTEX
  8
0
 62
     0
  6
CONTINUOUS
 10
3.007840
 20
7.683720
  0
VERTEX
  8
0
 62
     0
  6
CONTINUOUS
 10
3.006080
 20
7.683720
  0
VERTEX
  8
0
 62
     0
  6
CONTINUOUS
 10
3.005640
 20
7.683720
  0
SEQEND
  8
0
  0
POLYLINE
  8
0
 62
     0
  6
CONTINUOUS
 66
     1
 40
0.014080
 41
0.014080
  0
VERTEX
  8
0
 62
     0
  6
CONTINUOUS
 10
2.828320
 20
7.836840
  0
VERTEX
  8
0
 62
     0
  6
CONTINUOUS
 10
3.148200
 20
7.836840
  0
VERTEX
  8
0
 62
     0
  6
CONTINUOUS
 10
3.148200
 20
7.619920
  0
VERTEX
  8
0
 62
     0
  6
CONTINUOUS
 10
2.828320
 20
7.619920
  0
VERTEX
  8
0
 62
     0
  6
CONTINUOUS
 10
2.828320
 20
7.836840
  0
SEQEND
  8
0
  0
POLYLINE
  8
0
 62
     0
  6
CONTINUOUS
 66
     1
 40
0.014080
 41
0.014080
  0
VERTEX
  8
0
 62
     0
  6
CONTINUOUS
 10
3.485680
 20
7.400800
  0
VERTEX
  8
0
 62
     0
  6
CONTINUOUS
 10
3.499760
 20
7.359880
  0
VERTEX
  8
0
 62
     0
  6
CONTINUOUS
 10
3.500640
 20
7.359000
  0
VERTEX
  8
0
 62
     0
  6
CONTINUOUS
 10
3.504600
 20
7.348440
  0
VERTEX
  8
0
 62
     0
  6
CONTINUOUS
 10
3.467640
 20
7.348440
  0
VERTEX
  8
0
 62
     0
  6
CONTINUOUS
 10
3.484360
 20
7.395960
  0
VERTEX
  8
0
 62
     0
  6
CONTINUOUS
 10
3.485240
 20
7.400800
  0
VERTEX
  8
0
 62
     0
  6
CONTINUOUS
 10
3.498880
 20
7.400800
  0
VERTEX
  8
0
 62
     0
  6
CONTINUOUS
 10
3.494040
 20
7.412680
  0
VERTEX
  8
0
 62
     0
  6
CONTINUOUS
 10
3.477320
 20
7.412680
  0
VERTEX
  8
0
 62
     0
  6
CONTINUOUS
 10
3.435520
 20
7.303560
  0
VERTEX
  8
0
 62
     0
  6
CONTINUOUS
 10
3.451360
 20
7.303560
  0
VERTEX
  8
0
 62
     0
  6
CONTINUOUS
 10
3.463240
 20
7.336120
  0
VERTEX
  8
0
 62
     0
  6
CONTINUOUS
 10
3.524840
 20
7.336120
  0
VERTEX
  8
0
 62
     0
  6
CONTINUOUS
 10
3.498880
 20
7.400800
  0
VERTEX
  8
0
 62
     0
  6
CONTINUOUS
 10
3.485680
 20
7.400800
  0
SEQEND
  8
0
  0
SOLID
  8
0
 62
     0
 10
3.509000
 20
7.336120
 11
3.521320
 21
7.303560
 12
3.525280
 22
7.336120
 13
3.538480
 23
7.303560
  0
POLYLINE
  8
0
 62
     0
  6
CONTINUOUS
 66
     1
 40
0.014080
 41
0.014080
  0
VERTEX
  8
0
 62
     0
  6
CONTINUOUS
 10
3.509000
 20
7.336120
  0
VERTEX
  8
0
 62
     0
  6
CONTINUOUS
 10
3.521320
 20
7.303560
  0
VERTEX
  8
0
 62
     0
  6
CONTINUOUS
 10
3.538480
 20
7.303560
  0
VERTEX
  8
0
 62
     0
  6
CONTINUOUS
 10
3.525280
 20
7.336120
  0
VERTEX
  8
0
 62
     0
  6
CONTINUOUS
 10
3.509000
 20
7.336120
  0
SEQEND
  8
0
  0
POLYLINE
  8
0
 62
     0
  6
CONTINUOUS
 66
     1
 40
0.014080
 41
0.014080
  0
VERTEX
  8
0
 62
     0
  6
CONTINUOUS
 10
3.600080
 20
7.401680
  0
VERTEX
  8
0
 62
     0
  6
CONTINUOUS
 10
3.600080
 20
7.401240
  0
VERTEX
  8
0
 62
     0
  6
CONTINUOUS
 10
3.609320
 20
7.399920
  0
VERTEX
  8
0
 62
     0
  6
CONTINUOUS
 10
3.609320
 20
7.399480
  0
VERTEX
  8
0
 62
     0
  6
CONTINUOUS
 10
3.618120
 20
7.395520
  0
VERTEX
  8
0
 62
     0
  6
CONTINUOUS
 10
3.626480
 20
7.387160
  0
VERTEX
  8
0
 62
     0
  6
CONTINUOUS
 10
3.633080
 20
7.371320
  0
VERTEX
  8
0
 62
     0
  6
CONTINUOUS
 10
3.634400
 20
7.352840
  0
VERTEX
  8
0
 62
     0
  6
CONTINUOUS
 10
3.633960
 20
7.352840
  0
VERTEX
  8
0
 62
     0
  6
CONTINUOUS
 10
3.633080
 20
7.343160
  0
VERTEX
  8
0
 62
     0
  6
CONTINUOUS
 10
3.632640
 20
7.343160
  0
VERTEX
  8
0
 62
     0
  6
CONTINUOUS
 10
3.627800
 20
7.329960
  0
VERTEX
  8
0
 62
     0
  6
CONTINUOUS
 10
3.616800
 20
7.319400
  0
VERTEX
  8
0
 62
     0
  6
CONTINUOUS
 10
3.605800
 20
7.315000
  0
VERTEX
  8
0
 62
     0
  6
CONTINUOUS
 10
3.593920
 20
7.314120
  0
VERTEX
  8
0
 62
     0
  6
CONTINUOUS
 10
3.593920
 20
7.314560
  0
VERTEX
  8
0
 62
     0
  6
CONTINUOUS
 10
3.581160
 20
7.316760
  0
VERTEX
  8
0
 62
     0
  6
CONTINUOUS
 10
3.571040
 20
7.323800
  0
VERTEX
  8
0
 62
     0
  6
CONTINUOUS
 10
3.562240
 20
7.339640
  0
VERTEX
  8
0
 62
     0
  6
CONTINUOUS
 10
3.560040
 20
7.353720
  0
VERTEX
  8
0
 62
     0
  6
CONTINUOUS
 10
3.562240
 20
7.376160
  0
VERTEX
  8
0
 62
     0
  6
CONTINUOUS
 10
3.562680
 20
7.376160
  0
VERTEX
  8
0
 62
     0
  6
CONTINUOUS
 10
3.565760
 20
7.384520
  0
VERTEX
  8
0
 62
     0
  6
CONTINUOUS
 10
3.573680
 20
7.393760
  0
VERTEX
  8
0
 62
     0
  6
CONTINUOUS
 10
3.586880
 20
7.400360
  0
VERTEX
  8
0
 62
     0
  6
CONTINUOUS
 10
3.594360
 20
7.401680
  0
VERTEX
  8
0
 62
     0
  6
CONTINUOUS
 10
3.631760
 20
7.401680
  0
VERTEX
  8
0
 62
     0
  6
CONTINUOUS
 10
3.617240
 20
7.410920
  0
VERTEX
  8
0
 62
     0
  6
CONTINUOUS
 10
3.605800
 20
7.414440
  0
VERTEX
  8
0
 62
     0
  6
CONTINUOUS
 10
3.589960
 20
7.414440
  0
VERTEX
  8
0
 62
     0
  6
CONTINUOUS
 10
3.589960
 20
7.414000
  0
VERTEX
  8
0
 62
     0
  6
CONTINUOUS
 10
3.582480
 20
7.413120
  0
VERTEX
  8
0
 62
     0
  6
CONTINUOUS
 10
3.582480
 20
7.412680
  0
VERTEX
  8
0
 62
     0
  6
CONTINUOUS
 10
3.571920
 20
7.408720
  0
VERTEX
  8
0
 62
     0
  6
CONTINUOUS
 10
3.570160
 20
7.407400
  0
VERTEX
  8
0
 62
     0
  6
CONTINUOUS
 10
3.561360
 20
7.400800
  0
VERTEX
  8
0
 62
     0
  6
CONTINUOUS
 10
3.551240
 20
7.387160
  0
VERTEX
  8
0
 62
     0
  6
CONTINUOUS
 10
3.545960
 20
7.372200
  0
VERTEX
  8
0
 62
     0
  6
CONTINUOUS
 10
3.545080
 20
7.348440
  0
VERTEX
  8
0
 62
     0
  6
CONTINUOUS
 10
3.545520
 20
7.348440
  0
VERTEX
  8
0
 62
     0
  6
CONTINUOUS
 10
3.549920
 20
7.330840
  0
VERTEX
  8
0
 62
     0
  6
CONTINUOUS
 10
3.551240
 20
7.329080
  0
VERTEX
  8
0
 62
     0
  6
CONTINUOUS
 10
3.558280
 20
7.318520
  0
VERTEX
  8
0
 62
     0
  6
CONTINUOUS
 10
3.569280
 20
7.308840
  0
VERTEX
  8
0
 62
     0
  6
CONTINUOUS
 10
3.581600
 20
7.302680
  0
VERTEX
  8
0
 62
     0
  6
CONTINUOUS
 10
3.588200
 20
7.301360
  0
VERTEX
  8
0
 62
     0
  6
CONTINUOUS
 10
3.605360
 20
7.301800
  0
VERTEX
  8
0
 62
     0
  6
CONTINUOUS
 10
3.617680
 20
7.304880
  0
VERTEX
  8
0
 62
     0
  6
CONTINUOUS
 10
3.619440
 20
7.306200
  0
VERTEX
  8
0
 62
     0
  6
CONTINUOUS
 10
3.631760
 20
7.314120
  0
VERTEX
  8
0
 62
     0
  6
CONTINUOUS
 10
3.640560
 20
7.323800
  0
VERTEX
  8
0
 62
     0
  6
CONTINUOUS
 10
3.648040
 20
7.341400
  0
VERTEX
  8
0
 62
     0
  6
CONTINUOUS
 10
3.649800
 20
7.361640
  0
VERTEX
  8
0
 62
     0
  6
CONTINUOUS
 10
3.649360
 20
7.361640
  0
VERTEX
  8
0
 62
     0
  6
CONTINUOUS
 10
3.647600
 20
7.375720
  0
VERTEX
  8
0
 62
     0
  6
CONTINUOUS
 10
3.647160
 20
7.375720
  0
VERTEX
  8
0
 62
     0
  6
CONTINUOUS
 10
3.643640
 20
7.386280
  0
VERTEX
  8
0
 62
     0
  6
CONTINUOUS
 10
3.642320
 20
7.388040
  0
VERTEX
  8
0
 62
     0
  6
CONTINUOUS
 10
3.635720
 20
7.397720
  0
VERTEX
  8
0
 62
     0
  6
CONTINUOUS
 10
3.632200
 20
7.401680
  0
VERTEX
  8
0
 62
     0
  6
CONTINUOUS
 10
3.600080
 20
7.401680
  0
SEQEND
  8
0
  0
POLYLINE
  8
0
 62
     0
  6
CONTINUOUS
 66
     1
 40
0.014080
 41
0.014080
  0
VERTEX
  8
0
 62
     0
  6
CONTINUOUS
 10
3.382280
 20
7.463720
  0
VERTEX
  8
0
 62
     0
  6
CONTINUOUS
 10
3.702160
 20
7.463720
  0
VERTEX
  8
0
 62
     0
  6
CONTINUOUS
 10
3.702160
 20
7.246800
  0
VERTEX
  8
0
 62
     0
  6
CONTINUOUS
 10
3.382280
 20
7.246800
  0
VERTEX
  8
0
 62
     0
  6
CONTINUOUS
 10
3.382280
 20
7.463720
  0
SEQEND
  8
0
  0
SOLID
  8
0
 62
     7
 10
2.564760
 20
8.375840
 11
2.783880
 21
8.375840
 12
2.564760
 22
7.770400
 13
2.783880
 23
7.770400
  0
POLYLINE
  8
0
 62
     0
  6
CONTINUOUS
 66
     1
 40
0.000000
 41
0.000000
  0
VERTEX
  8
0
 62
     0
  6
CONTINUOUS
 10
2.564760
 20
8.375840
  0
VERTEX
  8
0
 62
     0
  6
CONTINUOUS
 10
2.783880
 20
8.375840
  0
VERTEX
  8
0
 62
     0
  6
CONTINUOUS
 10
2.783880
 20
7.770400
  0
VERTEX
  8
0
 62
     0
  6
CONTINUOUS
 10
2.564760
 20
7.770400
  0
VERTEX
  8
0
 62
     0
  6
CONTINUOUS
 10
2.564760
 20
8.375840
  0
SEQEND
  8
0
  0
POLYLINE
  8
0
 62
     0
  6
CONTINUOUS
 66
     1
 40
0.000000
 41
0.000000
  0
VERTEX
  8
0
 62
     0
  6
CONTINUOUS
 10
2.893440
 20
7.339640
  0
VERTEX
  8
0
 62
     0
  6
CONTINUOUS
 10
2.893440
 20
7.243280
  0
VERTEX
  8
0
 62
     0
  6
CONTINUOUS
 10
2.943600
 20
7.243720
  0
VERTEX
  8
0
 62
     0
  6
CONTINUOUS
 10
2.958120
 20
7.247240
  0
VERTEX
  8
0
 62
     0
  6
CONTINUOUS
 10
2.972640
 20
7.258680
  0
VERTEX
  8
0
 62
     0
  6
CONTINUOUS
 10
2.981440
 20
7.275840
  0
VERTEX
  8
0
 62
     0
  6
CONTINUOUS
 10
2.984520
 20
7.295640
  0
VERTEX
  8
0
 62
     0
  6
CONTINUOUS
 10
2.983200
 20
7.312800
  0
VERTEX
  8
0
 62
     0
  6
CONTINUOUS
 10
2.982760
 20
7.312800
  0
VERTEX
  8
0
 62
     0
  6
CONTINUOUS
 10
2.978360
 20
7.328200
  0
VERTEX
  8
0
 62
     0
  6
CONTINUOUS
 10
2.977040
 20
7.329960
  0
VERTEX
  8
0
 62
     0
  6
CONTINUOUS
 10
2.971320
 20
7.339640
  0
VERTEX
  8
0
 62
     0
  6
CONTINUOUS
 10
2.955920
 20
7.349320
  0
VERTEX
  8
0
 62
     0
  6
CONTINUOUS
 10
2.944480
 20
7.352400
  0
VERTEX
  8
0
 62
     0
  6
CONTINUOUS
 10
2.893440
 20
7.352840
  0
VERTEX
  8
0
 62
     0
  6
CONTINUOUS
 10
2.893440
 20
7.339640
  0
VERTEX
  8
0
 62
     0
  6
CONTINUOUS
 10
2.943600
 20
7.339200
  0
VERTEX
  8
0
 62
     0
  6
CONTINUOUS
 10
2.943600
 20
7.338760
  0
VERTEX
  8
0
 62
     0
  6
CONTINUOUS
 10
2.952840
 20
7.336120
  0
VERTEX
  8
0
 62
     0
  6
CONTINUOUS
 10
2.959440
 20
7.330400
  0
VERTEX
  8
0
 62
     0
  6
CONTINUOUS
 10
2.966920
 20
7.317200
  0
VERTEX
  8
0
 62
     0
  6
CONTINUOUS
 10
2.969120
 20
7.302680
  0
VERTEX
  8
0
 62
     0
  6
CONTINUOUS
 10
2.967360
 20
7.282000
  0
VERTEX
  8
0
 62
     0
  6
CONTINUOUS
 10
2.966920
 20
7.282000
  0
VERTEX
  8
0
 62
     0
  6
CONTINUOUS
 10
2.963840
 20
7.272320
  0
VERTEX
  8
0
 62
     0
  6
CONTINUOUS
 10
2.956800
 20
7.262640
  0
VERTEX
  8
0
 62
     0
  6
CONTINUOUS
 10
2.949320
 20
7.258240
  0
VERTEX
  8
0
 62
     0
  6
CONTINUOUS
 10
2.936560
 20
7.256480
  0
VERTEX
  8
0
 62
     0
  6
CONTINUOUS
 10
2.908400
 20
7.256480
  0
VERTEX
  8
0
 62
     0
  6
CONTINUOUS
 10
2.908400
 20
7.339640
  0
VERTEX
  8
0
 62
     0
  6
CONTINUOUS
 10
2.893440
 20
7.339640
  0
SEQEND
  8
0
  0
POLYLINE
  8
0
 62
     0
  6
CONTINUOUS
 66
     1
 40
0.000000
 41
0.000000
  0
VERTEX
  8
0
 62
     0
  6
CONTINUOUS
 10
3.054480
 20
7.341840
  0
VERTEX
  8
0
 62
     0
  6
CONTINUOUS
 10
3.054480
 20
7.341400
  0
VERTEX
  8
0
 62
     0
  6
CONTINUOUS
 10
3.063720
 20
7.340080
  0
VERTEX
  8
0
 62
     0
  6
CONTINUOUS
 10
3.063720
 20
7.339640
  0
VERTEX
  8
0
 62
     0
  6
CONTINUOUS
 10
3.072080
 20
7.335680
  0
VERTEX
  8
0
 62
     0
  6
CONTINUOUS
 10
3.082200
 20
7.324240
  0
VERTEX
  8
0
 62
     0
  6
CONTINUOUS
 10
3.087480
 20
7.311480
  0
VERTEX
  8
0
 62
     0
  6
CONTINUOUS
 10
3.088360
 20
7.292560
  0
VERTEX
  8
0
 62
     0
  6
CONTINUOUS
 10
3.087920
 20
7.292560
  0
VERTEX
  8
0
 62
     0
  6
CONTINUOUS
 10
3.087040
 20
7.283320
  0
VERTEX
  8
0
 62
     0
  6
CONTINUOUS
 10
3.086600
 20
7.283320
  0
VERTEX
  8
0
 62
     0
  6
CONTINUOUS
 10
3.082200
 20
7.270560
  0
VERTEX
  8
0
 62
     0
  6
CONTINUOUS
 10
3.072960
 20
7.260880
  0
VERTEX
  8
0
 62
     0
  6
CONTINUOUS
 10
3.062840
 20
7.255600
  0
VERTEX
  8
0
 62
     0
  6
CONTINUOUS
 10
3.048320
 20
7.253840
  0
VERTEX
  8
0
 62
     0
  6
CONTINUOUS
 10
3.048320
 20
7.254280
  0
VERTEX
  8
0
 62
     0
  6
CONTINUOUS
 10
3.039520
 20
7.255600
  0
VERTEX
  8
0
 62
     0
  6
CONTINUOUS
 10
3.039520
 20
7.256040
  0
VERTEX
  8
0
 62
     0
  6
CONTINUOUS
 10
3.029840
 20
7.260440
  0
VERTEX
  8
0
 62
     0
  6
CONTINUOUS
 10
3.021040
 20
7.270120
  0
VERTEX
  8
0
 62
     0
  6
CONTINUOUS
 10
3.015760
 20
7.283760
  0
VERTEX
  8
0
 62
     0
  6
CONTINUOUS
 10
3.014440
 20
7.293880
  0
VERTEX
  8
0
 62
     0
  6
CONTINUOUS
 10
3.016640
 20
7.316320
  0
VERTEX
  8
0
 62
     0
  6
CONTINUOUS
 10
3.017080
 20
7.316320
  0
VERTEX
  8
0
 62
     0
  6
CONTINUOUS
 10
3.020160
 20
7.324680
  0
VERTEX
  8
0
 62
     0
  6
CONTINUOUS
 10
3.028080
 20
7.333920
  0
VERTEX
  8
0
 62
     0
  6
CONTINUOUS
 10
3.036000
 20
7.339200
  0
VERTEX
  8
0
 62
     0
  6
CONTINUOUS
 10
3.048760
 20
7.341840
  0
VERTEX
  8
0
 62
     0
  6
CONTINUOUS
 10
3.086160
 20
7.341840
  0
VERTEX
  8
0
 62
     0
  6
CONTINUOUS
 10
3.072960
 20
7.350640
  0
VERTEX
  8
0
 62
     0
  6
CONTINUOUS
 10
3.060200
 20
7.354160
  0
VERTEX
  8
0
 62
     0
  6
CONTINUOUS
 10
3.044360
 20
7.354160
  0
VERTEX
  8
0
 62
     0
  6
CONTINUOUS
 10
3.044360
 20
7.353720
  0
VERTEX
  8
0
 62
     0
  6
CONTINUOUS
 10
3.036880
 20
7.352840
  0
VERTEX
  8
0
 62
     0
  6
CONTINUOUS
 10
3.036880
 20
7.352400
  0
VERTEX
  8
0
 62
     0
  6
CONTINUOUS
 10
3.026320
 20
7.348440
  0
VERTEX
  8
0
 62
     0
  6
CONTINUOUS
 10
3.024560
 20
7.347120
  0
VERTEX
  8
0
 62
     0
  6
CONTINUOUS
 10
3.013120
 20
7.338760
  0
VERTEX
  8
0
 62
     0
  6
CONTINUOUS
 10
3.003000
 20
7.322040
  0
VERTEX
  8
0
 62
     0
  6
CONTINUOUS
 10
2.999480
 20
7.306200
  0
VERTEX
  8
0
 62
     0
  6
CONTINUOUS
 10
2.999480
 20
7.287720
  0
VERTEX
  8
0
 62
     0
  6
CONTINUOUS
 10
2.999920
 20
7.287720
  0
VERTEX
  8
0
 62
     0
  6
CONTINUOUS
 10
3.001680
 20
7.277600
  0
VERTEX
  8
0
 62
     0
  6
CONTINUOUS
 10
3.002120
 20
7.277600
  0
VERTEX
  8
0
 62
     0
  6
CONTINUOUS
 10
3.006960
 20
7.266160
  0
VERTEX
  8
0
 62
     0
  6
CONTINUOUS
 10
3.015760
 20
7.255160
  0
VERTEX
  8
0
 62
     0
  6
CONTINUOUS
 10
3.027640
 20
7.246360
  0
VERTEX
  8
0
 62
     0
  6
CONTINUOUS
 10
3.042600
 20
7.241520
  0
VERTEX
  8
0
 62
     0
  6
CONTINUOUS
 10
3.059760
 20
7.241960
  0
VERTEX
  8
0
 62
     0
  6
CONTINUOUS
 10
3.073840
 20
7.245480
  0
VERTEX
  8
0
 62
     0
  6
CONTINUOUS
 10
3.073840
 20
7.245920
  0
VERTEX
  8
0
 62
     0
  6
CONTINUOUS
 10
3.084400
 20
7.252960
  0
VERTEX
  8
0
 62
     0
  6
CONTINUOUS
 10
3.094520
 20
7.263080
  0
VERTEX
  8
0
 62
     0
  6
CONTINUOUS
 10
3.101120
 20
7.277600
  0
VERTEX
  8
0
 62
     0
  6
CONTINUOUS
 10
3.103760
 20
7.293880
  0
VERTEX
  8
0
 62
     0
  6
CONTINUOUS
 10
3.102000
 20
7.314120
  0
VERTEX
  8
0
 62
     0
  6
CONTINUOUS
 10
3.101560
 20
7.314120
  0
VERTEX
  8
0
 62
     0
  6
CONTINUOUS
 10
3.097600
 20
7.327320
  0
VERTEX
  8
0
 62
     0
  6
CONTINUOUS
 10
3.096280
 20
7.329080
  0
VERTEX
  8
0
 62
     0
  6
CONTINUOUS
 10
3.090120
 20
7.337880
  0
VERTEX
  8
0
 62
     0
  6
CONTINUOUS
 10
3.086600
 20
7.341840
  0
VERTEX
  8
0
 62
     0
  6
CONTINUOUS
 10
3.054480
 20
7.341840
  0
SEQEND
  8
0
  0
POLYLINE
  8
0
 62
     0
  6
CONTINUOUS
 66
     1
 40
0.014080
 41
0.014080
  0
VERTEX
  8
0
 62
     0
  6
CONTINUOUS
 10
2.828320
 20
7.403880
  0
VERTEX
  8
0
 62
     0
  6
CONTINUOUS
 10
3.148200
 20
7.403880
  0
VERTEX
  8
0
 62
     0
  6
CONTINUOUS
 10
3.148200
 20
7.186960
  0
VERTEX
  8
0
 62
     0
  6
CONTINUOUS
 10
2.828320
 20
7.186960
  0
VERTEX
  8
0
 62
     0
  6
CONTINUOUS
 10
2.828320
 20
7.403880
  0
SEQEND
  8
0
  0
POLYLINE
  8
0
 62
     0
  6
CONTINUOUS
 66
     1
 40
0.000000
 41
0.000000
  0
VERTEX
  8
0
 62
     0
  6
CONTINUOUS
 10
2.818640
 20
7.293000
  0
VERTEX
  8
0
 62
     0
  6
CONTINUOUS
 10
2.661120
 20
7.293000
  0
VERTEX
  8
0
 62
     0
  6
CONTINUOUS
 10
2.661120
 20
7.759400
  0
SEQEND
  8
0
  0
ENDSEC
  0
EOF
