  0
SECTION
  2
HEADER
  9
$EXTMIN
 10
1.525040
 20
1.946120
  9
$EXTMAX
 10
3.935360
 20
3.714480
  9
$LTSCALE
 40
0.044000
  9
$PDMODE
 70
    35
  9
$PDSIZE
 40
0.035200
  0
ENDSEC
  0
SECTION
  2
TABLES
  0
TABLE
  2
LTYPE
 70
     9
  0
LTYPE
  2
CONTINUOUS
 70
    64
  3
Solid line
 72
    65
 73
     0
 40
0.000000
  0
LTYPE
  2
DASHED
 70
    64
  3
__ __ __ __ __ __ __ __ __ __ __ __ __ __ __
 72
    65
 73
     2
 40
0.000330
 49
0.000220
 49
-0.000110
  0
LTYPE
  2
HIDDEN
 70
    64
  3
 _ _ _ _ _ _ _ _ _ _ _ _ _ _ _ _ _ _ _ _ _ _
 72
    65
 73
     2
 40
0.000165
 49
0.000110
 49
-0.000055
  0
LTYPE
  2
CENTER
 70
    64
  3
____ _ ____ _ ____ _ ____ _ ____ _ ____ _ ____
 72
    65
 73
     4
 40
0.000880
 49
0.000550
 49
-0.000110
 49
0.000110
 49
-0.000110
  0
LTYPE
  2
PHANTOM
 70
    64
  3
_____ _ _ _____ _ _ _____ _ _ _____ _ _ ____
 72
    65
 73
     6
 40
0.001100
 49
0.000550
 49
-0.000110
 49
0.000110
 49
-0.000110
 49
0.000110
 49
-0.000110
  0
LTYPE
  2
DOT
 70
    64
  3
...............................................
 72
    65
 73
     2
 40
0.000110
 49
0.000000
 49
-0.000110
  0
LTYPE
  2
DASHDOT
 70
    64
  3
__ . __ . __ . __ . __ . __ . __ . __ . __ . __
 72
    65
 73
     4
 40
0.000440
 49
0.000220
 49
-0.000110
 49
0.000000
 49
-0.000110
  0
LTYPE
  2
BORDER
 70
    64
  3
__ __ . __ __ . __ __ . __ __ . __ __ . __ __
 72
    65
 73
     6
 40
0.000770
 49
0.000220
 49
-0.000110
 49
0.000220
 49
-0.000110
 49
0.000000
 49
-0.000110
  0
LTYPE
  2
DIVIDE
 70
    64
  3
__ . . __ . . __ . . __ . . __ . . __ . . __
 72
    65
 73
     6
 40
0.000550
 49
0.000220
 49
-0.000110
 49
0.000000
 49
-0.000110
 49
0.000000
 49
-0.000110
  0
LTYPE
  2
DOTDOT
 70
    64
  3
 . .  . .  . .  . .  . .  . . 
 72
    65
 73
     5
 40
0.000242
 49
-0.000110
 49
0.000000
 49
-0.000110
 49
0.000000
 49
-0.000110
  0
ENDTAB
  0
TABLE
  2
STYLE
 70
     2
  0
STYLE
 70
     0
  2
SN0
 40
0.000000
 41
0.000440
 50
0.000000
 71
     0
 42
0.000000
  3
ROMANS
  0
STYLE
 70
    68
  2
SV0
 40
0.000000
 41
0.000440
 50
0.000000
 71
     0
 42
0.000000
  3
ROMANS
  0
ENDTAB
  0
TABLE
  2
LAYER
 70
     3
  0
LAYER
  2
FOREGROUND
 70
    64
 62
     7
  6
CONTINUOUS
  0
LAYER
  2
BACKGROUND
 70
    65
 62
    -7
  6
CONTINUOUS
  0
LAYER
  2
0
 70
    64
 62
     7
  6
CONTINUOUS
  0
ENDTAB
  0
ENDSEC
  0
SECTION
  2
ENTITIES
  0
POLYLINE
  8
0
 62
     0
  6
CONTINUOUS
 66
     1
 40
0.002200
 41
0.002200
  0
VERTEX
  8
0
 62
     0
  6
CONTINUOUS
 10
1.905640
 20
3.256440
  0
VERTEX
  8
0
 62
     0
  6
CONTINUOUS
 10
1.526360
 20
3.633960
  0
SEQEND
  8
0
  0
POLYLINE
  8
0
 62
     0
  6
CONTINUOUS
 66
     1
 40
0.002200
 41
0.002200
  0
VERTEX
  8
0
 62
     0
  6
CONTINUOUS
 10
2.611840
 20
3.456200
  0
VERTEX
  8
0
 62
     0
  6
CONTINUOUS
 10
2.332880
 20
3.591280
  0
SEQEND
  8
0
  0
POLYLINE
  8
0
 62
     0
  6
CONTINUOUS
 66
     1
 40
0.002200
 41
0.002200
  0
VERTEX
  8
0
 62
     0
  6
CONTINUOUS
 10
2.332880
 20
3.472920
  0
VERTEX
  8
0
 62
     0
  6
CONTINUOUS
 10
2.611840
 20
3.337840
  0
SEQEND
  8
0
  0
POLYLINE
  8
0
 62
     0
  6
CONTINUOUS
 66
     1
 40
0.002200
 41
0.002200
  0
VERTEX
  8
0
 62
     0
  6
CONTINUOUS
 10
2.611840
 20
3.199240
  0
VERTEX
  8
0
 62
     0
  6
CONTINUOUS
 10
2.332880
 20
3.334320
  0
SEQEND
  8
0
  0
POLYLINE
  8
0
 62
     0
  6
CONTINUOUS
 66
     1
 40
0.002200
 41
0.002200
  0
VERTEX
  8
0
 62
     0
  6
CONTINUOUS
 10
2.332880
 20
3.190000
  0
VERTEX
  8
0
 62
     0
  6
CONTINUOUS
 10
2.611840
 20
3.054920
  0
SEQEND
  8
0
  0
POLYLINE
  8
0
 62
     0
  6
CONTINUOUS
 66
     1
 40
0.002200
 41
0.002200
  0
VERTEX
  8
0
 62
     0
  6
CONTINUOUS
 10
2.611840
 20
2.927320
  0
VERTEX
  8
0
 62
     0
  6
CONTINUOUS
 10
2.332880
 20
3.064160
  0
SEQEND
  8
0
  0
POLYLINE
  8
0
 62
     0
  6
CONTINUOUS
 66
     1
 40
0.002200
 41
0.002200
  0
VERTEX
  8
0
 62
     0
  6
CONTINUOUS
 10
2.467520
 20
3.097600
  0
VERTEX
  8
0
 62
     0
  6
CONTINUOUS
 10
2.484240
 20
3.112120
  0
SEQEND
  8
0
  0
POLYLINE
  8
0
 62
     0
  6
CONTINUOUS
 66
     1
 40
0.002200
 41
0.002200
  0
VERTEX
  8
0
 62
     0
  6
CONTINUOUS
 10
2.484240
 20
3.112120
  0
VERTEX
  8
0
 62
     0
  6
CONTINUOUS
 10
2.486000
 20
3.091880
  0
SEQEND
  8
0
  0
POLYLINE
  8
0
 62
     0
  6
CONTINUOUS
 66
     1
 40
0.002200
 41
0.002200
  0
VERTEX
  8
0
 62
     0
  6
CONTINUOUS
 10
2.486000
 20
3.091880
  0
VERTEX
  8
0
 62
     0
  6
CONTINUOUS
 10
2.480720
 20
3.091880
  0
SEQEND
  8
0
  0
POLYLINE
  8
0
 62
     0
  6
CONTINUOUS
 66
     1
 40
0.002200
 41
0.002200
  0
VERTEX
  8
0
 62
     0
  6
CONTINUOUS
 10
2.480720
 20
3.091880
  0
VERTEX
  8
0
 62
     0
  6
CONTINUOUS
 10
2.484240
 20
3.112120
  0
SEQEND
  8
0
  0
POLYLINE
  8
0
 62
     0
  6
CONTINUOUS
 66
     1
 40
0.002200
 41
0.002200
  0
VERTEX
  8
0
 62
     0
  6
CONTINUOUS
 10
2.484240
 20
3.112120
  0
VERTEX
  8
0
 62
     0
  6
CONTINUOUS
 10
2.497440
 20
3.097600
  0
SEQEND
  8
0
  0
POLYLINE
  8
0
 62
     0
  6
CONTINUOUS
 66
     1
 40
0.002200
 41
0.002200
  0
VERTEX
  8
0
 62
     0
  6
CONTINUOUS
 10
2.491720
 20
3.093640
  0
VERTEX
  8
0
 62
     0
  6
CONTINUOUS
 10
2.484240
 20
3.112120
  0
SEQEND
  8
0
  0
POLYLINE
  8
0
 62
     0
  6
CONTINUOUS
 66
     1
 40
0.002200
 41
0.002200
  0
VERTEX
  8
0
 62
     0
  6
CONTINUOUS
 10
2.484240
 20
3.112120
  0
VERTEX
  8
0
 62
     0
  6
CONTINUOUS
 10
2.502720
 20
3.108600
  0
SEQEND
  8
0
  0
POLYLINE
  8
0
 62
     0
  6
CONTINUOUS
 66
     1
 40
0.002200
 41
0.002200
  0
VERTEX
  8
0
 62
     0
  6
CONTINUOUS
 10
2.502720
 20
3.108600
  0
VERTEX
  8
0
 62
     0
  6
CONTINUOUS
 10
2.502720
 20
3.116080
  0
SEQEND
  8
0
  0
POLYLINE
  8
0
 62
     0
  6
CONTINUOUS
 66
     1
 40
0.002200
 41
0.002200
  0
VERTEX
  8
0
 62
     0
  6
CONTINUOUS
 10
2.502720
 20
3.116080
  0
VERTEX
  8
0
 62
     0
  6
CONTINUOUS
 10
2.484240
 20
3.112120
  0
SEQEND
  8
0
  0
POLYLINE
  8
0
 62
     0
  6
CONTINUOUS
 66
     1
 40
0.002200
 41
0.002200
  0
VERTEX
  8
0
 62
     0
  6
CONTINUOUS
 10
2.484240
 20
3.112120
  0
VERTEX
  8
0
 62
     0
  6
CONTINUOUS
 10
2.502720
 20
3.123120
  0
SEQEND
  8
0
  0
POLYLINE
  8
0
 62
     0
  6
CONTINUOUS
 66
     1
 40
0.002200
 41
0.002200
  0
VERTEX
  8
0
 62
     0
  6
CONTINUOUS
 10
2.497440
 20
3.127080
  0
VERTEX
  8
0
 62
     0
  6
CONTINUOUS
 10
2.484240
 20
3.112120
  0
SEQEND
  8
0
  0
POLYLINE
  8
0
 62
     0
  6
CONTINUOUS
 66
     1
 40
0.002200
 41
0.002200
  0
VERTEX
  8
0
 62
     0
  6
CONTINUOUS
 10
2.484240
 20
3.112120
  0
VERTEX
  8
0
 62
     0
  6
CONTINUOUS
 10
2.480720
 20
3.134560
  0
SEQEND
  8
0
  0
POLYLINE
  8
0
 62
     0
  6
CONTINUOUS
 66
     1
 40
0.002200
 41
0.002200
  0
VERTEX
  8
0
 62
     0
  6
CONTINUOUS
 10
2.480720
 20
3.134560
  0
VERTEX
  8
0
 62
     0
  6
CONTINUOUS
 10
2.486000
 20
3.134560
  0
SEQEND
  8
0
  0
POLYLINE
  8
0
 62
     0
  6
CONTINUOUS
 66
     1
 40
0.002200
 41
0.002200
  0
VERTEX
  8
0
 62
     0
  6
CONTINUOUS
 10
2.486000
 20
3.134560
  0
VERTEX
  8
0
 62
     0
  6
CONTINUOUS
 10
2.484240
 20
3.112120
  0
SEQEND
  8
0
  0
POLYLINE
  8
0
 62
     0
  6
CONTINUOUS
 66
     1
 40
0.002200
 41
0.002200
  0
VERTEX
  8
0
 62
     0
  6
CONTINUOUS
 10
2.484240
 20
3.112120
  0
VERTEX
  8
0
 62
     0
  6
CONTINUOUS
 10
2.467520
 20
3.127080
  0
SEQEND
  8
0
  0
POLYLINE
  8
0
 62
     0
  6
CONTINUOUS
 66
     1
 40
0.002200
 41
0.002200
  0
VERTEX
  8
0
 62
     0
  6
CONTINUOUS
 10
2.465760
 20
3.123120
  0
VERTEX
  8
0
 62
     0
  6
CONTINUOUS
 10
2.484240
 20
3.112120
  0
SEQEND
  8
0
  0
POLYLINE
  8
0
 62
     0
  6
CONTINUOUS
 66
     1
 40
0.002200
 41
0.002200
  0
VERTEX
  8
0
 62
     0
  6
CONTINUOUS
 10
2.484240
 20
3.112120
  0
VERTEX
  8
0
 62
     0
  6
CONTINUOUS
 10
2.462240
 20
3.116080
  0
SEQEND
  8
0
  0
POLYLINE
  8
0
 62
     0
  6
CONTINUOUS
 66
     1
 40
0.002200
 41
0.002200
  0
VERTEX
  8
0
 62
     0
  6
CONTINUOUS
 10
2.462240
 20
3.116080
  0
VERTEX
  8
0
 62
     0
  6
CONTINUOUS
 10
2.462240
 20
3.108600
  0
SEQEND
  8
0
  0
POLYLINE
  8
0
 62
     0
  6
CONTINUOUS
 66
     1
 40
0.002200
 41
0.002200
  0
VERTEX
  8
0
 62
     0
  6
CONTINUOUS
 10
2.462240
 20
3.108600
  0
VERTEX
  8
0
 62
     0
  6
CONTINUOUS
 10
2.484240
 20
3.112120
  0
SEQEND
  8
0
  0
POLYLINE
  8
0
 62
     0
  6
CONTINUOUS
 66
     1
 40
0.002200
 41
0.002200
  0
VERTEX
  8
0
 62
     0
  6
CONTINUOUS
 10
2.484240
 20
3.112120
  0
VERTEX
  8
0
 62
     0
  6
CONTINUOUS
 10
2.465760
 20
3.102880
  0
SEQEND
  8
0
  0
POLYLINE
  8
0
 62
     0
  6
CONTINUOUS
 66
     1
 40
0.002200
 41
0.002200
  0
VERTEX
  8
0
 62
     0
  6
CONTINUOUS
 10
2.473240
 20
3.093640
  0
VERTEX
  8
0
 62
     0
  6
CONTINUOUS
 10
2.484240
 20
3.112120
  0
SEQEND
  8
0
  0
POLYLINE
  8
0
 62
     0
  6
CONTINUOUS
 66
     1
 40
0.002200
 41
0.002200
  0
VERTEX
  8
0
 62
     0
  6
CONTINUOUS
 10
2.484240
 20
3.112120
  0
VERTEX
  8
0
 62
     0
  6
CONTINUOUS
 10
2.502720
 20
3.102880
  0
SEQEND
  8
0
  0
POLYLINE
  8
0
 62
     0
  6
CONTINUOUS
 66
     1
 40
0.002200
 41
0.002200
  0
VERTEX
  8
0
 62
     0
  6
CONTINUOUS
 10
2.484240
 20
3.112120
  0
VERTEX
  8
0
 62
     0
  6
CONTINUOUS
 10
2.491720
 20
3.130600
  0
SEQEND
  8
0
  0
POLYLINE
  8
0
 62
     0
  6
CONTINUOUS
 66
     1
 40
0.002200
 41
0.002200
  0
VERTEX
  8
0
 62
     0
  6
CONTINUOUS
 10
2.473240
 20
3.130600
  0
VERTEX
  8
0
 62
     0
  6
CONTINUOUS
 10
2.484240
 20
3.112120
  0
SEQEND
  8
0
  0
POLYLINE
  8
0
 62
     0
  6
CONTINUOUS
 66
     1
 40
0.002200
 41
0.002200
  0
VERTEX
  8
0
 62
     0
  6
CONTINUOUS
 10
2.486000
 20
3.008720
  0
VERTEX
  8
0
 62
     0
  6
CONTINUOUS
 10
2.484240
 20
2.988480
  0
SEQEND
  8
0
  0
POLYLINE
  8
0
 62
     0
  6
CONTINUOUS
 66
     1
 40
0.002200
 41
0.002200
  0
VERTEX
  8
0
 62
     0
  6
CONTINUOUS
 10
2.484240
 20
2.988480
  0
VERTEX
  8
0
 62
     0
  6
CONTINUOUS
 10
2.480720
 20
3.008720
  0
SEQEND
  8
0
  0
POLYLINE
  8
0
 62
     0
  6
CONTINUOUS
 66
     1
 40
0.002200
 41
0.002200
  0
VERTEX
  8
0
 62
     0
  6
CONTINUOUS
 10
2.473240
 20
3.004760
  0
VERTEX
  8
0
 62
     0
  6
CONTINUOUS
 10
2.484240
 20
2.988480
  0
SEQEND
  8
0
  0
POLYLINE
  8
0
 62
     0
  6
CONTINUOUS
 66
     1
 40
0.002200
 41
0.002200
  0
VERTEX
  8
0
 62
     0
  6
CONTINUOUS
 10
2.484240
 20
2.988480
  0
VERTEX
  8
0
 62
     0
  6
CONTINUOUS
 10
2.467520
 20
3.001240
  0
SEQEND
  8
0
  0
POLYLINE
  8
0
 62
     0
  6
CONTINUOUS
 66
     1
 40
0.002200
 41
0.002200
  0
VERTEX
  8
0
 62
     0
  6
CONTINUOUS
 10
2.465760
 20
2.997720
  0
VERTEX
  8
0
 62
     0
  6
CONTINUOUS
 10
2.484240
 20
2.988480
  0
SEQEND
  8
0
  0
POLYLINE
  8
0
 62
     0
  6
CONTINUOUS
 66
     1
 40
0.002200
 41
0.002200
  0
VERTEX
  8
0
 62
     0
  6
CONTINUOUS
 10
2.484240
 20
2.988480
  0
VERTEX
  8
0
 62
     0
  6
CONTINUOUS
 10
2.462240
 20
2.990240
  0
SEQEND
  8
0
  0
POLYLINE
  8
0
 62
     0
  6
CONTINUOUS
 66
     1
 40
0.002200
 41
0.002200
  0
VERTEX
  8
0
 62
     0
  6
CONTINUOUS
 10
2.462240
 20
2.990240
  0
VERTEX
  8
0
 62
     0
  6
CONTINUOUS
 10
2.462240
 20
2.982760
  0
SEQEND
  8
0
  0
POLYLINE
  8
0
 62
     0
  6
CONTINUOUS
 66
     1
 40
0.002200
 41
0.002200
  0
VERTEX
  8
0
 62
     0
  6
CONTINUOUS
 10
2.462240
 20
2.982760
  0
VERTEX
  8
0
 62
     0
  6
CONTINUOUS
 10
2.484240
 20
2.988480
  0
SEQEND
  8
0
  0
POLYLINE
  8
0
 62
     0
  6
CONTINUOUS
 66
     1
 40
0.002200
 41
0.002200
  0
VERTEX
  8
0
 62
     0
  6
CONTINUOUS
 10
2.484240
 20
2.988480
  0
VERTEX
  8
0
 62
     0
  6
CONTINUOUS
 10
2.465760
 20
2.977040
  0
SEQEND
  8
0
  0
POLYLINE
  8
0
 62
     0
  6
CONTINUOUS
 66
     1
 40
0.002200
 41
0.002200
  0
VERTEX
  8
0
 62
     0
  6
CONTINUOUS
 10
2.467520
 20
2.971760
  0
VERTEX
  8
0
 62
     0
  6
CONTINUOUS
 10
2.484240
 20
2.988480
  0
SEQEND
  8
0
  0
POLYLINE
  8
0
 62
     0
  6
CONTINUOUS
 66
     1
 40
0.002200
 41
0.002200
  0
VERTEX
  8
0
 62
     0
  6
CONTINUOUS
 10
2.484240
 20
2.988480
  0
VERTEX
  8
0
 62
     0
  6
CONTINUOUS
 10
2.486000
 20
2.966040
  0
SEQEND
  8
0
  0
POLYLINE
  8
0
 62
     0
  6
CONTINUOUS
 66
     1
 40
0.002200
 41
0.002200
  0
VERTEX
  8
0
 62
     0
  6
CONTINUOUS
 10
2.486000
 20
2.966040
  0
VERTEX
  8
0
 62
     0
  6
CONTINUOUS
 10
2.480720
 20
2.966040
  0
SEQEND
  8
0
  0
POLYLINE
  8
0
 62
     0
  6
CONTINUOUS
 66
     1
 40
0.002200
 41
0.002200
  0
VERTEX
  8
0
 62
     0
  6
CONTINUOUS
 10
2.480720
 20
2.966040
  0
VERTEX
  8
0
 62
     0
  6
CONTINUOUS
 10
2.484240
 20
2.988480
  0
SEQEND
  8
0
  0
POLYLINE
  8
0
 62
     0
  6
CONTINUOUS
 66
     1
 40
0.002200
 41
0.002200
  0
VERTEX
  8
0
 62
     0
  6
CONTINUOUS
 10
2.484240
 20
2.988480
  0
VERTEX
  8
0
 62
     0
  6
CONTINUOUS
 10
2.497440
 20
2.971760
  0
SEQEND
  8
0
  0
POLYLINE
  8
0
 62
     0
  6
CONTINUOUS
 66
     1
 40
0.002200
 41
0.002200
  0
VERTEX
  8
0
 62
     0
  6
CONTINUOUS
 10
2.502720
 20
2.977040
  0
VERTEX
  8
0
 62
     0
  6
CONTINUOUS
 10
2.484240
 20
2.988480
  0
SEQEND
  8
0
  0
POLYLINE
  8
0
 62
     0
  6
CONTINUOUS
 66
     1
 40
0.002200
 41
0.002200
  0
VERTEX
  8
0
 62
     0
  6
CONTINUOUS
 10
2.484240
 20
2.988480
  0
VERTEX
  8
0
 62
     0
  6
CONTINUOUS
 10
2.502720
 20
2.982760
  0
SEQEND
  8
0
  0
POLYLINE
  8
0
 62
     0
  6
CONTINUOUS
 66
     1
 40
0.002200
 41
0.002200
  0
VERTEX
  8
0
 62
     0
  6
CONTINUOUS
 10
2.502720
 20
2.982760
  0
VERTEX
  8
0
 62
     0
  6
CONTINUOUS
 10
2.502720
 20
2.990240
  0
SEQEND
  8
0
  0
POLYLINE
  8
0
 62
     0
  6
CONTINUOUS
 66
     1
 40
0.002200
 41
0.002200
  0
VERTEX
  8
0
 62
     0
  6
CONTINUOUS
 10
2.502720
 20
2.990240
  0
VERTEX
  8
0
 62
     0
  6
CONTINUOUS
 10
2.484240
 20
2.988480
  0
SEQEND
  8
0
  0
POLYLINE
  8
0
 62
     0
  6
CONTINUOUS
 66
     1
 40
0.002200
 41
0.002200
  0
VERTEX
  8
0
 62
     0
  6
CONTINUOUS
 10
2.484240
 20
2.988480
  0
VERTEX
  8
0
 62
     0
  6
CONTINUOUS
 10
2.502720
 20
2.997720
  0
SEQEND
  8
0
  0
POLYLINE
  8
0
 62
     0
  6
CONTINUOUS
 66
     1
 40
0.002200
 41
0.002200
  0
VERTEX
  8
0
 62
     0
  6
CONTINUOUS
 10
2.497440
 20
3.001240
  0
VERTEX
  8
0
 62
     0
  6
CONTINUOUS
 10
2.484240
 20
2.988480
  0
SEQEND
  8
0
  0
POLYLINE
  8
0
 62
     0
  6
CONTINUOUS
 66
     1
 40
0.002200
 41
0.002200
  0
VERTEX
  8
0
 62
     0
  6
CONTINUOUS
 10
2.484240
 20
2.988480
  0
VERTEX
  8
0
 62
     0
  6
CONTINUOUS
 10
2.491720
 20
3.004760
  0
SEQEND
  8
0
  0
POLYLINE
  8
0
 62
     0
  6
CONTINUOUS
 66
     1
 40
0.002200
 41
0.002200
  0
VERTEX
  8
0
 62
     0
  6
CONTINUOUS
 10
2.484240
 20
2.988480
  0
VERTEX
  8
0
 62
     0
  6
CONTINUOUS
 10
2.473240
 20
2.967800
  0
SEQEND
  8
0
  0
POLYLINE
  8
0
 62
     0
  6
CONTINUOUS
 66
     1
 40
0.002200
 41
0.002200
  0
VERTEX
  8
0
 62
     0
  6
CONTINUOUS
 10
2.491720
 20
2.967800
  0
VERTEX
  8
0
 62
     0
  6
CONTINUOUS
 10
2.484240
 20
2.988480
  0
SEQEND
  8
0
  0
POLYLINE
  8
0
 62
     0
  6
CONTINUOUS
 66
     1
 40
0.002200
 41
0.002200
  0
VERTEX
  8
0
 62
     0
  6
CONTINUOUS
 10
2.480720
 20
3.236200
  0
VERTEX
  8
0
 62
     0
  6
CONTINUOUS
 10
2.484240
 20
3.256440
  0
SEQEND
  8
0
  0
POLYLINE
  8
0
 62
     0
  6
CONTINUOUS
 66
     1
 40
0.002200
 41
0.002200
  0
VERTEX
  8
0
 62
     0
  6
CONTINUOUS
 10
2.484240
 20
3.256440
  0
VERTEX
  8
0
 62
     0
  6
CONTINUOUS
 10
2.486000
 20
3.236200
  0
SEQEND
  8
0
  0
POLYLINE
  8
0
 62
     0
  6
CONTINUOUS
 66
     1
 40
0.002200
 41
0.002200
  0
VERTEX
  8
0
 62
     0
  6
CONTINUOUS
 10
2.491720
 20
3.237960
  0
VERTEX
  8
0
 62
     0
  6
CONTINUOUS
 10
2.484240
 20
3.256440
  0
SEQEND
  8
0
  0
POLYLINE
  8
0
 62
     0
  6
CONTINUOUS
 66
     1
 40
0.002200
 41
0.002200
  0
VERTEX
  8
0
 62
     0
  6
CONTINUOUS
 10
2.484240
 20
3.256440
  0
VERTEX
  8
0
 62
     0
  6
CONTINUOUS
 10
2.497440
 20
3.241920
  0
SEQEND
  8
0
  0
POLYLINE
  8
0
 62
     0
  6
CONTINUOUS
 66
     1
 40
0.002200
 41
0.002200
  0
VERTEX
  8
0
 62
     0
  6
CONTINUOUS
 10
2.502720
 20
3.247200
  0
VERTEX
  8
0
 62
     0
  6
CONTINUOUS
 10
2.484240
 20
3.256440
  0
SEQEND
  8
0
  0
POLYLINE
  8
0
 62
     0
  6
CONTINUOUS
 66
     1
 40
0.002200
 41
0.002200
  0
VERTEX
  8
0
 62
     0
  6
CONTINUOUS
 10
2.484240
 20
3.256440
  0
VERTEX
  8
0
 62
     0
  6
CONTINUOUS
 10
2.502720
 20
3.254680
  0
SEQEND
  8
0
  0
POLYLINE
  8
0
 62
     0
  6
CONTINUOUS
 66
     1
 40
0.002200
 41
0.002200
  0
VERTEX
  8
0
 62
     0
  6
CONTINUOUS
 10
2.502720
 20
3.254680
  0
VERTEX
  8
0
 62
     0
  6
CONTINUOUS
 10
2.502720
 20
3.260400
  0
SEQEND
  8
0
  0
POLYLINE
  8
0
 62
     0
  6
CONTINUOUS
 66
     1
 40
0.002200
 41
0.002200
  0
VERTEX
  8
0
 62
     0
  6
CONTINUOUS
 10
2.502720
 20
3.260400
  0
VERTEX
  8
0
 62
     0
  6
CONTINUOUS
 10
2.484240
 20
3.256440
  0
SEQEND
  8
0
  0
POLYLINE
  8
0
 62
     0
  6
CONTINUOUS
 66
     1
 40
0.002200
 41
0.002200
  0
VERTEX
  8
0
 62
     0
  6
CONTINUOUS
 10
2.484240
 20
3.256440
  0
VERTEX
  8
0
 62
     0
  6
CONTINUOUS
 10
2.502720
 20
3.267440
  0
SEQEND
  8
0
  0
POLYLINE
  8
0
 62
     0
  6
CONTINUOUS
 66
     1
 40
0.002200
 41
0.002200
  0
VERTEX
  8
0
 62
     0
  6
CONTINUOUS
 10
2.497440
 20
3.271400
  0
VERTEX
  8
0
 62
     0
  6
CONTINUOUS
 10
2.484240
 20
3.256440
  0
SEQEND
  8
0
  0
POLYLINE
  8
0
 62
     0
  6
CONTINUOUS
 66
     1
 40
0.002200
 41
0.002200
  0
VERTEX
  8
0
 62
     0
  6
CONTINUOUS
 10
2.484240
 20
3.256440
  0
VERTEX
  8
0
 62
     0
  6
CONTINUOUS
 10
2.486000
 20
3.278880
  0
SEQEND
  8
0
  0
POLYLINE
  8
0
 62
     0
  6
CONTINUOUS
 66
     1
 40
0.002200
 41
0.002200
  0
VERTEX
  8
0
 62
     0
  6
CONTINUOUS
 10
2.486000
 20
3.278880
  0
VERTEX
  8
0
 62
     0
  6
CONTINUOUS
 10
2.480720
 20
3.278880
  0
SEQEND
  8
0
  0
POLYLINE
  8
0
 62
     0
  6
CONTINUOUS
 66
     1
 40
0.002200
 41
0.002200
  0
VERTEX
  8
0
 62
     0
  6
CONTINUOUS
 10
2.480720
 20
3.278880
  0
VERTEX
  8
0
 62
     0
  6
CONTINUOUS
 10
2.484240
 20
3.256440
  0
SEQEND
  8
0
  0
POLYLINE
  8
0
 62
     0
  6
CONTINUOUS
 66
     1
 40
0.002200
 41
0.002200
  0
VERTEX
  8
0
 62
     0
  6
CONTINUOUS
 10
2.484240
 20
3.256440
  0
VERTEX
  8
0
 62
     0
  6
CONTINUOUS
 10
2.467520
 20
3.271400
  0
SEQEND
  8
0
  0
POLYLINE
  8
0
 62
     0
  6
CONTINUOUS
 66
     1
 40
0.002200
 41
0.002200
  0
VERTEX
  8
0
 62
     0
  6
CONTINUOUS
 10
2.465760
 20
3.267440
  0
VERTEX
  8
0
 62
     0
  6
CONTINUOUS
 10
2.484240
 20
3.256440
  0
SEQEND
  8
0
  0
POLYLINE
  8
0
 62
     0
  6
CONTINUOUS
 66
     1
 40
0.002200
 41
0.002200
  0
VERTEX
  8
0
 62
     0
  6
CONTINUOUS
 10
2.484240
 20
3.256440
  0
VERTEX
  8
0
 62
     0
  6
CONTINUOUS
 10
2.462240
 20
3.260400
  0
SEQEND
  8
0
  0
POLYLINE
  8
0
 62
     0
  6
CONTINUOUS
 66
     1
 40
0.002200
 41
0.002200
  0
VERTEX
  8
0
 62
     0
  6
CONTINUOUS
 10
2.462240
 20
3.260400
  0
VERTEX
  8
0
 62
     0
  6
CONTINUOUS
 10
2.462240
 20
3.254680
  0
SEQEND
  8
0
  0
POLYLINE
  8
0
 62
     0
  6
CONTINUOUS
 66
     1
 40
0.002200
 41
0.002200
  0
VERTEX
  8
0
 62
     0
  6
CONTINUOUS
 10
2.462240
 20
3.254680
  0
VERTEX
  8
0
 62
     0
  6
CONTINUOUS
 10
2.484240
 20
3.256440
  0
SEQEND
  8
0
  0
POLYLINE
  8
0
 62
     0
  6
CONTINUOUS
 66
     1
 40
0.002200
 41
0.002200
  0
VERTEX
  8
0
 62
     0
  6
CONTINUOUS
 10
2.484240
 20
3.256440
  0
VERTEX
  8
0
 62
     0
  6
CONTINUOUS
 10
2.465760
 20
3.247200
  0
SEQEND
  8
0
  0
POLYLINE
  8
0
 62
     0
  6
CONTINUOUS
 66
     1
 40
0.002200
 41
0.002200
  0
VERTEX
  8
0
 62
     0
  6
CONTINUOUS
 10
2.467520
 20
3.241920
  0
VERTEX
  8
0
 62
     0
  6
CONTINUOUS
 10
2.484240
 20
3.256440
  0
SEQEND
  8
0
  0
POLYLINE
  8
0
 62
     0
  6
CONTINUOUS
 66
     1
 40
0.002200
 41
0.002200
  0
VERTEX
  8
0
 62
     0
  6
CONTINUOUS
 10
2.484240
 20
3.256440
  0
VERTEX
  8
0
 62
     0
  6
CONTINUOUS
 10
2.473240
 20
3.237960
  0
SEQEND
  8
0
  0
POLYLINE
  8
0
 62
     0
  6
CONTINUOUS
 66
     1
 40
0.002200
 41
0.002200
  0
VERTEX
  8
0
 62
     0
  6
CONTINUOUS
 10
2.484240
 20
3.256440
  0
VERTEX
  8
0
 62
     0
  6
CONTINUOUS
 10
2.491720
 20
3.276680
  0
SEQEND
  8
0
  0
POLYLINE
  8
0
 62
     0
  6
CONTINUOUS
 66
     1
 40
0.002200
 41
0.002200
  0
VERTEX
  8
0
 62
     0
  6
CONTINUOUS
 10
2.473240
 20
3.276680
  0
VERTEX
  8
0
 62
     0
  6
CONTINUOUS
 10
2.484240
 20
3.256440
  0
SEQEND
  8
0
  0
POLYLINE
  8
0
 62
     0
  6
CONTINUOUS
 66
     1
 40
0.002200
 41
0.002200
  0
VERTEX
  8
0
 62
     0
  6
CONTINUOUS
 10
2.486000
 20
3.374800
  0
VERTEX
  8
0
 62
     0
  6
CONTINUOUS
 10
2.484240
 20
3.397240
  0
SEQEND
  8
0
  0
POLYLINE
  8
0
 62
     0
  6
CONTINUOUS
 66
     1
 40
0.002200
 41
0.002200
  0
VERTEX
  8
0
 62
     0
  6
CONTINUOUS
 10
2.484240
 20
3.397240
  0
VERTEX
  8
0
 62
     0
  6
CONTINUOUS
 10
2.497440
 20
3.380520
  0
SEQEND
  8
0
  0
POLYLINE
  8
0
 62
     0
  6
CONTINUOUS
 66
     1
 40
0.002200
 41
0.002200
  0
VERTEX
  8
0
 62
     0
  6
CONTINUOUS
 10
2.502720
 20
3.385800
  0
VERTEX
  8
0
 62
     0
  6
CONTINUOUS
 10
2.484240
 20
3.397240
  0
SEQEND
  8
0
  0
POLYLINE
  8
0
 62
     0
  6
CONTINUOUS
 66
     1
 40
0.002200
 41
0.002200
  0
VERTEX
  8
0
 62
     0
  6
CONTINUOUS
 10
2.484240
 20
3.397240
  0
VERTEX
  8
0
 62
     0
  6
CONTINUOUS
 10
2.502720
 20
3.393280
  0
SEQEND
  8
0
  0
POLYLINE
  8
0
 62
     0
  6
CONTINUOUS
 66
     1
 40
0.002200
 41
0.002200
  0
VERTEX
  8
0
 62
     0
  6
CONTINUOUS
 10
2.502720
 20
3.393280
  0
VERTEX
  8
0
 62
     0
  6
CONTINUOUS
 10
2.502720
 20
3.399000
  0
SEQEND
  8
0
  0
POLYLINE
  8
0
 62
     0
  6
CONTINUOUS
 66
     1
 40
0.002200
 41
0.002200
  0
VERTEX
  8
0
 62
     0
  6
CONTINUOUS
 10
2.502720
 20
3.399000
  0
VERTEX
  8
0
 62
     0
  6
CONTINUOUS
 10
2.484240
 20
3.397240
  0
SEQEND
  8
0
  0
POLYLINE
  8
0
 62
     0
  6
CONTINUOUS
 66
     1
 40
0.002200
 41
0.002200
  0
VERTEX
  8
0
 62
     0
  6
CONTINUOUS
 10
2.484240
 20
3.397240
  0
VERTEX
  8
0
 62
     0
  6
CONTINUOUS
 10
2.502720
 20
3.406480
  0
SEQEND
  8
0
  0
POLYLINE
  8
0
 62
     0
  6
CONTINUOUS
 66
     1
 40
0.002200
 41
0.002200
  0
VERTEX
  8
0
 62
     0
  6
CONTINUOUS
 10
2.497440
 20
3.411760
  0
VERTEX
  8
0
 62
     0
  6
CONTINUOUS
 10
2.484240
 20
3.397240
  0
SEQEND
  8
0
  0
POLYLINE
  8
0
 62
     0
  6
CONTINUOUS
 66
     1
 40
0.002200
 41
0.002200
  0
VERTEX
  8
0
 62
     0
  6
CONTINUOUS
 10
2.484240
 20
3.397240
  0
VERTEX
  8
0
 62
     0
  6
CONTINUOUS
 10
2.486000
 20
3.419240
  0
SEQEND
  8
0
  0
POLYLINE
  8
0
 62
     0
  6
CONTINUOUS
 66
     1
 40
0.002200
 41
0.002200
  0
VERTEX
  8
0
 62
     0
  6
CONTINUOUS
 10
2.486000
 20
3.419240
  0
VERTEX
  8
0
 62
     0
  6
CONTINUOUS
 10
2.480720
 20
3.419240
  0
SEQEND
  8
0
  0
POLYLINE
  8
0
 62
     0
  6
CONTINUOUS
 66
     1
 40
0.002200
 41
0.002200
  0
VERTEX
  8
0
 62
     0
  6
CONTINUOUS
 10
2.480720
 20
3.419240
  0
VERTEX
  8
0
 62
     0
  6
CONTINUOUS
 10
2.484240
 20
3.397240
  0
SEQEND
  8
0
  0
POLYLINE
  8
0
 62
     0
  6
CONTINUOUS
 66
     1
 40
0.002200
 41
0.002200
  0
VERTEX
  8
0
 62
     0
  6
CONTINUOUS
 10
2.484240
 20
3.397240
  0
VERTEX
  8
0
 62
     0
  6
CONTINUOUS
 10
2.467520
 20
3.411760
  0
SEQEND
  8
0
  0
POLYLINE
  8
0
 62
     0
  6
CONTINUOUS
 66
     1
 40
0.002200
 41
0.002200
  0
VERTEX
  8
0
 62
     0
  6
CONTINUOUS
 10
2.465760
 20
3.406480
  0
VERTEX
  8
0
 62
     0
  6
CONTINUOUS
 10
2.484240
 20
3.397240
  0
SEQEND
  8
0
  0
POLYLINE
  8
0
 62
     0
  6
CONTINUOUS
 66
     1
 40
0.002200
 41
0.002200
  0
VERTEX
  8
0
 62
     0
  6
CONTINUOUS
 10
2.484240
 20
3.397240
  0
VERTEX
  8
0
 62
     0
  6
CONTINUOUS
 10
2.462240
 20
3.399000
  0
SEQEND
  8
0
  0
POLYLINE
  8
0
 62
     0
  6
CONTINUOUS
 66
     1
 40
0.002200
 41
0.002200
  0
VERTEX
  8
0
 62
     0
  6
CONTINUOUS
 10
2.462240
 20
3.399000
  0
VERTEX
  8
0
 62
     0
  6
CONTINUOUS
 10
2.462240
 20
3.393280
  0
SEQEND
  8
0
  0
POLYLINE
  8
0
 62
     0
  6
CONTINUOUS
 66
     1
 40
0.002200
 41
0.002200
  0
VERTEX
  8
0
 62
     0
  6
CONTINUOUS
 10
2.462240
 20
3.393280
  0
VERTEX
  8
0
 62
     0
  6
CONTINUOUS
 10
2.484240
 20
3.397240
  0
SEQEND
  8
0
  0
POLYLINE
  8
0
 62
     0
  6
CONTINUOUS
 66
     1
 40
0.002200
 41
0.002200
  0
VERTEX
  8
0
 62
     0
  6
CONTINUOUS
 10
2.484240
 20
3.397240
  0
VERTEX
  8
0
 62
     0
  6
CONTINUOUS
 10
2.465760
 20
3.385800
  0
SEQEND
  8
0
  0
POLYLINE
  8
0
 62
     0
  6
CONTINUOUS
 66
     1
 40
0.002200
 41
0.002200
  0
VERTEX
  8
0
 62
     0
  6
CONTINUOUS
 10
2.467520
 20
3.380520
  0
VERTEX
  8
0
 62
     0
  6
CONTINUOUS
 10
2.484240
 20
3.397240
  0
SEQEND
  8
0
  0
POLYLINE
  8
0
 62
     0
  6
CONTINUOUS
 66
     1
 40
0.002200
 41
0.002200
  0
VERTEX
  8
0
 62
     0
  6
CONTINUOUS
 10
2.484240
 20
3.397240
  0
VERTEX
  8
0
 62
     0
  6
CONTINUOUS
 10
2.480720
 20
3.374800
  0
SEQEND
  8
0
  0
POLYLINE
  8
0
 62
     0
  6
CONTINUOUS
 66
     1
 40
0.002200
 41
0.002200
  0
VERTEX
  8
0
 62
     0
  6
CONTINUOUS
 10
2.473240
 20
3.376560
  0
VERTEX
  8
0
 62
     0
  6
CONTINUOUS
 10
2.484240
 20
3.397240
  0
SEQEND
  8
0
  0
POLYLINE
  8
0
 62
     0
  6
CONTINUOUS
 66
     1
 40
0.002200
 41
0.002200
  0
VERTEX
  8
0
 62
     0
  6
CONTINUOUS
 10
2.484240
 20
3.397240
  0
VERTEX
  8
0
 62
     0
  6
CONTINUOUS
 10
2.491720
 20
3.376560
  0
SEQEND
  8
0
  0
POLYLINE
  8
0
 62
     0
  6
CONTINUOUS
 66
     1
 40
0.002200
 41
0.002200
  0
VERTEX
  8
0
 62
     0
  6
CONTINUOUS
 10
2.484240
 20
3.397240
  0
VERTEX
  8
0
 62
     0
  6
CONTINUOUS
 10
2.491720
 20
3.415720
  0
SEQEND
  8
0
  0
POLYLINE
  8
0
 62
     0
  6
CONTINUOUS
 66
     1
 40
0.002200
 41
0.002200
  0
VERTEX
  8
0
 62
     0
  6
CONTINUOUS
 10
2.473240
 20
3.415720
  0
VERTEX
  8
0
 62
     0
  6
CONTINUOUS
 10
2.484240
 20
3.397240
  0
SEQEND
  8
0
  0
POLYLINE
  8
0
 62
     0
  6
CONTINUOUS
 66
     1
 40
0.002200
 41
0.002200
  0
VERTEX
  8
0
 62
     0
  6
CONTINUOUS
 10
2.486000
 20
3.493160
  0
VERTEX
  8
0
 62
     0
  6
CONTINUOUS
 10
2.484240
 20
3.515600
  0
SEQEND
  8
0
  0
POLYLINE
  8
0
 62
     0
  6
CONTINUOUS
 66
     1
 40
0.002200
 41
0.002200
  0
VERTEX
  8
0
 62
     0
  6
CONTINUOUS
 10
2.484240
 20
3.515600
  0
VERTEX
  8
0
 62
     0
  6
CONTINUOUS
 10
2.497440
 20
3.500640
  0
SEQEND
  8
0
  0
POLYLINE
  8
0
 62
     0
  6
CONTINUOUS
 66
     1
 40
0.002200
 41
0.002200
  0
VERTEX
  8
0
 62
     0
  6
CONTINUOUS
 10
2.491720
 20
3.497120
  0
VERTEX
  8
0
 62
     0
  6
CONTINUOUS
 10
2.484240
 20
3.515600
  0
SEQEND
  8
0
  0
POLYLINE
  8
0
 62
     0
  6
CONTINUOUS
 66
     1
 40
0.002200
 41
0.002200
  0
VERTEX
  8
0
 62
     0
  6
CONTINUOUS
 10
2.484240
 20
3.515600
  0
VERTEX
  8
0
 62
     0
  6
CONTINUOUS
 10
2.502720
 20
3.511640
  0
SEQEND
  8
0
  0
POLYLINE
  8
0
 62
     0
  6
CONTINUOUS
 66
     1
 40
0.002200
 41
0.002200
  0
VERTEX
  8
0
 62
     0
  6
CONTINUOUS
 10
2.502720
 20
3.511640
  0
VERTEX
  8
0
 62
     0
  6
CONTINUOUS
 10
2.502720
 20
3.519120
  0
SEQEND
  8
0
  0
POLYLINE
  8
0
 62
     0
  6
CONTINUOUS
 66
     1
 40
0.002200
 41
0.002200
  0
VERTEX
  8
0
 62
     0
  6
CONTINUOUS
 10
2.502720
 20
3.519120
  0
VERTEX
  8
0
 62
     0
  6
CONTINUOUS
 10
2.484240
 20
3.515600
  0
SEQEND
  8
0
  0
POLYLINE
  8
0
 62
     0
  6
CONTINUOUS
 66
     1
 40
0.002200
 41
0.002200
  0
VERTEX
  8
0
 62
     0
  6
CONTINUOUS
 10
2.484240
 20
3.515600
  0
VERTEX
  8
0
 62
     0
  6
CONTINUOUS
 10
2.502720
 20
3.526600
  0
SEQEND
  8
0
  0
POLYLINE
  8
0
 62
     0
  6
CONTINUOUS
 66
     1
 40
0.002200
 41
0.002200
  0
VERTEX
  8
0
 62
     0
  6
CONTINUOUS
 10
2.497440
 20
3.530120
  0
VERTEX
  8
0
 62
     0
  6
CONTINUOUS
 10
2.484240
 20
3.515600
  0
SEQEND
  8
0
  0
POLYLINE
  8
0
 62
     0
  6
CONTINUOUS
 66
     1
 40
0.002200
 41
0.002200
  0
VERTEX
  8
0
 62
     0
  6
CONTINUOUS
 10
2.484240
 20
3.515600
  0
VERTEX
  8
0
 62
     0
  6
CONTINUOUS
 10
2.486000
 20
3.537600
  0
SEQEND
  8
0
  0
POLYLINE
  8
0
 62
     0
  6
CONTINUOUS
 66
     1
 40
0.002200
 41
0.002200
  0
VERTEX
  8
0
 62
     0
  6
CONTINUOUS
 10
2.486000
 20
3.537600
  0
VERTEX
  8
0
 62
     0
  6
CONTINUOUS
 10
2.480720
 20
3.537600
  0
SEQEND
  8
0
  0
POLYLINE
  8
0
 62
     0
  6
CONTINUOUS
 66
     1
 40
0.002200
 41
0.002200
  0
VERTEX
  8
0
 62
     0
  6
CONTINUOUS
 10
2.480720
 20
3.537600
  0
VERTEX
  8
0
 62
     0
  6
CONTINUOUS
 10
2.484240
 20
3.515600
  0
SEQEND
  8
0
  0
POLYLINE
  8
0
 62
     0
  6
CONTINUOUS
 66
     1
 40
0.002200
 41
0.002200
  0
VERTEX
  8
0
 62
     0
  6
CONTINUOUS
 10
2.484240
 20
3.515600
  0
VERTEX
  8
0
 62
     0
  6
CONTINUOUS
 10
2.467520
 20
3.530120
  0
SEQEND
  8
0
  0
POLYLINE
  8
0
 62
     0
  6
CONTINUOUS
 66
     1
 40
0.002200
 41
0.002200
  0
VERTEX
  8
0
 62
     0
  6
CONTINUOUS
 10
2.465760
 20
3.526600
  0
VERTEX
  8
0
 62
     0
  6
CONTINUOUS
 10
2.484240
 20
3.515600
  0
SEQEND
  8
0
  0
POLYLINE
  8
0
 62
     0
  6
CONTINUOUS
 66
     1
 40
0.002200
 41
0.002200
  0
VERTEX
  8
0
 62
     0
  6
CONTINUOUS
 10
2.484240
 20
3.515600
  0
VERTEX
  8
0
 62
     0
  6
CONTINUOUS
 10
2.462240
 20
3.519120
  0
SEQEND
  8
0
  0
POLYLINE
  8
0
 62
     0
  6
CONTINUOUS
 66
     1
 40
0.002200
 41
0.002200
  0
VERTEX
  8
0
 62
     0
  6
CONTINUOUS
 10
2.462240
 20
3.519120
  0
VERTEX
  8
0
 62
     0
  6
CONTINUOUS
 10
2.462240
 20
3.511640
  0
SEQEND
  8
0
  0
POLYLINE
  8
0
 62
     0
  6
CONTINUOUS
 66
     1
 40
0.002200
 41
0.002200
  0
VERTEX
  8
0
 62
     0
  6
CONTINUOUS
 10
2.462240
 20
3.511640
  0
VERTEX
  8
0
 62
     0
  6
CONTINUOUS
 10
2.484240
 20
3.515600
  0
SEQEND
  8
0
  0
POLYLINE
  8
0
 62
     0
  6
CONTINUOUS
 66
     1
 40
0.002200
 41
0.002200
  0
VERTEX
  8
0
 62
     0
  6
CONTINUOUS
 10
2.484240
 20
3.515600
  0
VERTEX
  8
0
 62
     0
  6
CONTINUOUS
 10
2.465760
 20
3.504160
  0
SEQEND
  8
0
  0
POLYLINE
  8
0
 62
     0
  6
CONTINUOUS
 66
     1
 40
0.002200
 41
0.002200
  0
VERTEX
  8
0
 62
     0
  6
CONTINUOUS
 10
2.467520
 20
3.500640
  0
VERTEX
  8
0
 62
     0
  6
CONTINUOUS
 10
2.484240
 20
3.515600
  0
SEQEND
  8
0
  0
POLYLINE
  8
0
 62
     0
  6
CONTINUOUS
 66
     1
 40
0.002200
 41
0.002200
  0
VERTEX
  8
0
 62
     0
  6
CONTINUOUS
 10
2.484240
 20
3.515600
  0
VERTEX
  8
0
 62
     0
  6
CONTINUOUS
 10
2.480720
 20
3.493160
  0
SEQEND
  8
0
  0
POLYLINE
  8
0
 62
     0
  6
CONTINUOUS
 66
     1
 40
0.002200
 41
0.002200
  0
VERTEX
  8
0
 62
     0
  6
CONTINUOUS
 10
2.473240
 20
3.497120
  0
VERTEX
  8
0
 62
     0
  6
CONTINUOUS
 10
2.484240
 20
3.515600
  0
SEQEND
  8
0
  0
POLYLINE
  8
0
 62
     0
  6
CONTINUOUS
 66
     1
 40
0.002200
 41
0.002200
  0
VERTEX
  8
0
 62
     0
  6
CONTINUOUS
 10
2.484240
 20
3.515600
  0
VERTEX
  8
0
 62
     0
  6
CONTINUOUS
 10
2.502720
 20
3.504160
  0
SEQEND
  8
0
  0
POLYLINE
  8
0
 62
     0
  6
CONTINUOUS
 66
     1
 40
0.002200
 41
0.002200
  0
VERTEX
  8
0
 62
     0
  6
CONTINUOUS
 10
2.484240
 20
3.515600
  0
VERTEX
  8
0
 62
     0
  6
CONTINUOUS
 10
2.491720
 20
3.535840
  0
SEQEND
  8
0
  0
POLYLINE
  8
0
 62
     0
  6
CONTINUOUS
 66
     1
 40
0.002200
 41
0.002200
  0
VERTEX
  8
0
 62
     0
  6
CONTINUOUS
 10
2.473240
 20
3.535840
  0
VERTEX
  8
0
 62
     0
  6
CONTINUOUS
 10
2.484240
 20
3.515600
  0
SEQEND
  8
0
  0
POLYLINE
  8
0
 62
     0
  6
CONTINUOUS
 66
     1
 40
0.002200
 41
0.002200
  0
VERTEX
  8
0
 62
     0
  6
CONTINUOUS
 10
3.540680
 20
2.902680
  0
VERTEX
  8
0
 62
     0
  6
CONTINUOUS
 10
1.526800
 20
2.902680
  0
SEQEND
  8
0
  0
POLYLINE
  8
0
 62
     0
  6
CONTINUOUS
 66
     1
 40
0.002200
 41
0.002200
  0
VERTEX
  8
0
 62
     0
  6
CONTINUOUS
 10
1.526360
 20
2.904880
  0
VERTEX
  8
0
 62
     0
  6
CONTINUOUS
 10
1.905640
 20
3.256440
  0
SEQEND
  8
0
  0
POLYLINE
  8
0
 62
     0
  6
CONTINUOUS
 66
     1
 40
0.002200
 41
0.002200
  0
VERTEX
  8
0
 62
     0
  6
CONTINUOUS
 10
3.555200
 20
3.629560
  0
VERTEX
  8
0
 62
     0
  6
CONTINUOUS
 10
1.542200
 20
3.629560
  0
SEQEND
  8
0
  0
POLYLINE
  8
0
 62
     0
  6
CONTINUOUS
 66
     1
 40
0.002200
 41
0.002200
  0
VERTEX
  8
0
 62
     0
  6
CONTINUOUS
 10
2.482480
 20
3.108600
  0
VERTEX
  8
0
 62
     0
  6
CONTINUOUS
 10
2.482480
 20
2.882880
  0
SEQEND
  8
0
  0
POLYLINE
  8
0
 62
     0
  6
CONTINUOUS
 66
     1
 40
0.002200
 41
0.002200
  0
VERTEX
  8
0
 62
     0
  6
CONTINUOUS
 10
2.482480
 20
3.197480
  0
VERTEX
  8
0
 62
     0
  6
CONTINUOUS
 10
2.482480
 20
3.378760
  0
SEQEND
  8
0
  0
POLYLINE
  8
0
 62
     0
  6
CONTINUOUS
 66
     1
 40
0.002200
 41
0.002200
  0
VERTEX
  8
0
 62
     0
  6
CONTINUOUS
 10
2.482480
 20
3.469400
  0
VERTEX
  8
0
 62
     0
  6
CONTINUOUS
 10
2.482480
 20
3.650680
  0
SEQEND
  8
0
  0
POLYLINE
  8
0
 62
     0
  6
CONTINUOUS
 66
     1
 40
0.002200
 41
0.002200
  0
VERTEX
  8
0
 62
     0
  6
CONTINUOUS
 10
3.553880
 20
2.904880
  0
VERTEX
  8
0
 62
     0
  6
CONTINUOUS
 10
3.932720
 20
3.256440
  0
SEQEND
  8
0
  0
POLYLINE
  8
0
 62
     0
  6
CONTINUOUS
 66
     1
 40
0.002200
 41
0.002200
  0
VERTEX
  8
0
 62
     0
  6
CONTINUOUS
 10
3.932720
 20
3.256440
  0
VERTEX
  8
0
 62
     0
  6
CONTINUOUS
 10
3.553880
 20
3.633960
  0
SEQEND
  8
0
  0
POLYLINE
  8
0
 62
     0
  6
CONTINUOUS
 66
     1
 40
0.002200
 41
0.002200
  0
VERTEX
  8
0
 62
     0
  6
CONTINUOUS
 10
3.663000
 20
3.285920
  0
VERTEX
  8
0
 62
     0
  6
CONTINUOUS
 10
3.660800
 20
3.280640
  0
SEQEND
  8
0
  0
POLYLINE
  8
0
 62
     0
  6
CONTINUOUS
 66
     1
 40
0.002200
 41
0.002200
  0
VERTEX
  8
0
 62
     0
  6
CONTINUOUS
 10
3.660800
 20
3.280640
  0
VERTEX
  8
0
 62
     0
  6
CONTINUOUS
 10
3.663000
 20
3.274920
  0
SEQEND
  8
0
  0
POLYLINE
  8
0
 62
     0
  6
CONTINUOUS
 66
     1
 40
0.002200
 41
0.002200
  0
VERTEX
  8
0
 62
     0
  6
CONTINUOUS
 10
3.663000
 20
3.274920
  0
VERTEX
  8
0
 62
     0
  6
CONTINUOUS
 10
3.666520
 20
3.271400
  0
SEQEND
  8
0
  0
POLYLINE
  8
0
 62
     0
  6
CONTINUOUS
 66
     1
 40
0.002200
 41
0.002200
  0
VERTEX
  8
0
 62
     0
  6
CONTINUOUS
 10
3.666520
 20
3.271400
  0
VERTEX
  8
0
 62
     0
  6
CONTINUOUS
 10
3.670040
 20
3.269640
  0
SEQEND
  8
0
  0
POLYLINE
  8
0
 62
     0
  6
CONTINUOUS
 66
     1
 40
0.002200
 41
0.002200
  0
VERTEX
  8
0
 62
     0
  6
CONTINUOUS
 10
3.670040
 20
3.269640
  0
VERTEX
  8
0
 62
     0
  6
CONTINUOUS
 10
3.685000
 20
3.263920
  0
SEQEND
  8
0
  0
POLYLINE
  8
0
 62
     0
  6
CONTINUOUS
 66
     1
 40
0.002200
 41
0.002200
  0
VERTEX
  8
0
 62
     0
  6
CONTINUOUS
 10
3.685000
 20
3.263920
  0
VERTEX
  8
0
 62
     0
  6
CONTINUOUS
 10
3.692480
 20
3.260400
  0
SEQEND
  8
0
  0
POLYLINE
  8
0
 62
     0
  6
CONTINUOUS
 66
     1
 40
0.002200
 41
0.002200
  0
VERTEX
  8
0
 62
     0
  6
CONTINUOUS
 10
3.692480
 20
3.260400
  0
VERTEX
  8
0
 62
     0
  6
CONTINUOUS
 10
3.694240
 20
3.256440
  0
SEQEND
  8
0
  0
POLYLINE
  8
0
 62
     0
  6
CONTINUOUS
 66
     1
 40
0.002200
 41
0.002200
  0
VERTEX
  8
0
 62
     0
  6
CONTINUOUS
 10
3.694240
 20
3.256440
  0
VERTEX
  8
0
 62
     0
  6
CONTINUOUS
 10
3.696000
 20
3.251160
  0
SEQEND
  8
0
  0
POLYLINE
  8
0
 62
     0
  6
CONTINUOUS
 66
     1
 40
0.002200
 41
0.002200
  0
VERTEX
  8
0
 62
     0
  6
CONTINUOUS
 10
3.696000
 20
3.251160
  0
VERTEX
  8
0
 62
     0
  6
CONTINUOUS
 10
3.692480
 20
3.241920
  0
SEQEND
  8
0
  0
POLYLINE
  8
0
 62
     0
  6
CONTINUOUS
 66
     1
 40
0.002200
 41
0.002200
  0
VERTEX
  8
0
 62
     0
  6
CONTINUOUS
 10
3.692480
 20
3.241920
  0
VERTEX
  8
0
 62
     0
  6
CONTINUOUS
 10
3.685000
 20
3.236200
  0
SEQEND
  8
0
  0
POLYLINE
  8
0
 62
     0
  6
CONTINUOUS
 66
     1
 40
0.002200
 41
0.002200
  0
VERTEX
  8
0
 62
     0
  6
CONTINUOUS
 10
3.685000
 20
3.236200
  0
VERTEX
  8
0
 62
     0
  6
CONTINUOUS
 10
3.675760
 20
3.234440
  0
SEQEND
  8
0
  0
POLYLINE
  8
0
 62
     0
  6
CONTINUOUS
 66
     1
 40
0.002200
 41
0.002200
  0
VERTEX
  8
0
 62
     0
  6
CONTINUOUS
 10
3.675760
 20
3.234440
  0
VERTEX
  8
0
 62
     0
  6
CONTINUOUS
 10
3.663000
 20
3.234440
  0
SEQEND
  8
0
  0
POLYLINE
  8
0
 62
     0
  6
CONTINUOUS
 66
     1
 40
0.002200
 41
0.002200
  0
VERTEX
  8
0
 62
     0
  6
CONTINUOUS
 10
3.663000
 20
3.234440
  0
VERTEX
  8
0
 62
     0
  6
CONTINUOUS
 10
3.655520
 20
3.236200
  0
SEQEND
  8
0
  0
POLYLINE
  8
0
 62
     0
  6
CONTINUOUS
 66
     1
 40
0.002200
 41
0.002200
  0
VERTEX
  8
0
 62
     0
  6
CONTINUOUS
 10
3.655520
 20
3.236200
  0
VERTEX
  8
0
 62
     0
  6
CONTINUOUS
 10
3.651560
 20
3.241920
  0
SEQEND
  8
0
  0
POLYLINE
  8
0
 62
     0
  6
CONTINUOUS
 66
     1
 40
0.002200
 41
0.002200
  0
VERTEX
  8
0
 62
     0
  6
CONTINUOUS
 10
3.663000
 20
3.285920
  0
VERTEX
  8
0
 62
     0
  6
CONTINUOUS
 10
3.670040
 20
3.291640
  0
SEQEND
  8
0
  0
POLYLINE
  8
0
 62
     0
  6
CONTINUOUS
 66
     1
 40
0.002200
 41
0.002200
  0
VERTEX
  8
0
 62
     0
  6
CONTINUOUS
 10
3.670040
 20
3.291640
  0
VERTEX
  8
0
 62
     0
  6
CONTINUOUS
 10
3.679280
 20
3.295160
  0
SEQEND
  8
0
  0
POLYLINE
  8
0
 62
     0
  6
CONTINUOUS
 66
     1
 40
0.002200
 41
0.002200
  0
VERTEX
  8
0
 62
     0
  6
CONTINUOUS
 10
3.679280
 20
3.295160
  0
VERTEX
  8
0
 62
     0
  6
CONTINUOUS
 10
3.692480
 20
3.295160
  0
SEQEND
  8
0
  0
POLYLINE
  8
0
 62
     0
  6
CONTINUOUS
 66
     1
 40
0.002200
 41
0.002200
  0
VERTEX
  8
0
 62
     0
  6
CONTINUOUS
 10
3.692480
 20
3.295160
  0
VERTEX
  8
0
 62
     0
  6
CONTINUOUS
 10
3.699960
 20
3.291640
  0
SEQEND
  8
0
  0
POLYLINE
  8
0
 62
     0
  6
CONTINUOUS
 66
     1
 40
0.002200
 41
0.002200
  0
VERTEX
  8
0
 62
     0
  6
CONTINUOUS
 10
3.699960
 20
3.291640
  0
VERTEX
  8
0
 62
     0
  6
CONTINUOUS
 10
3.705240
 20
3.285920
  0
SEQEND
  8
0
  0
POLYLINE
  8
0
 62
     0
  6
CONTINUOUS
 66
     1
 40
0.002200
 41
0.002200
  0
VERTEX
  8
0
 62
     0
  6
CONTINUOUS
 10
3.716240
 20
3.252920
  0
VERTEX
  8
0
 62
     0
  6
CONTINUOUS
 10
3.747920
 20
3.252920
  0
SEQEND
  8
0
  0
POLYLINE
  8
0
 62
     0
  6
CONTINUOUS
 66
     1
 40
0.002200
 41
0.002200
  0
VERTEX
  8
0
 62
     0
  6
CONTINUOUS
 10
3.749680
 20
3.234440
  0
VERTEX
  8
0
 62
     0
  6
CONTINUOUS
 10
3.742200
 20
3.295160
  0
SEQEND
  8
0
  0
POLYLINE
  8
0
 62
     0
  6
CONTINUOUS
 66
     1
 40
0.002200
 41
0.002200
  0
VERTEX
  8
0
 62
     0
  6
CONTINUOUS
 10
3.742200
 20
3.295160
  0
VERTEX
  8
0
 62
     0
  6
CONTINUOUS
 10
3.703480
 20
3.234440
  0
SEQEND
  8
0
  0
POLYLINE
  8
0
 62
     0
  6
CONTINUOUS
 66
     1
 40
0.002200
 41
0.002200
  0
VERTEX
  8
0
 62
     0
  6
CONTINUOUS
 10
2.782560
 20
2.163480
  0
VERTEX
  8
0
 62
     0
  6
CONTINUOUS
 10
2.782560
 20
2.890360
  0
SEQEND
  8
0
  0
POLYLINE
  8
0
 62
     0
  6
CONTINUOUS
 66
     1
 40
0.002200
 41
0.002200
  0
VERTEX
  8
0
 62
     0
  6
CONTINUOUS
 10
2.789600
 20
3.703920
  0
VERTEX
  8
0
 62
     0
  6
CONTINUOUS
 10
2.786080
 20
3.696880
  0
SEQEND
  8
0
  0
POLYLINE
  8
0
 62
     0
  6
CONTINUOUS
 66
     1
 40
0.002200
 41
0.002200
  0
VERTEX
  8
0
 62
     0
  6
CONTINUOUS
 10
2.786080
 20
3.696880
  0
VERTEX
  8
0
 62
     0
  6
CONTINUOUS
 10
2.778600
 20
3.689400
  0
SEQEND
  8
0
  0
POLYLINE
  8
0
 62
     0
  6
CONTINUOUS
 66
     1
 40
0.002200
 41
0.002200
  0
VERTEX
  8
0
 62
     0
  6
CONTINUOUS
 10
2.778600
 20
3.689400
  0
VERTEX
  8
0
 62
     0
  6
CONTINUOUS
 10
2.775080
 20
3.672680
  0
SEQEND
  8
0
  0
POLYLINE
  8
0
 62
     0
  6
CONTINUOUS
 66
     1
 40
0.002200
 41
0.002200
  0
VERTEX
  8
0
 62
     0
  6
CONTINUOUS
 10
2.775080
 20
3.672680
  0
VERTEX
  8
0
 62
     0
  6
CONTINUOUS
 10
2.776840
 20
3.663440
  0
SEQEND
  8
0
  0
POLYLINE
  8
0
 62
     0
  6
CONTINUOUS
 66
     1
 40
0.002200
 41
0.002200
  0
VERTEX
  8
0
 62
     0
  6
CONTINUOUS
 10
2.776840
 20
3.663440
  0
VERTEX
  8
0
 62
     0
  6
CONTINUOUS
 10
2.778600
 20
3.659920
  0
SEQEND
  8
0
  0
POLYLINE
  8
0
 62
     0
  6
CONTINUOUS
 66
     1
 40
0.002200
 41
0.002200
  0
VERTEX
  8
0
 62
     0
  6
CONTINUOUS
 10
2.778600
 20
3.659920
  0
VERTEX
  8
0
 62
     0
  6
CONTINUOUS
 10
2.782560
 20
3.652440
  0
SEQEND
  8
0
  0
POLYLINE
  8
0
 62
     0
  6
CONTINUOUS
 66
     1
 40
0.002200
 41
0.002200
  0
VERTEX
  8
0
 62
     0
  6
CONTINUOUS
 10
2.782560
 20
3.652440
  0
VERTEX
  8
0
 62
     0
  6
CONTINUOUS
 10
2.786080
 20
3.650680
  0
SEQEND
  8
0
  0
POLYLINE
  8
0
 62
     0
  6
CONTINUOUS
 66
     1
 40
0.002200
 41
0.002200
  0
VERTEX
  8
0
 62
     0
  6
CONTINUOUS
 10
2.786080
 20
3.650680
  0
VERTEX
  8
0
 62
     0
  6
CONTINUOUS
 10
2.801040
 20
3.650680
  0
SEQEND
  8
0
  0
POLYLINE
  8
0
 62
     0
  6
CONTINUOUS
 66
     1
 40
0.002200
 41
0.002200
  0
VERTEX
  8
0
 62
     0
  6
CONTINUOUS
 10
2.801040
 20
3.650680
  0
VERTEX
  8
0
 62
     0
  6
CONTINUOUS
 10
2.806320
 20
3.652440
  0
SEQEND
  8
0
  0
POLYLINE
  8
0
 62
     0
  6
CONTINUOUS
 66
     1
 40
0.002200
 41
0.002200
  0
VERTEX
  8
0
 62
     0
  6
CONTINUOUS
 10
2.806320
 20
3.652440
  0
VERTEX
  8
0
 62
     0
  6
CONTINUOUS
 10
2.813800
 20
3.659920
  0
SEQEND
  8
0
  0
POLYLINE
  8
0
 62
     0
  6
CONTINUOUS
 66
     1
 40
0.002200
 41
0.002200
  0
VERTEX
  8
0
 62
     0
  6
CONTINUOUS
 10
2.813800
 20
3.659920
  0
VERTEX
  8
0
 62
     0
  6
CONTINUOUS
 10
2.819520
 20
3.663440
  0
SEQEND
  8
0
  0
POLYLINE
  8
0
 62
     0
  6
CONTINUOUS
 66
     1
 40
0.002200
 41
0.002200
  0
VERTEX
  8
0
 62
     0
  6
CONTINUOUS
 10
2.819520
 20
3.663440
  0
VERTEX
  8
0
 62
     0
  6
CONTINUOUS
 10
2.821280
 20
3.672680
  0
SEQEND
  8
0
  0
POLYLINE
  8
0
 62
     0
  6
CONTINUOUS
 66
     1
 40
0.002200
 41
0.002200
  0
VERTEX
  8
0
 62
     0
  6
CONTINUOUS
 10
2.821280
 20
3.672680
  0
VERTEX
  8
0
 62
     0
  6
CONTINUOUS
 10
2.806320
 20
3.672680
  0
SEQEND
  8
0
  0
POLYLINE
  8
0
 62
     0
  6
CONTINUOUS
 66
     1
 40
0.002200
 41
0.002200
  0
VERTEX
  8
0
 62
     0
  6
CONTINUOUS
 10
2.841520
 20
3.670920
  0
VERTEX
  8
0
 62
     0
  6
CONTINUOUS
 10
2.871000
 20
3.670920
  0
SEQEND
  8
0
  0
POLYLINE
  8
0
 62
     0
  6
CONTINUOUS
 66
     1
 40
0.002200
 41
0.002200
  0
VERTEX
  8
0
 62
     0
  6
CONTINUOUS
 10
2.874960
 20
3.650680
  0
VERTEX
  8
0
 62
     0
  6
CONTINUOUS
 10
2.867480
 20
3.713600
  0
SEQEND
  8
0
  0
POLYLINE
  8
0
 62
     0
  6
CONTINUOUS
 66
     1
 40
0.002200
 41
0.002200
  0
VERTEX
  8
0
 62
     0
  6
CONTINUOUS
 10
2.867480
 20
3.713600
  0
VERTEX
  8
0
 62
     0
  6
CONTINUOUS
 10
2.826560
 20
3.650680
  0
SEQEND
  8
0
  0
POLYLINE
  8
0
 62
     0
  6
CONTINUOUS
 66
     1
 40
0.002200
 41
0.002200
  0
VERTEX
  8
0
 62
     0
  6
CONTINUOUS
 10
2.826560
 20
3.696880
  0
VERTEX
  8
0
 62
     0
  6
CONTINUOUS
 10
2.826560
 20
3.703920
  0
SEQEND
  8
0
  0
POLYLINE
  8
0
 62
     0
  6
CONTINUOUS
 66
     1
 40
0.002200
 41
0.002200
  0
VERTEX
  8
0
 62
     0
  6
CONTINUOUS
 10
2.826560
 20
3.703920
  0
VERTEX
  8
0
 62
     0
  6
CONTINUOUS
 10
2.821280
 20
3.709640
  0
SEQEND
  8
0
  0
POLYLINE
  8
0
 62
     0
  6
CONTINUOUS
 66
     1
 40
0.002200
 41
0.002200
  0
VERTEX
  8
0
 62
     0
  6
CONTINUOUS
 10
2.821280
 20
3.709640
  0
VERTEX
  8
0
 62
     0
  6
CONTINUOUS
 10
2.815560
 20
3.713600
  0
SEQEND
  8
0
  0
POLYLINE
  8
0
 62
     0
  6
CONTINUOUS
 66
     1
 40
0.002200
 41
0.002200
  0
VERTEX
  8
0
 62
     0
  6
CONTINUOUS
 10
2.815560
 20
3.713600
  0
VERTEX
  8
0
 62
     0
  6
CONTINUOUS
 10
2.804560
 20
3.713600
  0
SEQEND
  8
0
  0
POLYLINE
  8
0
 62
     0
  6
CONTINUOUS
 66
     1
 40
0.002200
 41
0.002200
  0
VERTEX
  8
0
 62
     0
  6
CONTINUOUS
 10
2.804560
 20
3.713600
  0
VERTEX
  8
0
 62
     0
  6
CONTINUOUS
 10
2.797080
 20
3.709640
  0
SEQEND
  8
0
  0
POLYLINE
  8
0
 62
     0
  6
CONTINUOUS
 66
     1
 40
0.002200
 41
0.002200
  0
VERTEX
  8
0
 62
     0
  6
CONTINUOUS
 10
2.797080
 20
3.709640
  0
VERTEX
  8
0
 62
     0
  6
CONTINUOUS
 10
2.789600
 20
3.703920
  0
SEQEND
  8
0
  0
POLYLINE
  8
0
 62
     0
  6
CONTINUOUS
 66
     1
 40
0.002200
 41
0.002200
  0
VERTEX
  8
0
 62
     0
  6
CONTINUOUS
 10
2.900920
 20
3.703920
  0
VERTEX
  8
0
 62
     0
  6
CONTINUOUS
 10
2.898720
 20
3.696880
  0
SEQEND
  8
0
  0
POLYLINE
  8
0
 62
     0
  6
CONTINUOUS
 66
     1
 40
0.002200
 41
0.002200
  0
VERTEX
  8
0
 62
     0
  6
CONTINUOUS
 10
2.898720
 20
3.696880
  0
VERTEX
  8
0
 62
     0
  6
CONTINUOUS
 10
2.900920
 20
3.691160
  0
SEQEND
  8
0
  0
POLYLINE
  8
0
 62
     0
  6
CONTINUOUS
 66
     1
 40
0.002200
 41
0.002200
  0
VERTEX
  8
0
 62
     0
  6
CONTINUOUS
 10
2.900920
 20
3.691160
  0
VERTEX
  8
0
 62
     0
  6
CONTINUOUS
 10
2.902680
 20
3.689400
  0
SEQEND
  8
0
  0
POLYLINE
  8
0
 62
     0
  6
CONTINUOUS
 66
     1
 40
0.002200
 41
0.002200
  0
VERTEX
  8
0
 62
     0
  6
CONTINUOUS
 10
2.902680
 20
3.689400
  0
VERTEX
  8
0
 62
     0
  6
CONTINUOUS
 10
2.907960
 20
3.685440
  0
SEQEND
  8
0
  0
POLYLINE
  8
0
 62
     0
  6
CONTINUOUS
 66
     1
 40
0.002200
 41
0.002200
  0
VERTEX
  8
0
 62
     0
  6
CONTINUOUS
 10
2.907960
 20
3.685440
  0
VERTEX
  8
0
 62
     0
  6
CONTINUOUS
 10
2.924680
 20
3.680160
  0
SEQEND
  8
0
  0
POLYLINE
  8
0
 62
     0
  6
CONTINUOUS
 66
     1
 40
0.002200
 41
0.002200
  0
VERTEX
  8
0
 62
     0
  6
CONTINUOUS
 10
2.924680
 20
3.680160
  0
VERTEX
  8
0
 62
     0
  6
CONTINUOUS
 10
2.930400
 20
3.678400
  0
SEQEND
  8
0
  0
POLYLINE
  8
0
 62
     0
  6
CONTINUOUS
 66
     1
 40
0.002200
 41
0.002200
  0
VERTEX
  8
0
 62
     0
  6
CONTINUOUS
 10
2.930400
 20
3.678400
  0
VERTEX
  8
0
 62
     0
  6
CONTINUOUS
 10
2.930400
 20
3.672680
  0
SEQEND
  8
0
  0
POLYLINE
  8
0
 62
     0
  6
CONTINUOUS
 66
     1
 40
0.002200
 41
0.002200
  0
VERTEX
  8
0
 62
     0
  6
CONTINUOUS
 10
2.930400
 20
3.672680
  0
VERTEX
  8
0
 62
     0
  6
CONTINUOUS
 10
2.933920
 20
3.669160
  0
SEQEND
  8
0
  0
POLYLINE
  8
0
 62
     0
  6
CONTINUOUS
 66
     1
 40
0.002200
 41
0.002200
  0
VERTEX
  8
0
 62
     0
  6
CONTINUOUS
 10
2.933920
 20
3.669160
  0
VERTEX
  8
0
 62
     0
  6
CONTINUOUS
 10
2.930400
 20
3.659920
  0
SEQEND
  8
0
  0
POLYLINE
  8
0
 62
     0
  6
CONTINUOUS
 66
     1
 40
0.002200
 41
0.002200
  0
VERTEX
  8
0
 62
     0
  6
CONTINUOUS
 10
2.930400
 20
3.659920
  0
VERTEX
  8
0
 62
     0
  6
CONTINUOUS
 10
2.924680
 20
3.652440
  0
SEQEND
  8
0
  0
POLYLINE
  8
0
 62
     0
  6
CONTINUOUS
 66
     1
 40
0.002200
 41
0.002200
  0
VERTEX
  8
0
 62
     0
  6
CONTINUOUS
 10
2.924680
 20
3.652440
  0
VERTEX
  8
0
 62
     0
  6
CONTINUOUS
 10
2.911920
 20
3.650680
  0
SEQEND
  8
0
  0
POLYLINE
  8
0
 62
     0
  6
CONTINUOUS
 66
     1
 40
0.002200
 41
0.002200
  0
VERTEX
  8
0
 62
     0
  6
CONTINUOUS
 10
2.911920
 20
3.650680
  0
VERTEX
  8
0
 62
     0
  6
CONTINUOUS
 10
2.900920
 20
3.650680
  0
SEQEND
  8
0
  0
POLYLINE
  8
0
 62
     0
  6
CONTINUOUS
 66
     1
 40
0.002200
 41
0.002200
  0
VERTEX
  8
0
 62
     0
  6
CONTINUOUS
 10
2.900920
 20
3.650680
  0
VERTEX
  8
0
 62
     0
  6
CONTINUOUS
 10
2.893440
 20
3.652440
  0
SEQEND
  8
0
  0
POLYLINE
  8
0
 62
     0
  6
CONTINUOUS
 66
     1
 40
0.002200
 41
0.002200
  0
VERTEX
  8
0
 62
     0
  6
CONTINUOUS
 10
2.893440
 20
3.652440
  0
VERTEX
  8
0
 62
     0
  6
CONTINUOUS
 10
2.889480
 20
3.659920
  0
SEQEND
  8
0
  0
POLYLINE
  8
0
 62
     0
  6
CONTINUOUS
 66
     1
 40
0.002200
 41
0.002200
  0
VERTEX
  8
0
 62
     0
  6
CONTINUOUS
 10
2.900920
 20
3.703920
  0
VERTEX
  8
0
 62
     0
  6
CONTINUOUS
 10
2.907960
 20
3.709640
  0
SEQEND
  8
0
  0
POLYLINE
  8
0
 62
     0
  6
CONTINUOUS
 66
     1
 40
0.002200
 41
0.002200
  0
VERTEX
  8
0
 62
     0
  6
CONTINUOUS
 10
2.907960
 20
3.709640
  0
VERTEX
  8
0
 62
     0
  6
CONTINUOUS
 10
2.919400
 20
3.713600
  0
SEQEND
  8
0
  0
POLYLINE
  8
0
 62
     0
  6
CONTINUOUS
 66
     1
 40
0.002200
 41
0.002200
  0
VERTEX
  8
0
 62
     0
  6
CONTINUOUS
 10
2.919400
 20
3.713600
  0
VERTEX
  8
0
 62
     0
  6
CONTINUOUS
 10
2.930400
 20
3.713600
  0
SEQEND
  8
0
  0
POLYLINE
  8
0
 62
     0
  6
CONTINUOUS
 66
     1
 40
0.002200
 41
0.002200
  0
VERTEX
  8
0
 62
     0
  6
CONTINUOUS
 10
2.930400
 20
3.713600
  0
VERTEX
  8
0
 62
     0
  6
CONTINUOUS
 10
2.937880
 20
3.709640
  0
SEQEND
  8
0
  0
POLYLINE
  8
0
 62
     0
  6
CONTINUOUS
 66
     1
 40
0.002200
 41
0.002200
  0
VERTEX
  8
0
 62
     0
  6
CONTINUOUS
 10
2.937880
 20
3.709640
  0
VERTEX
  8
0
 62
     0
  6
CONTINUOUS
 10
2.943160
 20
3.703920
  0
SEQEND
  8
0
  0
POLYLINE
  8
0
 62
     0
  6
CONTINUOUS
 66
     1
 40
0.002200
 41
0.002200
  0
VERTEX
  8
0
 62
     0
  6
CONTINUOUS
 10
3.028520
 20
3.713600
  0
VERTEX
  8
0
 62
     0
  6
CONTINUOUS
 10
3.013560
 20
3.650680
  0
SEQEND
  8
0
  0
POLYLINE
  8
0
 62
     0
  6
CONTINUOUS
 66
     1
 40
0.002200
 41
0.002200
  0
VERTEX
  8
0
 62
     0
  6
CONTINUOUS
 10
3.022800
 20
3.681920
  0
VERTEX
  8
0
 62
     0
  6
CONTINUOUS
 10
3.063720
 20
3.681920
  0
SEQEND
  8
0
  0
POLYLINE
  8
0
 62
     0
  6
CONTINUOUS
 66
     1
 40
0.002200
 41
0.002200
  0
VERTEX
  8
0
 62
     0
  6
CONTINUOUS
 10
3.085720
 20
3.681920
  0
VERTEX
  8
0
 62
     0
  6
CONTINUOUS
 10
3.111680
 20
3.681920
  0
SEQEND
  8
0
  0
POLYLINE
  8
0
 62
     0
  6
CONTINUOUS
 66
     1
 40
0.002200
 41
0.002200
  0
VERTEX
  8
0
 62
     0
  6
CONTINUOUS
 10
3.115200
 20
3.650680
  0
VERTEX
  8
0
 62
     0
  6
CONTINUOUS
 10
3.078240
 20
3.650680
  0
SEQEND
  8
0
  0
POLYLINE
  8
0
 62
     0
  6
CONTINUOUS
 66
     1
 40
0.002200
 41
0.002200
  0
VERTEX
  8
0
 62
     0
  6
CONTINUOUS
 10
3.078240
 20
3.650680
  0
VERTEX
  8
0
 62
     0
  6
CONTINUOUS
 10
3.094960
 20
3.713600
  0
SEQEND
  8
0
  0
POLYLINE
  8
0
 62
     0
  6
CONTINUOUS
 66
     1
 40
0.002200
 41
0.002200
  0
VERTEX
  8
0
 62
     0
  6
CONTINUOUS
 10
3.094960
 20
3.713600
  0
VERTEX
  8
0
 62
     0
  6
CONTINUOUS
 10
3.133680
 20
3.713600
  0
SEQEND
  8
0
  0
POLYLINE
  8
0
 62
     0
  6
CONTINUOUS
 66
     1
 40
0.002200
 41
0.002200
  0
VERTEX
  8
0
 62
     0
  6
CONTINUOUS
 10
3.165360
 20
3.713600
  0
VERTEX
  8
0
 62
     0
  6
CONTINUOUS
 10
3.124440
 20
3.650680
  0
SEQEND
  8
0
  0
POLYLINE
  8
0
 62
     0
  6
CONTINUOUS
 66
     1
 40
0.002200
 41
0.002200
  0
VERTEX
  8
0
 62
     0
  6
CONTINUOUS
 10
3.139400
 20
3.670920
  0
VERTEX
  8
0
 62
     0
  6
CONTINUOUS
 10
3.170640
 20
3.670920
  0
SEQEND
  8
0
  0
POLYLINE
  8
0
 62
     0
  6
CONTINUOUS
 66
     1
 40
0.002200
 41
0.002200
  0
VERTEX
  8
0
 62
     0
  6
CONTINUOUS
 10
3.174600
 20
3.650680
  0
VERTEX
  8
0
 62
     0
  6
CONTINUOUS
 10
3.165360
 20
3.713600
  0
SEQEND
  8
0
  0
POLYLINE
  8
0
 62
     0
  6
CONTINUOUS
 66
     1
 40
0.002200
 41
0.002200
  0
VERTEX
  8
0
 62
     0
  6
CONTINUOUS
 10
3.196600
 20
3.713600
  0
VERTEX
  8
0
 62
     0
  6
CONTINUOUS
 10
3.237520
 20
3.713600
  0
SEQEND
  8
0
  0
POLYLINE
  8
0
 62
     0
  6
CONTINUOUS
 66
     1
 40
0.002200
 41
0.002200
  0
VERTEX
  8
0
 62
     0
  6
CONTINUOUS
 10
3.216840
 20
3.713600
  0
VERTEX
  8
0
 62
     0
  6
CONTINUOUS
 10
3.200560
 20
3.650680
  0
SEQEND
  8
0
  0
POLYLINE
  8
0
 62
     0
  6
CONTINUOUS
 66
     1
 40
0.002200
 41
0.002200
  0
VERTEX
  8
0
 62
     0
  6
CONTINUOUS
 10
3.215080
 20
3.619000
  0
VERTEX
  8
0
 62
     0
  6
CONTINUOUS
 10
3.285480
 20
3.619000
  0
SEQEND
  8
0
  0
POLYLINE
  8
0
 62
     0
  6
CONTINUOUS
 66
     1
 40
0.002200
 41
0.002200
  0
VERTEX
  8
0
 62
     0
  6
CONTINUOUS
 10
3.054040
 20
3.650680
  0
VERTEX
  8
0
 62
     0
  6
CONTINUOUS
 10
3.070760
 20
3.713600
  0
SEQEND
  8
0
  0
POLYLINE
  8
0
 62
     0
  6
CONTINUOUS
 66
     1
 40
0.002200
 41
0.002200
  0
VERTEX
  8
0
 62
     0
  6
CONTINUOUS
 10
3.000800
 20
2.975280
  0
VERTEX
  8
0
 62
     0
  6
CONTINUOUS
 10
2.978360
 20
2.979240
  0
SEQEND
  8
0
  0
POLYLINE
  8
0
 62
     0
  6
CONTINUOUS
 66
     1
 40
0.002200
 41
0.002200
  0
VERTEX
  8
0
 62
     0
  6
CONTINUOUS
 10
2.978360
 20
2.979240
  0
VERTEX
  8
0
 62
     0
  6
CONTINUOUS
 10
2.952400
 20
2.986280
  0
SEQEND
  8
0
  0
POLYLINE
  8
0
 62
     0
  6
CONTINUOUS
 66
     1
 40
0.002200
 41
0.002200
  0
VERTEX
  8
0
 62
     0
  6
CONTINUOUS
 10
2.952400
 20
2.986280
  0
VERTEX
  8
0
 62
     0
  6
CONTINUOUS
 10
2.921160
 20
2.997720
  0
SEQEND
  8
0
  0
POLYLINE
  8
0
 62
     0
  6
CONTINUOUS
 66
     1
 40
0.002200
 41
0.002200
  0
VERTEX
  8
0
 62
     0
  6
CONTINUOUS
 10
2.921160
 20
2.997720
  0
VERTEX
  8
0
 62
     0
  6
CONTINUOUS
 10
2.889480
 20
3.012240
  0
SEQEND
  8
0
  0
POLYLINE
  8
0
 62
     0
  6
CONTINUOUS
 66
     1
 40
0.002200
 41
0.002200
  0
VERTEX
  8
0
 62
     0
  6
CONTINUOUS
 10
2.889480
 20
3.012240
  0
VERTEX
  8
0
 62
     0
  6
CONTINUOUS
 10
2.860000
 20
3.027200
  0
SEQEND
  8
0
  0
POLYLINE
  8
0
 62
     0
  6
CONTINUOUS
 66
     1
 40
0.002200
 41
0.002200
  0
VERTEX
  8
0
 62
     0
  6
CONTINUOUS
 10
2.860000
 20
3.027200
  0
VERTEX
  8
0
 62
     0
  6
CONTINUOUS
 10
2.830520
 20
3.042160
  0
SEQEND
  8
0
  0
POLYLINE
  8
0
 62
     0
  6
CONTINUOUS
 66
     1
 40
0.002200
 41
0.002200
  0
VERTEX
  8
0
 62
     0
  6
CONTINUOUS
 10
2.830520
 20
3.042160
  0
VERTEX
  8
0
 62
     0
  6
CONTINUOUS
 10
2.804560
 20
3.058440
  0
SEQEND
  8
0
  0
POLYLINE
  8
0
 62
     0
  6
CONTINUOUS
 66
     1
 40
0.002200
 41
0.002200
  0
VERTEX
  8
0
 62
     0
  6
CONTINUOUS
 10
2.804560
 20
3.058440
  0
VERTEX
  8
0
 62
     0
  6
CONTINUOUS
 10
2.782560
 20
3.073400
  0
SEQEND
  8
0
  0
POLYLINE
  8
0
 62
     0
  6
CONTINUOUS
 66
     1
 40
0.002200
 41
0.002200
  0
VERTEX
  8
0
 62
     0
  6
CONTINUOUS
 10
2.782560
 20
3.073400
  0
VERTEX
  8
0
 62
     0
  6
CONTINUOUS
 10
2.763640
 20
3.082640
  0
SEQEND
  8
0
  0
POLYLINE
  8
0
 62
     0
  6
CONTINUOUS
 66
     1
 40
0.002200
 41
0.002200
  0
VERTEX
  8
0
 62
     0
  6
CONTINUOUS
 10
2.763640
 20
3.082640
  0
VERTEX
  8
0
 62
     0
  6
CONTINUOUS
 10
2.749120
 20
3.091880
  0
SEQEND
  8
0
  0
POLYLINE
  8
0
 62
     0
  6
CONTINUOUS
 66
     1
 40
0.002200
 41
0.002200
  0
VERTEX
  8
0
 62
     0
  6
CONTINUOUS
 10
2.749120
 20
3.091880
  0
VERTEX
  8
0
 62
     0
  6
CONTINUOUS
 10
2.739880
 20
3.099360
  0
SEQEND
  8
0
  0
POLYLINE
  8
0
 62
     0
  6
CONTINUOUS
 66
     1
 40
0.002200
 41
0.002200
  0
VERTEX
  8
0
 62
     0
  6
CONTINUOUS
 10
2.739880
 20
3.099360
  0
VERTEX
  8
0
 62
     0
  6
CONTINUOUS
 10
2.732400
 20
3.102880
  0
SEQEND
  8
0
  0
POLYLINE
  8
0
 62
     0
  6
CONTINUOUS
 66
     1
 40
0.002200
 41
0.002200
  0
VERTEX
  8
0
 62
     0
  6
CONTINUOUS
 10
2.732400
 20
3.102880
  0
VERTEX
  8
0
 62
     0
  6
CONTINUOUS
 10
2.728880
 20
3.104640
  0
SEQEND
  8
0
  0
POLYLINE
  8
0
 62
     0
  6
CONTINUOUS
 66
     1
 40
0.002200
 41
0.002200
  0
VERTEX
  8
0
 62
     0
  6
CONTINUOUS
 10
2.728880
 20
3.104640
  0
VERTEX
  8
0
 62
     0
  6
CONTINUOUS
 10
2.724920
 20
3.108600
  0
SEQEND
  8
0
  0
POLYLINE
  8
0
 62
     0
  6
CONTINUOUS
 66
     1
 40
0.002200
 41
0.002200
  0
VERTEX
  8
0
 62
     0
  6
CONTINUOUS
 10
2.724920
 20
3.108600
  0
VERTEX
  8
0
 62
     0
  6
CONTINUOUS
 10
2.723160
 20
3.110360
  0
SEQEND
  8
0
  0
POLYLINE
  8
0
 62
     0
  6
CONTINUOUS
 66
     1
 40
0.002200
 41
0.002200
  0
VERTEX
  8
0
 62
     0
  6
CONTINUOUS
 10
2.723160
 20
3.110360
  0
VERTEX
  8
0
 62
     0
  6
CONTINUOUS
 10
2.723160
 20
3.112120
  0
SEQEND
  8
0
  0
POLYLINE
  8
0
 62
     0
  6
CONTINUOUS
 66
     1
 40
0.002200
 41
0.002200
  0
VERTEX
  8
0
 62
     0
  6
CONTINUOUS
 10
2.723160
 20
3.112120
  0
VERTEX
  8
0
 62
     0
  6
CONTINUOUS
 10
2.723160
 20
3.113880
  0
SEQEND
  8
0
  0
POLYLINE
  8
0
 62
     0
  6
CONTINUOUS
 66
     1
 40
0.002200
 41
0.002200
  0
VERTEX
  8
0
 62
     0
  6
CONTINUOUS
 10
2.723160
 20
3.113880
  0
VERTEX
  8
0
 62
     0
  6
CONTINUOUS
 10
2.723160
 20
3.116080
  0
SEQEND
  8
0
  0
POLYLINE
  8
0
 62
     0
  6
CONTINUOUS
 66
     1
 40
0.002200
 41
0.002200
  0
VERTEX
  8
0
 62
     0
  6
CONTINUOUS
 10
2.723160
 20
3.116080
  0
VERTEX
  8
0
 62
     0
  6
CONTINUOUS
 10
2.723160
 20
3.117840
  0
SEQEND
  8
0
  0
POLYLINE
  8
0
 62
     0
  6
CONTINUOUS
 66
     1
 40
0.002200
 41
0.002200
  0
VERTEX
  8
0
 62
     0
  6
CONTINUOUS
 10
2.723160
 20
3.117840
  0
VERTEX
  8
0
 62
     0
  6
CONTINUOUS
 10
2.723160
 20
3.119600
  0
SEQEND
  8
0
  0
POLYLINE
  8
0
 62
     0
  6
CONTINUOUS
 66
     1
 40
0.002200
 41
0.002200
  0
VERTEX
  8
0
 62
     0
  6
CONTINUOUS
 10
2.723160
 20
3.119600
  0
VERTEX
  8
0
 62
     0
  6
CONTINUOUS
 10
2.723160
 20
3.121360
  0
SEQEND
  8
0
  0
POLYLINE
  8
0
 62
     0
  6
CONTINUOUS
 66
     1
 40
0.002200
 41
0.002200
  0
VERTEX
  8
0
 62
     0
  6
CONTINUOUS
 10
2.723160
 20
3.121360
  0
VERTEX
  8
0
 62
     0
  6
CONTINUOUS
 10
2.723160
 20
3.123120
  0
SEQEND
  8
0
  0
POLYLINE
  8
0
 62
     0
  6
CONTINUOUS
 66
     1
 40
0.002200
 41
0.002200
  0
VERTEX
  8
0
 62
     0
  6
CONTINUOUS
 10
2.723160
 20
3.123120
  0
VERTEX
  8
0
 62
     0
  6
CONTINUOUS
 10
2.726680
 20
3.123120
  0
SEQEND
  8
0
  0
POLYLINE
  8
0
 62
     0
  6
CONTINUOUS
 66
     1
 40
0.002200
 41
0.002200
  0
VERTEX
  8
0
 62
     0
  6
CONTINUOUS
 10
2.726680
 20
3.123120
  0
VERTEX
  8
0
 62
     0
  6
CONTINUOUS
 10
2.730640
 20
3.127080
  0
SEQEND
  8
0
  0
POLYLINE
  8
0
 62
     0
  6
CONTINUOUS
 66
     1
 40
0.002200
 41
0.002200
  0
VERTEX
  8
0
 62
     0
  6
CONTINUOUS
 10
2.730640
 20
3.127080
  0
VERTEX
  8
0
 62
     0
  6
CONTINUOUS
 10
2.734160
 20
3.127080
  0
SEQEND
  8
0
  0
POLYLINE
  8
0
 62
     0
  6
CONTINUOUS
 66
     1
 40
0.002200
 41
0.002200
  0
VERTEX
  8
0
 62
     0
  6
CONTINUOUS
 10
2.734160
 20
3.127080
  0
VERTEX
  8
0
 62
     0
  6
CONTINUOUS
 10
2.743400
 20
3.130600
  0
SEQEND
  8
0
  0
POLYLINE
  8
0
 62
     0
  6
CONTINUOUS
 66
     1
 40
0.002200
 41
0.002200
  0
VERTEX
  8
0
 62
     0
  6
CONTINUOUS
 10
2.743400
 20
3.130600
  0
VERTEX
  8
0
 62
     0
  6
CONTINUOUS
 10
2.756600
 20
3.134560
  0
SEQEND
  8
0
  0
POLYLINE
  8
0
 62
     0
  6
CONTINUOUS
 66
     1
 40
0.002200
 41
0.002200
  0
VERTEX
  8
0
 62
     0
  6
CONTINUOUS
 10
2.756600
 20
3.134560
  0
VERTEX
  8
0
 62
     0
  6
CONTINUOUS
 10
2.775080
 20
3.138080
  0
SEQEND
  8
0
  0
POLYLINE
  8
0
 62
     0
  6
CONTINUOUS
 66
     1
 40
0.002200
 41
0.002200
  0
VERTEX
  8
0
 62
     0
  6
CONTINUOUS
 10
2.775080
 20
3.138080
  0
VERTEX
  8
0
 62
     0
  6
CONTINUOUS
 10
2.797080
 20
3.145560
  0
SEQEND
  8
0
  0
POLYLINE
  8
0
 62
     0
  6
CONTINUOUS
 66
     1
 40
0.002200
 41
0.002200
  0
VERTEX
  8
0
 62
     0
  6
CONTINUOUS
 10
2.797080
 20
3.145560
  0
VERTEX
  8
0
 62
     0
  6
CONTINUOUS
 10
2.828760
 20
3.153040
  0
SEQEND
  8
0
  0
POLYLINE
  8
0
 62
     0
  6
CONTINUOUS
 66
     1
 40
0.002200
 41
0.002200
  0
VERTEX
  8
0
 62
     0
  6
CONTINUOUS
 10
2.828760
 20
3.153040
  0
VERTEX
  8
0
 62
     0
  6
CONTINUOUS
 10
2.863960
 20
3.162280
  0
SEQEND
  8
0
  0
POLYLINE
  8
0
 62
     0
  6
CONTINUOUS
 66
     1
 40
0.002200
 41
0.002200
  0
VERTEX
  8
0
 62
     0
  6
CONTINUOUS
 10
2.863960
 20
3.162280
  0
VERTEX
  8
0
 62
     0
  6
CONTINUOUS
 10
2.900920
 20
3.171520
  0
SEQEND
  8
0
  0
POLYLINE
  8
0
 62
     0
  6
CONTINUOUS
 66
     1
 40
0.002200
 41
0.002200
  0
VERTEX
  8
0
 62
     0
  6
CONTINUOUS
 10
2.900920
 20
3.171520
  0
VERTEX
  8
0
 62
     0
  6
CONTINUOUS
 10
2.941400
 20
3.182520
  0
SEQEND
  8
0
  0
POLYLINE
  8
0
 62
     0
  6
CONTINUOUS
 66
     1
 40
0.002200
 41
0.002200
  0
VERTEX
  8
0
 62
     0
  6
CONTINUOUS
 10
2.941400
 20
3.182520
  0
VERTEX
  8
0
 62
     0
  6
CONTINUOUS
 10
2.982320
 20
3.191760
  0
SEQEND
  8
0
  0
POLYLINE
  8
0
 62
     0
  6
CONTINUOUS
 66
     1
 40
0.002200
 41
0.002200
  0
VERTEX
  8
0
 62
     0
  6
CONTINUOUS
 10
2.982320
 20
3.191760
  0
VERTEX
  8
0
 62
     0
  6
CONTINUOUS
 10
3.019280
 20
3.201000
  0
SEQEND
  8
0
  0
POLYLINE
  8
0
 62
     0
  6
CONTINUOUS
 66
     1
 40
0.002200
 41
0.002200
  0
VERTEX
  8
0
 62
     0
  6
CONTINUOUS
 10
3.019280
 20
3.201000
  0
VERTEX
  8
0
 62
     0
  6
CONTINUOUS
 10
3.054040
 20
3.210240
  0
SEQEND
  8
0
  0
POLYLINE
  8
0
 62
     0
  6
CONTINUOUS
 66
     1
 40
0.002200
 41
0.002200
  0
VERTEX
  8
0
 62
     0
  6
CONTINUOUS
 10
3.054040
 20
3.210240
  0
VERTEX
  8
0
 62
     0
  6
CONTINUOUS
 10
3.085720
 20
3.217720
  0
SEQEND
  8
0
  0
POLYLINE
  8
0
 62
     0
  6
CONTINUOUS
 66
     1
 40
0.002200
 41
0.002200
  0
VERTEX
  8
0
 62
     0
  6
CONTINUOUS
 10
3.085720
 20
3.217720
  0
VERTEX
  8
0
 62
     0
  6
CONTINUOUS
 10
3.107720
 20
3.223000
  0
SEQEND
  8
0
  0
POLYLINE
  8
0
 62
     0
  6
CONTINUOUS
 66
     1
 40
0.002200
 41
0.002200
  0
VERTEX
  8
0
 62
     0
  6
CONTINUOUS
 10
3.107720
 20
3.223000
  0
VERTEX
  8
0
 62
     0
  6
CONTINUOUS
 10
3.126200
 20
3.226960
  0
SEQEND
  8
0
  0
POLYLINE
  8
0
 62
     0
  6
CONTINUOUS
 66
     1
 40
0.002200
 41
0.002200
  0
VERTEX
  8
0
 62
     0
  6
CONTINUOUS
 10
3.126200
 20
3.226960
  0
VERTEX
  8
0
 62
     0
  6
CONTINUOUS
 10
3.139400
 20
3.230480
  0
SEQEND
  8
0
  0
POLYLINE
  8
0
 62
     0
  6
CONTINUOUS
 66
     1
 40
0.002200
 41
0.002200
  0
VERTEX
  8
0
 62
     0
  6
CONTINUOUS
 10
3.139400
 20
3.230480
  0
VERTEX
  8
0
 62
     0
  6
CONTINUOUS
 10
3.148640
 20
3.234440
  0
SEQEND
  8
0
  0
POLYLINE
  8
0
 62
     0
  6
CONTINUOUS
 66
     1
 40
0.002200
 41
0.002200
  0
VERTEX
  8
0
 62
     0
  6
CONTINUOUS
 10
3.148640
 20
3.234440
  0
VERTEX
  8
0
 62
     0
  6
CONTINUOUS
 10
3.156120
 20
3.234440
  0
SEQEND
  8
0
  0
POLYLINE
  8
0
 62
     0
  6
CONTINUOUS
 66
     1
 40
0.002200
 41
0.002200
  0
VERTEX
  8
0
 62
     0
  6
CONTINUOUS
 10
3.156120
 20
3.234440
  0
VERTEX
  8
0
 62
     0
  6
CONTINUOUS
 10
3.157880
 20
3.234440
  0
SEQEND
  8
0
  0
POLYLINE
  8
0
 62
     0
  6
CONTINUOUS
 66
     1
 40
0.002200
 41
0.002200
  0
VERTEX
  8
0
 62
     0
  6
CONTINUOUS
 10
3.157880
 20
3.234440
  0
VERTEX
  8
0
 62
     0
  6
CONTINUOUS
 10
3.159640
 20
3.236200
  0
SEQEND
  8
0
  0
POLYLINE
  8
0
 62
     0
  6
CONTINUOUS
 66
     1
 40
0.002200
 41
0.002200
  0
VERTEX
  8
0
 62
     0
  6
CONTINUOUS
 10
3.159640
 20
3.236200
  0
VERTEX
  8
0
 62
     0
  6
CONTINUOUS
 10
3.159640
 20
3.237960
  0
SEQEND
  8
0
  0
POLYLINE
  8
0
 62
     0
  6
CONTINUOUS
 66
     1
 40
0.002200
 41
0.002200
  0
VERTEX
  8
0
 62
     0
  6
CONTINUOUS
 10
3.159640
 20
3.237960
  0
VERTEX
  8
0
 62
     0
  6
CONTINUOUS
 10
3.161400
 20
3.237960
  0
SEQEND
  8
0
  0
POLYLINE
  8
0
 62
     0
  6
CONTINUOUS
 66
     1
 40
0.002200
 41
0.002200
  0
VERTEX
  8
0
 62
     0
  6
CONTINUOUS
 10
3.161400
 20
3.237960
  0
VERTEX
  8
0
 62
     0
  6
CONTINUOUS
 10
3.163600
 20
3.241920
  0
SEQEND
  8
0
  0
POLYLINE
  8
0
 62
     0
  6
CONTINUOUS
 66
     1
 40
0.002200
 41
0.002200
  0
VERTEX
  8
0
 62
     0
  6
CONTINUOUS
 10
3.163600
 20
3.241920
  0
VERTEX
  8
0
 62
     0
  6
CONTINUOUS
 10
3.165360
 20
3.241920
  0
SEQEND
  8
0
  0
POLYLINE
  8
0
 62
     0
  6
CONTINUOUS
 66
     1
 40
0.002200
 41
0.002200
  0
VERTEX
  8
0
 62
     0
  6
CONTINUOUS
 10
3.165360
 20
3.241920
  0
VERTEX
  8
0
 62
     0
  6
CONTINUOUS
 10
3.165360
 20
3.243680
  0
SEQEND
  8
0
  0
POLYLINE
  8
0
 62
     0
  6
CONTINUOUS
 66
     1
 40
0.002200
 41
0.002200
  0
VERTEX
  8
0
 62
     0
  6
CONTINUOUS
 10
3.165360
 20
3.243680
  0
VERTEX
  8
0
 62
     0
  6
CONTINUOUS
 10
3.165360
 20
3.245440
  0
SEQEND
  8
0
  0
POLYLINE
  8
0
 62
     0
  6
CONTINUOUS
 66
     1
 40
0.002200
 41
0.002200
  0
VERTEX
  8
0
 62
     0
  6
CONTINUOUS
 10
3.165360
 20
3.245440
  0
VERTEX
  8
0
 62
     0
  6
CONTINUOUS
 10
3.165360
 20
3.248960
  0
SEQEND
  8
0
  0
POLYLINE
  8
0
 62
     0
  6
CONTINUOUS
 66
     1
 40
0.002200
 41
0.002200
  0
VERTEX
  8
0
 62
     0
  6
CONTINUOUS
 10
3.165360
 20
3.248960
  0
VERTEX
  8
0
 62
     0
  6
CONTINUOUS
 10
3.165360
 20
3.251160
  0
SEQEND
  8
0
  0
POLYLINE
  8
0
 62
     0
  6
CONTINUOUS
 66
     1
 40
0.002200
 41
0.002200
  0
VERTEX
  8
0
 62
     0
  6
CONTINUOUS
 10
3.165360
 20
3.251160
  0
VERTEX
  8
0
 62
     0
  6
CONTINUOUS
 10
3.165360
 20
3.252920
  0
SEQEND
  8
0
  0
POLYLINE
  8
0
 62
     0
  6
CONTINUOUS
 66
     1
 40
0.002200
 41
0.002200
  0
VERTEX
  8
0
 62
     0
  6
CONTINUOUS
 10
3.165360
 20
3.252920
  0
VERTEX
  8
0
 62
     0
  6
CONTINUOUS
 10
3.163600
 20
3.254680
  0
SEQEND
  8
0
  0
POLYLINE
  8
0
 62
     0
  6
CONTINUOUS
 66
     1
 40
0.002200
 41
0.002200
  0
VERTEX
  8
0
 62
     0
  6
CONTINUOUS
 10
3.163600
 20
3.254680
  0
VERTEX
  8
0
 62
     0
  6
CONTINUOUS
 10
3.161400
 20
3.256440
  0
SEQEND
  8
0
  0
POLYLINE
  8
0
 62
     0
  6
CONTINUOUS
 66
     1
 40
0.002200
 41
0.002200
  0
VERTEX
  8
0
 62
     0
  6
CONTINUOUS
 10
3.161400
 20
3.256440
  0
VERTEX
  8
0
 62
     0
  6
CONTINUOUS
 10
3.159640
 20
3.260400
  0
SEQEND
  8
0
  0
POLYLINE
  8
0
 62
     0
  6
CONTINUOUS
 66
     1
 40
0.002200
 41
0.002200
  0
VERTEX
  8
0
 62
     0
  6
CONTINUOUS
 10
3.159640
 20
3.260400
  0
VERTEX
  8
0
 62
     0
  6
CONTINUOUS
 10
3.156120
 20
3.263920
  0
SEQEND
  8
0
  0
POLYLINE
  8
0
 62
     0
  6
CONTINUOUS
 66
     1
 40
0.002200
 41
0.002200
  0
VERTEX
  8
0
 62
     0
  6
CONTINUOUS
 10
3.156120
 20
3.263920
  0
VERTEX
  8
0
 62
     0
  6
CONTINUOUS
 10
3.150400
 20
3.265680
  0
SEQEND
  8
0
  0
POLYLINE
  8
0
 62
     0
  6
CONTINUOUS
 66
     1
 40
0.002200
 41
0.002200
  0
VERTEX
  8
0
 62
     0
  6
CONTINUOUS
 10
3.150400
 20
3.265680
  0
VERTEX
  8
0
 62
     0
  6
CONTINUOUS
 10
3.142920
 20
3.269640
  0
SEQEND
  8
0
  0
POLYLINE
  8
0
 62
     0
  6
CONTINUOUS
 66
     1
 40
0.002200
 41
0.002200
  0
VERTEX
  8
0
 62
     0
  6
CONTINUOUS
 10
3.142920
 20
3.269640
  0
VERTEX
  8
0
 62
     0
  6
CONTINUOUS
 10
3.133680
 20
3.271400
  0
SEQEND
  8
0
  0
POLYLINE
  8
0
 62
     0
  6
CONTINUOUS
 66
     1
 40
0.002200
 41
0.002200
  0
VERTEX
  8
0
 62
     0
  6
CONTINUOUS
 10
3.133680
 20
3.271400
  0
VERTEX
  8
0
 62
     0
  6
CONTINUOUS
 10
3.119160
 20
3.278880
  0
SEQEND
  8
0
  0
POLYLINE
  8
0
 62
     0
  6
CONTINUOUS
 66
     1
 40
0.002200
 41
0.002200
  0
VERTEX
  8
0
 62
     0
  6
CONTINUOUS
 10
3.119160
 20
3.278880
  0
VERTEX
  8
0
 62
     0
  6
CONTINUOUS
 10
3.098480
 20
3.282400
  0
SEQEND
  8
0
  0
POLYLINE
  8
0
 62
     0
  6
CONTINUOUS
 66
     1
 40
0.002200
 41
0.002200
  0
VERTEX
  8
0
 62
     0
  6
CONTINUOUS
 10
3.098480
 20
3.282400
  0
VERTEX
  8
0
 62
     0
  6
CONTINUOUS
 10
3.074720
 20
3.291640
  0
SEQEND
  8
0
  0
POLYLINE
  8
0
 62
     0
  6
CONTINUOUS
 66
     1
 40
0.002200
 41
0.002200
  0
VERTEX
  8
0
 62
     0
  6
CONTINUOUS
 10
3.074720
 20
3.291640
  0
VERTEX
  8
0
 62
     0
  6
CONTINUOUS
 10
3.045240
 20
3.300880
  0
SEQEND
  8
0
  0
POLYLINE
  8
0
 62
     0
  6
CONTINUOUS
 66
     1
 40
0.002200
 41
0.002200
  0
VERTEX
  8
0
 62
     0
  6
CONTINUOUS
 10
3.045240
 20
3.300880
  0
VERTEX
  8
0
 62
     0
  6
CONTINUOUS
 10
3.010040
 20
3.310120
  0
SEQEND
  8
0
  0
POLYLINE
  8
0
 62
     0
  6
CONTINUOUS
 66
     1
 40
0.002200
 41
0.002200
  0
VERTEX
  8
0
 62
     0
  6
CONTINUOUS
 10
3.010040
 20
3.310120
  0
VERTEX
  8
0
 62
     0
  6
CONTINUOUS
 10
2.973080
 20
3.322880
  0
SEQEND
  8
0
  0
POLYLINE
  8
0
 62
     0
  6
CONTINUOUS
 66
     1
 40
0.002200
 41
0.002200
  0
VERTEX
  8
0
 62
     0
  6
CONTINUOUS
 10
2.973080
 20
3.322880
  0
VERTEX
  8
0
 62
     0
  6
CONTINUOUS
 10
2.935680
 20
3.334320
  0
SEQEND
  8
0
  0
POLYLINE
  8
0
 62
     0
  6
CONTINUOUS
 66
     1
 40
0.002200
 41
0.002200
  0
VERTEX
  8
0
 62
     0
  6
CONTINUOUS
 10
2.935680
 20
3.334320
  0
VERTEX
  8
0
 62
     0
  6
CONTINUOUS
 10
2.895200
 20
3.345320
  0
SEQEND
  8
0
  0
POLYLINE
  8
0
 62
     0
  6
CONTINUOUS
 66
     1
 40
0.002200
 41
0.002200
  0
VERTEX
  8
0
 62
     0
  6
CONTINUOUS
 10
2.895200
 20
3.345320
  0
VERTEX
  8
0
 62
     0
  6
CONTINUOUS
 10
2.860000
 20
3.356320
  0
SEQEND
  8
0
  0
POLYLINE
  8
0
 62
     0
  6
CONTINUOUS
 66
     1
 40
0.002200
 41
0.002200
  0
VERTEX
  8
0
 62
     0
  6
CONTINUOUS
 10
2.860000
 20
3.356320
  0
VERTEX
  8
0
 62
     0
  6
CONTINUOUS
 10
2.826560
 20
3.367320
  0
SEQEND
  8
0
  0
POLYLINE
  8
0
 62
     0
  6
CONTINUOUS
 66
     1
 40
0.002200
 41
0.002200
  0
VERTEX
  8
0
 62
     0
  6
CONTINUOUS
 10
2.826560
 20
3.367320
  0
VERTEX
  8
0
 62
     0
  6
CONTINUOUS
 10
2.795320
 20
3.374800
  0
SEQEND
  8
0
  0
POLYLINE
  8
0
 62
     0
  6
CONTINUOUS
 66
     1
 40
0.002200
 41
0.002200
  0
VERTEX
  8
0
 62
     0
  6
CONTINUOUS
 10
2.795320
 20
3.374800
  0
VERTEX
  8
0
 62
     0
  6
CONTINUOUS
 10
2.773320
 20
3.382280
  0
SEQEND
  8
0
  0
POLYLINE
  8
0
 62
     0
  6
CONTINUOUS
 66
     1
 40
0.002200
 41
0.002200
  0
VERTEX
  8
0
 62
     0
  6
CONTINUOUS
 10
2.773320
 20
3.382280
  0
VERTEX
  8
0
 62
     0
  6
CONTINUOUS
 10
2.756600
 20
3.385800
  0
SEQEND
  8
0
  0
POLYLINE
  8
0
 62
     0
  6
CONTINUOUS
 66
     1
 40
0.002200
 41
0.002200
  0
VERTEX
  8
0
 62
     0
  6
CONTINUOUS
 10
2.756600
 20
3.385800
  0
VERTEX
  8
0
 62
     0
  6
CONTINUOUS
 10
2.741640
 20
3.389760
  0
SEQEND
  8
0
  0
POLYLINE
  8
0
 62
     0
  6
CONTINUOUS
 66
     1
 40
0.002200
 41
0.002200
  0
VERTEX
  8
0
 62
     0
  6
CONTINUOUS
 10
2.741640
 20
3.389760
  0
VERTEX
  8
0
 62
     0
  6
CONTINUOUS
 10
2.732400
 20
3.393280
  0
SEQEND
  8
0
  0
POLYLINE
  8
0
 62
     0
  6
CONTINUOUS
 66
     1
 40
0.002200
 41
0.002200
  0
VERTEX
  8
0
 62
     0
  6
CONTINUOUS
 10
2.732400
 20
3.393280
  0
VERTEX
  8
0
 62
     0
  6
CONTINUOUS
 10
2.726680
 20
3.395040
  0
SEQEND
  8
0
  0
POLYLINE
  8
0
 62
     0
  6
CONTINUOUS
 66
     1
 40
0.002200
 41
0.002200
  0
VERTEX
  8
0
 62
     0
  6
CONTINUOUS
 10
2.726680
 20
3.395040
  0
VERTEX
  8
0
 62
     0
  6
CONTINUOUS
 10
2.723160
 20
3.397240
  0
SEQEND
  8
0
  0
POLYLINE
  8
0
 62
     0
  6
CONTINUOUS
 66
     1
 40
0.002200
 41
0.002200
  0
VERTEX
  8
0
 62
     0
  6
CONTINUOUS
 10
2.723160
 20
3.397240
  0
VERTEX
  8
0
 62
     0
  6
CONTINUOUS
 10
2.721400
 20
3.397240
  0
SEQEND
  8
0
  0
POLYLINE
  8
0
 62
     0
  6
CONTINUOUS
 66
     1
 40
0.002200
 41
0.002200
  0
VERTEX
  8
0
 62
     0
  6
CONTINUOUS
 10
2.721400
 20
3.397240
  0
VERTEX
  8
0
 62
     0
  6
CONTINUOUS
 10
2.719640
 20
3.399000
  0
SEQEND
  8
0
  0
POLYLINE
  8
0
 62
     0
  6
CONTINUOUS
 66
     1
 40
0.002200
 41
0.002200
  0
VERTEX
  8
0
 62
     0
  6
CONTINUOUS
 10
2.719640
 20
3.399000
  0
VERTEX
  8
0
 62
     0
  6
CONTINUOUS
 10
2.719640
 20
3.400760
  0
SEQEND
  8
0
  0
POLYLINE
  8
0
 62
     0
  6
CONTINUOUS
 66
     1
 40
0.002200
 41
0.002200
  0
VERTEX
  8
0
 62
     0
  6
CONTINUOUS
 10
2.719640
 20
3.400760
  0
VERTEX
  8
0
 62
     0
  6
CONTINUOUS
 10
2.719640
 20
3.402520
  0
SEQEND
  8
0
  0
POLYLINE
  8
0
 62
     0
  6
CONTINUOUS
 66
     1
 40
0.002200
 41
0.002200
  0
VERTEX
  8
0
 62
     0
  6
CONTINUOUS
 10
2.719640
 20
3.402520
  0
VERTEX
  8
0
 62
     0
  6
CONTINUOUS
 10
2.719640
 20
3.404280
  0
SEQEND
  8
0
  0
POLYLINE
  8
0
 62
     0
  6
CONTINUOUS
 66
     1
 40
0.002200
 41
0.002200
  0
VERTEX
  8
0
 62
     0
  6
CONTINUOUS
 10
2.719640
 20
3.404280
  0
VERTEX
  8
0
 62
     0
  6
CONTINUOUS
 10
2.719640
 20
3.406480
  0
SEQEND
  8
0
  0
POLYLINE
  8
0
 62
     0
  6
CONTINUOUS
 66
     1
 40
0.002200
 41
0.002200
  0
VERTEX
  8
0
 62
     0
  6
CONTINUOUS
 10
2.719640
 20
3.406480
  0
VERTEX
  8
0
 62
     0
  6
CONTINUOUS
 10
2.719640
 20
3.410000
  0
SEQEND
  8
0
  0
POLYLINE
  8
0
 62
     0
  6
CONTINUOUS
 66
     1
 40
0.002200
 41
0.002200
  0
VERTEX
  8
0
 62
     0
  6
CONTINUOUS
 10
2.719640
 20
3.410000
  0
VERTEX
  8
0
 62
     0
  6
CONTINUOUS
 10
2.721400
 20
3.411760
  0
SEQEND
  8
0
  0
POLYLINE
  8
0
 62
     0
  6
CONTINUOUS
 66
     1
 40
0.002200
 41
0.002200
  0
VERTEX
  8
0
 62
     0
  6
CONTINUOUS
 10
2.721400
 20
3.411760
  0
VERTEX
  8
0
 62
     0
  6
CONTINUOUS
 10
2.721400
 20
3.413520
  0
SEQEND
  8
0
  0
POLYLINE
  8
0
 62
     0
  6
CONTINUOUS
 66
     1
 40
0.002200
 41
0.002200
  0
VERTEX
  8
0
 62
     0
  6
CONTINUOUS
 10
2.721400
 20
3.413520
  0
VERTEX
  8
0
 62
     0
  6
CONTINUOUS
 10
2.723160
 20
3.415720
  0
SEQEND
  8
0
  0
POLYLINE
  8
0
 62
     0
  6
CONTINUOUS
 66
     1
 40
0.002200
 41
0.002200
  0
VERTEX
  8
0
 62
     0
  6
CONTINUOUS
 10
2.723160
 20
3.415720
  0
VERTEX
  8
0
 62
     0
  6
CONTINUOUS
 10
2.723160
 20
3.419240
  0
SEQEND
  8
0
  0
POLYLINE
  8
0
 62
     0
  6
CONTINUOUS
 66
     1
 40
0.002200
 41
0.002200
  0
VERTEX
  8
0
 62
     0
  6
CONTINUOUS
 10
2.723160
 20
3.419240
  0
VERTEX
  8
0
 62
     0
  6
CONTINUOUS
 10
2.724920
 20
3.421000
  0
SEQEND
  8
0
  0
POLYLINE
  8
0
 62
     0
  6
CONTINUOUS
 66
     1
 40
0.002200
 41
0.002200
  0
VERTEX
  8
0
 62
     0
  6
CONTINUOUS
 10
2.724920
 20
3.421000
  0
VERTEX
  8
0
 62
     0
  6
CONTINUOUS
 10
2.726680
 20
3.423200
  0
SEQEND
  8
0
  0
POLYLINE
  8
0
 62
     0
  6
CONTINUOUS
 66
     1
 40
0.002200
 41
0.002200
  0
VERTEX
  8
0
 62
     0
  6
CONTINUOUS
 10
2.726680
 20
3.423200
  0
VERTEX
  8
0
 62
     0
  6
CONTINUOUS
 10
2.730640
 20
3.424960
  0
SEQEND
  8
0
  0
POLYLINE
  8
0
 62
     0
  6
CONTINUOUS
 66
     1
 40
0.002200
 41
0.002200
  0
VERTEX
  8
0
 62
     0
  6
CONTINUOUS
 10
2.730640
 20
3.424960
  0
VERTEX
  8
0
 62
     0
  6
CONTINUOUS
 10
2.732400
 20
3.426720
  0
SEQEND
  8
0
  0
POLYLINE
  8
0
 62
     0
  6
CONTINUOUS
 66
     1
 40
0.002200
 41
0.002200
  0
VERTEX
  8
0
 62
     0
  6
CONTINUOUS
 10
2.732400
 20
3.426720
  0
VERTEX
  8
0
 62
     0
  6
CONTINUOUS
 10
2.738120
 20
3.430240
  0
SEQEND
  8
0
  0
POLYLINE
  8
0
 62
     0
  6
CONTINUOUS
 66
     1
 40
0.002200
 41
0.002200
  0
VERTEX
  8
0
 62
     0
  6
CONTINUOUS
 10
2.738120
 20
3.430240
  0
VERTEX
  8
0
 62
     0
  6
CONTINUOUS
 10
2.749120
 20
3.432440
  0
SEQEND
  8
0
  0
POLYLINE
  8
0
 62
     0
  6
CONTINUOUS
 66
     1
 40
0.002200
 41
0.002200
  0
VERTEX
  8
0
 62
     0
  6
CONTINUOUS
 10
2.749120
 20
3.432440
  0
VERTEX
  8
0
 62
     0
  6
CONTINUOUS
 10
2.767600
 20
3.437720
  0
SEQEND
  8
0
  0
POLYLINE
  8
0
 62
     0
  6
CONTINUOUS
 66
     1
 40
0.002200
 41
0.002200
  0
VERTEX
  8
0
 62
     0
  6
CONTINUOUS
 10
2.767600
 20
3.437720
  0
VERTEX
  8
0
 62
     0
  6
CONTINUOUS
 10
2.804560
 20
3.448720
  0
SEQEND
  8
0
  0
POLYLINE
  8
0
 62
     0
  6
CONTINUOUS
 66
     1
 40
0.002200
 41
0.002200
  0
VERTEX
  8
0
 62
     0
  6
CONTINUOUS
 10
2.804560
 20
3.448720
  0
VERTEX
  8
0
 62
     0
  6
CONTINUOUS
 10
2.858240
 20
3.465440
  0
SEQEND
  8
0
  0
POLYLINE
  8
0
 62
     0
  6
CONTINUOUS
 66
     1
 40
0.002200
 41
0.002200
  0
VERTEX
  8
0
 62
     0
  6
CONTINUOUS
 10
2.858240
 20
3.465440
  0
VERTEX
  8
0
 62
     0
  6
CONTINUOUS
 10
2.937880
 20
3.487880
  0
SEQEND
  8
0
  0
POLYLINE
  8
0
 62
     0
  6
CONTINUOUS
 66
     1
 40
0.002200
 41
0.002200
  0
VERTEX
  8
0
 62
     0
  6
CONTINUOUS
 10
2.937880
 20
3.487880
  0
VERTEX
  8
0
 62
     0
  6
CONTINUOUS
 10
3.045240
 20
3.519120
  0
SEQEND
  8
0
  0
POLYLINE
  8
0
 62
     0
  6
CONTINUOUS
 66
     1
 40
0.002200
 41
0.002200
  0
VERTEX
  8
0
 62
     0
  6
CONTINUOUS
 10
3.045240
 20
3.519120
  0
VERTEX
  8
0
 62
     0
  6
CONTINUOUS
 10
3.161400
 20
3.554320
  0
SEQEND
  8
0
  0
POLYLINE
  8
0
 62
     0
  6
CONTINUOUS
 66
     1
 40
0.002200
 41
0.002200
  0
VERTEX
  8
0
 62
     0
  6
CONTINUOUS
 10
3.161400
 20
3.554320
  0
VERTEX
  8
0
 62
     0
  6
CONTINUOUS
 10
3.165360
 20
3.552560
  0
SEQEND
  8
0
  0
POLYLINE
  8
0
 62
     0
  6
CONTINUOUS
 66
     1
 40
0.002200
 41
0.002200
  0
VERTEX
  8
0
 62
     0
  6
CONTINUOUS
 10
3.165360
 20
3.552560
  0
VERTEX
  8
0
 62
     0
  6
CONTINUOUS
 10
3.159640
 20
3.557840
  0
SEQEND
  8
0
  0
POLYLINE
  8
0
 62
     0
  6
CONTINUOUS
 66
     1
 40
0.002200
 41
0.002200
  0
VERTEX
  8
0
 62
     0
  6
CONTINUOUS
 10
3.159640
 20
3.557840
  0
VERTEX
  8
0
 62
     0
  6
CONTINUOUS
 10
3.152160
 20
3.563560
  0
SEQEND
  8
0
  0
POLYLINE
  8
0
 62
     0
  6
CONTINUOUS
 66
     1
 40
0.002200
 41
0.002200
  0
VERTEX
  8
0
 62
     0
  6
CONTINUOUS
 10
3.152160
 20
3.563560
  0
VERTEX
  8
0
 62
     0
  6
CONTINUOUS
 10
3.148640
 20
3.572800
  0
SEQEND
  8
0
  0
POLYLINE
  8
0
 62
     0
  6
CONTINUOUS
 66
     1
 40
0.002200
 41
0.002200
  0
VERTEX
  8
0
 62
     0
  6
CONTINUOUS
 10
3.148640
 20
3.572800
  0
VERTEX
  8
0
 62
     0
  6
CONTINUOUS
 10
3.144680
 20
3.582040
  0
SEQEND
  8
0
  0
POLYLINE
  8
0
 62
     0
  6
CONTINUOUS
 66
     1
 40
0.002200
 41
0.002200
  0
VERTEX
  8
0
 62
     0
  6
CONTINUOUS
 10
3.144680
 20
3.582040
  0
VERTEX
  8
0
 62
     0
  6
CONTINUOUS
 10
3.144680
 20
3.591280
  0
SEQEND
  8
0
  0
POLYLINE
  8
0
 62
     0
  6
CONTINUOUS
 66
     1
 40
0.002200
 41
0.002200
  0
VERTEX
  8
0
 62
     0
  6
CONTINUOUS
 10
3.144680
 20
3.591280
  0
VERTEX
  8
0
 62
     0
  6
CONTINUOUS
 10
3.148640
 20
3.600520
  0
SEQEND
  8
0
  0
POLYLINE
  8
0
 62
     0
  6
CONTINUOUS
 66
     1
 40
0.002200
 41
0.002200
  0
VERTEX
  8
0
 62
     0
  6
CONTINUOUS
 10
3.148640
 20
3.600520
  0
VERTEX
  8
0
 62
     0
  6
CONTINUOUS
 10
3.152160
 20
3.608000
  0
SEQEND
  8
0
  0
POLYLINE
  8
0
 62
     0
  6
CONTINUOUS
 66
     1
 40
0.002200
 41
0.002200
  0
VERTEX
  8
0
 62
     0
  6
CONTINUOUS
 10
3.152160
 20
3.608000
  0
VERTEX
  8
0
 62
     0
  6
CONTINUOUS
 10
3.182080
 20
3.608000
  0
SEQEND
  8
0
  0
POLYLINE
  8
0
 62
     0
  6
CONTINUOUS
 66
     1
 40
0.002200
 41
0.002200
  0
VERTEX
  8
0
 62
     0
  6
CONTINUOUS
 10
3.182080
 20
3.608000
  0
VERTEX
  8
0
 62
     0
  6
CONTINUOUS
 10
3.182080
 20
3.632200
  0
SEQEND
  8
0
  0
POLYLINE
  8
0
 62
     0
  6
CONTINUOUS
 66
     1
 40
0.002200
 41
0.002200
  0
VERTEX
  8
0
 62
     0
  6
CONTINUOUS
 10
3.182080
 20
3.632200
  0
VERTEX
  8
0
 62
     0
  6
CONTINUOUS
 10
3.215080
 20
3.632200
  0
SEQEND
  8
0
  0
POLYLINE
  8
0
 62
     0
  6
CONTINUOUS
 66
     1
 40
0.002200
 41
0.002200
  0
VERTEX
  8
0
 62
     0
  6
CONTINUOUS
 10
3.215080
 20
3.632200
  0
VERTEX
  8
0
 62
     0
  6
CONTINUOUS
 10
3.215080
 20
3.582040
  0
SEQEND
  8
0
  0
POLYLINE
  8
0
 62
     0
  6
CONTINUOUS
 66
     1
 40
0.002200
 41
0.002200
  0
VERTEX
  8
0
 62
     0
  6
CONTINUOUS
 10
3.215080
 20
3.582040
  0
VERTEX
  8
0
 62
     0
  6
CONTINUOUS
 10
3.213320
 20
3.572800
  0
SEQEND
  8
0
  0
POLYLINE
  8
0
 62
     0
  6
CONTINUOUS
 66
     1
 40
0.002200
 41
0.002200
  0
VERTEX
  8
0
 62
     0
  6
CONTINUOUS
 10
3.213320
 20
3.572800
  0
VERTEX
  8
0
 62
     0
  6
CONTINUOUS
 10
3.207600
 20
3.563560
  0
SEQEND
  8
0
  0
POLYLINE
  8
0
 62
     0
  6
CONTINUOUS
 66
     1
 40
0.002200
 41
0.002200
  0
VERTEX
  8
0
 62
     0
  6
CONTINUOUS
 10
3.207600
 20
3.563560
  0
VERTEX
  8
0
 62
     0
  6
CONTINUOUS
 10
3.202320
 20
3.557840
  0
SEQEND
  8
0
  0
POLYLINE
  8
0
 62
     0
  6
CONTINUOUS
 66
     1
 40
0.002200
 41
0.002200
  0
VERTEX
  8
0
 62
     0
  6
CONTINUOUS
 10
3.202320
 20
3.557840
  0
VERTEX
  8
0
 62
     0
  6
CONTINUOUS
 10
3.193080
 20
3.552560
  0
SEQEND
  8
0
  0
POLYLINE
  8
0
 62
     0
  6
CONTINUOUS
 66
     1
 40
0.002200
 41
0.002200
  0
VERTEX
  8
0
 62
     0
  6
CONTINUOUS
 10
3.193080
 20
3.552560
  0
VERTEX
  8
0
 62
     0
  6
CONTINUOUS
 10
3.183840
 20
3.548600
  0
SEQEND
  8
0
  0
POLYLINE
  8
0
 62
     0
  6
CONTINUOUS
 66
     1
 40
0.002200
 41
0.002200
  0
VERTEX
  8
0
 62
     0
  6
CONTINUOUS
 10
3.183840
 20
3.548600
  0
VERTEX
  8
0
 62
     0
  6
CONTINUOUS
 10
3.176360
 20
3.548600
  0
SEQEND
  8
0
  0
POLYLINE
  8
0
 62
     0
  6
CONTINUOUS
 66
     1
 40
0.002200
 41
0.002200
  0
VERTEX
  8
0
 62
     0
  6
CONTINUOUS
 10
3.176360
 20
3.548600
  0
VERTEX
  8
0
 62
     0
  6
CONTINUOUS
 10
3.165360
 20
3.552560
  0
SEQEND
  8
0
  0
POLYLINE
  8
0
 62
     0
  6
CONTINUOUS
 66
     1
 40
0.002200
 41
0.002200
  0
VERTEX
  8
0
 62
     0
  6
CONTINUOUS
 10
3.165360
 20
3.571040
  0
VERTEX
  8
0
 62
     0
  6
CONTINUOUS
 10
3.159640
 20
3.571040
  0
SEQEND
  8
0
  0
POLYLINE
  8
0
 62
     0
  6
CONTINUOUS
 66
     1
 40
0.002200
 41
0.002200
  0
VERTEX
  8
0
 62
     0
  6
CONTINUOUS
 10
3.159640
 20
3.571040
  0
VERTEX
  8
0
 62
     0
  6
CONTINUOUS
 10
3.156120
 20
3.571040
  0
SEQEND
  8
0
  0
POLYLINE
  8
0
 62
     0
  6
CONTINUOUS
 66
     1
 40
0.002200
 41
0.002200
  0
VERTEX
  8
0
 62
     0
  6
CONTINUOUS
 10
3.156120
 20
3.571040
  0
VERTEX
  8
0
 62
     0
  6
CONTINUOUS
 10
3.150400
 20
3.574560
  0
SEQEND
  8
0
  0
POLYLINE
  8
0
 62
     0
  6
CONTINUOUS
 66
     1
 40
0.002200
 41
0.002200
  0
VERTEX
  8
0
 62
     0
  6
CONTINUOUS
 10
3.150400
 20
3.574560
  0
VERTEX
  8
0
 62
     0
  6
CONTINUOUS
 10
3.146880
 20
3.580280
  0
SEQEND
  8
0
  0
POLYLINE
  8
0
 62
     0
  6
CONTINUOUS
 66
     1
 40
0.002200
 41
0.002200
  0
VERTEX
  8
0
 62
     0
  6
CONTINUOUS
 10
3.146880
 20
3.580280
  0
VERTEX
  8
0
 62
     0
  6
CONTINUOUS
 10
3.144680
 20
3.585560
  0
SEQEND
  8
0
  0
POLYLINE
  8
0
 62
     0
  6
CONTINUOUS
 66
     1
 40
0.002200
 41
0.002200
  0
VERTEX
  8
0
 62
     0
  6
CONTINUOUS
 10
3.144680
 20
3.585560
  0
VERTEX
  8
0
 62
     0
  6
CONTINUOUS
 10
3.146880
 20
3.591280
  0
SEQEND
  8
0
  0
POLYLINE
  8
0
 62
     0
  6
CONTINUOUS
 66
     1
 40
0.002200
 41
0.002200
  0
VERTEX
  8
0
 62
     0
  6
CONTINUOUS
 10
3.146880
 20
3.591280
  0
VERTEX
  8
0
 62
     0
  6
CONTINUOUS
 10
3.150400
 20
3.597000
  0
SEQEND
  8
0
  0
POLYLINE
  8
0
 62
     0
  6
CONTINUOUS
 66
     1
 40
0.002200
 41
0.002200
  0
VERTEX
  8
0
 62
     0
  6
CONTINUOUS
 10
3.150400
 20
3.597000
  0
VERTEX
  8
0
 62
     0
  6
CONTINUOUS
 10
3.156120
 20
3.600520
  0
SEQEND
  8
0
  0
POLYLINE
  8
0
 62
     0
  6
CONTINUOUS
 66
     1
 40
0.002200
 41
0.002200
  0
VERTEX
  8
0
 62
     0
  6
CONTINUOUS
 10
3.156120
 20
3.600520
  0
VERTEX
  8
0
 62
     0
  6
CONTINUOUS
 10
3.159640
 20
3.600520
  0
SEQEND
  8
0
  0
POLYLINE
  8
0
 62
     0
  6
CONTINUOUS
 66
     1
 40
0.002200
 41
0.002200
  0
VERTEX
  8
0
 62
     0
  6
CONTINUOUS
 10
3.159640
 20
3.600520
  0
VERTEX
  8
0
 62
     0
  6
CONTINUOUS
 10
3.165360
 20
3.600520
  0
SEQEND
  8
0
  0
POLYLINE
  8
0
 62
     0
  6
CONTINUOUS
 66
     1
 40
0.002200
 41
0.002200
  0
VERTEX
  8
0
 62
     0
  6
CONTINUOUS
 10
3.165360
 20
3.600520
  0
VERTEX
  8
0
 62
     0
  6
CONTINUOUS
 10
3.170640
 20
3.597000
  0
SEQEND
  8
0
  0
POLYLINE
  8
0
 62
     0
  6
CONTINUOUS
 66
     1
 40
0.002200
 41
0.002200
  0
VERTEX
  8
0
 62
     0
  6
CONTINUOUS
 10
3.170640
 20
3.597000
  0
VERTEX
  8
0
 62
     0
  6
CONTINUOUS
 10
3.174600
 20
3.591280
  0
SEQEND
  8
0
  0
POLYLINE
  8
0
 62
     0
  6
CONTINUOUS
 66
     1
 40
0.002200
 41
0.002200
  0
VERTEX
  8
0
 62
     0
  6
CONTINUOUS
 10
3.174600
 20
3.591280
  0
VERTEX
  8
0
 62
     0
  6
CONTINUOUS
 10
3.174600
 20
3.585560
  0
SEQEND
  8
0
  0
POLYLINE
  8
0
 62
     0
  6
CONTINUOUS
 66
     1
 40
0.002200
 41
0.002200
  0
VERTEX
  8
0
 62
     0
  6
CONTINUOUS
 10
3.174600
 20
3.585560
  0
VERTEX
  8
0
 62
     0
  6
CONTINUOUS
 10
3.174600
 20
3.580280
  0
SEQEND
  8
0
  0
POLYLINE
  8
0
 62
     0
  6
CONTINUOUS
 66
     1
 40
0.002200
 41
0.002200
  0
VERTEX
  8
0
 62
     0
  6
CONTINUOUS
 10
3.174600
 20
3.580280
  0
VERTEX
  8
0
 62
     0
  6
CONTINUOUS
 10
3.170640
 20
3.574560
  0
SEQEND
  8
0
  0
POLYLINE
  8
0
 62
     0
  6
CONTINUOUS
 66
     1
 40
0.002200
 41
0.002200
  0
VERTEX
  8
0
 62
     0
  6
CONTINUOUS
 10
3.170640
 20
3.574560
  0
VERTEX
  8
0
 62
     0
  6
CONTINUOUS
 10
3.165360
 20
3.571040
  0
SEQEND
  8
0
  0
POLYLINE
  8
0
 62
     0
  6
CONTINUOUS
 66
     1
 40
0.002200
 41
0.002200
  0
VERTEX
  8
0
 62
     0
  6
CONTINUOUS
 10
3.215080
 20
3.582040
  0
VERTEX
  8
0
 62
     0
  6
CONTINUOUS
 10
3.215080
 20
3.591280
  0
SEQEND
  8
0
  0
POLYLINE
  8
0
 62
     0
  6
CONTINUOUS
 66
     1
 40
0.002200
 41
0.002200
  0
VERTEX
  8
0
 62
     0
  6
CONTINUOUS
 10
3.239280
 20
3.619000
  0
VERTEX
  8
0
 62
     0
  6
CONTINUOUS
 10
3.124440
 20
3.034680
  0
SEQEND
  8
0
  0
POLYLINE
  8
0
 62
     0
  6
CONTINUOUS
 66
     1
 40
0.002200
 41
0.002200
  0
VERTEX
  8
0
 62
     0
  6
CONTINUOUS
 10
3.124440
 20
3.034680
  0
VERTEX
  8
0
 62
     0
  6
CONTINUOUS
 10
3.000800
 20
3.034680
  0
SEQEND
  8
0
  0
POLYLINE
  8
0
 62
     0
  6
CONTINUOUS
 66
     1
 40
0.002200
 41
0.002200
  0
VERTEX
  8
0
 62
     0
  6
CONTINUOUS
 10
3.000800
 20
3.034680
  0
VERTEX
  8
0
 62
     0
  6
CONTINUOUS
 10
3.000800
 20
2.918080
  0
SEQEND
  8
0
  0
POLYLINE
  8
0
 62
     0
  6
CONTINUOUS
 66
     1
 40
0.002200
 41
0.002200
  0
VERTEX
  8
0
 62
     0
  6
CONTINUOUS
 10
2.907960
 20
2.918080
  0
VERTEX
  8
0
 62
     0
  6
CONTINUOUS
 10
2.719640
 20
2.918080
  0
SEQEND
  8
0
  0
POLYLINE
  8
0
 62
     0
  6
CONTINUOUS
 66
     1
 40
0.002200
 41
0.002200
  0
VERTEX
  8
0
 62
     0
  6
CONTINUOUS
 10
2.719640
 20
2.918080
  0
VERTEX
  8
0
 62
     0
  6
CONTINUOUS
 10
2.719640
 20
3.399000
  0
SEQEND
  8
0
  0
POLYLINE
  8
0
 62
     0
  6
CONTINUOUS
 66
     1
 40
0.002200
 41
0.002200
  0
VERTEX
  8
0
 62
     0
  6
CONTINUOUS
 10
2.719640
 20
3.399000
  0
VERTEX
  8
0
 62
     0
  6
CONTINUOUS
 10
2.719640
 20
3.619000
  0
SEQEND
  8
0
  0
POLYLINE
  8
0
 62
     0
  6
CONTINUOUS
 66
     1
 40
0.002200
 41
0.002200
  0
VERTEX
  8
0
 62
     0
  6
CONTINUOUS
 10
2.719640
 20
3.619000
  0
VERTEX
  8
0
 62
     0
  6
CONTINUOUS
 10
2.907960
 20
3.619000
  0
SEQEND
  8
0
  0
POLYLINE
  8
0
 62
     0
  6
CONTINUOUS
 66
     1
 40
0.002200
 41
0.002200
  0
VERTEX
  8
0
 62
     0
  6
CONTINUOUS
 10
2.907960
 20
3.619000
  0
VERTEX
  8
0
 62
     0
  6
CONTINUOUS
 10
3.096720
 20
3.619000
  0
SEQEND
  8
0
  0
POLYLINE
  8
0
 62
     0
  6
CONTINUOUS
 66
     1
 40
0.002200
 41
0.002200
  0
VERTEX
  8
0
 62
     0
  6
CONTINUOUS
 10
3.096720
 20
3.619000
  0
VERTEX
  8
0
 62
     0
  6
CONTINUOUS
 10
3.182080
 20
3.619000
  0
SEQEND
  8
0
  0
POLYLINE
  8
0
 62
     0
  6
CONTINUOUS
 66
     1
 40
0.002200
 41
0.002200
  0
VERTEX
  8
0
 62
     0
  6
CONTINUOUS
 10
3.285480
 20
3.619000
  0
VERTEX
  8
0
 62
     0
  6
CONTINUOUS
 10
3.285480
 20
3.399000
  0
SEQEND
  8
0
  0
POLYLINE
  8
0
 62
     0
  6
CONTINUOUS
 66
     1
 40
0.002200
 41
0.002200
  0
VERTEX
  8
0
 62
     0
  6
CONTINUOUS
 10
3.285480
 20
3.399000
  0
VERTEX
  8
0
 62
     0
  6
CONTINUOUS
 10
3.285480
 20
2.918080
  0
SEQEND
  8
0
  0
POLYLINE
  8
0
 62
     0
  6
CONTINUOUS
 66
     1
 40
0.002200
 41
0.002200
  0
VERTEX
  8
0
 62
     0
  6
CONTINUOUS
 10
3.285480
 20
2.918080
  0
VERTEX
  8
0
 62
     0
  6
CONTINUOUS
 10
3.096720
 20
2.918080
  0
SEQEND
  8
0
  0
POLYLINE
  8
0
 62
     0
  6
CONTINUOUS
 66
     1
 40
0.002200
 41
0.002200
  0
VERTEX
  8
0
 62
     0
  6
CONTINUOUS
 10
3.096720
 20
2.918080
  0
VERTEX
  8
0
 62
     0
  6
CONTINUOUS
 10
2.907960
 20
2.918080
  0
SEQEND
  8
0
  0
POLYLINE
  8
0
 62
     0
  6
CONTINUOUS
 66
     1
 40
0.002200
 41
0.002200
  0
VERTEX
  8
0
 62
     0
  6
CONTINUOUS
 10
3.178120
 20
2.958560
  0
VERTEX
  8
0
 62
     0
  6
CONTINUOUS
 10
3.182080
 20
2.955040
  0
SEQEND
  8
0
  0
POLYLINE
  8
0
 62
     0
  6
CONTINUOUS
 66
     1
 40
0.002200
 41
0.002200
  0
VERTEX
  8
0
 62
     0
  6
CONTINUOUS
 10
3.182080
 20
2.955040
  0
VERTEX
  8
0
 62
     0
  6
CONTINUOUS
 10
3.187360
 20
2.953280
  0
SEQEND
  8
0
  0
POLYLINE
  8
0
 62
     0
  6
CONTINUOUS
 66
     1
 40
0.002200
 41
0.002200
  0
VERTEX
  8
0
 62
     0
  6
CONTINUOUS
 10
3.187360
 20
2.953280
  0
VERTEX
  8
0
 62
     0
  6
CONTINUOUS
 10
3.191320
 20
2.955040
  0
SEQEND
  8
0
  0
POLYLINE
  8
0
 62
     0
  6
CONTINUOUS
 66
     1
 40
0.002200
 41
0.002200
  0
VERTEX
  8
0
 62
     0
  6
CONTINUOUS
 10
3.191320
 20
2.955040
  0
VERTEX
  8
0
 62
     0
  6
CONTINUOUS
 10
3.196600
 20
2.958560
  0
SEQEND
  8
0
  0
POLYLINE
  8
0
 62
     0
  6
CONTINUOUS
 66
     1
 40
0.002200
 41
0.002200
  0
VERTEX
  8
0
 62
     0
  6
CONTINUOUS
 10
3.196600
 20
2.958560
  0
VERTEX
  8
0
 62
     0
  6
CONTINUOUS
 10
3.200560
 20
2.962520
  0
SEQEND
  8
0
  0
POLYLINE
  8
0
 62
     0
  6
CONTINUOUS
 66
     1
 40
0.002200
 41
0.002200
  0
VERTEX
  8
0
 62
     0
  6
CONTINUOUS
 10
3.200560
 20
2.962520
  0
VERTEX
  8
0
 62
     0
  6
CONTINUOUS
 10
3.200560
 20
2.967800
  0
SEQEND
  8
0
  0
POLYLINE
  8
0
 62
     0
  6
CONTINUOUS
 66
     1
 40
0.002200
 41
0.002200
  0
VERTEX
  8
0
 62
     0
  6
CONTINUOUS
 10
3.200560
 20
2.967800
  0
VERTEX
  8
0
 62
     0
  6
CONTINUOUS
 10
3.200560
 20
2.971760
  0
SEQEND
  8
0
  0
POLYLINE
  8
0
 62
     0
  6
CONTINUOUS
 66
     1
 40
0.002200
 41
0.002200
  0
VERTEX
  8
0
 62
     0
  6
CONTINUOUS
 10
3.200560
 20
2.971760
  0
VERTEX
  8
0
 62
     0
  6
CONTINUOUS
 10
3.196600
 20
2.977040
  0
SEQEND
  8
0
  0
POLYLINE
  8
0
 62
     0
  6
CONTINUOUS
 66
     1
 40
0.002200
 41
0.002200
  0
VERTEX
  8
0
 62
     0
  6
CONTINUOUS
 10
3.196600
 20
2.977040
  0
VERTEX
  8
0
 62
     0
  6
CONTINUOUS
 10
3.191320
 20
2.979240
  0
SEQEND
  8
0
  0
POLYLINE
  8
0
 62
     0
  6
CONTINUOUS
 66
     1
 40
0.002200
 41
0.002200
  0
VERTEX
  8
0
 62
     0
  6
CONTINUOUS
 10
3.191320
 20
2.979240
  0
VERTEX
  8
0
 62
     0
  6
CONTINUOUS
 10
3.187360
 20
2.981000
  0
SEQEND
  8
0
  0
POLYLINE
  8
0
 62
     0
  6
CONTINUOUS
 66
     1
 40
0.002200
 41
0.002200
  0
VERTEX
  8
0
 62
     0
  6
CONTINUOUS
 10
3.187360
 20
2.981000
  0
VERTEX
  8
0
 62
     0
  6
CONTINUOUS
 10
3.182080
 20
2.979240
  0
SEQEND
  8
0
  0
POLYLINE
  8
0
 62
     0
  6
CONTINUOUS
 66
     1
 40
0.002200
 41
0.002200
  0
VERTEX
  8
0
 62
     0
  6
CONTINUOUS
 10
3.182080
 20
2.979240
  0
VERTEX
  8
0
 62
     0
  6
CONTINUOUS
 10
3.178120
 20
2.977040
  0
SEQEND
  8
0
  0
POLYLINE
  8
0
 62
     0
  6
CONTINUOUS
 66
     1
 40
0.002200
 41
0.002200
  0
VERTEX
  8
0
 62
     0
  6
CONTINUOUS
 10
3.178120
 20
2.977040
  0
VERTEX
  8
0
 62
     0
  6
CONTINUOUS
 10
3.176360
 20
2.971760
  0
SEQEND
  8
0
  0
POLYLINE
  8
0
 62
     0
  6
CONTINUOUS
 66
     1
 40
0.002200
 41
0.002200
  0
VERTEX
  8
0
 62
     0
  6
CONTINUOUS
 10
3.176360
 20
2.971760
  0
VERTEX
  8
0
 62
     0
  6
CONTINUOUS
 10
3.174600
 20
2.967800
  0
SEQEND
  8
0
  0
POLYLINE
  8
0
 62
     0
  6
CONTINUOUS
 66
     1
 40
0.002200
 41
0.002200
  0
VERTEX
  8
0
 62
     0
  6
CONTINUOUS
 10
3.174600
 20
2.967800
  0
VERTEX
  8
0
 62
     0
  6
CONTINUOUS
 10
3.176360
 20
2.962520
  0
SEQEND
  8
0
  0
POLYLINE
  8
0
 62
     0
  6
CONTINUOUS
 66
     1
 40
0.002200
 41
0.002200
  0
VERTEX
  8
0
 62
     0
  6
CONTINUOUS
 10
3.176360
 20
2.962520
  0
VERTEX
  8
0
 62
     0
  6
CONTINUOUS
 10
3.178120
 20
2.958560
  0
SEQEND
  8
0
  0
POLYLINE
  8
0
 62
     0
  6
CONTINUOUS
 66
     1
 40
0.002200
 41
0.002200
  0
VERTEX
  8
0
 62
     0
  6
CONTINUOUS
 10
2.482920
 20
2.163480
  0
VERTEX
  8
0
 62
     0
  6
CONTINUOUS
 10
2.482920
 20
2.890360
  0
SEQEND
  8
0
  0
POLYLINE
  8
0
 62
     0
  6
CONTINUOUS
 66
     1
 40
0.002200
 41
0.002200
  0
VERTEX
  8
0
 62
     0
  6
CONTINUOUS
 10
2.443320
 20
2.111120
  0
VERTEX
  8
0
 62
     0
  6
CONTINUOUS
 10
2.439360
 20
2.100120
  0
VERTEX
  8
0
 62
     0
  6
CONTINUOUS
 10
2.450800
 20
2.100120
  0
VERTEX
  8
0
 62
     0
  6
CONTINUOUS
 10
2.462680
 20
2.065360
  0
VERTEX
  8
0
 62
     0
  6
CONTINUOUS
 10
2.463560
 20
2.064480
  0
VERTEX
  8
0
 62
     0
  6
CONTINUOUS
 10
2.467520
 20
2.053920
  0
VERTEX
  8
0
 62
     0
  6
CONTINUOUS
 10
2.434520
 20
2.053920
  0
VERTEX
  8
0
 62
     0
  6
CONTINUOUS
 10
2.450360
 20
2.098800
  0
VERTEX
  8
0
 62
     0
  6
CONTINUOUS
 10
2.450360
 20
2.100120
  0
VERTEX
  8
0
 62
     0
  6
CONTINUOUS
 10
2.438920
 20
2.100120
  0
VERTEX
  8
0
 62
     0
  6
CONTINUOUS
 10
2.405920
 20
2.013880
  0
VERTEX
  8
0
 62
     0
  6
CONTINUOUS
 10
2.420440
 20
2.013880
  0
VERTEX
  8
0
 62
     0
  6
CONTINUOUS
 10
2.431000
 20
2.042920
  0
VERTEX
  8
0
 62
     0
  6
CONTINUOUS
 10
2.485560
 20
2.042920
  0
VERTEX
  8
0
 62
     0
  6
CONTINUOUS
 10
2.457840
 20
2.111120
  0
VERTEX
  8
0
 62
     0
  6
CONTINUOUS
 10
2.443320
 20
2.111120
  0
SEQEND
  8
0
  0
SOLID
  8
0
 62
     0
 10
2.471480
 20
2.042920
 11
2.482480
 21
2.013880
 12
2.485560
 22
2.042920
 13
2.497440
 23
2.013880
  0
POLYLINE
  8
0
 62
     0
  6
CONTINUOUS
 66
     1
 40
0.002200
 41
0.002200
  0
VERTEX
  8
0
 62
     0
  6
CONTINUOUS
 10
2.471480
 20
2.042920
  0
VERTEX
  8
0
 62
     0
  6
CONTINUOUS
 10
2.482480
 20
2.013880
  0
VERTEX
  8
0
 62
     0
  6
CONTINUOUS
 10
2.497440
 20
2.013880
  0
VERTEX
  8
0
 62
     0
  6
CONTINUOUS
 10
2.485560
 20
2.042920
  0
VERTEX
  8
0
 62
     0
  6
CONTINUOUS
 10
2.471480
 20
2.042920
  0
SEQEND
  8
0
  0
POLYLINE
  8
0
 62
     0
  6
CONTINUOUS
 66
     1
 40
0.002200
 41
0.002200
  0
VERTEX
  8
0
 62
     0
  6
CONTINUOUS
 10
2.552000
 20
2.101440
  0
VERTEX
  8
0
 62
     0
  6
CONTINUOUS
 10
2.552000
 20
2.101000
  0
VERTEX
  8
0
 62
     0
  6
CONTINUOUS
 10
2.559480
 20
2.100120
  0
VERTEX
  8
0
 62
     0
  6
CONTINUOUS
 10
2.559480
 20
2.099680
  0
VERTEX
  8
0
 62
     0
  6
CONTINUOUS
 10
2.570480
 20
2.094400
  0
VERTEX
  8
0
 62
     0
  6
CONTINUOUS
 10
2.578840
 20
2.082080
  0
VERTEX
  8
0
 62
     0
  6
CONTINUOUS
 10
2.582800
 20
2.064920
  0
VERTEX
  8
0
 62
     0
  6
CONTINUOUS
 10
2.581480
 20
2.048640
  0
VERTEX
  8
0
 62
     0
  6
CONTINUOUS
 10
2.581040
 20
2.048640
  0
VERTEX
  8
0
 62
     0
  6
CONTINUOUS
 10
2.577520
 20
2.038960
  0
VERTEX
  8
0
 62
     0
  6
CONTINUOUS
 10
2.567840
 20
2.028840
  0
VERTEX
  8
0
 62
     0
  6
CONTINUOUS
 10
2.559040
 20
2.024440
  0
VERTEX
  8
0
 62
     0
  6
CONTINUOUS
 10
2.545400
 20
2.023560
  0
VERTEX
  8
0
 62
     0
  6
CONTINUOUS
 10
2.545400
 20
2.024000
  0
VERTEX
  8
0
 62
     0
  6
CONTINUOUS
 10
2.538360
 20
2.024880
  0
VERTEX
  8
0
 62
     0
  6
CONTINUOUS
 10
2.538360
 20
2.025320
  0
VERTEX
  8
0
 62
     0
  6
CONTINUOUS
 10
2.530440
 20
2.028840
  0
VERTEX
  8
0
 62
     0
  6
CONTINUOUS
 10
2.522520
 20
2.037640
  0
VERTEX
  8
0
 62
     0
  6
CONTINUOUS
 10
2.517240
 20
2.051280
  0
VERTEX
  8
0
 62
     0
  6
CONTINUOUS
 10
2.517240
 20
2.071960
  0
VERTEX
  8
0
 62
     0
  6
CONTINUOUS
 10
2.517680
 20
2.071960
  0
VERTEX
  8
0
 62
     0
  6
CONTINUOUS
 10
2.520760
 20
2.084280
  0
VERTEX
  8
0
 62
     0
  6
CONTINUOUS
 10
2.528680
 20
2.093960
  0
VERTEX
  8
0
 62
     0
  6
CONTINUOUS
 10
2.541880
 20
2.101000
  0
VERTEX
  8
0
 62
     0
  6
CONTINUOUS
 10
2.579720
 20
2.101440
  0
VERTEX
  8
0
 62
     0
  6
CONTINUOUS
 10
2.568720
 20
2.109360
  0
VERTEX
  8
0
 62
     0
  6
CONTINUOUS
 10
2.552440
 20
2.112880
  0
VERTEX
  8
0
 62
     0
  6
CONTINUOUS
 10
2.538800
 20
2.111560
  0
VERTEX
  8
0
 62
     0
  6
CONTINUOUS
 10
2.526920
 20
2.107160
  0
VERTEX
  8
0
 62
     0
  6
CONTINUOUS
 10
2.525160
 20
2.105840
  0
VERTEX
  8
0
 62
     0
  6
CONTINUOUS
 10
2.515040
 20
2.098360
  0
VERTEX
  8
0
 62
     0
  6
CONTINUOUS
 10
2.506240
 20
2.083400
  0
VERTEX
  8
0
 62
     0
  6
CONTINUOUS
 10
2.503160
 20
2.064040
  0
VERTEX
  8
0
 62
     0
  6
CONTINUOUS
 10
2.504920
 20
2.046440
  0
VERTEX
  8
0
 62
     0
  6
CONTINUOUS
 10
2.505360
 20
2.046440
  0
VERTEX
  8
0
 62
     0
  6
CONTINUOUS
 10
2.509760
 20
2.035000
  0
VERTEX
  8
0
 62
     0
  6
CONTINUOUS
 10
2.520320
 20
2.021800
  0
VERTEX
  8
0
 62
     0
  6
CONTINUOUS
 10
2.533960
 20
2.014320
  0
VERTEX
  8
0
 62
     0
  6
CONTINUOUS
 10
2.541440
 20
2.012120
  0
VERTEX
  8
0
 62
     0
  6
CONTINUOUS
 10
2.558160
 20
2.012560
  0
VERTEX
  8
0
 62
     0
  6
CONTINUOUS
 10
2.558160
 20
2.013000
  0
VERTEX
  8
0
 62
     0
  6
CONTINUOUS
 10
2.569600
 20
2.016080
  0
VERTEX
  8
0
 62
     0
  6
CONTINUOUS
 10
2.571360
 20
2.017400
  0
VERTEX
  8
0
 62
     0
  6
CONTINUOUS
 10
2.584120
 20
2.026200
  0
VERTEX
  8
0
 62
     0
  6
CONTINUOUS
 10
2.587640
 20
2.031480
  0
VERTEX
  8
0
 62
     0
  6
CONTINUOUS
 10
2.590280
 20
2.035440
  0
VERTEX
  8
0
 62
     0
  6
CONTINUOUS
 10
2.595560
 20
2.051720
  0
VERTEX
  8
0
 62
     0
  6
CONTINUOUS
 10
2.596440
 20
2.065360
  0
VERTEX
  8
0
 62
     0
  6
CONTINUOUS
 10
2.596000
 20
2.065360
  0
VERTEX
  8
0
 62
     0
  6
CONTINUOUS
 10
2.594680
 20
2.076360
  0
VERTEX
  8
0
 62
     0
  6
CONTINUOUS
 10
2.589400
 20
2.090440
  0
VERTEX
  8
0
 62
     0
  6
CONTINUOUS
 10
2.581480
 20
2.100560
  0
VERTEX
  8
0
 62
     0
  6
CONTINUOUS
 10
2.580160
 20
2.101440
  0
VERTEX
  8
0
 62
     0
  6
CONTINUOUS
 10
2.552000
 20
2.101440
  0
SEQEND
  8
0
  0
POLYLINE
  8
0
 62
     0
  6
CONTINUOUS
 66
     1
 40
0.002200
 41
0.002200
  0
VERTEX
  8
0
 62
     0
  6
CONTINUOUS
 10
2.716120
 20
2.099240
  0
VERTEX
  8
0
 62
     0
  6
CONTINUOUS
 10
2.716120
 20
2.013880
  0
VERTEX
  8
0
 62
     0
  6
CONTINUOUS
 10
2.762760
 20
2.014320
  0
VERTEX
  8
0
 62
     0
  6
CONTINUOUS
 10
2.762760
 20
2.014760
  0
VERTEX
  8
0
 62
     0
  6
CONTINUOUS
 10
2.773760
 20
2.017400
  0
VERTEX
  8
0
 62
     0
  6
CONTINUOUS
 10
2.785640
 20
2.026200
  0
VERTEX
  8
0
 62
     0
  6
CONTINUOUS
 10
2.788280
 20
2.030160
  0
VERTEX
  8
0
 62
     0
  6
CONTINUOUS
 10
2.790920
 20
2.034120
  0
VERTEX
  8
0
 62
     0
  6
CONTINUOUS
 10
2.796640
 20
2.051280
  0
VERTEX
  8
0
 62
     0
  6
CONTINUOUS
 10
2.796640
 20
2.071960
  0
VERTEX
  8
0
 62
     0
  6
CONTINUOUS
 10
2.796200
 20
2.071960
  0
VERTEX
  8
0
 62
     0
  6
CONTINUOUS
 10
2.794880
 20
2.080320
  0
VERTEX
  8
0
 62
     0
  6
CONTINUOUS
 10
2.794440
 20
2.080320
  0
VERTEX
  8
0
 62
     0
  6
CONTINUOUS
 10
2.790040
 20
2.092640
  0
VERTEX
  8
0
 62
     0
  6
CONTINUOUS
 10
2.779480
 20
2.104080
  0
VERTEX
  8
0
 62
     0
  6
CONTINUOUS
 10
2.767600
 20
2.109800
  0
VERTEX
  8
0
 62
     0
  6
CONTINUOUS
 10
2.757040
 20
2.111120
  0
VERTEX
  8
0
 62
     0
  6
CONTINUOUS
 10
2.716120
 20
2.111120
  0
VERTEX
  8
0
 62
     0
  6
CONTINUOUS
 10
2.716120
 20
2.099240
  0
VERTEX
  8
0
 62
     0
  6
CONTINUOUS
 10
2.761440
 20
2.098800
  0
VERTEX
  8
0
 62
     0
  6
CONTINUOUS
 10
2.761440
 20
2.098360
  0
VERTEX
  8
0
 62
     0
  6
CONTINUOUS
 10
2.767160
 20
2.097480
  0
VERTEX
  8
0
 62
     0
  6
CONTINUOUS
 10
2.776400
 20
2.089120
  0
VERTEX
  8
0
 62
     0
  6
CONTINUOUS
 10
2.782120
 20
2.077240
  0
VERTEX
  8
0
 62
     0
  6
CONTINUOUS
 10
2.783000
 20
2.057880
  0
VERTEX
  8
0
 62
     0
  6
CONTINUOUS
 10
2.782560
 20
2.057880
  0
VERTEX
  8
0
 62
     0
  6
CONTINUOUS
 10
2.781680
 20
2.047320
  0
VERTEX
  8
0
 62
     0
  6
CONTINUOUS
 10
2.781240
 20
2.047320
  0
VERTEX
  8
0
 62
     0
  6
CONTINUOUS
 10
2.777720
 20
2.037200
  0
VERTEX
  8
0
 62
     0
  6
CONTINUOUS
 10
2.768480
 20
2.028400
  0
VERTEX
  8
0
 62
     0
  6
CONTINUOUS
 10
2.760120
 20
2.025760
  0
VERTEX
  8
0
 62
     0
  6
CONTINUOUS
 10
2.729320
 20
2.025320
  0
VERTEX
  8
0
 62
     0
  6
CONTINUOUS
 10
2.729320
 20
2.099240
  0
VERTEX
  8
0
 62
     0
  6
CONTINUOUS
 10
2.716120
 20
2.099240
  0
SEQEND
  8
0
  0
POLYLINE
  8
0
 62
     0
  6
CONTINUOUS
 66
     1
 40
0.002200
 41
0.002200
  0
VERTEX
  8
0
 62
     0
  6
CONTINUOUS
 10
2.859120
 20
2.101440
  0
VERTEX
  8
0
 62
     0
  6
CONTINUOUS
 10
2.859120
 20
2.101000
  0
VERTEX
  8
0
 62
     0
  6
CONTINUOUS
 10
2.866160
 20
2.100120
  0
VERTEX
  8
0
 62
     0
  6
CONTINUOUS
 10
2.866160
 20
2.099680
  0
VERTEX
  8
0
 62
     0
  6
CONTINUOUS
 10
2.877160
 20
2.094400
  0
VERTEX
  8
0
 62
     0
  6
CONTINUOUS
 10
2.883320
 20
2.087360
  0
VERTEX
  8
0
 62
     0
  6
CONTINUOUS
 10
2.888600
 20
2.074160
  0
VERTEX
  8
0
 62
     0
  6
CONTINUOUS
 10
2.889480
 20
2.057440
  0
VERTEX
  8
0
 62
     0
  6
CONTINUOUS
 10
2.889040
 20
2.057440
  0
VERTEX
  8
0
 62
     0
  6
CONTINUOUS
 10
2.888160
 20
2.048640
  0
VERTEX
  8
0
 62
     0
  6
CONTINUOUS
 10
2.887720
 20
2.048640
  0
VERTEX
  8
0
 62
     0
  6
CONTINUOUS
 10
2.884200
 20
2.038960
  0
VERTEX
  8
0
 62
     0
  6
CONTINUOUS
 10
2.874520
 20
2.028840
  0
VERTEX
  8
0
 62
     0
  6
CONTINUOUS
 10
2.865720
 20
2.024440
  0
VERTEX
  8
0
 62
     0
  6
CONTINUOUS
 10
2.852520
 20
2.023560
  0
VERTEX
  8
0
 62
     0
  6
CONTINUOUS
 10
2.852520
 20
2.024000
  0
VERTEX
  8
0
 62
     0
  6
CONTINUOUS
 10
2.845480
 20
2.024880
  0
VERTEX
  8
0
 62
     0
  6
CONTINUOUS
 10
2.845480
 20
2.025320
  0
VERTEX
  8
0
 62
     0
  6
CONTINUOUS
 10
2.837120
 20
2.028840
  0
VERTEX
  8
0
 62
     0
  6
CONTINUOUS
 10
2.829200
 20
2.038080
  0
VERTEX
  8
0
 62
     0
  6
CONTINUOUS
 10
2.823920
 20
2.051280
  0
VERTEX
  8
0
 62
     0
  6
CONTINUOUS
 10
2.823920
 20
2.071960
  0
VERTEX
  8
0
 62
     0
  6
CONTINUOUS
 10
2.824360
 20
2.071960
  0
VERTEX
  8
0
 62
     0
  6
CONTINUOUS
 10
2.827440
 20
2.084280
  0
VERTEX
  8
0
 62
     0
  6
CONTINUOUS
 10
2.835360
 20
2.093960
  0
VERTEX
  8
0
 62
     0
  6
CONTINUOUS
 10
2.848560
 20
2.101000
  0
VERTEX
  8
0
 62
     0
  6
CONTINUOUS
 10
2.886400
 20
2.101440
  0
VERTEX
  8
0
 62
     0
  6
CONTINUOUS
 10
2.875400
 20
2.109360
  0
VERTEX
  8
0
 62
     0
  6
CONTINUOUS
 10
2.859560
 20
2.112880
  0
VERTEX
  8
0
 62
     0
  6
CONTINUOUS
 10
2.842840
 20
2.111120
  0
VERTEX
  8
0
 62
     0
  6
CONTINUOUS
 10
2.842840
 20
2.110680
  0
VERTEX
  8
0
 62
     0
  6
CONTINUOUS
 10
2.833600
 20
2.107160
  0
VERTEX
  8
0
 62
     0
  6
CONTINUOUS
 10
2.831840
 20
2.105840
  0
VERTEX
  8
0
 62
     0
  6
CONTINUOUS
 10
2.821720
 20
2.098360
  0
VERTEX
  8
0
 62
     0
  6
CONTINUOUS
 10
2.812920
 20
2.083400
  0
VERTEX
  8
0
 62
     0
  6
CONTINUOUS
 10
2.809840
 20
2.064040
  0
VERTEX
  8
0
 62
     0
  6
CONTINUOUS
 10
2.811600
 20
2.046440
  0
VERTEX
  8
0
 62
     0
  6
CONTINUOUS
 10
2.812040
 20
2.046440
  0
VERTEX
  8
0
 62
     0
  6
CONTINUOUS
 10
2.816440
 20
2.035000
  0
VERTEX
  8
0
 62
     0
  6
CONTINUOUS
 10
2.827000
 20
2.021800
  0
VERTEX
  8
0
 62
     0
  6
CONTINUOUS
 10
2.842840
 20
2.013440
  0
VERTEX
  8
0
 62
     0
  6
CONTINUOUS
 10
2.848560
 20
2.012120
  0
VERTEX
  8
0
 62
     0
  6
CONTINUOUS
 10
2.865280
 20
2.012560
  0
VERTEX
  8
0
 62
     0
  6
CONTINUOUS
 10
2.865280
 20
2.013000
  0
VERTEX
  8
0
 62
     0
  6
CONTINUOUS
 10
2.876720
 20
2.016080
  0
VERTEX
  8
0
 62
     0
  6
CONTINUOUS
 10
2.881120
 20
2.019160
  0
VERTEX
  8
0
 62
     0
  6
CONTINUOUS
 10
2.890800
 20
2.026200
  0
VERTEX
  8
0
 62
     0
  6
CONTINUOUS
 10
2.894320
 20
2.031480
  0
VERTEX
  8
0
 62
     0
  6
CONTINUOUS
 10
2.896960
 20
2.035440
  0
VERTEX
  8
0
 62
     0
  6
CONTINUOUS
 10
2.902240
 20
2.051720
  0
VERTEX
  8
0
 62
     0
  6
CONTINUOUS
 10
2.903120
 20
2.065360
  0
VERTEX
  8
0
 62
     0
  6
CONTINUOUS
 10
2.902680
 20
2.065360
  0
VERTEX
  8
0
 62
     0
  6
CONTINUOUS
 10
2.900920
 20
2.079880
  0
VERTEX
  8
0
 62
     0
  6
CONTINUOUS
 10
2.900480
 20
2.079880
  0
VERTEX
  8
0
 62
     0
  6
CONTINUOUS
 10
2.896520
 20
2.090440
  0
VERTEX
  8
0
 62
     0
  6
CONTINUOUS
 10
2.886840
 20
2.101440
  0
VERTEX
  8
0
 62
     0
  6
CONTINUOUS
 10
2.859120
 20
2.101440
  0
SEQEND
  8
0
  0
POLYLINE
  8
0
 62
     0
  6
CONTINUOUS
 66
     1
 40
0.014080
 41
0.014080
  0
VERTEX
  8
0
 62
     0
  6
CONTINUOUS
 10
2.352680
 20
2.147200
  0
VERTEX
  8
0
 62
     0
  6
CONTINUOUS
 10
2.636480
 20
2.147200
  0
VERTEX
  8
0
 62
     0
  6
CONTINUOUS
 10
2.636480
 20
1.954480
  0
VERTEX
  8
0
 62
     0
  6
CONTINUOUS
 10
2.352680
 20
1.954480
  0
VERTEX
  8
0
 62
     0
  6
CONTINUOUS
 10
2.352680
 20
2.147200
  0
SEQEND
  8
0
  0
POLYLINE
  8
0
 62
     0
  6
CONTINUOUS
 66
     1
 40
0.014080
 41
0.014080
  0
VERTEX
  8
0
 62
     0
  6
CONTINUOUS
 10
2.675200
 20
2.147200
  0
VERTEX
  8
0
 62
     0
  6
CONTINUOUS
 10
2.959000
 20
2.147200
  0
VERTEX
  8
0
 62
     0
  6
CONTINUOUS
 10
2.959000
 20
1.954480
  0
VERTEX
  8
0
 62
     0
  6
CONTINUOUS
 10
2.675200
 20
1.954480
  0
VERTEX
  8
0
 62
     0
  6
CONTINUOUS
 10
2.675200
 20
2.147200
  0
SEQEND
  8
0
  0
ENDSEC
  0
EOF
